0
SECTION
2
HEADER
9
$MEASUREMENT
70
1
0
ENDSEC
0
SECTION
2
TABLES
0
TABLE
2
LTYPE
0
LTYPE
72
65
70
64
2
CONTINUOUS
3
______
73
0
40
0
0
ENDTAB
0
TABLE
2
LAYER
0
LAYER
2
DEFAULT_255_2_778
70
0
62
255
6
CONTINUOUS
0
LAYER
2
DEFAULT_255_1_234
70
0
62
255
6
CONTINUOUS
0
ENDTAB
0
ENDSEC
0
SECTION
2
ENTITIES
0
ARC
8
DEFAULT_255_2_778
10
3.5695693
20
67.8676531
40
0.7914215
50
129.1312896
51
180.1450914
0
ARC
8
DEFAULT_255_2_778
10
3.5698345
20
67.8681402
40
0.7912112
50
89.854026
51
129.1684493
0
ARC
8
DEFAULT_255_2_778
10
25.7988937
20
67.8678268
40
0.7915249
50
39.4792447
51
90.147911
0
ARC
8
DEFAULT_255_2_778
10
25.7994935
20
67.8676734
40
0.7911595
50
359.8533901
51
39.5154338
0
ARC
8
DEFAULT_255_2_778
10
25.7991693
20
-1.9863991
40
0.7914836
50
309.4761667
51
0.1482649
0
ARC
8
DEFAULT_255_2_778
10
25.798898
20
-1.9868302
40
0.7913235
50
269.8517415
51
309.511178
0
ARC
8
DEFAULT_255_2_778
10
3.569842
20
-1.986772
40
0.7913815
50
219.1282118
51
270.1454017
0
ARC
8
DEFAULT_255_2_778
10
3.5695247
20
-1.9863896
40
0.7913769
50
179.8524075
51
219.1641908
0
LINE
8
DEFAULT_255_2_778
10
3.5718503
20
68.659349
11
25.7968503
21
68.659349
0
LINE
8
DEFAULT_255_2_778
10
26.5906503
20
67.865649
11
26.5906503
21
-1.984351
0
LINE
8
DEFAULT_255_2_778
10
25.7968503
20
-2.778151
11
3.5718503
21
-2.778151
0
LINE
8
DEFAULT_255_2_778
10
2.7781503
20
-1.984351
11
2.7781503
21
67.865649
0
LINE
8
DEFAULT_255_1_234
10
6.6743835
20
0.5189243
11
6.7008882
21
0.5189243
0
LINE
8
DEFAULT_255_1_234
10
6.7008882
20
0.5189243
11
6.7008882
21
0.392826
0
LINE
8
DEFAULT_255_1_234
10
6.7008882
20
0.392826
11
6.6735803
21
0.392826
0
LINE
8
DEFAULT_255_1_234
10
6.1266189
20
-0.2063417
11
6.1266189
21
-0.1493164
0
LINE
8
DEFAULT_255_1_234
10
6.2760093
20
-0.1685925
11
6.2760093
21
-0.2232083
0
ARC
8
DEFAULT_255_1_234
10
6.6788151
20
-0.1069545
40
0.4998079
50
90.6001036
51
104.514704
0
ARC
8
DEFAULT_255_1_234
10
6.6399667
20
0.0375131
40
0.3502176
50
104.2855254
51
133.862935
0
ARC
8
DEFAULT_255_1_234
10
6.6563424
20
0.026683
40
0.3693984
50
134.5302688
51
161.6210873
0
ARC
8
DEFAULT_255_1_234
10
6.8216613
20
-0.0316105
40
0.5446739
50
161.2849839
51
174.2076652
0
ARC
8
DEFAULT_255_1_234
10
6.962355
20
-0.0510213
40
0.6866274
50
173.7810589
51
174.9254635
0
ARC
8
DEFAULT_255_1_234
10
6.5073382
20
-0.1893161
40
0.3033419
50
95.8330959
51
138.9954921
0
ARC
8
DEFAULT_255_1_234
10
6.5296738
20
-0.3171625
40
0.4328947
50
89.8753725
51
97.0544009
0
ARC
8
DEFAULT_255_1_234
10
6.5344204
20
-0.2336252
40
0.3493769
50
71.6407809
51
90.6240094
0
ARC
8
DEFAULT_255_1_234
10
6.5494777
20
-0.1781918
40
0.2920396
50
39.6367836
51
71.019018
0
ARC
8
DEFAULT_255_1_234
10
6.485825
20
-0.2332002
40
0.3761538
50
10.658731
51
39.9043955
0
ARC
8
DEFAULT_255_1_234
10
6.3310333
20
-0.2668314
40
0.5345136
50
359.682601
51
11.132623
0
ARC
8
DEFAULT_255_1_234
10
6.3270464
20
-0.273899
40
0.5385081
50
347.2486944
51
0.4369317
0
ARC
8
DEFAULT_255_1_234
10
6.4937941
20
-0.3140193
40
0.3670249
50
318.1409698
51
347.6118597
0
ARC
8
DEFAULT_255_1_234
10
6.5262934
20
-0.3407298
40
0.3250007
50
275.6342139
51
317.8248465
0
ARC
8
DEFAULT_255_1_234
10
6.5042045
20
-0.2107781
40
0.4565864
50
269.8874292
51
276.7917694
0
ARC
8
DEFAULT_255_1_234
10
6.4987116
20
-0.3133257
40
0.3540676
50
246.9140195
51
270.7437342
0
ARC
8
DEFAULT_255_1_234
10
6.4993506
20
-0.3275616
40
0.3412781
50
218.1665114
51
245.878116
0
ARC
8
DEFAULT_255_1_234
10
6.5872967
20
-0.2539721
40
0.455911
50
191.4115814
51
218.6077802
0
ARC
8
DEFAULT_255_1_234
10
6.7811056
20
-0.2105167
40
0.6545001
50
179.6345085
51
191.7836486
0
ARC
8
DEFAULT_255_1_234
10
7.3393393
20
-0.1426303
40
1.2127388
50
171.4525249
51
180.3158839
0
ARC
8
DEFAULT_255_1_234
10
6.8998269
20
-0.0742392
40
0.7679464
50
157.9802646
51
171.6246686
0
ARC
8
DEFAULT_255_1_234
10
6.678429
20
0.0140421
40
0.5296008
50
141.4298019
51
157.854097
0
ARC
8
DEFAULT_255_1_234
10
6.614261
20
0.0594381
40
0.4511509
50
102.8715806
51
140.8564722
0
ARC
8
DEFAULT_255_1_234
10
6.6790226
20
-0.1845448
40
0.7034845
50
90.3778349
51
103.5869322
0
ARC
8
DEFAULT_255_1_234
10
6.5052002
20
-0.245027
40
0.2370698
50
89.8751008
51
126.2071704
0
ARC
8
DEFAULT_255_1_234
10
6.5097792
20
-0.2604697
40
0.2522934
50
124.9745049
51
144.895901
0
ARC
8
DEFAULT_255_1_234
10
6.4921982
20
-0.246144
40
0.2296779
50
145.2974905
51
160.2660252
0
ARC
8
DEFAULT_255_1_234
10
6.7994521
20
-0.2263929
40
0.5234525
50
179.6514266
51
190.2855912
0
ARC
8
DEFAULT_255_1_234
10
6.6300658
20
-0.2583214
40
0.3510893
50
190.0945431
51
207.5098196
0
ARC
8
DEFAULT_255_1_234
10
6.5734928
20
-0.2852377
40
0.288489
50
207.9583163
51
216.3251085
0
ARC
8
DEFAULT_255_1_234
10
6.5395036
20
-0.3131895
40
0.2445587
50
215.7661442
51
232.5456785
0
ARC
8
DEFAULT_255_1_234
10
6.5012019
20
-0.3618518
40
0.1826382
50
232.8005391
51
270.6605633
0
ARC
8
DEFAULT_255_1_234
10
6.505772
20
-0.3254388
40
0.2190529
50
269.35537
51
288.4744281
0
ARC
8
DEFAULT_255_1_234
10
6.5150617
20
-0.3603882
40
0.1829749
50
289.1833337
51
322.9683818
0
ARC
8
DEFAULT_255_1_234
10
6.4539139
20
-0.3121609
40
0.2608399
50
322.6007884
51
346.5182367
0
ARC
8
DEFAULT_255_1_234
10
6.3381735
20
-0.2826384
40
0.3802777
50
346.2582162
51
358.7741648
0
ARC
8
DEFAULT_255_1_234
10
6.2363404
20
-0.2771035
40
0.4822176
50
358.3755224
51
0.0098023
0
ARC
8
DEFAULT_255_1_234
10
6.3119591
20
-0.2743343
40
0.4066078
50
359.6214041
51
11.2839074
0
ARC
8
DEFAULT_255_1_234
10
6.4396738
20
-0.2476934
40
0.2761514
50
11.0482309
51
31.8146458
0
ARC
8
DEFAULT_255_1_234
10
6.4705781
20
-0.2309416
40
0.2410679
50
32.3035391
51
38.082671
0
ARC
8
DEFAULT_255_1_234
10
6.5126441
20
-0.1928338
40
0.1844966
50
36.825067
51
85.7415724
0
ARC
8
DEFAULT_255_1_234
10
6.5059274
20
-0.2428699
40
0.2349122
50
85.0140713
51
90.0513278
0
LINE
8
DEFAULT_255_1_234
10
7.7409983
20
0.0153343
11
7.7409983
21
-0.110764
0
LINE
8
DEFAULT_255_1_234
10
7.7409983
20
-0.110764
11
7.2341957
21
-0.110764
0
LINE
8
DEFAULT_255_1_234
10
7.2341957
20
-0.110764
11
7.2341957
21
-0.5252017
0
LINE
8
DEFAULT_255_1_234
10
7.2341957
20
-0.5252017
11
7.8229221
21
-0.5252017
0
LINE
8
DEFAULT_255_1_234
10
7.8229221
20
-0.5252017
11
7.8229221
21
-0.6513
0
LINE
8
DEFAULT_255_1_234
10
7.8229221
20
-0.6513
11
7.0799863
21
-0.6513
0
LINE
8
DEFAULT_255_1_234
10
7.0799863
20
-0.6513
11
7.0799863
21
0.5181211
0
LINE
8
DEFAULT_255_1_234
10
7.0799863
20
0.5181211
11
7.8148903
21
0.5181211
0
LINE
8
DEFAULT_255_1_234
10
7.8148903
20
0.5181211
11
7.8148903
21
0.3912196
0
LINE
8
DEFAULT_255_1_234
10
7.8148903
20
0.3912196
11
7.2341957
21
0.3912196
0
LINE
8
DEFAULT_255_1_234
10
7.2341957
20
0.3912196
11
7.2341957
21
0.0153343
0
LINE
8
DEFAULT_255_1_234
10
7.2341957
20
0.0153343
11
7.7409983
21
0.0153343
0
LINE
8
DEFAULT_255_1_234
10
8.7907465
20
0.1799849
11
8.635734
21
0.1799849
0
LINE
8
DEFAULT_255_1_234
10
7.9433981
20
-0.3123606
11
8.0984107
21
-0.3123606
0
ARC
8
DEFAULT_255_1_234
10
8.7016153
20
1.0746768
40
1.252368
50
248.9199003
51
254.1439814
0
ARC
8
DEFAULT_255_1_234
10
8.5335648
20
0.6420234
40
0.788226
50
241.633709
51
249.0064503
0
ARC
8
DEFAULT_255_1_234
10
8.3807042
20
0.3619317
40
0.4691427
50
230.498225
51
241.8087113
0
ARC
8
DEFAULT_255_1_234
10
8.3022616
20
0.2619906
40
0.3421437
50
227.4064532
51
229.9881192
0
ARC
8
DEFAULT_255_1_234
10
8.2535137
20
0.2144088
40
0.2741476
50
200.6781896
51
228.1763934
0
ARC
8
DEFAULT_255_1_234
10
8.2607447
20
0.2129077
40
0.2804109
50
179.5061581
51
199.8694617
0
ARC
8
DEFAULT_255_1_234
10
8.2598199
20
0.220321
40
0.2795204
50
132.4834203
51
181.0242172
0
ARC
8
DEFAULT_255_1_234
10
8.3193782
20
0.1640704
40
0.3612768
50
129.2532479
51
133.4242687
0
ARC
8
DEFAULT_255_1_234
10
8.3340231
20
0.1420965
40
0.3875675
50
101.98776
51
128.8742646
0
ARC
8
DEFAULT_255_1_234
10
8.3738842
20
-0.0300259
40
0.5642249
50
89.5906553
51
102.3169264
0
ARC
8
DEFAULT_255_1_234
10
8.3809334
20
0.0018148
40
0.5323783
50
77.2360837
51
90.3248275
0
ARC
8
DEFAULT_255_1_234
10
8.4016413
20
0.09854
40
0.4334697
50
63.837784
51
77.0809408
0
ARC
8
DEFAULT_255_1_234
10
8.4294175
20
0.1502911
40
0.3747796
50
45.9864267
51
64.1607727
0
ARC
8
DEFAULT_255_1_234
10
8.4555056
20
0.1800866
40
0.3352302
50
32.2747395
51
45.6547121
0
ARC
8
DEFAULT_255_1_234
10
8.4621497
20
0.181988
40
0.328603
50
359.6507365
51
32.6130309
0
ARC
8
DEFAULT_255_1_234
10
8.3678592
20
0.182466
40
0.2678863
50
359.469343
51
14.9832209
0
ARC
8
DEFAULT_255_1_234
10
8.4383654
20
0.2013539
40
0.1948938
50
14.9781179
51
48.2004265
0
ARC
8
DEFAULT_255_1_234
10
8.4219299
20
0.1806983
40
0.2212521
50
48.5927837
51
74.1241538
0
ARC
8
DEFAULT_255_1_234
10
8.3885788
20
0.0706248
40
0.3362561
50
73.7888341
51
86.6652678
0
ARC
8
DEFAULT_255_1_234
10
8.3783354
20
-0.0501119
40
0.4573953
50
86.2640471
51
90.0526343
0
ARC
8
DEFAULT_255_1_234
10
8.3755066
20
-0.0105808
40
0.4178709
50
89.6697524
51
99.2309573
0
ARC
8
DEFAULT_255_1_234
10
8.3512517
20
0.1338964
40
0.2713749
50
99.069534
51
113.7658566
0
ARC
8
DEFAULT_255_1_234
10
8.3238708
20
0.1984677
40
0.2012469
50
114.0401004
51
127.9850673
0
ARC
8
DEFAULT_255_1_234
10
8.2998272
20
0.228073
40
0.1631167
50
127.7287463
51
176.7105154
0
ARC
8
DEFAULT_255_1_234
10
8.367699
20
0.2179693
40
0.2315392
50
175.1779447
51
180.0581938
0
ARC
8
DEFAULT_255_1_234
10
8.2833836
20
0.2167428
40
0.1472271
50
179.6142195
51
228.1246017
0
ARC
8
DEFAULT_255_1_234
10
8.3275505
20
0.2576308
40
0.2072299
50
226.5779593
51
230.8800004
0
ARC
8
DEFAULT_255_1_234
10
8.3746584
20
0.3201636
40
0.2854818
50
231.4635071
51
241.9260842
0
ARC
8
DEFAULT_255_1_234
10
8.4943762
20
0.54048
40
0.53622
50
241.7178533
51
248.3259551
0
ARC
8
DEFAULT_255_1_234
10
8.6329134
20
0.8837064
40
0.9063478
50
248.2007737
51
252.4528373
0
ARC
8
DEFAULT_255_1_234
10
8.7532858
20
1.2558441
40
1.2974635
50
252.3391078
51
254.3469452
0
ARC
8
DEFAULT_255_1_234
10
7.9990561
20
-1.4418852
40
1.5037162
50
71.0197183
51
74.4087047
0
ARC
8
DEFAULT_255_1_234
10
8.1685246
20
-0.9526889
40
0.9859993
50
66.1847285
51
71.086374
0
ARC
8
DEFAULT_255_1_234
10
8.3241559
20
-0.60228
40
0.6025855
50
59.3536294
51
66.2691831
0
ARC
8
DEFAULT_255_1_234
10
8.4130211
20
-0.4519391
40
0.4279449
50
49.1020879
51
59.3293958
0
ARC
8
DEFAULT_255_1_234
10
8.4948951
20
-0.3586166
40
0.3038015
50
32.7919921
51
49.2505539
0
ARC
8
DEFAULT_255_1_234
10
8.5270041
20
-0.3357809
40
0.264448
50
31.1181161
51
32.4005348
0
ARC
8
DEFAULT_255_1_234
10
8.5181579
20
-0.3393221
40
0.2738556
50
8.1116974
51
30.7958831
0
ARC
8
DEFAULT_255_1_234
10
8.4371247
20
-0.3531247
40
0.3560327
50
359.8389159
51
8.4706516
0
ARC
8
DEFAULT_255_1_234
10
8.4997038
20
-0.3579863
40
0.2934776
50
337.4731098
51
0.7537279
0
ARC
8
DEFAULT_255_1_234
10
8.5175733
20
-0.3599613
40
0.2762607
50
307.5917067
51
336.4315538
0
ARC
8
DEFAULT_255_1_234
10
8.4715561
20
-0.3086898
40
0.3449979
50
307.6551545
51
308.4529766
0
ARC
8
DEFAULT_255_1_234
10
8.448528
20
-0.273175
40
0.3871988
50
284.3734338
51
307.1424381
0
ARC
8
DEFAULT_255_1_234
10
8.399011
20
-0.0910068
40
0.5759636
50
272.4382747
51
284.646547
0
ARC
8
DEFAULT_255_1_234
10
8.3863319
20
0.0889893
40
0.7563528
50
269.9708387
51
272.8178037
0
ARC
8
DEFAULT_255_1_234
10
8.3820358
20
-0.1148284
40
0.5525489
50
248.2707594
51
270.4055579
0
ARC
8
DEFAULT_255_1_234
10
8.37661
20
-0.1338808
40
0.5328452
50
246.1383403
51
248.0542782
0
ARC
8
DEFAULT_255_1_234
10
8.3347478
20
-0.2218157
40
0.4355005
50
233.1670131
51
246.4950969
0
ARC
8
DEFAULT_255_1_234
10
8.2793383
20
-0.2966188
40
0.3424126
50
215.3403242
51
233.0843104
0
ARC
8
DEFAULT_255_1_234
10
8.2520815
20
-0.3164451
40
0.3087104
50
179.2419209
51
215.2648451
0
ARC
8
DEFAULT_255_1_234
10
8.3288409
20
-0.3150334
40
0.2304457
50
179.335461
51
199.1045811
0
ARC
8
DEFAULT_255_1_234
10
8.2956085
20
-0.3237234
40
0.1962176
50
199.8828939
51
232.7063202
0
ARC
8
DEFAULT_255_1_234
10
8.3428353
20
-0.2643212
40
0.2720938
50
232.3738199
51
255.5136649
0
ARC
8
DEFAULT_255_1_234
10
8.376922
20
-0.1399165
40
0.4010747
50
255.2446292
51
267.5320849
0
ARC
8
DEFAULT_255_1_234
10
8.3856843
20
-0.0166298
40
0.5246356
50
267.1557994
51
270.0286766
0
ARC
8
DEFAULT_255_1_234
10
8.3884616
20
-0.061005
40
0.4802668
50
269.7000017
51
278.1660162
0
ARC
8
DEFAULT_255_1_234
10
8.414062
20
-0.2340485
40
0.3053425
50
278.0231263
51
290.625471
0
ARC
8
DEFAULT_255_1_234
10
8.4488308
20
-0.3267975
40
0.206291
50
290.6619762
51
307.0370976
0
ARC
8
DEFAULT_255_1_234
10
8.4788697
20
-0.3636496
40
0.1587906
50
306.3943566
51
355.3030547
0
ARC
8
DEFAULT_255_1_234
10
8.4276628
20
-0.3559887
40
0.2104809
50
354.3660432
51
0.0698737
0
ARC
8
DEFAULT_255_1_234
10
8.4418973
20
-0.3537383
40
0.1962563
50
359.417946
51
16.1971788
0
ARC
8
DEFAULT_255_1_234
10
8.4874284
20
-0.3412582
40
0.149053
50
16.4723299
51
52.6262157
0
ARC
8
DEFAULT_255_1_234
10
8.4053338
20
-0.4496567
40
0.2850296
50
52.7386432
51
62.4979148
0
ARC
8
DEFAULT_255_1_234
10
8.2668415
20
-0.7102717
40
0.5801521
50
62.2515216
51
68.1220564
0
ARC
8
DEFAULT_255_1_234
10
8.0948325
20
-1.1330128
40
1.0365451
50
68.0062803
51
71.8053402
0
ARC
8
DEFAULT_255_1_234
10
7.9152697
20
-1.6715242
40
1.6042013
50
71.7183119
51
73.9258742
0
LINE
8
DEFAULT_255_1_234
10
9.7071679
20
0.5181211
11
9.7071679
21
0.434591
0
LINE
8
DEFAULT_255_1_234
10
9.7071679
20
0.434591
11
9.2228541
21
-0.6513
0
LINE
8
DEFAULT_255_1_234
10
9.2228541
20
-0.6513
11
9.0670383
21
-0.6513
0
LINE
8
DEFAULT_255_1_234
10
9.0670383
20
-0.6513
11
9.5497458
21
0.3960387
0
LINE
8
DEFAULT_255_1_234
10
9.5497458
20
0.3960387
11
8.9168448
21
0.3960387
0
LINE
8
DEFAULT_255_1_234
10
8.9168448
20
0.3960387
11
8.9168448
21
0.5181211
0
LINE
8
DEFAULT_255_1_234
10
8.9168448
20
0.5181211
11
9.7071679
21
0.5181211
0
LINE
8
DEFAULT_255_1_234
10
10.4324338
20
0.5189243
11
10.4589386
21
0.5189243
0
LINE
8
DEFAULT_255_1_234
10
10.4589386
20
0.5189243
11
10.4589386
21
0.392826
0
LINE
8
DEFAULT_255_1_234
10
10.4589386
20
0.392826
11
10.4316307
21
0.392826
0
LINE
8
DEFAULT_255_1_234
10
9.8846693
20
-0.2063417
11
9.8846693
21
-0.1493164
0
LINE
8
DEFAULT_255_1_234
10
10.0340596
20
-0.1685925
11
10.0340596
21
-0.2232083
0
ARC
8
DEFAULT_255_1_234
10
10.4368654
20
-0.1069545
40
0.4998079
50
90.6001036
51
104.514704
0
ARC
8
DEFAULT_255_1_234
10
10.398017
20
0.0375131
40
0.3502176
50
104.2855254
51
133.862935
0
ARC
8
DEFAULT_255_1_234
10
10.4143927
20
0.026683
40
0.3693984
50
134.5302688
51
161.6210873
0
ARC
8
DEFAULT_255_1_234
10
10.5797116
20
-0.0316105
40
0.5446739
50
161.2849839
51
174.2076652
0
ARC
8
DEFAULT_255_1_234
10
10.7204053
20
-0.0510213
40
0.6866274
50
173.7810589
51
174.9254635
0
ARC
8
DEFAULT_255_1_234
10
10.2653885
20
-0.1893161
40
0.3033419
50
95.8330959
51
138.9954921
0
ARC
8
DEFAULT_255_1_234
10
10.2877241
20
-0.3171625
40
0.4328947
50
89.8753725
51
97.0544009
0
ARC
8
DEFAULT_255_1_234
10
10.2924707
20
-0.2336252
40
0.3493769
50
71.6407809
51
90.6240094
0
ARC
8
DEFAULT_255_1_234
10
10.3075281
20
-0.1781918
40
0.2920396
50
39.6367836
51
71.019018
0
ARC
8
DEFAULT_255_1_234
10
10.2438754
20
-0.2332002
40
0.3761538
50
10.658731
51
39.9043955
0
ARC
8
DEFAULT_255_1_234
10
10.0890837
20
-0.2668314
40
0.5345136
50
359.682601
51
11.132623
0
ARC
8
DEFAULT_255_1_234
10
10.0850967
20
-0.273899
40
0.5385081
50
347.2486944
51
0.4369317
0
ARC
8
DEFAULT_255_1_234
10
10.2518444
20
-0.3140193
40
0.3670249
50
318.1409698
51
347.6118597
0
ARC
8
DEFAULT_255_1_234
10
10.2843437
20
-0.3407298
40
0.3250007
50
275.6342139
51
317.8248465
0
ARC
8
DEFAULT_255_1_234
10
10.2622549
20
-0.2107781
40
0.4565864
50
269.8874292
51
276.7917694
0
ARC
8
DEFAULT_255_1_234
10
10.2567619
20
-0.3133257
40
0.3540676
50
246.9140195
51
270.7437342
0
ARC
8
DEFAULT_255_1_234
10
10.257401
20
-0.3275616
40
0.3412781
50
218.1665114
51
245.878116
0
ARC
8
DEFAULT_255_1_234
10
10.345347
20
-0.2539721
40
0.455911
50
191.4115814
51
218.6077802
0
ARC
8
DEFAULT_255_1_234
10
10.539156
20
-0.2105167
40
0.6545001
50
179.6345085
51
191.7836486
0
ARC
8
DEFAULT_255_1_234
10
11.0973896
20
-0.1426303
40
1.2127388
50
171.4525249
51
180.3158839
0
ARC
8
DEFAULT_255_1_234
10
10.6578772
20
-0.0742392
40
0.7679464
50
157.9802646
51
171.6246686
0
ARC
8
DEFAULT_255_1_234
10
10.4364793
20
0.0140421
40
0.5296008
50
141.4298019
51
157.854097
0
ARC
8
DEFAULT_255_1_234
10
10.3723114
20
0.0594381
40
0.4511509
50
102.8715806
51
140.8564722
0
ARC
8
DEFAULT_255_1_234
10
10.4370729
20
-0.1845448
40
0.7034845
50
90.3778349
51
103.5869322
0
ARC
8
DEFAULT_255_1_234
10
10.2632505
20
-0.245027
40
0.2370698
50
89.8751008
51
126.2071704
0
ARC
8
DEFAULT_255_1_234
10
10.2678295
20
-0.2604697
40
0.2522934
50
124.9745049
51
144.895901
0
ARC
8
DEFAULT_255_1_234
10
10.2502486
20
-0.246144
40
0.2296779
50
145.2974905
51
160.2660252
0
ARC
8
DEFAULT_255_1_234
10
10.5575025
20
-0.2263929
40
0.5234525
50
179.6514266
51
190.2855912
0
ARC
8
DEFAULT_255_1_234
10
10.3881162
20
-0.2583214
40
0.3510893
50
190.0945431
51
207.5098196
0
ARC
8
DEFAULT_255_1_234
10
10.3315432
20
-0.2852377
40
0.288489
50
207.9583163
51
216.3251085
0
ARC
8
DEFAULT_255_1_234
10
10.2975539
20
-0.3131895
40
0.2445587
50
215.7661442
51
232.5456785
0
ARC
8
DEFAULT_255_1_234
10
10.2592522
20
-0.3618518
40
0.1826382
50
232.8005391
51
270.6605633
0
ARC
8
DEFAULT_255_1_234
10
10.2638223
20
-0.3254388
40
0.2190529
50
269.35537
51
288.4744281
0
ARC
8
DEFAULT_255_1_234
10
10.273112
20
-0.3603882
40
0.1829749
50
289.1833337
51
322.9683818
0
ARC
8
DEFAULT_255_1_234
10
10.2119643
20
-0.3121609
40
0.2608399
50
322.6007884
51
346.5182367
0
ARC
8
DEFAULT_255_1_234
10
10.0962239
20
-0.2826384
40
0.3802777
50
346.2582162
51
358.7741648
0
ARC
8
DEFAULT_255_1_234
10
9.9943907
20
-0.2771035
40
0.4822176
50
358.3755224
51
0.0098023
0
ARC
8
DEFAULT_255_1_234
10
10.0700095
20
-0.2743343
40
0.4066078
50
359.6214041
51
11.2839074
0
ARC
8
DEFAULT_255_1_234
10
10.1977241
20
-0.2476934
40
0.2761514
50
11.0482309
51
31.8146458
0
ARC
8
DEFAULT_255_1_234
10
10.2286284
20
-0.2309416
40
0.2410679
50
32.3035391
51
38.082671
0
ARC
8
DEFAULT_255_1_234
10
10.2706944
20
-0.1928338
40
0.1844966
50
36.825067
51
85.7415724
0
ARC
8
DEFAULT_255_1_234
10
10.2639778
20
-0.2428699
40
0.2349122
50
85.0140713
51
90.0513278
0
LINE
8
DEFAULT_255_1_234
10
11.5544677
20
0.5181211
11
11.5544677
21
0.434591
0
LINE
8
DEFAULT_255_1_234
10
11.5544677
20
0.434591
11
11.0701539
21
-0.6513
0
LINE
8
DEFAULT_255_1_234
10
11.0701539
20
-0.6513
11
10.9143381
21
-0.6513
0
LINE
8
DEFAULT_255_1_234
10
10.9143381
20
-0.6513
11
11.3970456
21
0.3960387
0
LINE
8
DEFAULT_255_1_234
10
11.3970456
20
0.3960387
11
10.7641446
21
0.3960387
0
LINE
8
DEFAULT_255_1_234
10
10.7641446
20
0.3960387
11
10.7641446
21
0.5181211
0
LINE
8
DEFAULT_255_1_234
10
10.7641446
20
0.5181211
11
11.5544677
21
0.5181211
0
LINE
8
DEFAULT_255_1_234
10
12.4781176
20
0.5181211
11
12.4781176
21
0.434591
0
LINE
8
DEFAULT_255_1_234
10
12.4781176
20
0.434591
11
11.9938038
21
-0.6513
0
LINE
8
DEFAULT_255_1_234
10
11.9938038
20
-0.6513
11
11.837988
21
-0.6513
0
LINE
8
DEFAULT_255_1_234
10
11.837988
20
-0.6513
11
12.3206955
21
0.3960387
0
LINE
8
DEFAULT_255_1_234
10
12.3206955
20
0.3960387
11
11.6877945
21
0.3960387
0
LINE
8
DEFAULT_255_1_234
10
11.6877945
20
0.3960387
11
11.6877945
21
0.5181211
0
LINE
8
DEFAULT_255_1_234
10
11.6877945
20
0.5181211
11
12.4781176
21
0.5181211
0
LINE
8
DEFAULT_255_1_234
10
12.9712663
20
-0.0938974
11
12.9712663
21
-0.2151766
0
LINE
8
DEFAULT_255_1_234
10
12.9712663
20
-0.2151766
11
12.5793175
21
-0.2151766
0
LINE
8
DEFAULT_255_1_234
10
12.5793175
20
-0.2151766
11
12.5793175
21
-0.0938974
0
LINE
8
DEFAULT_255_1_234
10
12.5793175
20
-0.0938974
11
12.9712663
21
-0.0938974
0
LINE
8
DEFAULT_255_1_234
10
13.8668051
20
-0.5300208
11
13.8668051
21
-0.6513
0
LINE
8
DEFAULT_255_1_234
10
13.8668051
20
-0.6513
11
13.1005773
21
-0.6513
0
LINE
8
DEFAULT_255_1_234
10
13.1005773
20
-0.6513
11
13.1005773
21
-0.5444779
0
LINE
8
DEFAULT_255_1_234
10
13.1005773
20
-0.5444779
11
13.5053769
21
-0.0947005
0
LINE
8
DEFAULT_255_1_234
10
13.2266756
20
0.1735595
11
13.0780884
21
0.1735595
0
LINE
8
DEFAULT_255_1_234
10
13.5929229
20
-0.1902782
11
13.2796851
21
-0.5300208
0
LINE
8
DEFAULT_255_1_234
10
13.2796851
20
-0.5300208
11
13.8668051
21
-0.5300208
0
ARC
8
DEFAULT_255_1_234
10
12.1563602
20
1.0982527
40
1.8008286
50
318.5132453
51
320.7828378
0
ARC
8
DEFAULT_255_1_234
10
12.6850577
20
0.6679426
40
1.1191493
50
320.7372736
51
323.9737074
0
ARC
8
DEFAULT_255_1_234
10
13.0770433
20
0.3839361
40
0.6350923
50
323.8961724
51
328.6421089
0
ARC
8
DEFAULT_255_1_234
10
13.2817029
20
0.2577031
40
0.3946393
50
328.8299013
51
331.789948
0
ARC
8
DEFAULT_255_1_234
10
13.3814207
20
0.2062509
40
0.2824501
50
331.4255242
51
352.9364833
0
ARC
8
DEFAULT_255_1_234
10
13.3950708
20
0.2031976
40
0.2685315
50
353.2248685
51
0.0169286
0
ARC
8
DEFAULT_255_1_234
10
13.4160584
20
0.205495
40
0.2475536
50
359.4866256
51
15.9339782
0
ARC
8
DEFAULT_255_1_234
10
13.466757
20
0.2191286
40
0.1950618
50
16.1714718
51
43.5284424
0
ARC
8
DEFAULT_255_1_234
10
13.4744878
20
0.2268573
40
0.184134
50
43.4415429
51
83.1661404
0
ARC
8
DEFAULT_255_1_234
10
13.4610797
20
0.1531771
40
0.258926
50
82.160215
51
90.1505798
0
ARC
8
DEFAULT_255_1_234
10
13.4579224
20
0.0994865
40
0.3126255
50
89.5460705
51
102.5418777
0
ARC
8
DEFAULT_255_1_234
10
13.433631
20
0.2025665
40
0.2067346
50
102.1739365
51
129.2061916
0
ARC
8
DEFAULT_255_1_234
10
13.4257382
20
0.2150094
40
0.1921118
50
129.7279328
51
135.7542026
0
ARC
8
DEFAULT_255_1_234
10
13.4378909
20
0.2053045
40
0.2075944
50
136.175737
51
166.3674722
0
ARC
8
DEFAULT_255_1_234
10
13.5385829
20
0.1783182
40
0.3118201
50
165.9092917
51
178.8683903
0
ARC
8
DEFAULT_255_1_234
10
13.625069
20
0.1736179
40
0.3983935
50
178.438168
51
180.0083905
0
ARC
8
DEFAULT_255_1_234
10
13.4849292
20
0.1775231
40
0.4068601
50
163.2878735
51
180.5581814
0
ARC
8
DEFAULT_255_1_234
10
13.4047553
20
0.199584
40
0.3237344
50
133.454115
51
162.9470031
0
ARC
8
DEFAULT_255_1_234
10
13.4226095
20
0.1806
40
0.349795
50
100.7869394
51
133.4384016
0
ARC
8
DEFAULT_255_1_234
10
13.4573866
20
0.0257319
40
0.5084616
50
89.6605301
51
101.3704185
0
ARC
8
DEFAULT_255_1_234
10
13.4640205
20
0.0318496
40
0.502348
50
78.2171172
51
90.4130393
0
ARC
8
DEFAULT_255_1_234
10
13.4995283
20
0.1942637
40
0.3361092
50
55.9268222
51
78.4888551
0
ARC
8
DEFAULT_255_1_234
10
13.5191724
20
0.2281324
40
0.2970617
50
47.9292255
51
55.4054003
0
ARC
8
DEFAULT_255_1_234
10
13.5293284
20
0.2384502
40
0.2825983
50
4.3347696
51
48.0560701
0
ARC
8
DEFAULT_255_1_234
10
13.4197678
20
0.2214601
40
0.393225
50
359.925209
51
5.5967654
0
ARC
8
DEFAULT_255_1_234
10
13.462657
20
0.2270816
40
0.3503892
50
337.8914096
51
358.9967724
0
ARC
8
DEFAULT_255_1_234
10
13.1912982
20
0.3317706
40
0.6412172
50
326.9135351
51
338.3505194
0
ARC
8
DEFAULT_255_1_234
10
12.7927285
20
0.5872284
40
1.1146189
50
319.6472867
51
327.095818
0
ARC
8
DEFAULT_255_1_234
10
12.4094289
20
0.9034
40
1.6114559
50
317.2586784
51
319.9046139
0
LINE
8
DEFAULT_255_1_234
10
14.1173954
20
0.5181211
11
14.4499093
21
-0.4464907
0
LINE
8
DEFAULT_255_1_234
10
14.4499093
20
-0.4464907
11
14.7840296
21
0.5181211
0
LINE
8
DEFAULT_255_1_234
10
14.7840296
20
0.5181211
11
14.9526961
21
0.5181211
0
LINE
8
DEFAULT_255_1_234
10
14.9526961
20
0.5181211
11
14.5189823
21
-0.6513
0
LINE
8
DEFAULT_255_1_234
10
14.5189823
20
-0.6513
11
14.3824427
21
-0.6513
0
LINE
8
DEFAULT_255_1_234
10
14.3824427
20
-0.6513
11
13.949532
21
0.5181211
0
LINE
8
DEFAULT_255_1_234
10
13.949532
20
0.5181211
11
14.1173954
21
0.5181211
0
LINE
8
DEFAULT_255_1_234
10
15.5149178
20
-0.6513
11
15.109315
21
-0.6513
0
LINE
8
DEFAULT_255_1_234
10
15.109315
20
-0.6513
11
15.109315
21
0.5181211
0
LINE
8
DEFAULT_255_1_234
10
15.109315
20
0.5181211
11
15.4916258
21
0.5181211
0
LINE
8
DEFAULT_255_1_234
10
15.52054
20
-0.1043386
11
15.2635244
21
-0.1043386
0
LINE
8
DEFAULT_255_1_234
10
15.2635244
20
-0.1043386
11
15.2635244
21
-0.5252017
0
LINE
8
DEFAULT_255_1_234
10
15.2635244
20
-0.5252017
11
15.5181305
21
-0.5252017
0
LINE
8
DEFAULT_255_1_234
10
15.2635244
20
0.3912196
11
15.2635244
21
0.0193501
0
LINE
8
DEFAULT_255_1_234
10
15.2635244
20
0.0193501
11
15.4964448
21
0.0193501
0
LINE
8
DEFAULT_255_1_234
10
15.4916258
20
0.3912196
11
15.2635244
21
0.3912196
0
ARC
8
DEFAULT_255_1_234
10
15.4953967
20
-0.2186099
40
0.7367406
50
82.1257326
51
90.2932599
0
ARC
8
DEFAULT_255_1_234
10
15.5342921
20
0.0532013
40
0.4621653
50
69.9044149
51
82.2857423
0
ARC
8
DEFAULT_255_1_234
10
15.5913599
20
0.2074637
40
0.2976871
50
51.1838526
51
70.0181538
0
ARC
8
DEFAULT_255_1_234
10
15.6168565
20
0.244524
40
0.2528517
50
12.1017251
51
50.4214761
0
ARC
8
DEFAULT_255_1_234
10
15.4784439
20
0.2097676
40
0.3955061
50
359.5251267
51
12.8211707
0
ARC
8
DEFAULT_255_1_234
10
15.6364366
20
0.2028344
40
0.2375281
50
323.4908128
51
0.8817314
0
ARC
8
DEFAULT_255_1_234
10
15.5946053
20
0.235155
40
0.2903817
50
298.6825083
51
323.2756573
0
ARC
8
DEFAULT_255_1_234
10
15.5584416
20
0.2952649
40
0.3604842
50
293.1999386
51
299.1396394
0
ARC
8
DEFAULT_255_1_234
10
15.6257388
20
-0.3132874
40
0.2871098
50
54.0011765
51
74.9167975
0
ARC
8
DEFAULT_255_1_234
10
15.6373748
20
-0.2935668
40
0.2643248
50
36.3580696
51
53.5291921
0
ARC
8
DEFAULT_255_1_234
10
15.624699
20
-0.3026002
40
0.2798884
50
4.8189881
51
36.3089977
0
ARC
8
DEFAULT_255_1_234
10
15.5467825
20
-0.313573
40
0.358478
50
359.9370252
51
5.5204067
0
ARC
8
DEFAULT_255_1_234
10
15.5143346
20
-0.3176333
40
0.3909429
50
344.7478609
51
0.5373281
0
ARC
8
DEFAULT_255_1_234
10
15.6134318
20
-0.3443456
40
0.2883093
50
311.1786488
51
344.6886812
0
ARC
8
DEFAULT_255_1_234
10
15.5842365
20
-0.3080013
40
0.3348923
50
286.0418249
51
310.8441291
0
ARC
8
DEFAULT_255_1_234
10
15.5335197
20
-0.1433193
40
0.5071869
50
274.1042341
51
286.4071509
0
ARC
8
DEFAULT_255_1_234
10
15.5158453
20
0.0450229
40
0.6963234
50
269.9236873
51
274.445647
0
ARC
8
DEFAULT_255_1_234
10
15.5204453
20
-0.1889463
40
0.3362634
50
269.6055768
51
281.3740047
0
ARC
8
DEFAULT_255_1_234
10
15.5435091
20
-0.2982647
40
0.224546
50
281.1055983
51
302.5132223
0
ARC
8
DEFAULT_255_1_234
10
15.5581991
20
-0.3246177
40
0.1944357
50
303.0368945
51
311.8811219
0
ARC
8
DEFAULT_255_1_234
10
15.5653397
20
-0.333111
40
0.1833454
50
311.9916004
51
351.7143462
0
ARC
8
DEFAULT_255_1_234
10
15.4836627
20
-0.316607
40
0.2665871
50
350.7339597
51
0.2221581
0
ARC
8
DEFAULT_255_1_234
10
15.4729073
20
-0.3109533
40
0.2773789
50
359.0456241
51
17.2296242
0
ARC
8
DEFAULT_255_1_234
10
15.5768191
20
-0.2800837
40
0.1689915
50
17.6685481
51
78.9940892
0
ARC
8
DEFAULT_255_1_234
10
15.5251354
20
-0.4655776
40
0.3612658
50
76.5635957
51
90.6980921
0
LINE
8
DEFAULT_255_1_234
10
15.5207339
20
-0.1043387
11
15.52054
21
-0.1043386
0
ARC
8
DEFAULT_255_1_234
10
15.4987015
20
0.3479036
40
0.3285612
50
269.6064736
51
281.4533503
0
ARC
8
DEFAULT_255_1_234
10
15.5209834
20
0.2427688
40
0.2210975
50
281.2041486
51
302.5148063
0
ARC
8
DEFAULT_255_1_234
10
15.5346684
20
0.2181241
40
0.1929674
50
303.021671
51
309.8369575
0
ARC
8
DEFAULT_255_1_234
10
15.5530146
20
0.1975488
40
0.1654181
50
309.5228395
51
356.9509836
0
ARC
8
DEFAULT_255_1_234
10
15.4866728
20
0.2070932
40
0.2322512
50
355.4701227
51
0.0492546
0
ARC
8
DEFAULT_255_1_234
10
15.458782
20
0.2093094
40
0.2601498
50
359.5558597
51
11.2096359
0
ARC
8
DEFAULT_255_1_234
10
15.5545109
20
0.229123
40
0.1623975
50
10.9182341
51
31.3230275
0
ARC
8
DEFAULT_255_1_234
10
15.5830843
20
0.2450214
40
0.1297302
50
31.8852677
51
52.1412565
0
ARC
8
DEFAULT_255_1_234
10
15.5556576
20
0.206275
40
0.1771663
50
52.8285564
51
71.9850297
0
ARC
8
DEFAULT_255_1_234
10
15.5180752
20
0.0956664
40
0.2939794
50
71.6863486
51
82.8455995
0
ARC
8
DEFAULT_255_1_234
10
15.4941288
20
-0.0852851
40
0.476506
50
82.6984714
51
90.1729175
0
ARC
8
DEFAULT_255_1_234
10
15.4918923
20
0.0370623
40
0.3541573
50
89.8708275
51
90.0431131
0
LINE
8
DEFAULT_255_1_234
10
16.7220881
20
0.5181211
11
16.7220881
21
-0.258548
0
LINE
8
DEFAULT_255_1_234
10
16.7220881
20
-0.258548
11
16.8843292
21
-0.258548
0
LINE
8
DEFAULT_255_1_234
10
16.8843292
20
-0.258548
11
16.8843292
21
-0.3798272
0
LINE
8
DEFAULT_255_1_234
10
16.8843292
20
-0.3798272
11
16.7220881
21
-0.3798272
0
LINE
8
DEFAULT_255_1_234
10
16.7220881
20
-0.3798272
11
16.7220881
21
-0.6513
0
LINE
8
DEFAULT_255_1_234
10
16.7220881
20
-0.6513
11
16.5726978
21
-0.6513
0
LINE
8
DEFAULT_255_1_234
10
16.5726978
20
-0.6513
11
16.5726978
21
-0.3798272
0
LINE
8
DEFAULT_255_1_234
10
16.5726978
20
-0.3798272
11
16.0401935
21
-0.3798272
0
LINE
8
DEFAULT_255_1_234
10
16.0401935
20
-0.3798272
11
16.0401935
21
-0.2922813
0
LINE
8
DEFAULT_255_1_234
10
16.0401935
20
-0.2922813
11
16.5638628
21
0.5181211
0
LINE
8
DEFAULT_255_1_234
10
16.5638628
20
0.5181211
11
16.7220881
21
0.5181211
0
LINE
8
DEFAULT_255_1_234
10
16.5550279
20
0.2827912
11
16.20886
21
-0.258548
0
LINE
8
DEFAULT_255_1_234
10
16.20886
20
-0.258548
11
16.5726978
21
-0.258548
0
LINE
8
DEFAULT_255_1_234
10
16.5726978
20
-0.258548
11
16.5726978
21
0.3149181
0
LINE
8
DEFAULT_255_1_234
10
16.5726978
20
0.3149181
11
16.5550279
21
0.2827912
0
LINE
8
DEFAULT_255_1_234
10
17.7846871
20
-0.5300208
11
17.7846871
21
-0.6513
0
LINE
8
DEFAULT_255_1_234
10
17.7846871
20
-0.6513
11
17.0184592
21
-0.6513
0
LINE
8
DEFAULT_255_1_234
10
17.0184592
20
-0.6513
11
17.0184592
21
-0.5444779
0
LINE
8
DEFAULT_255_1_234
10
17.0184592
20
-0.5444779
11
17.4232588
21
-0.0947005
0
LINE
8
DEFAULT_255_1_234
10
17.1445575
20
0.1735595
11
16.9959704
21
0.1735595
0
LINE
8
DEFAULT_255_1_234
10
17.5108048
20
-0.1902782
11
17.197567
21
-0.5300208
0
LINE
8
DEFAULT_255_1_234
10
17.197567
20
-0.5300208
11
17.7846871
21
-0.5300208
0
ARC
8
DEFAULT_255_1_234
10
16.0742422
20
1.0982527
40
1.8008286
50
318.5132453
51
320.7828378
0
ARC
8
DEFAULT_255_1_234
10
16.6029396
20
0.6679426
40
1.1191493
50
320.7372736
51
323.9737074
0
ARC
8
DEFAULT_255_1_234
10
16.9949252
20
0.3839361
40
0.6350923
50
323.8961724
51
328.6421089
0
ARC
8
DEFAULT_255_1_234
10
17.1995848
20
0.2577031
40
0.3946393
50
328.8299013
51
331.789948
0
ARC
8
DEFAULT_255_1_234
10
17.2993026
20
0.2062509
40
0.2824501
50
331.4255242
51
352.9364833
0
ARC
8
DEFAULT_255_1_234
10
17.3129527
20
0.2031976
40
0.2685315
50
353.2248685
51
0.0169286
0
ARC
8
DEFAULT_255_1_234
10
17.3339404
20
0.205495
40
0.2475536
50
359.4866256
51
15.9339782
0
ARC
8
DEFAULT_255_1_234
10
17.3846389
20
0.2191286
40
0.1950618
50
16.1714718
51
43.5284424
0
ARC
8
DEFAULT_255_1_234
10
17.3923698
20
0.2268573
40
0.184134
50
43.4415429
51
83.1661404
0
ARC
8
DEFAULT_255_1_234
10
17.3789616
20
0.1531771
40
0.258926
50
82.160215
51
90.1505798
0
ARC
8
DEFAULT_255_1_234
10
17.3758043
20
0.0994865
40
0.3126255
50
89.5460705
51
102.5418777
0
ARC
8
DEFAULT_255_1_234
10
17.3515129
20
0.2025665
40
0.2067346
50
102.1739365
51
129.2061916
0
ARC
8
DEFAULT_255_1_234
10
17.3436201
20
0.2150094
40
0.1921118
50
129.7279328
51
135.7542026
0
ARC
8
DEFAULT_255_1_234
10
17.3557729
20
0.2053045
40
0.2075944
50
136.175737
51
166.3674722
0
ARC
8
DEFAULT_255_1_234
10
17.4564648
20
0.1783182
40
0.3118201
50
165.9092917
51
178.8683903
0
ARC
8
DEFAULT_255_1_234
10
17.5429509
20
0.1736179
40
0.3983935
50
178.438168
51
180.0083905
0
ARC
8
DEFAULT_255_1_234
10
17.4028111
20
0.1775231
40
0.4068601
50
163.2878735
51
180.5581814
0
ARC
8
DEFAULT_255_1_234
10
17.3226373
20
0.199584
40
0.3237344
50
133.454115
51
162.9470031
0
ARC
8
DEFAULT_255_1_234
10
17.3404914
20
0.1806
40
0.349795
50
100.7869394
51
133.4384016
0
ARC
8
DEFAULT_255_1_234
10
17.3752686
20
0.0257319
40
0.5084616
50
89.6605301
51
101.3704185
0
ARC
8
DEFAULT_255_1_234
10
17.3819024
20
0.0318496
40
0.502348
50
78.2171172
51
90.4130393
0
ARC
8
DEFAULT_255_1_234
10
17.4174103
20
0.1942637
40
0.3361092
50
55.9268222
51
78.4888551
0
ARC
8
DEFAULT_255_1_234
10
17.4370543
20
0.2281324
40
0.2970617
50
47.9292255
51
55.4054003
0
ARC
8
DEFAULT_255_1_234
10
17.4472103
20
0.2384502
40
0.2825983
50
4.3347696
51
48.0560701
0
ARC
8
DEFAULT_255_1_234
10
17.3376497
20
0.2214601
40
0.393225
50
359.925209
51
5.5967654
0
ARC
8
DEFAULT_255_1_234
10
17.3805389
20
0.2270816
40
0.3503892
50
337.8914096
51
358.9967724
0
ARC
8
DEFAULT_255_1_234
10
17.1091801
20
0.3317706
40
0.6412172
50
326.9135351
51
338.3505194
0
ARC
8
DEFAULT_255_1_234
10
16.7106105
20
0.5872284
40
1.1146189
50
319.6472867
51
327.095818
0
ARC
8
DEFAULT_255_1_234
10
16.3273108
20
0.9034
40
1.6114559
50
317.2586784
51
319.9046139
0
LINE
8
DEFAULT_255_1_234
10
18.2665914
20
-0.0938974
11
18.2665914
21
-0.2151766
0
LINE
8
DEFAULT_255_1_234
10
18.2665914
20
-0.2151766
11
17.8746425
21
-0.2151766
0
LINE
8
DEFAULT_255_1_234
10
17.8746425
20
-0.2151766
11
17.8746425
21
-0.0938974
0
LINE
8
DEFAULT_255_1_234
10
17.8746425
20
-0.0938974
11
18.2665914
21
-0.0938974
0
LINE
8
DEFAULT_255_1_234
10
19.1292
20
0.0402327
11
19.1292
21
-0.1525291
0
LINE
8
DEFAULT_255_1_234
10
18.3910833
20
-0.1726084
11
18.3910833
21
0.0257755
0
LINE
8
DEFAULT_255_1_234
10
18.9806129
20
-0.1926877
11
18.9806129
21
0.0506739
0
LINE
8
DEFAULT_255_1_234
10
18.5396705
20
0.0619184
11
18.5396705
21
-0.1758211
0
ARC
8
DEFAULT_255_1_234
10
17.904489
20
-0.1574195
40
1.2247208
50
353.8441951
51
0.2287902
0
ARC
8
DEFAULT_255_1_234
10
18.3684394
20
-0.2092194
40
0.7578929
50
344.4934747
51
353.9765454
0
ARC
8
DEFAULT_255_1_234
10
18.6676984
20
-0.2943019
40
0.4467846
50
329.2803592
51
344.7472793
0
ARC
8
DEFAULT_255_1_234
10
18.7669809
20
-0.3487982
40
0.3336173
50
324.9352394
51
328.6160465
0
ARC
8
DEFAULT_255_1_234
10
18.8046918
20
-0.3751573
40
0.2876076
50
280.580143
51
324.9173126
0
ARC
8
DEFAULT_255_1_234
10
18.764571
20
-0.2080901
40
0.4592847
50
269.5977311
51
281.6734359
0
ARC
8
DEFAULT_255_1_234
10
18.7573616
20
-0.2200827
40
0.4472986
50
256.6228859
51
270.51044
0
ARC
8
DEFAULT_255_1_234
10
18.7171594
20
-0.3749123
40
0.2873874
50
215.8618325
51
257.2788573
0
ARC
8
DEFAULT_255_1_234
10
18.8192625
20
-0.3064023
40
0.4102928
50
197.9693508
51
215.2623606
0
ARC
8
DEFAULT_255_1_234
10
19.0677741
20
-0.2225291
40
0.6725652
50
187.8816417
51
198.2346507
0
ARC
8
DEFAULT_255_1_234
10
19.4635949
20
-0.1653921
40
1.0724845
50
180.8976217
51
188.0055519
0
ARC
8
DEFAULT_255_1_234
10
19.7436137
20
-0.1550223
40
1.3526448
50
180.7449369
51
181.1510016
0
ARC
8
DEFAULT_255_1_234
10
19.5858866
20
0.0306042
40
1.1948131
50
173.7675579
51
180.231553
0
ARC
8
DEFAULT_255_1_234
10
19.1341013
20
0.0816666
40
0.7401564
50
164.3058563
51
173.9002247
0
ARC
8
DEFAULT_255_1_234
10
18.8429082
20
0.1655656
40
0.4371288
50
148.7922025
51
164.568378
0
ARC
8
DEFAULT_255_1_234
10
18.7477534
20
0.2186929
40
0.3282386
50
144.5883898
51
148.1176286
0
ARC
8
DEFAULT_255_1_234
10
18.7134432
20
0.2426315
40
0.2864044
50
101.6440918
51
144.514236
0
ARC
8
DEFAULT_255_1_234
10
18.7559499
20
0.0737069
40
0.4604934
50
89.5284041
51
102.5819763
0
ARC
8
DEFAULT_255_1_234
10
18.7638586
20
0.0698018
40
0.464401
50
77.0437873
51
90.5081339
0
ARC
8
DEFAULT_255_1_234
10
18.8040588
20
0.2340615
40
0.2953195
50
48.2778575
51
77.4994676
0
ARC
8
DEFAULT_255_1_234
10
18.8113219
20
0.2469746
40
0.2808655
50
36.3142134
51
47.6305865
0
ARC
8
DEFAULT_255_1_234
10
18.7244526
20
0.1884515
40
0.3855453
50
18.2931786
51
35.6769206
0
ARC
8
DEFAULT_255_1_234
10
18.4701285
20
0.1011593
40
0.654423
50
8.024666
51
18.5605216
0
ARC
8
DEFAULT_255_1_234
10
18.0538205
20
0.0396792
40
1.0752407
50
1.1274072
51
8.1718305
0
ARC
8
DEFAULT_255_1_234
10
17.7302396
20
0.0269885
40
1.3990231
50
0.5424119
51
1.3863029
0
ARC
8
DEFAULT_255_1_234
10
17.9123774
20
0.0542342
40
1.0682415
50
359.8090433
51
4.9407866
0
ARC
8
DEFAULT_255_1_234
10
18.3333788
20
0.0918113
40
0.6455691
50
4.8362157
51
12.2904523
0
ARC
8
DEFAULT_255_1_234
10
18.6088902
20
0.1531965
40
0.3633074
50
12.0805627
51
23.8173984
0
ARC
8
DEFAULT_255_1_234
10
18.7262608
20
0.2028919
40
0.2358723
50
24.2871213
51
31.3935614
0
ARC
8
DEFAULT_255_1_234
10
18.7787305
20
0.2372233
40
0.1732111
50
30.7407893
51
82.4657128
0
ARC
8
DEFAULT_255_1_234
10
18.7607439
20
0.1488691
40
0.263235
50
81.1060089
51
90.2184952
0
ARC
8
DEFAULT_255_1_234
10
18.7571738
20
0.1746924
40
0.2374236
50
89.3806855
51
105.6762551
0
ARC
8
DEFAULT_255_1_234
10
18.7388369
20
0.2413567
40
0.1682847
50
105.7981136
51
149.7388061
0
ARC
8
DEFAULT_255_1_234
10
18.8452447
20
0.177395
40
0.2924306
50
149.4208916
51
163.6286378
0
ARC
8
DEFAULT_255_1_234
10
19.0543335
20
0.113625
40
0.5110213
50
163.3763315
51
172.1410975
0
ARC
8
DEFAULT_255_1_234
10
19.3844054
20
0.0663518
40
0.8444586
50
172.0259487
51
178.0703232
0
ARC
8
DEFAULT_255_1_234
10
19.6874144
20
0.0519906
40
1.1477868
50
177.8631668
51
179.5044149
0
ARC
8
DEFAULT_255_1_234
10
19.5801548
20
-0.1794611
40
1.0404907
50
179.7995573
51
185.2460446
0
ARC
8
DEFAULT_255_1_234
10
19.1758587
20
-0.2177487
40
0.6343885
50
185.1411642
51
193.0079639
0
ARC
8
DEFAULT_255_1_234
10
18.911506
20
-0.2802359
40
0.3627568
50
192.7897626
51
205.2507664
0
ARC
8
DEFAULT_255_1_234
10
18.8068607
20
-0.3269585
40
0.2481908
50
205.8005384
51
211.2537509
0
ARC
8
DEFAULT_255_1_234
10
18.7545047
20
-0.362042
40
0.1852521
50
210.3789793
51
238.4008143
0
ARC
8
DEFAULT_255_1_234
10
18.7525569
20
-0.3573624
40
0.1882621
50
239.6520629
51
265.9793761
0
ARC
8
DEFAULT_255_1_234
10
18.7610769
20
-0.2901573
40
0.2559272
50
265.1315437
51
270.060332
0
ARC
8
DEFAULT_255_1_234
10
18.7639548
20
-0.3225466
40
0.2235528
50
269.3314664
51
287.2178029
0
ARC
8
DEFAULT_255_1_234
10
18.77774
20
-0.3728721
40
0.1714108
50
287.7958004
51
329.080874
0
ARC
8
DEFAULT_255_1_234
10
18.6819857
20
-0.313107
40
0.2842745
50
328.6634704
51
343.3325132
0
ARC
8
DEFAULT_255_1_234
10
18.4646877
20
-0.2454137
40
0.5118644
50
343.0499468
51
351.9393422
0
ARC
8
DEFAULT_255_1_234
10
18.1180177
20
-0.1943051
40
0.8622784
50
351.8069023
51
357.7959224
0
ARC
8
DEFAULT_255_1_234
10
17.7944733
20
-0.1775279
40
1.1862365
50
357.5871873
51
359.2677531
0
LINE
8
DEFAULT_255_1_234
10
20.2215165
20
-0.068999
11
20.2215165
21
-0.4978938
0
LINE
8
DEFAULT_255_1_234
10
19.3203554
20
-0.1228116
11
19.3203554
21
-0.0208085
0
LINE
8
DEFAULT_255_1_234
10
20.2215165
20
0.1751659
11
20.0673071
21
0.1751659
0
LINE
8
DEFAULT_255_1_234
10
19.475368
20
-0.0167927
11
19.475368
21
-0.1123704
0
LINE
8
DEFAULT_255_1_234
10
20.0681103
20
-0.4569319
11
20.0681103
21
-0.1942941
0
LINE
8
DEFAULT_255_1_234
10
20.0681103
20
-0.1942941
11
19.7974407
21
-0.1942941
0
LINE
8
DEFAULT_255_1_234
10
19.7974407
20
-0.1942941
11
19.7974407
21
-0.068999
0
LINE
8
DEFAULT_255_1_234
10
19.7974407
20
-0.068999
11
20.2215165
21
-0.068999
0
ARC
8
DEFAULT_255_1_234
10
19.9383671
20
-0.2985604
40
0.3462765
50
295.8437914
51
324.8549609
0
ARC
8
DEFAULT_255_1_234
10
19.8967638
20
-0.2232433
40
0.4322211
50
291.5695085
51
296.4549398
0
ARC
8
DEFAULT_255_1_234
10
19.845689
20
-0.0867725
40
0.5779178
50
278.6622409
51
291.3045483
0
ARC
8
DEFAULT_255_1_234
10
19.8117381
20
0.1280408
40
0.7953952
50
270.020006
51
278.7494541
0
ARC
8
DEFAULT_255_1_234
10
19.8079305
20
0.2597036
40
0.927067
50
269.9969998
51
270.2524872
0
ARC
8
DEFAULT_255_1_234
10
19.8041018
20
-0.1486411
40
0.5187361
50
253.5786322
51
270.4175299
0
ARC
8
DEFAULT_255_1_234
10
19.7867674
20
-0.2157764
40
0.4494451
50
238.8203306
51
253.2788235
0
ARC
8
DEFAULT_255_1_234
10
19.7848047
20
-0.2208769
40
0.4440665
50
206.7883783
51
238.6962764
0
ARC
8
DEFAULT_255_1_234
10
19.8621957
20
-0.1744595
40
0.5341121
50
206.1129412
51
207.4916643
0
ARC
8
DEFAULT_255_1_234
10
19.9218873
20
-0.1490512
40
0.5989041
50
188.6921119
51
205.7821245
0
ARC
8
DEFAULT_255_1_234
10
20.1075234
20
-0.117477
40
0.7871862
50
180.3882829
51
188.9219216
0
ARC
8
DEFAULT_255_1_234
10
20.2303048
20
-0.0151536
40
0.909967
50
170.2024264
51
180.3560651
0
ARC
8
DEFAULT_255_1_234
10
19.9139566
20
0.0414237
40
0.5886083
50
154.2857445
51
170.3893044
0
ARC
8
DEFAULT_255_1_234
10
19.7857769
20
0.100095
40
0.4476743
50
139.8401567
51
153.9332699
0
ARC
8
DEFAULT_255_1_234
10
19.7498505
20
0.1288577
40
0.4016697
50
98.4190291
51
139.6707122
0
ARC
8
DEFAULT_255_1_234
10
19.7878023
20
-0.0556672
40
0.5898566
50
89.7659205
51
99.4415478
0
ARC
8
DEFAULT_255_1_234
10
19.7943273
20
-0.0491156
40
0.5833147
50
78.0551672
51
90.4042112
0
ARC
8
DEFAULT_255_1_234
10
19.8347783
20
0.1327644
40
0.3970055
50
54.6380464
51
78.3339173
0
ARC
8
DEFAULT_255_1_234
10
19.8537838
20
0.1647795
40
0.3599102
50
50.031736
51
54.1558201
0
ARC
8
DEFAULT_255_1_234
10
19.8430626
20
0.1551766
40
0.3741624
50
18.1092409
51
49.7180913
0
ARC
8
DEFAULT_255_1_234
10
19.6973826
20
0.1018089
40
0.5292424
50
7.9672797
51
18.6984571
0
ARC
8
DEFAULT_255_1_234
10
19.7124304
20
0.1141504
40
0.3600838
50
9.7557294
51
27.3215714
0
ARC
8
DEFAULT_255_1_234
10
19.8251776
20
0.1704912
40
0.2340608
50
27.7361077
51
84.5257964
0
ARC
8
DEFAULT_255_1_234
10
19.7924163
20
0.006164
40
0.4011215
50
82.106034
51
90.2001166
0
ARC
8
DEFAULT_255_1_234
10
19.787438
20
0.0569215
40
0.3503799
50
89.4150119
51
105.5823402
0
ARC
8
DEFAULT_255_1_234
10
19.7617378
20
0.1504867
40
0.2533503
50
105.6678618
51
144.2648758
0
ARC
8
DEFAULT_255_1_234
10
19.8510634
20
0.0869289
40
0.3629787
50
144.3561283
51
162.8564086
0
ARC
8
DEFAULT_255_1_234
10
20.0594543
20
0.0200017
40
0.5818441
50
162.6076014
51
173.6780284
0
ARC
8
DEFAULT_255_1_234
10
20.3655686
20
-0.017211
40
0.8902007
50
173.4670142
51
179.9730753
0
ARC
8
DEFAULT_255_1_234
10
20.1747357
20
-0.116574
40
0.6993804
50
179.6556203
51
190.0080463
0
ARC
8
DEFAULT_255_1_234
10
19.9431186
20
-0.1590625
40
0.4639066
50
189.8116607
51
206.6796816
0
ARC
8
DEFAULT_255_1_234
10
19.8586338
20
-0.1984497
40
0.3707421
50
207.1031645
51
217.7074368
0
ARC
8
DEFAULT_255_1_234
10
19.7952027
20
-0.2536441
40
0.2868417
50
216.7345547
51
265.6812148
0
ARC
8
DEFAULT_255_1_234
10
19.8082818
20
-0.1632145
40
0.3780509
50
264.7366618
51
270.0611241
0
ARC
8
DEFAULT_255_1_234
10
19.8106081
20
0.1208111
40
0.662079
50
269.8335834
51
276.0539546
0
ARC
8
DEFAULT_255_1_234
10
19.8313086
20
-0.069344
40
0.4708016
50
275.9894168
51
284.4615085
0
ARC
8
DEFAULT_255_1_234
10
19.8511093
20
-0.1526337
40
0.3852094
50
284.7034461
51
286.4953897
0
ARC
8
DEFAULT_255_1_234
10
19.8918106
20
-0.2837035
40
0.2479842
50
286.0770838
51
304.2625829
0
ARC
8
DEFAULT_255_1_234
10
19.905152
20
-0.3055406
40
0.2224291
50
304.5891602
51
317.1073298
0
LINE
8
DEFAULT_255_1_234
10
21.1901441
20
-0.6513
11
20.7757064
21
-0.1075513
0
LINE
8
DEFAULT_255_1_234
10
20.7757064
20
-0.1075513
11
20.6327415
21
-0.2561385
0
LINE
8
DEFAULT_255_1_234
10
20.6327415
20
-0.2561385
11
20.6327415
21
-0.6513
0
LINE
8
DEFAULT_255_1_234
10
20.6327415
20
-0.6513
11
20.4785321
21
-0.6513
0
LINE
8
DEFAULT_255_1_234
10
20.4785321
20
-0.6513
11
20.4785321
21
0.5181211
0
LINE
8
DEFAULT_255_1_234
10
20.4785321
20
0.5181211
11
20.6327415
21
0.5181211
0
LINE
8
DEFAULT_255_1_234
10
20.6327415
20
0.5181211
11
20.6327415
21
-0.0601641
0
LINE
8
DEFAULT_255_1_234
10
20.6327415
20
-0.0601641
11
21.1523949
21
0.5181211
0
LINE
8
DEFAULT_255_1_234
10
21.1523949
20
0.5181211
11
21.3387313
21
0.5181211
0
LINE
8
DEFAULT_255_1_234
10
21.3387313
20
0.5181211
11
20.8785126
21
0.0016803
0
LINE
8
DEFAULT_255_1_234
10
20.8785126
20
0.0016803
11
21.3748741
21
-0.6513
0
LINE
8
DEFAULT_255_1_234
10
21.3748741
20
-0.6513
11
21.1901441
21
-0.6513
0
LINE
8
DEFAULT_255_1_234
10
22.2045526
20
0.0402327
11
22.2045526
21
-0.1525291
0
LINE
8
DEFAULT_255_1_234
10
21.4664359
20
-0.1726084
11
21.4664359
21
0.0257755
0
LINE
8
DEFAULT_255_1_234
10
22.0559655
20
-0.1926877
11
22.0559655
21
0.0506739
0
LINE
8
DEFAULT_255_1_234
10
21.615023
20
0.0619184
11
21.615023
21
-0.1758211
0
ARC
8
DEFAULT_255_1_234
10
20.9798416
20
-0.1574195
40
1.2247208
50
353.8441951
51
0.2287902
0
ARC
8
DEFAULT_255_1_234
10
21.443792
20
-0.2092194
40
0.7578929
50
344.4934747
51
353.9765454
0
ARC
8
DEFAULT_255_1_234
10
21.743051
20
-0.2943019
40
0.4467846
50
329.2803592
51
344.7472793
0
ARC
8
DEFAULT_255_1_234
10
21.8423335
20
-0.3487982
40
0.3336173
50
324.9352394
51
328.6160465
0
ARC
8
DEFAULT_255_1_234
10
21.8800443
20
-0.3751573
40
0.2876076
50
280.580143
51
324.9173126
0
ARC
8
DEFAULT_255_1_234
10
21.8399236
20
-0.2080901
40
0.4592847
50
269.5977311
51
281.6734359
0
ARC
8
DEFAULT_255_1_234
10
21.8327142
20
-0.2200827
40
0.4472986
50
256.6228859
51
270.51044
0
ARC
8
DEFAULT_255_1_234
10
21.7925119
20
-0.3749123
40
0.2873874
50
215.8618325
51
257.2788573
0
ARC
8
DEFAULT_255_1_234
10
21.8946151
20
-0.3064023
40
0.4102928
50
197.9693508
51
215.2623606
0
ARC
8
DEFAULT_255_1_234
10
22.1431267
20
-0.2225291
40
0.6725652
50
187.8816417
51
198.2346507
0
ARC
8
DEFAULT_255_1_234
10
22.5389475
20
-0.1653921
40
1.0724845
50
180.8976217
51
188.0055519
0
ARC
8
DEFAULT_255_1_234
10
22.8189663
20
-0.1550223
40
1.3526448
50
180.7449369
51
181.1510016
0
ARC
8
DEFAULT_255_1_234
10
22.6612392
20
0.0306042
40
1.1948131
50
173.7675579
51
180.231553
0
ARC
8
DEFAULT_255_1_234
10
22.2094539
20
0.0816666
40
0.7401564
50
164.3058563
51
173.9002247
0
ARC
8
DEFAULT_255_1_234
10
21.9182608
20
0.1655656
40
0.4371288
50
148.7922025
51
164.568378
0
ARC
8
DEFAULT_255_1_234
10
21.823106
20
0.2186929
40
0.3282386
50
144.5883898
51
148.1176286
0
ARC
8
DEFAULT_255_1_234
10
21.7887958
20
0.2426315
40
0.2864044
50
101.6440918
51
144.514236
0
ARC
8
DEFAULT_255_1_234
10
21.8313024
20
0.0737069
40
0.4604934
50
89.5284041
51
102.5819763
0
ARC
8
DEFAULT_255_1_234
10
21.8392112
20
0.0698018
40
0.464401
50
77.0437873
51
90.5081339
0
ARC
8
DEFAULT_255_1_234
10
21.8794114
20
0.2340615
40
0.2953195
50
48.2778575
51
77.4994676
0
ARC
8
DEFAULT_255_1_234
10
21.8866745
20
0.2469746
40
0.2808655
50
36.3142134
51
47.6305865
0
ARC
8
DEFAULT_255_1_234
10
21.7998052
20
0.1884515
40
0.3855453
50
18.2931786
51
35.6769206
0
ARC
8
DEFAULT_255_1_234
10
21.5454811
20
0.1011593
40
0.654423
50
8.024666
51
18.5605216
0
ARC
8
DEFAULT_255_1_234
10
21.1291731
20
0.0396792
40
1.0752407
50
1.1274072
51
8.1718305
0
ARC
8
DEFAULT_255_1_234
10
20.8055922
20
0.0269885
40
1.3990231
50
0.5424119
51
1.3863029
0
ARC
8
DEFAULT_255_1_234
10
20.9877299
20
0.0542342
40
1.0682415
50
359.8090433
51
4.9407866
0
ARC
8
DEFAULT_255_1_234
10
21.4087313
20
0.0918113
40
0.6455691
50
4.8362157
51
12.2904523
0
ARC
8
DEFAULT_255_1_234
10
21.6842428
20
0.1531965
40
0.3633074
50
12.0805627
51
23.8173984
0
ARC
8
DEFAULT_255_1_234
10
21.8016134
20
0.2028919
40
0.2358723
50
24.2871213
51
31.3935614
0
ARC
8
DEFAULT_255_1_234
10
21.8540831
20
0.2372233
40
0.1732111
50
30.7407893
51
82.4657128
0
ARC
8
DEFAULT_255_1_234
10
21.8360965
20
0.1488691
40
0.263235
50
81.1060089
51
90.2184952
0
ARC
8
DEFAULT_255_1_234
10
21.8325264
20
0.1746924
40
0.2374236
50
89.3806855
51
105.6762551
0
ARC
8
DEFAULT_255_1_234
10
21.8141895
20
0.2413567
40
0.1682847
50
105.7981136
51
149.7388061
0
ARC
8
DEFAULT_255_1_234
10
21.9205973
20
0.177395
40
0.2924306
50
149.4208916
51
163.6286378
0
ARC
8
DEFAULT_255_1_234
10
22.1296861
20
0.113625
40
0.5110213
50
163.3763315
51
172.1410975
0
ARC
8
DEFAULT_255_1_234
10
22.459758
20
0.0663518
40
0.8444586
50
172.0259487
51
178.0703232
0
ARC
8
DEFAULT_255_1_234
10
22.7627669
20
0.0519906
40
1.1477868
50
177.8631668
51
179.5044149
0
ARC
8
DEFAULT_255_1_234
10
22.6555074
20
-0.1794611
40
1.0404907
50
179.7995573
51
185.2460446
0
ARC
8
DEFAULT_255_1_234
10
22.2512113
20
-0.2177487
40
0.6343885
50
185.1411642
51
193.0079639
0
ARC
8
DEFAULT_255_1_234
10
21.9868586
20
-0.2802359
40
0.3627568
50
192.7897626
51
205.2507664
0
ARC
8
DEFAULT_255_1_234
10
21.8822133
20
-0.3269585
40
0.2481908
50
205.8005384
51
211.2537509
0
ARC
8
DEFAULT_255_1_234
10
21.8298573
20
-0.362042
40
0.1852521
50
210.3789793
51
238.4008143
0
ARC
8
DEFAULT_255_1_234
10
21.8279095
20
-0.3573624
40
0.1882621
50
239.6520629
51
265.9793761
0
ARC
8
DEFAULT_255_1_234
10
21.8364295
20
-0.2901573
40
0.2559272
50
265.1315437
51
270.060332
0
ARC
8
DEFAULT_255_1_234
10
21.8393074
20
-0.3225466
40
0.2235528
50
269.3314664
51
287.2178029
0
ARC
8
DEFAULT_255_1_234
10
21.8530926
20
-0.3728721
40
0.1714108
50
287.7958004
51
329.080874
0
ARC
8
DEFAULT_255_1_234
10
21.7573383
20
-0.313107
40
0.2842745
50
328.6634704
51
343.3325132
0
ARC
8
DEFAULT_255_1_234
10
21.5400403
20
-0.2454137
40
0.5118644
50
343.0499468
51
351.9393422
0
ARC
8
DEFAULT_255_1_234
10
21.1933703
20
-0.1943051
40
0.8622784
50
351.8069023
51
357.7959224
0
ARC
8
DEFAULT_255_1_234
10
20.8698259
20
-0.1775279
40
1.1862365
50
357.5871873
51
359.2677531
0
ARC
8
DEFAULT_255_2_778
10
7.7537338
20
68.2137992
40
3.0484709
50
251.6854144
51
258.6071955
0
ARC
8
DEFAULT_255_2_778
10
7.539521
20
67.1321738
40
1.9458471
50
258.4992492
51
268.3986479
0
ARC
8
DEFAULT_255_2_778
10
7.5172314
20
66.7019206
40
1.5151737
50
268.7865272
51
269.9950384
0
ARC
8
DEFAULT_255_2_778
10
7.5277432
20
66.2507355
40
1.0640417
50
269.426895
51
279.6711067
0
ARC
8
DEFAULT_255_2_778
10
7.6417753
20
65.6211746
40
0.4243233
50
278.7731084
51
300.3324923
0
ARC
8
DEFAULT_255_2_778
10
7.760746
20
65.4185552
40
0.1893587
50
300.2240287
51
1.9041213
0
ARC
8
DEFAULT_255_2_778
10
7.7452705
20
65.4277089
40
0.2047497
50
359.1991369
51
359.99965
0
ARC
8
DEFAULT_255_2_778
10
7.7523233
20
65.4285378
40
0.1976988
50
359.7594145
51
47.1793976
0
ARC
8
DEFAULT_255_2_778
10
7.6187277
20
65.279931
40
0.3975169
50
47.6144502
51
60.8366176
0
ARC
8
DEFAULT_255_2_778
10
7.0190958
20
64.2639865
40
1.5771337
50
59.799464
51
64.8885807
0
ARC
8
DEFAULT_255_2_778
10
6.0948833
20
62.3349682
40
3.7160912
50
64.6076081
51
66.8386974
0
ARC
8
DEFAULT_255_2_778
10
9.6419609
20
70.6980052
40
5.368109
50
244.3032309
51
247.1393781
0
ARC
8
DEFAULT_255_2_778
10
8.5507088
20
68.438018
40
2.8584574
50
240.2323579
51
244.3709759
0
ARC
8
DEFAULT_255_2_778
10
7.7800475
20
67.1011591
40
1.315392
50
233.2209971
51
240.4606284
0
ARC
8
DEFAULT_255_2_778
10
7.3561477
20
66.5300187
40
0.6041399
50
225.6990744
51
232.9899679
0
ARC
8
DEFAULT_255_2_778
10
7.3965073
20
66.5544214
40
0.6499005
50
178.2783416
51
224.6550883
0
ARC
8
DEFAULT_255_2_778
10
7.5059624
20
66.5877974
40
0.7591885
50
157.033673
51
181.0453383
0
ARC
8
DEFAULT_255_2_778
10
7.378439
20
66.6286396
40
0.6259551
50
124.9113017
51
155.9211516
0
ARC
8
DEFAULT_255_2_778
10
7.5960466
20
66.3200681
40
1.0035357
50
100.4079723
51
125.0168617
0
ARC
8
DEFAULT_255_2_778
10
7.6991199
20
65.8260046
40
1.5081396
50
89.6483922
51
100.8684975
0
ARC
8
DEFAULT_255_2_778
10
7.7083242
20
65.4737988
40
1.8603169
50
89.5079487
51
89.9984402
0
ARC
8
DEFAULT_255_2_778
10
7.7099573
20
65.4085694
40
1.9255311
50
83.9170631
51
89.5732113
0
ARC
8
DEFAULT_255_2_778
10
7.5071517
20
63.4009957
40
3.9433074
50
80.7325723
51
84.0779772
0
ARC
8
DEFAULT_255_2_778
10
7.0208457
20
60.378082
40
7.0050837
50
78.5086351
51
80.7886813
0
ARC
8
DEFAULT_255_2_778
10
7.6620177
20
64.9775544
40
1.9415426
50
67.135818
51
78.0934208
0
ARC
8
DEFAULT_255_2_778
10
7.7851814
20
65.5479809
40
1.3579807
50
78.2126325
51
89.7333975
0
ARC
8
DEFAULT_255_2_778
10
7.7793853
20
65.9631211
40
0.9429038
50
89.2638155
51
100.5666868
0
ARC
8
DEFAULT_255_2_778
10
7.6660949
20
66.5329419
40
0.362036
50
99.4784875
51
124.329414
0
ARC
8
DEFAULT_255_2_778
10
7.5705593
20
66.681051
40
0.1859067
50
125.7571195
51
182.2824883
0
ARC
8
DEFAULT_255_2_778
10
7.5493239
20
66.6743629
40
0.1645253
50
180.2492993
51
239.8144161
0
ARC
8
DEFAULT_255_2_778
10
7.932718
20
67.2744128
40
0.876484
50
237.8725734
51
242.8068846
0
ARC
8
DEFAULT_255_2_778
10
9.4175857
20
70.0909958
40
4.0604642
50
242.3328458
51
244.031083
0
ARC
8
DEFAULT_255_2_778
10
12.3804066
20
76.1394314
40
10.7955807
50
243.950624
51
244.8024316
0
ARC
8
DEFAULT_255_2_778
10
15.4009918
20
82.5234175
40
17.8580926
50
244.7535425
51
244.9563234
0
ARC
8
DEFAULT_255_2_778
10
5.8652927
20
62.0218264
40
4.7527588
50
62.2505456
51
65.4301556
0
ARC
8
DEFAULT_255_2_778
10
6.9275435
20
64.0299172
40
2.4810291
50
57.2951304
51
62.3684211
0
ARC
8
DEFAULT_255_2_778
10
7.6807233
20
65.1932235
40
1.0952081
50
48.7345704
51
57.5685367
0
ARC
8
DEFAULT_255_2_778
10
8.0117486
20
65.5807722
40
0.5856147
50
44.3236031
51
48.0704418
0
ARC
8
DEFAULT_255_2_778
10
7.9783002
20
65.5607468
40
0.6236013
50
1.3523843
51
43.4925744
0
ARC
8
DEFAULT_255_2_778
10
7.7103531
20
65.5278151
40
0.8926473
50
359.9763756
51
3.0599076
0
ARC
8
DEFAULT_255_2_778
10
7.8645343
20
65.5127407
40
0.7386124
50
333.0361889
51
1.1408766
0
ARC
8
DEFAULT_255_2_778
10
7.8947908
20
65.5196919
40
0.7150741
50
300.8430083
51
331.4403095
0
ARC
8
DEFAULT_255_2_778
10
7.694568
20
65.8332162
40
1.0869673
50
281.4258583
51
301.4316118
0
ARC
8
DEFAULT_255_2_778
10
7.5632666
20
66.4414414
40
1.7091691
50
270.2273513
51
281.7010805
0
ARC
8
DEFAULT_255_2_778
10
7.5453797
20
66.9181043
40
2.1859577
50
269.9983113
51
270.6466065
0
LINE
8
DEFAULT_255_2_778
10
7.5453153
20
64.7321465
11
7.5438002
21
64.732147
0
ARC
8
DEFAULT_255_2_778
10
7.5509161
20
67.9150969
40
3.1829579
50
256.2431122
51
269.871909
0
ARC
8
DEFAULT_255_2_778
10
21.7538511
20
68.1396629
40
2.9720345
50
251.5709223
51
258.7508181
0
ARC
8
DEFAULT_255_2_778
10
21.5538128
20
67.1164385
40
1.9294488
50
258.6495077
51
268.8281511
0
ARC
8
DEFAULT_255_2_778
10
21.5355488
20
66.7216193
40
1.5343723
50
269.2085037
51
269.9981866
0
ARC
8
DEFAULT_255_2_778
10
21.5473849
20
66.2532184
40
1.0660376
50
269.3612297
51
279.5899087
0
ARC
8
DEFAULT_255_2_778
10
21.6608439
20
65.6217324
40
0.424527
50
278.6895227
51
300.2363944
0
ARC
8
DEFAULT_255_2_778
10
21.7799083
20
65.4182793
40
0.188796
50
300.1108484
51
1.9024905
0
ARC
8
DEFAULT_255_2_778
10
21.7439577
20
65.4289221
40
0.2246851
50
358.8842611
51
0.0019649
0
ARC
8
DEFAULT_255_2_778
10
21.7769791
20
65.4328385
40
0.1917038
50
358.831716
51
47.0900458
0
ARC
8
DEFAULT_255_2_778
10
21.6364654
20
65.273484
40
0.4041259
50
47.8812665
51
61.174665
0
ARC
8
DEFAULT_255_2_778
10
21.0418848
20
64.2535117
40
1.5846568
50
60.1210877
51
65.1917015
0
ARC
8
DEFAULT_255_2_778
10
20.1415278
20
62.3479122
40
3.6922188
50
64.9168629
51
67.1565628
0
ARC
8
DEFAULT_255_2_778
10
23.6275467
20
70.6194888
40
5.2839333
50
244.2656926
51
247.1407051
0
ARC
8
DEFAULT_255_2_778
10
22.5594997
20
68.411265
40
2.8309849
50
240.1545061
51
244.3326325
0
ARC
8
DEFAULT_255_2_778
10
21.7856548
20
67.0752346
40
1.2870531
50
232.697515
51
240.4357497
0
ARC
8
DEFAULT_255_2_778
10
21.3705506
20
66.5242218
40
0.5972006
50
225.5850892
51
232.3393736
0
ARC
8
DEFAULT_255_2_778
10
21.4133941
20
66.5537933
40
0.6483829
50
178.7795739
51
224.7095916
0
ARC
8
DEFAULT_255_2_778
10
21.6669319
20
66.5778135
40
0.9018316
50
179.997867
51
180.6487041
0
ARC
8
DEFAULT_255_2_778
10
21.5167738
20
66.5916249
40
0.7517998
50
156.9195758
51
181.050088
0
ARC
8
DEFAULT_255_2_778
10
21.3928482
20
66.6310712
40
0.6224513
50
124.7111133
51
155.7879672
0
ARC
8
DEFAULT_255_2_778
10
21.6055459
20
66.3391942
40
0.9835402
50
101.7934503
51
125.2143527
0
ARC
8
DEFAULT_255_2_778
10
21.729848
20
65.7866326
40
1.5498677
50
89.5248728
51
102.1166783
0
ARC
8
DEFAULT_255_2_778
10
21.7283109
20
65.2330834
40
2.1034129
50
83.2889725
51
89.6080411
0
ARC
8
DEFAULT_255_2_778
10
21.529975
20
63.4652668
40
3.8823067
50
79.4764054
51
83.4308492
0
ARC
8
DEFAULT_255_2_778
10
21.2186357
20
61.7120673
40
5.6628977
50
78.2224868
51
79.6190915
0
ARC
8
DEFAULT_255_2_778
10
21.6838473
20
64.9895715
40
1.9311543
50
67.1323814
51
78.3148813
0
ARC
8
DEFAULT_255_2_778
10
21.801359
20
65.5410614
40
1.3672981
50
78.4565774
51
89.7552271
0
ARC
8
DEFAULT_255_2_778
10
21.7951366
20
65.971947
40
0.9364778
50
89.2619009
51
100.5950934
0
ARC
8
DEFAULT_255_2_778
10
21.6824182
20
66.5374169
40
0.3599879
50
99.5087086
51
124.406715
0
ARC
8
DEFAULT_255_2_778
10
21.5878565
20
66.683843
40
0.1858061
50
125.8630185
51
182.2986975
0
ARC
8
DEFAULT_255_2_778
10
21.5497296
20
66.6763047
40
0.1475296
50
179.9666559
51
180.100057
0
ARC
8
DEFAULT_255_2_778
10
21.566185
20
66.676293
40
0.163985
50
180.0859454
51
239.8819968
0
ARC
8
DEFAULT_255_2_778
10
21.9379018
20
67.2630619
40
0.8584853
50
238.072871
51
243.0442008
0
ARC
8
DEFAULT_255_2_778
10
23.4872034
20
70.2280845
40
4.2038426
50
242.5409111
51
244.1884903
0
ARC
8
DEFAULT_255_2_778
10
26.6463384
20
76.722696
40
11.4260319
50
244.1076525
51
244.9219574
0
ARC
8
DEFAULT_255_2_778
10
29.9038827
20
83.646355
40
19.0777309
50
244.8743531
51
245.066969
0
ARC
8
DEFAULT_255_2_778
10
19.8865272
20
62.0541274
40
4.7250654
50
62.0340028
51
65.293009
0
ARC
8
DEFAULT_255_2_778
10
20.9507744
20
64.0490758
40
2.464003
50
57.1127289
51
62.13736
0
ARC
8
DEFAULT_255_2_778
10
21.7037139
20
65.2027906
40
1.0863604
50
48.3695509
51
57.4197129
0
ARC
8
DEFAULT_255_2_778
10
22.0286268
20
65.5795419
40
0.5889589
50
44.472493
51
47.6467012
0
ARC
8
DEFAULT_255_2_778
10
21.9979457
20
65.5624032
40
0.6229283
50
1.2061613
51
43.6203607
0
ARC
8
DEFAULT_255_2_778
10
21.7312413
20
65.5299903
40
0.890659
50
359.9779196
51
2.9299178
0
ARC
8
DEFAULT_255_2_778
10
21.8802547
20
65.5148837
40
0.7417924
50
333.172934
51
1.140392
0
ARC
8
DEFAULT_255_2_778
10
21.9146167
20
65.5195736
40
0.7135172
50
300.9808035
51
331.5913995
0
ARC
8
DEFAULT_255_2_778
10
21.7182603
20
65.8294862
40
1.0803281
50
281.9040909
51
301.4483918
0
ARC
8
DEFAULT_255_2_778
10
21.5848425
20
66.4280518
40
1.6935565
50
270.5796874
51
282.1436175
0
ARC
8
DEFAULT_255_2_778
10
21.5636722
20
66.9229735
40
2.1887267
50
269.9959074
51
271.0027751
0
LINE
8
DEFAULT_255_2_778
10
21.5635158
20
64.7342468
11
21.5625002
21
64.734247
0
ARC
8
DEFAULT_255_2_778
10
21.5700221
20
67.9230174
40
3.1887792
50
256.2556596
51
269.8648469
0
LINE
8
DEFAULT_255_2_778
10
6.7958002
20
64.825047
11
6.7958002
21
65.319747
0
LINE
8
DEFAULT_255_2_778
10
8.4164002
20
67.242747
11
8.4164002
21
66.766547
0
LINE
8
DEFAULT_255_2_778
10
6.7940002
20
64.823447
11
6.7958002
21
64.825047
0
LINE
8
DEFAULT_255_2_778
10
8.9866002
20
67.292247
11
9.6629002
21
67.292247
0
LINE
8
DEFAULT_255_2_778
10
9.6629002
20
67.292247
11
9.6629002
21
64.784847
0
LINE
8
DEFAULT_255_2_778
10
9.6629002
20
64.784847
11
8.9866002
21
64.784847
0
LINE
8
DEFAULT_255_2_778
10
8.9866002
20
64.784847
11
8.9866002
21
67.292247
0
LINE
8
DEFAULT_255_2_778
10
10.2809002
20
64.784847
11
10.2809002
21
67.292247
0
LINE
8
DEFAULT_255_2_778
10
10.2809002
20
67.292247
11
12.0132002
21
67.292247
0
LINE
8
DEFAULT_255_2_778
10
12.0132002
20
67.292247
11
12.0132002
21
66.838547
0
LINE
8
DEFAULT_255_2_778
10
12.0132002
20
66.838547
11
10.9321002
21
66.838547
0
LINE
8
DEFAULT_255_2_778
10
10.9321002
20
66.838547
11
10.9321002
21
66.272247
0
LINE
8
DEFAULT_255_2_778
10
10.9321002
20
66.272247
11
11.8735002
21
66.272247
0
LINE
8
DEFAULT_255_2_778
10
11.8735002
20
66.272247
11
11.8735002
21
65.858747
0
LINE
8
DEFAULT_255_2_778
10
11.8735002
20
65.858747
11
10.9321002
21
65.858747
0
LINE
8
DEFAULT_255_2_778
10
10.9321002
20
65.858747
11
10.9321002
21
65.263447
0
LINE
8
DEFAULT_255_2_778
10
10.9321002
20
65.263447
11
12.0412002
21
65.263447
0
LINE
8
DEFAULT_255_2_778
10
12.0412002
20
65.263447
11
12.0412002
21
64.783247
0
LINE
8
DEFAULT_255_2_778
10
12.0412002
20
64.783247
11
10.2809002
21
64.784847
0
LINE
8
DEFAULT_255_2_778
10
12.4817002
20
64.784847
11
12.4817002
21
67.292247
0
LINE
8
DEFAULT_255_2_778
10
12.4817002
20
67.292247
11
13.3575002
21
67.292247
0
LINE
8
DEFAULT_255_2_778
10
13.3575002
20
67.292247
11
13.9671002
21
65.689947
0
LINE
8
DEFAULT_255_2_778
10
13.9671002
20
65.689947
11
14.5897002
21
67.292247
0
LINE
8
DEFAULT_255_2_778
10
14.5897002
20
67.292247
11
15.4215002
21
67.292247
0
LINE
8
DEFAULT_255_2_778
10
15.4215002
20
67.292247
11
15.4215002
21
64.784847
0
LINE
8
DEFAULT_255_2_778
10
15.4215002
20
64.784847
11
14.7812002
21
64.784847
0
LINE
8
DEFAULT_255_2_778
10
14.7812002
20
64.784847
11
14.7812002
21
66.560647
0
LINE
8
DEFAULT_255_2_778
10
14.7812002
20
66.560647
11
14.0724002
21
64.760447
0
LINE
8
DEFAULT_255_2_778
10
14.0724002
20
64.760447
11
13.6515002
21
64.760447
0
LINE
8
DEFAULT_255_2_778
10
13.6515002
20
64.760447
11
12.9559002
21
66.560647
0
LINE
8
DEFAULT_255_2_778
10
12.9559002
20
66.560647
11
12.9559002
21
64.784547
0
LINE
8
DEFAULT_255_2_778
10
12.9559002
20
64.784547
11
12.4817002
21
64.784847
0
LINE
8
DEFAULT_255_2_778
10
16.0409002
20
64.784847
11
16.0409002
21
67.292247
0
LINE
8
DEFAULT_255_2_778
10
16.0409002
20
67.292247
11
17.7731002
21
67.292247
0
LINE
8
DEFAULT_255_2_778
10
17.7731002
20
67.292247
11
17.7731002
21
66.838547
0
LINE
8
DEFAULT_255_2_778
10
17.7731002
20
66.838547
11
16.6921002
21
66.838547
0
LINE
8
DEFAULT_255_2_778
10
16.6921002
20
66.838547
11
16.6921002
21
66.272247
0
LINE
8
DEFAULT_255_2_778
10
16.6921002
20
66.272247
11
17.6334002
21
66.272247
0
LINE
8
DEFAULT_255_2_778
10
17.6334002
20
66.272247
11
17.6334002
21
65.858747
0
LINE
8
DEFAULT_255_2_778
10
17.6334002
20
65.858747
11
16.6921002
21
65.858747
0
LINE
8
DEFAULT_255_2_778
10
16.6921002
20
65.858747
11
16.6921002
21
65.263447
0
LINE
8
DEFAULT_255_2_778
10
16.6921002
20
65.263447
11
17.8030002
21
65.263447
0
LINE
8
DEFAULT_255_2_778
10
17.8030002
20
65.263447
11
17.8030002
21
64.783247
0
LINE
8
DEFAULT_255_2_778
10
17.8030002
20
64.783247
11
16.0409002
21
64.784847
0
LINE
8
DEFAULT_255_2_778
10
18.2454002
20
64.784847
11
18.2454002
21
67.292247
0
LINE
8
DEFAULT_255_2_778
10
18.2454002
20
67.292247
11
19.0283002
21
67.292247
0
LINE
8
DEFAULT_255_2_778
10
19.0283002
20
67.292247
11
19.8586002
21
65.613447
0
LINE
8
DEFAULT_255_2_778
10
19.8586002
20
65.613447
11
19.8586002
21
67.292247
0
LINE
8
DEFAULT_255_2_778
10
19.8586002
20
67.292247
11
20.3343002
21
67.292247
0
LINE
8
DEFAULT_255_2_778
10
20.3343002
20
67.292247
11
20.3343002
21
64.784847
0
LINE
8
DEFAULT_255_2_778
10
20.3343002
20
64.784847
11
19.5739002
21
64.784847
0
LINE
8
DEFAULT_255_2_778
10
19.5739002
20
64.784847
11
18.7214002
21
66.486047
0
LINE
8
DEFAULT_255_2_778
10
18.7214002
20
66.486047
11
18.7214002
21
64.784847
0
LINE
8
DEFAULT_255_2_778
10
18.7214002
20
64.784847
11
18.2454002
21
64.784847
0
LINE
8
DEFAULT_255_2_778
10
20.8143002
20
64.825247
11
20.8143002
21
65.320047
0
LINE
8
DEFAULT_255_2_778
10
22.3745002
20
67.255747
11
22.4343002
21
67.245147
0
LINE
8
DEFAULT_255_2_778
10
22.4343002
20
67.245147
11
22.4343002
21
66.768947
0
LINE
8
DEFAULT_255_2_778
10
20.8124002
20
64.825547
11
20.8143002
21
64.825247
0
LINE
8
DEFAULT_255_1_234
10
9.1330023
20
63.0184849
11
8.9779897
21
63.0184849
0
LINE
8
DEFAULT_255_1_234
10
8.2856539
20
62.5261394
11
8.4406665
21
62.5261394
0
ARC
8
DEFAULT_255_1_234
10
9.043871
20
63.9131768
40
1.252368
50
248.9199003
51
254.1439814
0
ARC
8
DEFAULT_255_1_234
10
8.8758205
20
63.4805234
40
0.788226
50
241.633709
51
249.0064503
0
ARC
8
DEFAULT_255_1_234
10
8.72296
20
63.2004317
40
0.4691427
50
230.498225
51
241.8087113
0
ARC
8
DEFAULT_255_1_234
10
8.6445174
20
63.1004906
40
0.3421437
50
227.4064532
51
229.9881192
0
ARC
8
DEFAULT_255_1_234
10
8.5957694
20
63.0529088
40
0.2741476
50
200.6781896
51
228.1763934
0
ARC
8
DEFAULT_255_1_234
10
8.6030005
20
63.0514077
40
0.2804109
50
179.5061581
51
199.8694617
0
ARC
8
DEFAULT_255_1_234
10
8.6020757
20
63.058821
40
0.2795204
50
132.4834203
51
181.0242172
0
ARC
8
DEFAULT_255_1_234
10
8.6616339
20
63.0025704
40
0.3612768
50
129.2532479
51
133.4242687
0
ARC
8
DEFAULT_255_1_234
10
8.6762789
20
62.9805965
40
0.3875675
50
101.98776
51
128.8742646
0
ARC
8
DEFAULT_255_1_234
10
8.7161399
20
62.8084741
40
0.5642249
50
89.5906553
51
102.3169264
0
ARC
8
DEFAULT_255_1_234
10
8.7231891
20
62.8403148
40
0.5323783
50
77.2360837
51
90.3248275
0
ARC
8
DEFAULT_255_1_234
10
8.7438971
20
62.93704
40
0.4334697
50
63.837784
51
77.0809408
0
ARC
8
DEFAULT_255_1_234
10
8.7716732
20
62.9887911
40
0.3747796
50
45.9864267
51
64.1607727
0
ARC
8
DEFAULT_255_1_234
10
8.7977614
20
63.0185866
40
0.3352302
50
32.2747395
51
45.6547121
0
ARC
8
DEFAULT_255_1_234
10
8.8044054
20
63.020488
40
0.328603
50
359.6507365
51
32.6130309
0
ARC
8
DEFAULT_255_1_234
10
8.710115
20
63.020966
40
0.2678863
50
359.469343
51
14.9832209
0
ARC
8
DEFAULT_255_1_234
10
8.7806212
20
63.0398539
40
0.1948938
50
14.9781179
51
48.2004265
0
ARC
8
DEFAULT_255_1_234
10
8.7641856
20
63.0191983
40
0.2212521
50
48.5927837
51
74.1241538
0
ARC
8
DEFAULT_255_1_234
10
8.7308346
20
62.9091248
40
0.3362561
50
73.7888341
51
86.6652678
0
ARC
8
DEFAULT_255_1_234
10
8.7205911
20
62.7883881
40
0.4573953
50
86.2640471
51
90.0526343
0
ARC
8
DEFAULT_255_1_234
10
8.7177624
20
62.8279192
40
0.4178709
50
89.6697524
51
99.2309573
0
ARC
8
DEFAULT_255_1_234
10
8.6935075
20
62.9723964
40
0.2713749
50
99.069534
51
113.7658566
0
ARC
8
DEFAULT_255_1_234
10
8.6661266
20
63.0369677
40
0.2012469
50
114.0401004
51
127.9850673
0
ARC
8
DEFAULT_255_1_234
10
8.642083
20
63.066573
40
0.1631167
50
127.7287463
51
176.7105154
0
ARC
8
DEFAULT_255_1_234
10
8.7099547
20
63.0564693
40
0.2315392
50
175.1779447
51
180.0581938
0
ARC
8
DEFAULT_255_1_234
10
8.6256394
20
63.0552428
40
0.1472271
50
179.6142195
51
228.1246017
0
ARC
8
DEFAULT_255_1_234
10
8.6698063
20
63.0961308
40
0.2072299
50
226.5779593
51
230.8800004
0
ARC
8
DEFAULT_255_1_234
10
8.7169141
20
63.1586636
40
0.2854818
50
231.4635071
51
241.9260842
0
ARC
8
DEFAULT_255_1_234
10
8.8366319
20
63.37898
40
0.53622
50
241.7178533
51
248.3259551
0
ARC
8
DEFAULT_255_1_234
10
8.9751691
20
63.7222064
40
0.9063478
50
248.2007737
51
252.4528373
0
ARC
8
DEFAULT_255_1_234
10
9.0955416
20
64.0943441
40
1.2974635
50
252.3391078
51
254.3469452
0
ARC
8
DEFAULT_255_1_234
10
8.3413119
20
61.3966148
40
1.5037162
50
71.0197183
51
74.4087047
0
ARC
8
DEFAULT_255_1_234
10
8.5107804
20
61.8858111
40
0.9859993
50
66.1847285
51
71.086374
0
ARC
8
DEFAULT_255_1_234
10
8.6664116
20
62.23622
40
0.6025855
50
59.3536294
51
66.2691831
0
ARC
8
DEFAULT_255_1_234
10
8.7552769
20
62.3865609
40
0.4279449
50
49.1020879
51
59.3293958
0
ARC
8
DEFAULT_255_1_234
10
8.8371509
20
62.4798834
40
0.3038015
50
32.7919921
51
49.2505539
0
ARC
8
DEFAULT_255_1_234
10
8.8692599
20
62.5027191
40
0.264448
50
31.1181161
51
32.4005348
0
ARC
8
DEFAULT_255_1_234
10
8.8604136
20
62.4991779
40
0.2738556
50
8.1116974
51
30.7958831
0
ARC
8
DEFAULT_255_1_234
10
8.7793804
20
62.4853753
40
0.3560327
50
359.8389159
51
8.4706516
0
ARC
8
DEFAULT_255_1_234
10
8.8419596
20
62.4805137
40
0.2934776
50
337.4731098
51
0.7537279
0
ARC
8
DEFAULT_255_1_234
10
8.8598291
20
62.4785387
40
0.2762607
50
307.5917067
51
336.4315538
0
ARC
8
DEFAULT_255_1_234
10
8.8138119
20
62.5298102
40
0.3449979
50
307.6551545
51
308.4529766
0
ARC
8
DEFAULT_255_1_234
10
8.7907838
20
62.565325
40
0.3871988
50
284.3734338
51
307.1424381
0
ARC
8
DEFAULT_255_1_234
10
8.7412668
20
62.7474932
40
0.5759636
50
272.4382747
51
284.646547
0
ARC
8
DEFAULT_255_1_234
10
8.7285876
20
62.9274893
40
0.7563528
50
269.9708387
51
272.8178037
0
ARC
8
DEFAULT_255_1_234
10
8.7242916
20
62.7236716
40
0.5525489
50
248.2707594
51
270.4055579
0
ARC
8
DEFAULT_255_1_234
10
8.7188657
20
62.7046192
40
0.5328452
50
246.1383403
51
248.0542782
0
ARC
8
DEFAULT_255_1_234
10
8.6770036
20
62.6166843
40
0.4355005
50
233.1670131
51
246.4950969
0
ARC
8
DEFAULT_255_1_234
10
8.6215941
20
62.5418812
40
0.3424126
50
215.3403242
51
233.0843104
0
ARC
8
DEFAULT_255_1_234
10
8.5943372
20
62.5220549
40
0.3087104
50
179.2419209
51
215.2648451
0
ARC
8
DEFAULT_255_1_234
10
8.6710966
20
62.5234666
40
0.2304457
50
179.335461
51
199.1045811
0
ARC
8
DEFAULT_255_1_234
10
8.6378643
20
62.5147766
40
0.1962176
50
199.8828939
51
232.7063202
0
ARC
8
DEFAULT_255_1_234
10
8.6850911
20
62.5741788
40
0.2720938
50
232.3738199
51
255.5136649
0
ARC
8
DEFAULT_255_1_234
10
8.7191778
20
62.6985835
40
0.4010747
50
255.2446292
51
267.5320849
0
ARC
8
DEFAULT_255_1_234
10
8.7279401
20
62.8218702
40
0.5246356
50
267.1557994
51
270.0286766
0
ARC
8
DEFAULT_255_1_234
10
8.7307173
20
62.777495
40
0.4802668
50
269.7000017
51
278.1660162
0
ARC
8
DEFAULT_255_1_234
10
8.7563178
20
62.6044515
40
0.3053425
50
278.0231263
51
290.625471
0
ARC
8
DEFAULT_255_1_234
10
8.7910865
20
62.5117025
40
0.206291
50
290.6619762
51
307.0370976
0
ARC
8
DEFAULT_255_1_234
10
8.8211254
20
62.4748504
40
0.1587906
50
306.3943566
51
355.3030547
0
ARC
8
DEFAULT_255_1_234
10
8.7699186
20
62.4825113
40
0.2104809
50
354.3660432
51
0.0698737
0
ARC
8
DEFAULT_255_1_234
10
8.7841531
20
62.4847617
40
0.1962563
50
359.417946
51
16.1971788
0
ARC
8
DEFAULT_255_1_234
10
8.8296841
20
62.4972418
40
0.149053
50
16.4723299
51
52.6262157
0
ARC
8
DEFAULT_255_1_234
10
8.7475895
20
62.3888433
40
0.2850296
50
52.7386432
51
62.4979148
0
ARC
8
DEFAULT_255_1_234
10
8.6090972
20
62.1282283
40
0.5801521
50
62.2515216
51
68.1220564
0
ARC
8
DEFAULT_255_1_234
10
8.4370883
20
61.7054872
40
1.0365451
50
68.0062803
51
71.8053402
0
ARC
8
DEFAULT_255_1_234
10
8.2575255
20
61.1669758
40
1.6042013
50
71.7183119
51
73.9258742
0
LINE
8
DEFAULT_255_1_234
10
9.4984464
20
63.3566211
11
9.4984464
21
62.1872
0
LINE
8
DEFAULT_255_1_234
10
9.4984464
20
62.1872
11
9.344237
21
62.1872
0
LINE
8
DEFAULT_255_1_234
10
9.344237
20
62.1872
11
9.344237
21
63.3566211
0
LINE
8
DEFAULT_255_1_234
10
9.344237
20
63.3566211
11
9.4984464
21
63.3566211
0
LINE
8
DEFAULT_255_1_234
10
9.7803604
20
63.3566211
11
9.9795475
21
63.3566211
0
LINE
8
DEFAULT_255_1_234
10
9.9795475
20
63.3566211
11
10.3618583
21
62.4024506
0
LINE
8
DEFAULT_255_1_234
10
10.3618583
20
62.4024506
11
10.744169
21
63.3566211
0
LINE
8
DEFAULT_255_1_234
10
10.744169
20
63.3566211
11
10.9441593
21
63.3566211
0
LINE
8
DEFAULT_255_1_234
10
10.9441593
20
63.3566211
11
10.9441593
21
62.1872
0
LINE
8
DEFAULT_255_1_234
10
10.9441593
20
62.1872
11
10.7899499
21
62.1872
0
LINE
8
DEFAULT_255_1_234
10
10.7899499
20
62.1872
11
10.7899499
21
62.6425996
0
LINE
8
DEFAULT_255_1_234
10
10.7899499
20
62.6425996
11
10.804407
21
63.1341419
0
LINE
8
DEFAULT_255_1_234
10
10.804407
20
63.1341419
11
10.4204899
21
62.1872
0
LINE
8
DEFAULT_255_1_234
10
10.4204899
20
62.1872
11
10.3024234
21
62.1872
0
LINE
8
DEFAULT_255_1_234
10
10.3024234
20
62.1872
11
9.9193095
21
63.1317324
0
LINE
8
DEFAULT_255_1_234
10
9.9193095
20
63.1317324
11
9.9345698
21
62.6425996
0
LINE
8
DEFAULT_255_1_234
10
9.9345698
20
62.6425996
11
9.9345698
21
62.1872
0
LINE
8
DEFAULT_255_1_234
10
9.9345698
20
62.1872
11
9.7803604
21
62.1872
0
LINE
8
DEFAULT_255_1_234
10
9.7803604
20
62.1872
11
9.7803604
21
63.3566211
0
LINE
8
DEFAULT_255_1_234
10
11.9882853
20
62.1872
11
11.8766441
21
62.4924061
0
LINE
8
DEFAULT_255_1_234
10
11.8766441
20
62.4924061
11
11.3867081
21
62.4924061
0
LINE
8
DEFAULT_255_1_234
10
11.3867081
20
62.4924061
11
11.2766732
21
62.1872
0
LINE
8
DEFAULT_255_1_234
10
11.2766732
20
62.1872
11
11.1176448
21
62.1872
0
LINE
8
DEFAULT_255_1_234
10
11.1176448
20
62.1872
11
11.5642095
21
63.3566211
0
LINE
8
DEFAULT_255_1_234
10
11.5642095
20
63.3566211
11
11.6991427
21
63.3566211
0
LINE
8
DEFAULT_255_1_234
10
11.6991427
20
63.3566211
11
12.1465105
21
62.1872
0
LINE
8
DEFAULT_255_1_234
10
12.1465105
20
62.1872
11
11.9882853
21
62.1872
0
LINE
8
DEFAULT_255_1_234
10
11.6316761
20
63.1662689
11
11.4332921
21
62.6193075
0
LINE
8
DEFAULT_255_1_234
10
11.4332921
20
62.6193075
11
11.8308632
21
62.6193075
0
LINE
8
DEFAULT_255_1_234
10
11.8308632
20
62.6193075
11
11.6316761
21
63.1662689
0
LINE
8
DEFAULT_255_1_234
10
13.008316
20
63.3566211
11
13.008316
21
63.2297196
0
LINE
8
DEFAULT_255_1_234
10
13.008316
20
63.2297196
11
12.6324307
21
63.2297196
0
LINE
8
DEFAULT_255_1_234
10
12.6324307
20
63.2297196
11
12.6324307
21
62.1872
0
LINE
8
DEFAULT_255_1_234
10
12.6324307
20
62.1872
11
12.4790245
21
62.1872
0
LINE
8
DEFAULT_255_1_234
10
12.4790245
20
62.1872
11
12.4790245
21
63.2297196
0
LINE
8
DEFAULT_255_1_234
10
12.4790245
20
63.2297196
11
12.1039423
21
63.2297196
0
LINE
8
DEFAULT_255_1_234
10
12.1039423
20
63.2297196
11
12.1039423
21
63.3566211
0
LINE
8
DEFAULT_255_1_234
10
12.1039423
20
63.3566211
11
13.008316
21
63.3566211
0
LINE
8
DEFAULT_255_1_234
10
13.3472554
20
63.3566211
11
13.3472554
21
62.1872
0
LINE
8
DEFAULT_255_1_234
10
13.3472554
20
62.1872
11
13.193046
21
62.1872
0
LINE
8
DEFAULT_255_1_234
10
13.193046
20
62.1872
11
13.193046
21
63.3566211
0
LINE
8
DEFAULT_255_1_234
10
13.193046
20
63.3566211
11
13.3472554
21
63.3566211
0
LINE
8
DEFAULT_255_1_234
10
14.334356
20
62.5582663
11
14.4893686
21
62.5582663
0
LINE
8
DEFAULT_255_1_234
10
13.5890107
20
62.7172947
11
13.5890107
21
62.8297391
0
LINE
8
DEFAULT_255_1_234
10
14.4893686
20
62.9807357
11
14.334356
21
62.9807357
0
LINE
8
DEFAULT_255_1_234
10
13.7440232
20
62.8257232
11
13.7440232
21
62.7124757
0
ARC
8
DEFAULT_255_1_234
10
13.9413072
20
62.6179846
40
0.5513052
50
340.1774281
51
353.7814284
0
ARC
8
DEFAULT_255_1_234
10
14.0984425
20
62.5594582
40
0.3836379
50
311.4558989
51
340.4421614
0
ARC
8
DEFAULT_255_1_234
10
14.0951093
20
62.5705528
40
0.3941894
50
282.4333181
51
310.7513653
0
ARC
8
DEFAULT_255_1_234
10
14.0511832
20
62.7520679
40
0.5809175
50
269.9358511
51
282.809604
0
ARC
8
DEFAULT_255_1_234
10
14.0459899
20
62.8978212
40
0.7266847
50
270.0021091
51
270.3581957
0
ARC
8
DEFAULT_255_1_234
10
14.0407315
20
62.6377585
40
0.4666519
50
250.7884749
51
270.6489167
0
ARC
8
DEFAULT_255_1_234
10
14.023915
20
62.5740319
40
0.4009729
50
219.3627325
51
250.0611886
0
ARC
8
DEFAULT_255_1_234
10
14.1068361
20
62.6445042
40
0.5097822
50
193.5479632
51
219.5756669
0
ARC
8
DEFAULT_255_1_234
10
14.3439982
20
62.7060919
40
0.7547848
50
181.1218675
51
193.87563
0
ARC
8
DEFAULT_255_1_234
10
14.5510163
20
62.717158
40
0.9620055
50
179.9918545
51
181.5394234
0
ARC
8
DEFAULT_255_1_234
10
14.3659265
20
62.8334788
40
0.7769248
50
169.5837241
51
180.2757934
0
ARC
8
DEFAULT_255_1_234
10
14.1822203
20
62.8674229
40
0.590109
50
155.0365899
51
169.6003176
0
ARC
8
DEFAULT_255_1_234
10
14.0686667
20
62.9221677
40
0.4640625
50
136.783148
51
155.2472683
0
ARC
8
DEFAULT_255_1_234
10
14.0297144
20
62.9552562
40
0.4130255
50
121.7633186
51
136.428115
0
ARC
8
DEFAULT_255_1_234
10
14.0432106
20
62.9303227
40
0.4413323
50
95.6459699
51
121.5490577
0
ARC
8
DEFAULT_255_1_234
10
14.0589388
20
62.8194949
40
0.55319
50
89.924208
51
96.1377933
0
ARC
8
DEFAULT_255_1_234
10
14.0639821
20
62.8313542
40
0.5413475
50
76.6779277
51
90.4563316
0
ARC
8
DEFAULT_255_1_234
10
14.1033444
20
62.9904114
40
0.3775041
50
47.485847
51
76.9287264
0
ARC
8
DEFAULT_255_1_234
10
14.0886417
20
62.9804159
40
0.3948286
50
16.5424086
51
46.8933463
0
ARC
8
DEFAULT_255_1_234
10
13.9278574
20
62.9275861
40
0.564021
50
5.4072051
51
17.0365086
0
ARC
8
DEFAULT_255_1_234
10
13.7839591
20
62.9044679
40
0.5556559
50
7.8891745
51
15.9239216
0
ARC
8
DEFAULT_255_1_234
10
13.9826605
20
62.9621631
40
0.3487515
50
15.7653144
51
27.9410532
0
ARC
8
DEFAULT_255_1_234
10
14.0930822
20
63.021279
40
0.2235026
50
27.8166557
51
46.4008329
0
ARC
8
DEFAULT_255_1_234
10
14.0980465
20
63.0207082
40
0.2205286
50
47.4371857
51
75.0698205
0
ARC
8
DEFAULT_255_1_234
10
14.067186
20
62.9132765
40
0.3322915
50
74.7008593
51
87.8124495
0
ARC
8
DEFAULT_255_1_234
10
14.0598547
20
62.8076844
40
0.4380987
50
87.3814673
51
90.0240855
0
ARC
8
DEFAULT_255_1_234
10
14.0560091
20
62.9254291
40
0.3203749
50
89.3451631
51
108.5745436
0
ARC
8
DEFAULT_255_1_234
10
14.0423196
20
62.9767908
40
0.2673494
50
109.2998449
51
143.3037509
0
ARC
8
DEFAULT_255_1_234
10
14.1185268
20
62.9181881
40
0.3634757
50
143.0753173
51
163.1916937
0
ARC
8
DEFAULT_255_1_234
10
14.3136996
20
62.8565967
40
0.5681262
50
162.9373603
51
174.6208611
0
ARC
8
DEFAULT_255_1_234
10
14.5763038
20
62.827801
40
0.8322832
50
174.3419979
51
180.1430411
0
ARC
8
DEFAULT_255_1_234
10
14.4832194
20
62.7083698
40
0.7392076
50
179.6817502
51
189.150529
0
ARC
8
DEFAULT_255_1_234
10
14.2331443
20
62.666719
40
0.4856932
50
188.9910863
51
203.5773039
0
ARC
8
DEFAULT_255_1_234
10
14.1251775
20
62.6219211
40
0.3688271
50
203.9077269
51
215.1312379
0
ARC
8
DEFAULT_255_1_234
10
14.0328869
20
62.5503941
40
0.2522457
50
213.9071664
51
263.8849284
0
ARC
8
DEFAULT_255_1_234
10
14.0454198
20
62.6288518
40
0.3316174
50
263.1758525
51
270.1031083
0
ARC
8
DEFAULT_255_1_234
10
14.048629
20
62.7535365
40
0.4563091
50
269.6719807
51
279.0609165
0
ARC
8
DEFAULT_255_1_234
10
14.0753058
20
62.5922907
40
0.2928759
50
278.8750225
51
293.6346586
0
ARC
8
DEFAULT_255_1_234
10
14.1073266
20
62.51709
40
0.2111472
50
293.8553404
51
310.0518804
0
ARC
8
DEFAULT_255_1_234
10
14.107812
20
62.5108516
40
0.2060917
50
311.0646779
51
332.0108348
0
ARC
8
DEFAULT_255_1_234
10
13.9885847
20
62.5765978
40
0.3422352
50
331.6588543
51
343.2878891
0
ARC
8
DEFAULT_255_1_234
10
13.7823362
20
62.6399798
40
0.5580003
50
343.1446044
51
351.010618
0
ARC
8
DEFAULT_255_1_234
10
13.6282008
20
62.6680871
40
0.7146438
50
350.7157277
51
351.1602153
0
LINE
8
DEFAULT_255_1_234
10
15.8828751
20
63.0184849
11
15.7278626
21
63.0184849
0
LINE
8
DEFAULT_255_1_234
10
15.0355268
20
62.5261394
11
15.1905393
21
62.5261394
0
ARC
8
DEFAULT_255_1_234
10
15.7937439
20
63.9131768
40
1.252368
50
248.9199003
51
254.1439814
0
ARC
8
DEFAULT_255_1_234
10
15.6256934
20
63.4805234
40
0.788226
50
241.633709
51
249.0064503
0
ARC
8
DEFAULT_255_1_234
10
15.4728328
20
63.2004317
40
0.4691427
50
230.498225
51
241.8087113
0
ARC
8
DEFAULT_255_1_234
10
15.3943902
20
63.1004906
40
0.3421437
50
227.4064532
51
229.9881192
0
ARC
8
DEFAULT_255_1_234
10
15.3456423
20
63.0529088
40
0.2741476
50
200.6781896
51
228.1763934
0
ARC
8
DEFAULT_255_1_234
10
15.3528734
20
63.0514077
40
0.2804109
50
179.5061581
51
199.8694617
0
ARC
8
DEFAULT_255_1_234
10
15.3519485
20
63.058821
40
0.2795204
50
132.4834203
51
181.0242172
0
ARC
8
DEFAULT_255_1_234
10
15.4115068
20
63.0025704
40
0.3612768
50
129.2532479
51
133.4242687
0
ARC
8
DEFAULT_255_1_234
10
15.4261517
20
62.9805965
40
0.3875675
50
101.98776
51
128.8742646
0
ARC
8
DEFAULT_255_1_234
10
15.4660128
20
62.8084741
40
0.5642249
50
89.5906553
51
102.3169264
0
ARC
8
DEFAULT_255_1_234
10
15.473062
20
62.8403148
40
0.5323783
50
77.2360837
51
90.3248275
0
ARC
8
DEFAULT_255_1_234
10
15.4937699
20
62.93704
40
0.4334697
50
63.837784
51
77.0809408
0
ARC
8
DEFAULT_255_1_234
10
15.5215461
20
62.9887911
40
0.3747796
50
45.9864267
51
64.1607727
0
ARC
8
DEFAULT_255_1_234
10
15.5476342
20
63.0185866
40
0.3352302
50
32.2747395
51
45.6547121
0
ARC
8
DEFAULT_255_1_234
10
15.5542783
20
63.020488
40
0.328603
50
359.6507365
51
32.6130309
0
ARC
8
DEFAULT_255_1_234
10
15.4599878
20
63.020966
40
0.2678863
50
359.469343
51
14.9832209
0
ARC
8
DEFAULT_255_1_234
10
15.5304941
20
63.0398539
40
0.1948938
50
14.9781179
51
48.2004265
0
ARC
8
DEFAULT_255_1_234
10
15.5140585
20
63.0191983
40
0.2212521
50
48.5927837
51
74.1241538
0
ARC
8
DEFAULT_255_1_234
10
15.4807074
20
62.9091248
40
0.3362561
50
73.7888341
51
86.6652678
0
ARC
8
DEFAULT_255_1_234
10
15.470464
20
62.7883881
40
0.4573953
50
86.2640471
51
90.0526343
0
ARC
8
DEFAULT_255_1_234
10
15.4676352
20
62.8279192
40
0.4178709
50
89.6697524
51
99.2309573
0
ARC
8
DEFAULT_255_1_234
10
15.4433803
20
62.9723964
40
0.2713749
50
99.069534
51
113.7658566
0
ARC
8
DEFAULT_255_1_234
10
15.4159994
20
63.0369677
40
0.2012469
50
114.0401004
51
127.9850673
0
ARC
8
DEFAULT_255_1_234
10
15.3919558
20
63.066573
40
0.1631167
50
127.7287463
51
176.7105154
0
ARC
8
DEFAULT_255_1_234
10
15.4598276
20
63.0564693
40
0.2315392
50
175.1779447
51
180.0581938
0
ARC
8
DEFAULT_255_1_234
10
15.3755123
20
63.0552428
40
0.1472271
50
179.6142195
51
228.1246017
0
ARC
8
DEFAULT_255_1_234
10
15.4196791
20
63.0961308
40
0.2072299
50
226.5779593
51
230.8800004
0
ARC
8
DEFAULT_255_1_234
10
15.466787
20
63.1586636
40
0.2854818
50
231.4635071
51
241.9260842
0
ARC
8
DEFAULT_255_1_234
10
15.5865048
20
63.37898
40
0.53622
50
241.7178533
51
248.3259551
0
ARC
8
DEFAULT_255_1_234
10
15.725042
20
63.7222064
40
0.9063478
50
248.2007737
51
252.4528373
0
ARC
8
DEFAULT_255_1_234
10
15.8454145
20
64.0943441
40
1.2974635
50
252.3391078
51
254.3469452
0
ARC
8
DEFAULT_255_1_234
10
15.0911847
20
61.3966148
40
1.5037162
50
71.0197183
51
74.4087047
0
ARC
8
DEFAULT_255_1_234
10
15.2606532
20
61.8858111
40
0.9859993
50
66.1847285
51
71.086374
0
ARC
8
DEFAULT_255_1_234
10
15.4162845
20
62.23622
40
0.6025855
50
59.3536294
51
66.2691831
0
ARC
8
DEFAULT_255_1_234
10
15.5051497
20
62.3865609
40
0.4279449
50
49.1020879
51
59.3293958
0
ARC
8
DEFAULT_255_1_234
10
15.5870237
20
62.4798834
40
0.3038015
50
32.7919921
51
49.2505539
0
ARC
8
DEFAULT_255_1_234
10
15.6191327
20
62.5027191
40
0.264448
50
31.1181161
51
32.4005348
0
ARC
8
DEFAULT_255_1_234
10
15.6102865
20
62.4991779
40
0.2738556
50
8.1116974
51
30.7958831
0
ARC
8
DEFAULT_255_1_234
10
15.5292533
20
62.4853753
40
0.3560327
50
359.8389159
51
8.4706516
0
ARC
8
DEFAULT_255_1_234
10
15.5918324
20
62.4805137
40
0.2934776
50
337.4731098
51
0.7537279
0
ARC
8
DEFAULT_255_1_234
10
15.6097019
20
62.4785387
40
0.2762607
50
307.5917067
51
336.4315538
0
ARC
8
DEFAULT_255_1_234
10
15.5636847
20
62.5298102
40
0.3449979
50
307.6551545
51
308.4529766
0
ARC
8
DEFAULT_255_1_234
10
15.5406566
20
62.565325
40
0.3871988
50
284.3734338
51
307.1424381
0
ARC
8
DEFAULT_255_1_234
10
15.4911396
20
62.7474932
40
0.5759636
50
272.4382747
51
284.646547
0
ARC
8
DEFAULT_255_1_234
10
15.4784605
20
62.9274893
40
0.7563528
50
269.9708387
51
272.8178037
0
ARC
8
DEFAULT_255_1_234
10
15.4741645
20
62.7236716
40
0.5525489
50
248.2707594
51
270.4055579
0
ARC
8
DEFAULT_255_1_234
10
15.4687386
20
62.7046192
40
0.5328452
50
246.1383403
51
248.0542782
0
ARC
8
DEFAULT_255_1_234
10
15.4268765
20
62.6166843
40
0.4355005
50
233.1670131
51
246.4950969
0
ARC
8
DEFAULT_255_1_234
10
15.371467
20
62.5418812
40
0.3424126
50
215.3403242
51
233.0843104
0
ARC
8
DEFAULT_255_1_234
10
15.3442101
20
62.5220549
40
0.3087104
50
179.2419209
51
215.2648451
0
ARC
8
DEFAULT_255_1_234
10
15.4209695
20
62.5234666
40
0.2304457
50
179.335461
51
199.1045811
0
ARC
8
DEFAULT_255_1_234
10
15.3877371
20
62.5147766
40
0.1962176
50
199.8828939
51
232.7063202
0
ARC
8
DEFAULT_255_1_234
10
15.434964
20
62.5741788
40
0.2720938
50
232.3738199
51
255.5136649
0
ARC
8
DEFAULT_255_1_234
10
15.4690506
20
62.6985835
40
0.4010747
50
255.2446292
51
267.5320849
0
ARC
8
DEFAULT_255_1_234
10
15.477813
20
62.8218702
40
0.5246356
50
267.1557994
51
270.0286766
0
ARC
8
DEFAULT_255_1_234
10
15.4805902
20
62.777495
40
0.4802668
50
269.7000017
51
278.1660162
0
ARC
8
DEFAULT_255_1_234
10
15.5061907
20
62.6044515
40
0.3053425
50
278.0231263
51
290.625471
0
ARC
8
DEFAULT_255_1_234
10
15.5409594
20
62.5117025
40
0.206291
50
290.6619762
51
307.0370976
0
ARC
8
DEFAULT_255_1_234
10
15.5709983
20
62.4748504
40
0.1587906
50
306.3943566
51
355.3030547
0
ARC
8
DEFAULT_255_1_234
10
15.5197914
20
62.4825113
40
0.2104809
50
354.3660432
51
0.0698737
0
ARC
8
DEFAULT_255_1_234
10
15.534026
20
62.4847617
40
0.1962563
50
359.417946
51
16.1971788
0
ARC
8
DEFAULT_255_1_234
10
15.579557
20
62.4972418
40
0.149053
50
16.4723299
51
52.6262157
0
ARC
8
DEFAULT_255_1_234
10
15.4974624
20
62.3888433
40
0.2850296
50
52.7386432
51
62.4979148
0
ARC
8
DEFAULT_255_1_234
10
15.3589701
20
62.1282283
40
0.5801521
50
62.2515216
51
68.1220564
0
ARC
8
DEFAULT_255_1_234
10
15.1869612
20
61.7054872
40
1.0365451
50
68.0062803
51
71.8053402
0
ARC
8
DEFAULT_255_1_234
10
15.0073983
20
61.1669758
40
1.6042013
50
71.7183119
51
73.9258742
0
LINE
8
DEFAULT_255_1_234
10
16.7992965
20
63.3566211
11
16.7992965
21
63.273091
0
LINE
8
DEFAULT_255_1_234
10
16.7992965
20
63.273091
11
16.3149827
21
62.1872
0
LINE
8
DEFAULT_255_1_234
10
16.3149827
20
62.1872
11
16.1591669
21
62.1872
0
LINE
8
DEFAULT_255_1_234
10
16.1591669
20
62.1872
11
16.6418744
21
63.2345387
0
LINE
8
DEFAULT_255_1_234
10
16.6418744
20
63.2345387
11
16.0089734
21
63.2345387
0
LINE
8
DEFAULT_255_1_234
10
16.0089734
20
63.2345387
11
16.0089734
21
63.3566211
0
LINE
8
DEFAULT_255_1_234
10
16.0089734
20
63.3566211
11
16.7992965
21
63.3566211
0
LINE
8
DEFAULT_255_1_234
10
17.2924452
20
62.7446026
11
17.2924452
21
62.6233234
0
LINE
8
DEFAULT_255_1_234
10
17.2924452
20
62.6233234
11
16.9004964
21
62.6233234
0
LINE
8
DEFAULT_255_1_234
10
16.9004964
20
62.6233234
11
16.9004964
21
62.7446026
0
LINE
8
DEFAULT_255_1_234
10
16.9004964
20
62.7446026
11
17.2924452
21
62.7446026
0
LINE
8
DEFAULT_255_1_234
10
18.049035
20
63.3566211
11
18.049035
21
62.579952
0
LINE
8
DEFAULT_255_1_234
10
18.049035
20
62.579952
11
18.2112761
21
62.579952
0
LINE
8
DEFAULT_255_1_234
10
18.2112761
20
62.579952
11
18.2112761
21
62.4586728
0
LINE
8
DEFAULT_255_1_234
10
18.2112761
20
62.4586728
11
18.049035
21
62.4586728
0
LINE
8
DEFAULT_255_1_234
10
18.049035
20
62.4586728
11
18.049035
21
62.1872
0
LINE
8
DEFAULT_255_1_234
10
18.049035
20
62.1872
11
17.8996446
21
62.1872
0
LINE
8
DEFAULT_255_1_234
10
17.8996446
20
62.1872
11
17.8996446
21
62.4586728
0
LINE
8
DEFAULT_255_1_234
10
17.8996446
20
62.4586728
11
17.3671404
21
62.4586728
0
LINE
8
DEFAULT_255_1_234
10
17.3671404
20
62.4586728
11
17.3671404
21
62.5462187
0
LINE
8
DEFAULT_255_1_234
10
17.3671404
20
62.5462187
11
17.8908097
21
63.3566211
0
LINE
8
DEFAULT_255_1_234
10
17.8908097
20
63.3566211
11
18.049035
21
63.3566211
0
LINE
8
DEFAULT_255_1_234
10
17.8819748
20
63.1212912
11
17.5358069
21
62.579952
0
LINE
8
DEFAULT_255_1_234
10
17.5358069
20
62.579952
11
17.8996446
21
62.579952
0
LINE
8
DEFAULT_255_1_234
10
17.8996446
20
62.579952
11
17.8996446
21
63.1534181
0
LINE
8
DEFAULT_255_1_234
10
17.8996446
20
63.1534181
11
17.8819748
21
63.1212912
0
LINE
8
DEFAULT_255_1_234
10
19.0787038
20
62.8787327
11
19.0787038
21
62.6859709
0
LINE
8
DEFAULT_255_1_234
10
18.3405871
20
62.6658916
11
18.3405871
21
62.8642755
0
LINE
8
DEFAULT_255_1_234
10
18.9301167
20
62.6458123
11
18.9301167
21
62.8891739
0
LINE
8
DEFAULT_255_1_234
10
18.4891742
20
62.9004184
11
18.4891742
21
62.6626789
0
ARC
8
DEFAULT_255_1_234
10
17.8539928
20
62.6810805
40
1.2247208
50
353.8441951
51
0.2287902
0
ARC
8
DEFAULT_255_1_234
10
18.3179431
20
62.6292806
40
0.7578929
50
344.4934747
51
353.9765454
0
ARC
8
DEFAULT_255_1_234
10
18.6172022
20
62.5441981
40
0.4467846
50
329.2803592
51
344.7472793
0
ARC
8
DEFAULT_255_1_234
10
18.7164846
20
62.4897018
40
0.3336173
50
324.9352394
51
328.6160465
0
ARC
8
DEFAULT_255_1_234
10
18.7541955
20
62.4633427
40
0.2876076
50
280.580143
51
324.9173126
0
ARC
8
DEFAULT_255_1_234
10
18.7140748
20
62.6304099
40
0.4592847
50
269.5977311
51
281.6734359
0
ARC
8
DEFAULT_255_1_234
10
18.7068653
20
62.6184173
40
0.4472986
50
256.6228859
51
270.51044
0
ARC
8
DEFAULT_255_1_234
10
18.6666631
20
62.4635877
40
0.2873874
50
215.8618325
51
257.2788573
0
ARC
8
DEFAULT_255_1_234
10
18.7687663
20
62.5320977
40
0.4102928
50
197.9693508
51
215.2623606
0
ARC
8
DEFAULT_255_1_234
10
19.0172778
20
62.6159709
40
0.6725652
50
187.8816417
51
198.2346507
0
ARC
8
DEFAULT_255_1_234
10
19.4130987
20
62.6731079
40
1.0724845
50
180.8976217
51
188.0055519
0
ARC
8
DEFAULT_255_1_234
10
19.6931175
20
62.6834777
40
1.3526448
50
180.7449369
51
181.1510016
0
ARC
8
DEFAULT_255_1_234
10
19.5353904
20
62.8691042
40
1.1948131
50
173.7675579
51
180.231553
0
ARC
8
DEFAULT_255_1_234
10
19.083605
20
62.9201666
40
0.7401564
50
164.3058563
51
173.9002247
0
ARC
8
DEFAULT_255_1_234
10
18.7924119
20
63.0040656
40
0.4371288
50
148.7922025
51
164.568378
0
ARC
8
DEFAULT_255_1_234
10
18.6972571
20
63.0571929
40
0.3282386
50
144.5883898
51
148.1176286
0
ARC
8
DEFAULT_255_1_234
10
18.6629469
20
63.0811315
40
0.2864044
50
101.6440918
51
144.514236
0
ARC
8
DEFAULT_255_1_234
10
18.7054536
20
62.9122069
40
0.4604934
50
89.5284041
51
102.5819763
0
ARC
8
DEFAULT_255_1_234
10
18.7133624
20
62.9083018
40
0.464401
50
77.0437873
51
90.5081339
0
ARC
8
DEFAULT_255_1_234
10
18.7535626
20
63.0725615
40
0.2953195
50
48.2778575
51
77.4994676
0
ARC
8
DEFAULT_255_1_234
10
18.7608257
20
63.0854746
40
0.2808655
50
36.3142134
51
47.6305865
0
ARC
8
DEFAULT_255_1_234
10
18.6739564
20
63.0269515
40
0.3855453
50
18.2931786
51
35.6769206
0
ARC
8
DEFAULT_255_1_234
10
18.4196323
20
62.9396593
40
0.654423
50
8.024666
51
18.5605216
0
ARC
8
DEFAULT_255_1_234
10
18.0033243
20
62.8781792
40
1.0752407
50
1.1274072
51
8.1718305
0
ARC
8
DEFAULT_255_1_234
10
17.6797433
20
62.8654885
40
1.3990231
50
0.5424119
51
1.3863029
0
ARC
8
DEFAULT_255_1_234
10
17.8618811
20
62.8927342
40
1.0682415
50
359.8090433
51
4.9407866
0
ARC
8
DEFAULT_255_1_234
10
18.2828825
20
62.9303113
40
0.6455691
50
4.8362157
51
12.2904523
0
ARC
8
DEFAULT_255_1_234
10
18.558394
20
62.9916965
40
0.3633074
50
12.0805627
51
23.8173984
0
ARC
8
DEFAULT_255_1_234
10
18.6757645
20
63.0413919
40
0.2358723
50
24.2871213
51
31.3935614
0
ARC
8
DEFAULT_255_1_234
10
18.7282342
20
63.0757233
40
0.1732111
50
30.7407893
51
82.4657128
0
ARC
8
DEFAULT_255_1_234
10
18.7102477
20
62.9873691
40
0.263235
50
81.1060089
51
90.2184952
0
ARC
8
DEFAULT_255_1_234
10
18.7066776
20
63.0131924
40
0.2374236
50
89.3806855
51
105.6762551
0
ARC
8
DEFAULT_255_1_234
10
18.6883406
20
63.0798567
40
0.1682847
50
105.7981136
51
149.7388061
0
ARC
8
DEFAULT_255_1_234
10
18.7947485
20
63.015895
40
0.2924306
50
149.4208916
51
163.6286378
0
ARC
8
DEFAULT_255_1_234
10
19.0038373
20
62.952125
40
0.5110213
50
163.3763315
51
172.1410975
0
ARC
8
DEFAULT_255_1_234
10
19.3339092
20
62.9048518
40
0.8444586
50
172.0259487
51
178.0703232
0
ARC
8
DEFAULT_255_1_234
10
19.6369181
20
62.8904906
40
1.1477868
50
177.8631668
51
179.5044149
0
ARC
8
DEFAULT_255_1_234
10
19.5296586
20
62.6590389
40
1.0404907
50
179.7995573
51
185.2460446
0
ARC
8
DEFAULT_255_1_234
10
19.1253625
20
62.6207513
40
0.6343885
50
185.1411642
51
193.0079639
0
ARC
8
DEFAULT_255_1_234
10
18.8610097
20
62.5582641
40
0.3627568
50
192.7897626
51
205.2507664
0
ARC
8
DEFAULT_255_1_234
10
18.7563644
20
62.5115415
40
0.2481908
50
205.8005384
51
211.2537509
0
ARC
8
DEFAULT_255_1_234
10
18.7040085
20
62.476458
40
0.1852521
50
210.3789793
51
238.4008143
0
ARC
8
DEFAULT_255_1_234
10
18.7020607
20
62.4811376
40
0.1882621
50
239.6520629
51
265.9793761
0
ARC
8
DEFAULT_255_1_234
10
18.7105807
20
62.5483427
40
0.2559272
50
265.1315437
51
270.060332
0
ARC
8
DEFAULT_255_1_234
10
18.7134586
20
62.5159534
40
0.2235528
50
269.3314664
51
287.2178029
0
ARC
8
DEFAULT_255_1_234
10
18.7272438
20
62.4656279
40
0.1714108
50
287.7958004
51
329.080874
0
ARC
8
DEFAULT_255_1_234
10
18.6314894
20
62.525393
40
0.2842745
50
328.6634704
51
343.3325132
0
ARC
8
DEFAULT_255_1_234
10
18.4141915
20
62.5930863
40
0.5118644
50
343.0499468
51
351.9393422
0
ARC
8
DEFAULT_255_1_234
10
18.0675215
20
62.6441949
40
0.8622784
50
351.8069023
51
357.7959224
0
ARC
8
DEFAULT_255_1_234
10
17.7439771
20
62.6609721
40
1.1862365
50
357.5871873
51
359.2677531
0
LINE
8
DEFAULT_255_1_234
10
20.0023537
20
62.8787327
11
20.0023537
21
62.6859709
0
LINE
8
DEFAULT_255_1_234
10
19.264237
20
62.6658916
11
19.264237
21
62.8642755
0
LINE
8
DEFAULT_255_1_234
10
19.8537666
20
62.6458123
11
19.8537666
21
62.8891739
0
LINE
8
DEFAULT_255_1_234
10
19.4128241
20
62.9004184
11
19.4128241
21
62.6626789
0
ARC
8
DEFAULT_255_1_234
10
18.7776427
20
62.6810805
40
1.2247208
50
353.8441951
51
0.2287902
0
ARC
8
DEFAULT_255_1_234
10
19.241593
20
62.6292806
40
0.7578929
50
344.4934747
51
353.9765454
0
ARC
8
DEFAULT_255_1_234
10
19.5408521
20
62.5441981
40
0.4467846
50
329.2803592
51
344.7472793
0
ARC
8
DEFAULT_255_1_234
10
19.6401345
20
62.4897018
40
0.3336173
50
324.9352394
51
328.6160465
0
ARC
8
DEFAULT_255_1_234
10
19.6778454
20
62.4633427
40
0.2876076
50
280.580143
51
324.9173126
0
ARC
8
DEFAULT_255_1_234
10
19.6377247
20
62.6304099
40
0.4592847
50
269.5977311
51
281.6734359
0
ARC
8
DEFAULT_255_1_234
10
19.6305152
20
62.6184173
40
0.4472986
50
256.6228859
51
270.51044
0
ARC
8
DEFAULT_255_1_234
10
19.590313
20
62.4635877
40
0.2873874
50
215.8618325
51
257.2788573
0
ARC
8
DEFAULT_255_1_234
10
19.6924162
20
62.5320977
40
0.4102928
50
197.9693508
51
215.2623606
0
ARC
8
DEFAULT_255_1_234
10
19.9409277
20
62.6159709
40
0.6725652
50
187.8816417
51
198.2346507
0
ARC
8
DEFAULT_255_1_234
10
20.3367486
20
62.6731079
40
1.0724845
50
180.8976217
51
188.0055519
0
ARC
8
DEFAULT_255_1_234
10
20.6167674
20
62.6834777
40
1.3526448
50
180.7449369
51
181.1510016
0
ARC
8
DEFAULT_255_1_234
10
20.4590403
20
62.8691042
40
1.1948131
50
173.7675579
51
180.231553
0
ARC
8
DEFAULT_255_1_234
10
20.0072549
20
62.9201666
40
0.7401564
50
164.3058563
51
173.9002247
0
ARC
8
DEFAULT_255_1_234
10
19.7160618
20
63.0040656
40
0.4371288
50
148.7922025
51
164.568378
0
ARC
8
DEFAULT_255_1_234
10
19.620907
20
63.0571929
40
0.3282386
50
144.5883898
51
148.1176286
0
ARC
8
DEFAULT_255_1_234
10
19.5865968
20
63.0811315
40
0.2864044
50
101.6440918
51
144.514236
0
ARC
8
DEFAULT_255_1_234
10
19.6291035
20
62.9122069
40
0.4604934
50
89.5284041
51
102.5819763
0
ARC
8
DEFAULT_255_1_234
10
19.6370123
20
62.9083018
40
0.464401
50
77.0437873
51
90.5081339
0
ARC
8
DEFAULT_255_1_234
10
19.6772125
20
63.0725615
40
0.2953195
50
48.2778575
51
77.4994676
0
ARC
8
DEFAULT_255_1_234
10
19.6844756
20
63.0854746
40
0.2808655
50
36.3142134
51
47.6305865
0
ARC
8
DEFAULT_255_1_234
10
19.5976063
20
63.0269515
40
0.3855453
50
18.2931786
51
35.6769206
0
ARC
8
DEFAULT_255_1_234
10
19.3432822
20
62.9396593
40
0.654423
50
8.024666
51
18.5605216
0
ARC
8
DEFAULT_255_1_234
10
18.9269742
20
62.8781792
40
1.0752407
50
1.1274072
51
8.1718305
0
ARC
8
DEFAULT_255_1_234
10
18.6033932
20
62.8654885
40
1.3990231
50
0.5424119
51
1.3863029
0
ARC
8
DEFAULT_255_1_234
10
18.785531
20
62.8927342
40
1.0682415
50
359.8090433
51
4.9407866
0
ARC
8
DEFAULT_255_1_234
10
19.2065324
20
62.9303113
40
0.6455691
50
4.8362157
51
12.2904523
0
ARC
8
DEFAULT_255_1_234
10
19.4820439
20
62.9916965
40
0.3633074
50
12.0805627
51
23.8173984
0
ARC
8
DEFAULT_255_1_234
10
19.5994144
20
63.0413919
40
0.2358723
50
24.2871213
51
31.3935614
0
ARC
8
DEFAULT_255_1_234
10
19.6518841
20
63.0757233
40
0.1732111
50
30.7407893
51
82.4657128
0
ARC
8
DEFAULT_255_1_234
10
19.6338976
20
62.9873691
40
0.263235
50
81.1060089
51
90.2184952
0
ARC
8
DEFAULT_255_1_234
10
19.6303275
20
63.0131924
40
0.2374236
50
89.3806855
51
105.6762551
0
ARC
8
DEFAULT_255_1_234
10
19.6119905
20
63.0798567
40
0.1682847
50
105.7981136
51
149.7388061
0
ARC
8
DEFAULT_255_1_234
10
19.7183984
20
63.015895
40
0.2924306
50
149.4208916
51
163.6286378
0
ARC
8
DEFAULT_255_1_234
10
19.9274872
20
62.952125
40
0.5110213
50
163.3763315
51
172.1410975
0
ARC
8
DEFAULT_255_1_234
10
20.2575591
20
62.9048518
40
0.8444586
50
172.0259487
51
178.0703232
0
ARC
8
DEFAULT_255_1_234
10
20.560568
20
62.8904906
40
1.1477868
50
177.8631668
51
179.5044149
0
ARC
8
DEFAULT_255_1_234
10
20.4533085
20
62.6590389
40
1.0404907
50
179.7995573
51
185.2460446
0
ARC
8
DEFAULT_255_1_234
10
20.0490124
20
62.6207513
40
0.6343885
50
185.1411642
51
193.0079639
0
ARC
8
DEFAULT_255_1_234
10
19.7846596
20
62.5582641
40
0.3627568
50
192.7897626
51
205.2507664
0
ARC
8
DEFAULT_255_1_234
10
19.6800143
20
62.5115415
40
0.2481908
50
205.8005384
51
211.2537509
0
ARC
8
DEFAULT_255_1_234
10
19.6276584
20
62.476458
40
0.1852521
50
210.3789793
51
238.4008143
0
ARC
8
DEFAULT_255_1_234
10
19.6257106
20
62.4811376
40
0.1882621
50
239.6520629
51
265.9793761
0
ARC
8
DEFAULT_255_1_234
10
19.6342306
20
62.5483427
40
0.2559272
50
265.1315437
51
270.060332
0
ARC
8
DEFAULT_255_1_234
10
19.6371085
20
62.5159534
40
0.2235528
50
269.3314664
51
287.2178029
0
ARC
8
DEFAULT_255_1_234
10
19.6508937
20
62.4656279
40
0.1714108
50
287.7958004
51
329.080874
0
ARC
8
DEFAULT_255_1_234
10
19.5551394
20
62.525393
40
0.2842745
50
328.6634704
51
343.3325132
0
ARC
8
DEFAULT_255_1_234
10
19.3378414
20
62.5930863
40
0.5118644
50
343.0499468
51
351.9393422
0
ARC
8
DEFAULT_255_1_234
10
18.9911714
20
62.6441949
40
0.8622784
50
351.8069023
51
357.7959224
0
ARC
8
DEFAULT_255_1_234
10
18.667627
20
62.6609721
40
1.1862365
50
357.5871873
51
359.2677531
0
LINE
8
DEFAULT_255_1_234
10
4.5985137
20
61.3779433
11
4.5985137
21
60.2029
0
LINE
8
DEFAULT_255_1_234
10
4.5985137
20
60.2029
11
4.4491234
21
60.2029
0
LINE
8
DEFAULT_255_1_234
10
4.4491234
20
60.2029
11
4.4491234
21
61.1932133
0
LINE
8
DEFAULT_255_1_234
10
4.4491234
20
61.1932133
11
4.1495396
21
61.0831785
0
LINE
8
DEFAULT_255_1_234
10
4.1495396
20
61.0831785
11
4.1495396
21
61.2181117
0
LINE
8
DEFAULT_255_1_234
10
4.1495396
20
61.2181117
11
4.5752217
21
61.3779433
0
LINE
8
DEFAULT_255_1_234
10
4.5752217
20
61.3779433
11
4.5985137
21
61.3779433
0
LINE
8
DEFAULT_255_1_234
10
5.2273988
20
61.3723211
11
5.2273988
21
60.3289983
0
LINE
8
DEFAULT_255_1_234
10
5.2273988
20
60.3289983
11
5.7815888
21
60.3289983
0
LINE
8
DEFAULT_255_1_234
10
5.7815888
20
60.3289983
11
5.7815888
21
60.2029
0
LINE
8
DEFAULT_255_1_234
10
5.7815888
20
60.2029
11
5.0723863
21
60.2029
0
LINE
8
DEFAULT_255_1_234
10
5.0723863
20
60.2029
11
5.0723863
21
61.3723211
0
LINE
8
DEFAULT_255_1_234
10
5.0723863
20
61.3723211
11
5.2273988
21
61.3723211
0
LINE
8
DEFAULT_255_1_234
10
6.3598739
20
61.1715276
11
6.3598739
21
60.8301788
0
LINE
8
DEFAULT_255_1_234
10
6.3598739
20
60.8301788
11
6.6859625
21
60.8301788
0
LINE
8
DEFAULT_255_1_234
10
6.6859625
20
60.8301788
11
6.6859625
21
60.6896233
0
LINE
8
DEFAULT_255_1_234
10
6.6859625
20
60.6896233
11
6.3598739
21
60.6896233
0
LINE
8
DEFAULT_255_1_234
10
6.3598739
20
60.6896233
11
6.3598739
21
60.3201634
0
LINE
8
DEFAULT_255_1_234
10
6.3598739
20
60.3201634
11
6.2104836
21
60.3201634
0
LINE
8
DEFAULT_255_1_234
10
6.2104836
20
60.3201634
11
6.2104836
21
60.6896233
0
LINE
8
DEFAULT_255_1_234
10
6.2104836
20
60.6896233
11
5.884395
21
60.6896233
0
LINE
8
DEFAULT_255_1_234
10
5.884395
20
60.6896233
11
5.884395
21
60.8301788
0
LINE
8
DEFAULT_255_1_234
10
5.884395
20
60.8301788
11
6.2104836
21
60.8301788
0
LINE
8
DEFAULT_255_1_234
10
6.2104836
20
60.8301788
11
6.2104836
21
61.1715276
0
LINE
8
DEFAULT_255_1_234
10
6.2104836
20
61.1715276
11
6.3598739
21
61.1715276
0
LINE
8
DEFAULT_255_1_234
10
4.893177
20
5.8098211
11
5.0481896
21
5.8098211
0
LINE
8
DEFAULT_255_1_234
10
5.0481896
20
5.8098211
11
5.0481896
21
5.014679
0
LINE
8
DEFAULT_255_1_234
10
4.6642725
20
4.6259429
11
4.6233106
21
4.6243365
0
LINE
8
DEFAULT_255_1_234
10
4.2016443
20
5.0130727
11
4.2016443
21
5.8098211
0
LINE
8
DEFAULT_255_1_234
10
4.2016443
20
5.8098211
11
4.3542474
21
5.8098211
0
LINE
8
DEFAULT_255_1_234
10
4.3542474
20
5.8098211
11
4.3542474
21
5.0178917
0
LINE
8
DEFAULT_255_1_234
10
4.893177
20
5.0170885
11
4.893177
21
5.8098211
0
ARC
8
DEFAULT_255_1_234
10
4.6128794
20
5.0126928
40
0.4353147
50
343.0898354
51
0.2614217
0
ARC
8
DEFAULT_255_1_234
10
4.6957195
20
4.9895837
40
0.3493402
50
315.3345598
51
342.7641223
0
ARC
8
DEFAULT_255_1_234
10
4.6733644
20
5.0127682
40
0.3815385
50
284.6606969
51
315.2182466
0
ARC
8
DEFAULT_255_1_234
10
4.6278357
20
5.1673755
40
0.5426573
50
273.8500273
51
285.1797701
0
ARC
8
DEFAULT_255_1_234
10
4.6190408
20
5.2015475
40
0.5772268
50
257.6317484
51
270.4238298
0
ARC
8
DEFAULT_255_1_234
10
4.5765606
20
5.0194198
40
0.3902347
50
230.6087562
51
257.9964012
0
ARC
8
DEFAULT_255_1_234
10
4.5633608
20
4.9987802
40
0.3659186
50
227.7440991
51
230.1551448
0
ARC
8
DEFAULT_255_1_234
10
4.5499439
20
4.9826471
40
0.3449568
50
189.2524587
51
227.5916061
0
ARC
8
DEFAULT_255_1_234
10
4.7021126
20
5.0154013
40
0.5004737
50
180.2665968
51
190.1525252
0
ARC
8
DEFAULT_255_1_234
10
4.7243146
20
5.0150918
40
0.3700778
50
179.5665184
51
191.9952995
0
ARC
8
DEFAULT_255_1_234
10
4.6015252
20
4.9877043
40
0.2442808
50
191.6974072
51
215.1404042
0
ARC
8
DEFAULT_255_1_234
10
4.5777167
20
4.9735108
40
0.2166522
50
215.6950207
51
224.8513522
0
ARC
8
DEFAULT_255_1_234
10
4.583291
20
4.9814697
40
0.2262237
50
225.2846858
51
255.0111758
0
ARC
8
DEFAULT_255_1_234
10
4.615687
20
5.0928455
40
0.3421979
50
254.5944985
51
267.9129803
0
ARC
8
DEFAULT_255_1_234
10
4.6231351
20
5.2012903
40
0.4508556
50
267.4689655
51
270.0223026
0
ARC
8
DEFAULT_255_1_234
10
4.6261496
20
5.1423849
40
0.3919604
50
269.5849941
51
281.1843768
0
ARC
8
DEFAULT_255_1_234
10
4.6540261
20
5.0071059
40
0.2538457
50
280.9344262
51
300.9743589
0
ARC
8
DEFAULT_255_1_234
10
4.6752866
20
4.9679688
40
0.2093566
50
301.4980046
51
315.1466847
0
ARC
8
DEFAULT_255_1_234
10
4.6608405
20
4.9798236
40
0.2279656
50
315.5952539
51
345.6678731
0
ARC
8
DEFAULT_255_1_234
10
4.5488921
20
5.0110009
40
0.3441564
50
345.2524969
51
358.6304371
0
ARC
8
DEFAULT_255_1_234
10
4.4471275
20
5.0169916
40
0.4460494
50
358.1735671
51
0.0124524
0
LINE
8
DEFAULT_255_1_234
10
6.0674171
20
5.4716849
11
5.9124046
21
5.4716849
0
LINE
8
DEFAULT_255_1_234
10
5.2200688
20
4.9793394
11
5.3750813
21
4.9793394
0
ARC
8
DEFAULT_255_1_234
10
5.9782859
20
6.3663768
40
1.252368
50
248.9199003
51
254.1439814
0
ARC
8
DEFAULT_255_1_234
10
5.8102354
20
5.9337234
40
0.788226
50
241.633709
51
249.0064503
0
ARC
8
DEFAULT_255_1_234
10
5.6573748
20
5.6536317
40
0.4691427
50
230.498225
51
241.8087113
0
ARC
8
DEFAULT_255_1_234
10
5.5789322
20
5.5536906
40
0.3421437
50
227.4064532
51
229.9881192
0
ARC
8
DEFAULT_255_1_234
10
5.5301843
20
5.5061088
40
0.2741476
50
200.6781896
51
228.1763934
0
ARC
8
DEFAULT_255_1_234
10
5.5374154
20
5.5046077
40
0.2804109
50
179.5061581
51
199.8694617
0
ARC
8
DEFAULT_255_1_234
10
5.5364905
20
5.512021
40
0.2795204
50
132.4834203
51
181.0242172
0
ARC
8
DEFAULT_255_1_234
10
5.5960488
20
5.4557704
40
0.3612768
50
129.2532479
51
133.4242687
0
ARC
8
DEFAULT_255_1_234
10
5.6106937
20
5.4337965
40
0.3875675
50
101.98776
51
128.8742646
0
ARC
8
DEFAULT_255_1_234
10
5.6505548
20
5.2616741
40
0.5642249
50
89.5906553
51
102.3169264
0
ARC
8
DEFAULT_255_1_234
10
5.657604
20
5.2935148
40
0.5323783
50
77.2360837
51
90.3248275
0
ARC
8
DEFAULT_255_1_234
10
5.6783119
20
5.39024
40
0.4334697
50
63.837784
51
77.0809408
0
ARC
8
DEFAULT_255_1_234
10
5.7060881
20
5.4419911
40
0.3747796
50
45.9864267
51
64.1607727
0
ARC
8
DEFAULT_255_1_234
10
5.7321762
20
5.4717866
40
0.3352302
50
32.2747395
51
45.6547121
0
ARC
8
DEFAULT_255_1_234
10
5.7388203
20
5.473688
40
0.328603
50
359.6507365
51
32.6130309
0
ARC
8
DEFAULT_255_1_234
10
5.6445298
20
5.474166
40
0.2678863
50
359.469343
51
14.9832209
0
ARC
8
DEFAULT_255_1_234
10
5.7150361
20
5.4930539
40
0.1948938
50
14.9781179
51
48.2004265
0
ARC
8
DEFAULT_255_1_234
10
5.6986005
20
5.4723983
40
0.2212521
50
48.5927837
51
74.1241538
0
ARC
8
DEFAULT_255_1_234
10
5.6652494
20
5.3623248
40
0.3362561
50
73.7888341
51
86.6652678
0
ARC
8
DEFAULT_255_1_234
10
5.655006
20
5.2415881
40
0.4573953
50
86.2640471
51
90.0526343
0
ARC
8
DEFAULT_255_1_234
10
5.6521772
20
5.2811192
40
0.4178709
50
89.6697524
51
99.2309573
0
ARC
8
DEFAULT_255_1_234
10
5.6279223
20
5.4255964
40
0.2713749
50
99.069534
51
113.7658566
0
ARC
8
DEFAULT_255_1_234
10
5.6005414
20
5.4901677
40
0.2012469
50
114.0401004
51
127.9850673
0
ARC
8
DEFAULT_255_1_234
10
5.5764978
20
5.519773
40
0.1631167
50
127.7287463
51
176.7105154
0
ARC
8
DEFAULT_255_1_234
10
5.6443696
20
5.5096693
40
0.2315392
50
175.1779447
51
180.0581938
0
ARC
8
DEFAULT_255_1_234
10
5.5600542
20
5.5084428
40
0.1472271
50
179.6142195
51
228.1246017
0
ARC
8
DEFAULT_255_1_234
10
5.6042211
20
5.5493308
40
0.2072299
50
226.5779593
51
230.8800004
0
ARC
8
DEFAULT_255_1_234
10
5.651329
20
5.6118636
40
0.2854818
50
231.4635071
51
241.9260842
0
ARC
8
DEFAULT_255_1_234
10
5.7710468
20
5.83218
40
0.53622
50
241.7178533
51
248.3259551
0
ARC
8
DEFAULT_255_1_234
10
5.909584
20
6.1754064
40
0.9063478
50
248.2007737
51
252.4528373
0
ARC
8
DEFAULT_255_1_234
10
6.0299565
20
6.5475441
40
1.2974635
50
252.3391078
51
254.3469452
0
ARC
8
DEFAULT_255_1_234
10
5.2757267
20
3.8498148
40
1.5037162
50
71.0197183
51
74.4087047
0
ARC
8
DEFAULT_255_1_234
10
5.4451952
20
4.3390111
40
0.9859993
50
66.1847285
51
71.086374
0
ARC
8
DEFAULT_255_1_234
10
5.6008265
20
4.68942
40
0.6025855
50
59.3536294
51
66.2691831
0
ARC
8
DEFAULT_255_1_234
10
5.6896917
20
4.8397609
40
0.4279449
50
49.1020879
51
59.3293958
0
ARC
8
DEFAULT_255_1_234
10
5.7715657
20
4.9330834
40
0.3038015
50
32.7919921
51
49.2505539
0
ARC
8
DEFAULT_255_1_234
10
5.8036747
20
4.9559191
40
0.264448
50
31.1181161
51
32.4005348
0
ARC
8
DEFAULT_255_1_234
10
5.7948285
20
4.9523779
40
0.2738556
50
8.1116974
51
30.7958831
0
ARC
8
DEFAULT_255_1_234
10
5.7137953
20
4.9385753
40
0.3560327
50
359.8389159
51
8.4706516
0
ARC
8
DEFAULT_255_1_234
10
5.7763744
20
4.9337137
40
0.2934776
50
337.4731098
51
0.7537279
0
ARC
8
DEFAULT_255_1_234
10
5.7942439
20
4.9317387
40
0.2762607
50
307.5917067
51
336.4315538
0
ARC
8
DEFAULT_255_1_234
10
5.7482267
20
4.9830102
40
0.3449979
50
307.6551545
51
308.4529766
0
ARC
8
DEFAULT_255_1_234
10
5.7251986
20
5.018525
40
0.3871988
50
284.3734338
51
307.1424381
0
ARC
8
DEFAULT_255_1_234
10
5.6756816
20
5.2006932
40
0.5759636
50
272.4382747
51
284.646547
0
ARC
8
DEFAULT_255_1_234
10
5.6630025
20
5.3806893
40
0.7563528
50
269.9708387
51
272.8178037
0
ARC
8
DEFAULT_255_1_234
10
5.6587064
20
5.1768716
40
0.5525489
50
248.2707594
51
270.4055579
0
ARC
8
DEFAULT_255_1_234
10
5.6532806
20
5.1578192
40
0.5328452
50
246.1383403
51
248.0542782
0
ARC
8
DEFAULT_255_1_234
10
5.6114185
20
5.0698843
40
0.4355005
50
233.1670131
51
246.4950969
0
ARC
8
DEFAULT_255_1_234
10
5.5560089
20
4.9950812
40
0.3424126
50
215.3403242
51
233.0843104
0
ARC
8
DEFAULT_255_1_234
10
5.5287521
20
4.9752549
40
0.3087104
50
179.2419209
51
215.2648451
0
ARC
8
DEFAULT_255_1_234
10
5.6055115
20
4.9766666
40
0.2304457
50
179.335461
51
199.1045811
0
ARC
8
DEFAULT_255_1_234
10
5.5722791
20
4.9679766
40
0.1962176
50
199.8828939
51
232.7063202
0
ARC
8
DEFAULT_255_1_234
10
5.6195059
20
5.0273788
40
0.2720938
50
232.3738199
51
255.5136649
0
ARC
8
DEFAULT_255_1_234
10
5.6535926
20
5.1517835
40
0.4010747
50
255.2446292
51
267.5320849
0
ARC
8
DEFAULT_255_1_234
10
5.6623549
20
5.2750702
40
0.5246356
50
267.1557994
51
270.0286766
0
ARC
8
DEFAULT_255_1_234
10
5.6651322
20
5.230695
40
0.4802668
50
269.7000017
51
278.1660162
0
ARC
8
DEFAULT_255_1_234
10
5.6907327
20
5.0576515
40
0.3053425
50
278.0231263
51
290.625471
0
ARC
8
DEFAULT_255_1_234
10
5.7255014
20
4.9649025
40
0.206291
50
290.6619762
51
307.0370976
0
ARC
8
DEFAULT_255_1_234
10
5.7555403
20
4.9280504
40
0.1587906
50
306.3943566
51
355.3030547
0
ARC
8
DEFAULT_255_1_234
10
5.7043334
20
4.9357113
40
0.2104809
50
354.3660432
51
0.0698737
0
ARC
8
DEFAULT_255_1_234
10
5.718568
20
4.9379617
40
0.1962563
50
359.417946
51
16.1971788
0
ARC
8
DEFAULT_255_1_234
10
5.764099
20
4.9504418
40
0.149053
50
16.4723299
51
52.6262157
0
ARC
8
DEFAULT_255_1_234
10
5.6820044
20
4.8420433
40
0.2850296
50
52.7386432
51
62.4979148
0
ARC
8
DEFAULT_255_1_234
10
5.5435121
20
4.5814283
40
0.5801521
50
62.2515216
51
68.1220564
0
ARC
8
DEFAULT_255_1_234
10
5.3715031
20
4.1586872
40
1.0365451
50
68.0062803
51
71.8053402
0
ARC
8
DEFAULT_255_1_234
10
5.1919403
20
3.6201758
40
1.6042013
50
71.7183119
51
73.9258742
0
LINE
8
DEFAULT_255_1_234
10
6.6730102
20
4.6404
11
6.2674074
21
4.6404
0
LINE
8
DEFAULT_255_1_234
10
6.2674074
20
4.6404
11
6.2674074
21
5.8098211
0
LINE
8
DEFAULT_255_1_234
10
6.2674074
20
5.8098211
11
6.6497182
21
5.8098211
0
LINE
8
DEFAULT_255_1_234
10
6.6786324
20
5.1873614
11
6.4216168
21
5.1873614
0
LINE
8
DEFAULT_255_1_234
10
6.4216168
20
5.1873614
11
6.4216168
21
4.7664983
0
LINE
8
DEFAULT_255_1_234
10
6.4216168
20
4.7664983
11
6.6762229
21
4.7664983
0
LINE
8
DEFAULT_255_1_234
10
6.4216168
20
5.6829196
11
6.4216168
21
5.3110501
0
LINE
8
DEFAULT_255_1_234
10
6.4216168
20
5.3110501
11
6.6545372
21
5.3110501
0
LINE
8
DEFAULT_255_1_234
10
6.6497182
20
5.6829196
11
6.4216168
21
5.6829196
0
ARC
8
DEFAULT_255_1_234
10
6.653489
20
5.0730901
40
0.7367406
50
82.1257326
51
90.2932599
0
ARC
8
DEFAULT_255_1_234
10
6.6923845
20
5.3449013
40
0.4621653
50
69.9044149
51
82.2857423
0
ARC
8
DEFAULT_255_1_234
10
6.7494523
20
5.4991637
40
0.2976871
50
51.1838526
51
70.0181538
0
ARC
8
DEFAULT_255_1_234
10
6.7749489
20
5.536224
40
0.2528517
50
12.1017251
51
50.4214761
0
ARC
8
DEFAULT_255_1_234
10
6.6365363
20
5.5014676
40
0.3955061
50
359.5251267
51
12.8211707
0
ARC
8
DEFAULT_255_1_234
10
6.794529
20
5.4945344
40
0.2375281
50
323.4908128
51
0.8817314
0
ARC
8
DEFAULT_255_1_234
10
6.7526976
20
5.526855
40
0.2903817
50
298.6825083
51
323.2756573
0
ARC
8
DEFAULT_255_1_234
10
6.7165339
20
5.5869649
40
0.3604842
50
293.1999386
51
299.1396394
0
ARC
8
DEFAULT_255_1_234
10
6.7838312
20
4.9784126
40
0.2871098
50
54.0011765
51
74.9167975
0
ARC
8
DEFAULT_255_1_234
10
6.7954671
20
4.9981332
40
0.2643248
50
36.3580696
51
53.5291921
0
ARC
8
DEFAULT_255_1_234
10
6.7827914
20
4.9890998
40
0.2798884
50
4.8189881
51
36.3089977
0
ARC
8
DEFAULT_255_1_234
10
6.7048749
20
4.978127
40
0.358478
50
359.9370252
51
5.5204067
0
ARC
8
DEFAULT_255_1_234
10
6.672427
20
4.9740667
40
0.3909429
50
344.7478609
51
0.5373281
0
ARC
8
DEFAULT_255_1_234
10
6.7715242
20
4.9473544
40
0.2883093
50
311.1786488
51
344.6886812
0
ARC
8
DEFAULT_255_1_234
10
6.7423289
20
4.9836987
40
0.3348923
50
286.0418249
51
310.8441291
0
ARC
8
DEFAULT_255_1_234
10
6.6916121
20
5.1483807
40
0.5071869
50
274.1042341
51
286.4071509
0
ARC
8
DEFAULT_255_1_234
10
6.6739376
20
5.3367229
40
0.6963234
50
269.9236873
51
274.445647
0
ARC
8
DEFAULT_255_1_234
10
6.6785377
20
5.1027537
40
0.3362634
50
269.6055768
51
281.3740047
0
ARC
8
DEFAULT_255_1_234
10
6.7016015
20
4.9934353
40
0.224546
50
281.1055983
51
302.5132223
0
ARC
8
DEFAULT_255_1_234
10
6.7162915
20
4.9670823
40
0.1944357
50
303.0368945
51
311.8811219
0
ARC
8
DEFAULT_255_1_234
10
6.7234321
20
4.958589
40
0.1833454
50
311.9916004
51
351.7143462
0
ARC
8
DEFAULT_255_1_234
10
6.6417551
20
4.975093
40
0.2665871
50
350.7339597
51
0.2221581
0
ARC
8
DEFAULT_255_1_234
10
6.6309997
20
4.9807467
40
0.2773789
50
359.0456241
51
17.2296242
0
ARC
8
DEFAULT_255_1_234
10
6.7349114
20
5.0116163
40
0.1689915
50
17.6685481
51
78.9940892
0
ARC
8
DEFAULT_255_1_234
10
6.6832278
20
4.8261224
40
0.3612658
50
76.5635957
51
90.6980921
0
LINE
8
DEFAULT_255_1_234
10
6.6788263
20
5.1873613
11
6.6786324
21
5.1873614
0
ARC
8
DEFAULT_255_1_234
10
6.6567939
20
5.6396036
40
0.3285612
50
269.6064736
51
281.4533503
0
ARC
8
DEFAULT_255_1_234
10
6.6790758
20
5.5344688
40
0.2210975
50
281.2041486
51
302.5148063
0
ARC
8
DEFAULT_255_1_234
10
6.6927608
20
5.5098241
40
0.1929674
50
303.021671
51
309.8369575
0
ARC
8
DEFAULT_255_1_234
10
6.711107
20
5.4892488
40
0.1654181
50
309.5228395
51
356.9509836
0
ARC
8
DEFAULT_255_1_234
10
6.6447652
20
5.4987932
40
0.2322512
50
355.4701227
51
0.0492546
0
ARC
8
DEFAULT_255_1_234
10
6.6168743
20
5.5010094
40
0.2601498
50
359.5558597
51
11.2096359
0
ARC
8
DEFAULT_255_1_234
10
6.7126033
20
5.520823
40
0.1623975
50
10.9182341
51
31.3230275
0
ARC
8
DEFAULT_255_1_234
10
6.7411767
20
5.5367214
40
0.1297302
50
31.8852677
51
52.1412565
0
ARC
8
DEFAULT_255_1_234
10
6.7137499
20
5.497975
40
0.1771663
50
52.8285564
51
71.9850297
0
ARC
8
DEFAULT_255_1_234
10
6.6761676
20
5.3873664
40
0.2939794
50
71.6863486
51
82.8455995
0
ARC
8
DEFAULT_255_1_234
10
6.6522212
20
5.2064149
40
0.476506
50
82.6984714
51
90.1729175
0
ARC
8
DEFAULT_255_1_234
10
6.6499847
20
5.3287623
40
0.3541573
50
89.8708275
51
90.0431131
0
LINE
8
DEFAULT_255_1_234
10
4.893177
20
13.7473211
11
5.0481896
21
13.7473211
0
LINE
8
DEFAULT_255_1_234
10
5.0481896
20
13.7473211
11
5.0481896
21
12.952179
0
LINE
8
DEFAULT_255_1_234
10
4.6642725
20
12.5634429
11
4.6233106
21
12.5618365
0
LINE
8
DEFAULT_255_1_234
10
4.2016443
20
12.9505727
11
4.2016443
21
13.7473211
0
LINE
8
DEFAULT_255_1_234
10
4.2016443
20
13.7473211
11
4.3542474
21
13.7473211
0
LINE
8
DEFAULT_255_1_234
10
4.3542474
20
13.7473211
11
4.3542474
21
12.9553917
0
LINE
8
DEFAULT_255_1_234
10
4.893177
20
12.9545885
11
4.893177
21
13.7473211
0
ARC
8
DEFAULT_255_1_234
10
4.6128794
20
12.9501928
40
0.4353147
50
343.0898354
51
0.2614217
0
ARC
8
DEFAULT_255_1_234
10
4.6957195
20
12.9270837
40
0.3493402
50
315.3345598
51
342.7641223
0
ARC
8
DEFAULT_255_1_234
10
4.6733644
20
12.9502682
40
0.3815385
50
284.6606969
51
315.2182466
0
ARC
8
DEFAULT_255_1_234
10
4.6278357
20
13.1048755
40
0.5426573
50
273.8500273
51
285.1797701
0
ARC
8
DEFAULT_255_1_234
10
4.6190408
20
13.1390475
40
0.5772268
50
257.6317484
51
270.4238298
0
ARC
8
DEFAULT_255_1_234
10
4.5765606
20
12.9569198
40
0.3902347
50
230.6087562
51
257.9964012
0
ARC
8
DEFAULT_255_1_234
10
4.5633608
20
12.9362802
40
0.3659186
50
227.7440991
51
230.1551448
0
ARC
8
DEFAULT_255_1_234
10
4.5499439
20
12.9201471
40
0.3449568
50
189.2524587
51
227.5916061
0
ARC
8
DEFAULT_255_1_234
10
4.7021126
20
12.9529013
40
0.5004737
50
180.2665968
51
190.1525252
0
ARC
8
DEFAULT_255_1_234
10
4.7243146
20
12.9525918
40
0.3700778
50
179.5665184
51
191.9952995
0
ARC
8
DEFAULT_255_1_234
10
4.6015252
20
12.9252043
40
0.2442808
50
191.6974072
51
215.1404042
0
ARC
8
DEFAULT_255_1_234
10
4.5777167
20
12.9110108
40
0.2166522
50
215.6950207
51
224.8513522
0
ARC
8
DEFAULT_255_1_234
10
4.583291
20
12.9189697
40
0.2262237
50
225.2846858
51
255.0111758
0
ARC
8
DEFAULT_255_1_234
10
4.615687
20
13.0303455
40
0.3421979
50
254.5944985
51
267.9129803
0
ARC
8
DEFAULT_255_1_234
10
4.6231351
20
13.1387903
40
0.4508556
50
267.4689655
51
270.0223026
0
ARC
8
DEFAULT_255_1_234
10
4.6261496
20
13.0798849
40
0.3919604
50
269.5849941
51
281.1843768
0
ARC
8
DEFAULT_255_1_234
10
4.6540261
20
12.9446059
40
0.2538457
50
280.9344262
51
300.9743589
0
ARC
8
DEFAULT_255_1_234
10
4.6752866
20
12.9054688
40
0.2093566
50
301.4980046
51
315.1466847
0
ARC
8
DEFAULT_255_1_234
10
4.6608405
20
12.9173236
40
0.2279656
50
315.5952539
51
345.6678731
0
ARC
8
DEFAULT_255_1_234
10
4.5488921
20
12.9485009
40
0.3441564
50
345.2524969
51
358.6304371
0
ARC
8
DEFAULT_255_1_234
10
4.4471275
20
12.9544916
40
0.4460494
50
358.1735671
51
0.0124524
0
LINE
8
DEFAULT_255_1_234
10
6.0674171
20
13.4091849
11
5.9124046
21
13.4091849
0
LINE
8
DEFAULT_255_1_234
10
5.2200688
20
12.9168394
11
5.3750813
21
12.9168394
0
ARC
8
DEFAULT_255_1_234
10
5.9782859
20
14.3038768
40
1.252368
50
248.9199003
51
254.1439814
0
ARC
8
DEFAULT_255_1_234
10
5.8102354
20
13.8712234
40
0.788226
50
241.633709
51
249.0064503
0
ARC
8
DEFAULT_255_1_234
10
5.6573748
20
13.5911317
40
0.4691427
50
230.498225
51
241.8087113
0
ARC
8
DEFAULT_255_1_234
10
5.5789322
20
13.4911906
40
0.3421437
50
227.4064532
51
229.9881192
0
ARC
8
DEFAULT_255_1_234
10
5.5301843
20
13.4436088
40
0.2741476
50
200.6781896
51
228.1763934
0
ARC
8
DEFAULT_255_1_234
10
5.5374154
20
13.4421077
40
0.2804109
50
179.5061581
51
199.8694617
0
ARC
8
DEFAULT_255_1_234
10
5.5364905
20
13.449521
40
0.2795204
50
132.4834203
51
181.0242172
0
ARC
8
DEFAULT_255_1_234
10
5.5960488
20
13.3932704
40
0.3612768
50
129.2532479
51
133.4242687
0
ARC
8
DEFAULT_255_1_234
10
5.6106937
20
13.3712965
40
0.3875675
50
101.98776
51
128.8742646
0
ARC
8
DEFAULT_255_1_234
10
5.6505548
20
13.1991741
40
0.5642249
50
89.5906553
51
102.3169264
0
ARC
8
DEFAULT_255_1_234
10
5.657604
20
13.2310148
40
0.5323783
50
77.2360837
51
90.3248275
0
ARC
8
DEFAULT_255_1_234
10
5.6783119
20
13.32774
40
0.4334697
50
63.837784
51
77.0809408
0
ARC
8
DEFAULT_255_1_234
10
5.7060881
20
13.3794911
40
0.3747796
50
45.9864267
51
64.1607727
0
ARC
8
DEFAULT_255_1_234
10
5.7321762
20
13.4092866
40
0.3352302
50
32.2747395
51
45.6547121
0
ARC
8
DEFAULT_255_1_234
10
5.7388203
20
13.411188
40
0.328603
50
359.6507365
51
32.6130309
0
ARC
8
DEFAULT_255_1_234
10
5.6445298
20
13.411666
40
0.2678863
50
359.469343
51
14.9832209
0
ARC
8
DEFAULT_255_1_234
10
5.7150361
20
13.4305539
40
0.1948938
50
14.9781179
51
48.2004265
0
ARC
8
DEFAULT_255_1_234
10
5.6986005
20
13.4098983
40
0.2212521
50
48.5927837
51
74.1241538
0
ARC
8
DEFAULT_255_1_234
10
5.6652494
20
13.2998248
40
0.3362561
50
73.7888341
51
86.6652678
0
ARC
8
DEFAULT_255_1_234
10
5.655006
20
13.1790881
40
0.4573953
50
86.2640471
51
90.0526343
0
ARC
8
DEFAULT_255_1_234
10
5.6521772
20
13.2186192
40
0.4178709
50
89.6697524
51
99.2309573
0
ARC
8
DEFAULT_255_1_234
10
5.6279223
20
13.3630964
40
0.2713749
50
99.069534
51
113.7658566
0
ARC
8
DEFAULT_255_1_234
10
5.6005414
20
13.4276677
40
0.2012469
50
114.0401004
51
127.9850673
0
ARC
8
DEFAULT_255_1_234
10
5.5764978
20
13.457273
40
0.1631167
50
127.7287463
51
176.7105154
0
ARC
8
DEFAULT_255_1_234
10
5.6443696
20
13.4471693
40
0.2315392
50
175.1779447
51
180.0581938
0
ARC
8
DEFAULT_255_1_234
10
5.5600542
20
13.4459428
40
0.1472271
50
179.6142195
51
228.1246017
0
ARC
8
DEFAULT_255_1_234
10
5.6042211
20
13.4868308
40
0.2072299
50
226.5779593
51
230.8800004
0
ARC
8
DEFAULT_255_1_234
10
5.651329
20
13.5493636
40
0.2854818
50
231.4635071
51
241.9260842
0
ARC
8
DEFAULT_255_1_234
10
5.7710468
20
13.76968
40
0.53622
50
241.7178533
51
248.3259551
0
ARC
8
DEFAULT_255_1_234
10
5.909584
20
14.1129064
40
0.9063478
50
248.2007737
51
252.4528373
0
ARC
8
DEFAULT_255_1_234
10
6.0299565
20
14.4850441
40
1.2974635
50
252.3391078
51
254.3469452
0
ARC
8
DEFAULT_255_1_234
10
5.2757267
20
11.7873148
40
1.5037162
50
71.0197183
51
74.4087047
0
ARC
8
DEFAULT_255_1_234
10
5.4451952
20
12.2765111
40
0.9859993
50
66.1847285
51
71.086374
0
ARC
8
DEFAULT_255_1_234
10
5.6008265
20
12.62692
40
0.6025855
50
59.3536294
51
66.2691831
0
ARC
8
DEFAULT_255_1_234
10
5.6896917
20
12.7772609
40
0.4279449
50
49.1020879
51
59.3293958
0
ARC
8
DEFAULT_255_1_234
10
5.7715657
20
12.8705834
40
0.3038015
50
32.7919921
51
49.2505539
0
ARC
8
DEFAULT_255_1_234
10
5.8036747
20
12.8934191
40
0.264448
50
31.1181161
51
32.4005348
0
ARC
8
DEFAULT_255_1_234
10
5.7948285
20
12.8898779
40
0.2738556
50
8.1116974
51
30.7958831
0
ARC
8
DEFAULT_255_1_234
10
5.7137953
20
12.8760753
40
0.3560327
50
359.8389159
51
8.4706516
0
ARC
8
DEFAULT_255_1_234
10
5.7763744
20
12.8712137
40
0.2934776
50
337.4731098
51
0.7537279
0
ARC
8
DEFAULT_255_1_234
10
5.7942439
20
12.8692387
40
0.2762607
50
307.5917067
51
336.4315538
0
ARC
8
DEFAULT_255_1_234
10
5.7482267
20
12.9205102
40
0.3449979
50
307.6551545
51
308.4529766
0
ARC
8
DEFAULT_255_1_234
10
5.7251986
20
12.956025
40
0.3871988
50
284.3734338
51
307.1424381
0
ARC
8
DEFAULT_255_1_234
10
5.6756816
20
13.1381932
40
0.5759636
50
272.4382747
51
284.646547
0
ARC
8
DEFAULT_255_1_234
10
5.6630025
20
13.3181893
40
0.7563528
50
269.9708387
51
272.8178037
0
ARC
8
DEFAULT_255_1_234
10
5.6587064
20
13.1143716
40
0.5525489
50
248.2707594
51
270.4055579
0
ARC
8
DEFAULT_255_1_234
10
5.6532806
20
13.0953192
40
0.5328452
50
246.1383403
51
248.0542782
0
ARC
8
DEFAULT_255_1_234
10
5.6114185
20
13.0073843
40
0.4355005
50
233.1670131
51
246.4950969
0
ARC
8
DEFAULT_255_1_234
10
5.5560089
20
12.9325812
40
0.3424126
50
215.3403242
51
233.0843104
0
ARC
8
DEFAULT_255_1_234
10
5.5287521
20
12.9127549
40
0.3087104
50
179.2419209
51
215.2648451
0
ARC
8
DEFAULT_255_1_234
10
5.6055115
20
12.9141666
40
0.2304457
50
179.335461
51
199.1045811
0
ARC
8
DEFAULT_255_1_234
10
5.5722791
20
12.9054766
40
0.1962176
50
199.8828939
51
232.7063202
0
ARC
8
DEFAULT_255_1_234
10
5.6195059
20
12.9648788
40
0.2720938
50
232.3738199
51
255.5136649
0
ARC
8
DEFAULT_255_1_234
10
5.6535926
20
13.0892835
40
0.4010747
50
255.2446292
51
267.5320849
0
ARC
8
DEFAULT_255_1_234
10
5.6623549
20
13.2125702
40
0.5246356
50
267.1557994
51
270.0286766
0
ARC
8
DEFAULT_255_1_234
10
5.6651322
20
13.168195
40
0.4802668
50
269.7000017
51
278.1660162
0
ARC
8
DEFAULT_255_1_234
10
5.6907327
20
12.9951515
40
0.3053425
50
278.0231263
51
290.625471
0
ARC
8
DEFAULT_255_1_234
10
5.7255014
20
12.9024025
40
0.206291
50
290.6619762
51
307.0370976
0
ARC
8
DEFAULT_255_1_234
10
5.7555403
20
12.8655504
40
0.1587906
50
306.3943566
51
355.3030547
0
ARC
8
DEFAULT_255_1_234
10
5.7043334
20
12.8732113
40
0.2104809
50
354.3660432
51
0.0698737
0
ARC
8
DEFAULT_255_1_234
10
5.718568
20
12.8754617
40
0.1962563
50
359.417946
51
16.1971788
0
ARC
8
DEFAULT_255_1_234
10
5.764099
20
12.8879418
40
0.149053
50
16.4723299
51
52.6262157
0
ARC
8
DEFAULT_255_1_234
10
5.6820044
20
12.7795433
40
0.2850296
50
52.7386432
51
62.4979148
0
ARC
8
DEFAULT_255_1_234
10
5.5435121
20
12.5189283
40
0.5801521
50
62.2515216
51
68.1220564
0
ARC
8
DEFAULT_255_1_234
10
5.3715031
20
12.0961872
40
1.0365451
50
68.0062803
51
71.8053402
0
ARC
8
DEFAULT_255_1_234
10
5.1919403
20
11.5576758
40
1.6042013
50
71.7183119
51
73.9258742
0
LINE
8
DEFAULT_255_1_234
10
6.6730102
20
12.5779
11
6.2674074
21
12.5779
0
LINE
8
DEFAULT_255_1_234
10
6.2674074
20
12.5779
11
6.2674074
21
13.7473211
0
LINE
8
DEFAULT_255_1_234
10
6.2674074
20
13.7473211
11
6.6497182
21
13.7473211
0
LINE
8
DEFAULT_255_1_234
10
6.6786324
20
13.1248614
11
6.4216168
21
13.1248614
0
LINE
8
DEFAULT_255_1_234
10
6.4216168
20
13.1248614
11
6.4216168
21
12.7039983
0
LINE
8
DEFAULT_255_1_234
10
6.4216168
20
12.7039983
11
6.6762229
21
12.7039983
0
LINE
8
DEFAULT_255_1_234
10
6.4216168
20
13.6204196
11
6.4216168
21
13.2485501
0
LINE
8
DEFAULT_255_1_234
10
6.4216168
20
13.2485501
11
6.6545372
21
13.2485501
0
LINE
8
DEFAULT_255_1_234
10
6.6497182
20
13.6204196
11
6.4216168
21
13.6204196
0
ARC
8
DEFAULT_255_1_234
10
6.653489
20
13.0105901
40
0.7367406
50
82.1257326
51
90.2932599
0
ARC
8
DEFAULT_255_1_234
10
6.6923845
20
13.2824013
40
0.4621653
50
69.9044149
51
82.2857423
0
ARC
8
DEFAULT_255_1_234
10
6.7494523
20
13.4366637
40
0.2976871
50
51.1838526
51
70.0181538
0
ARC
8
DEFAULT_255_1_234
10
6.7749489
20
13.473724
40
0.2528517
50
12.1017251
51
50.4214761
0
ARC
8
DEFAULT_255_1_234
10
6.6365363
20
13.4389676
40
0.3955061
50
359.5251267
51
12.8211707
0
ARC
8
DEFAULT_255_1_234
10
6.794529
20
13.4320344
40
0.2375281
50
323.4908128
51
0.8817314
0
ARC
8
DEFAULT_255_1_234
10
6.7526976
20
13.464355
40
0.2903817
50
298.6825083
51
323.2756573
0
ARC
8
DEFAULT_255_1_234
10
6.7165339
20
13.5244649
40
0.3604842
50
293.1999386
51
299.1396394
0
ARC
8
DEFAULT_255_1_234
10
6.7838312
20
12.9159126
40
0.2871098
50
54.0011765
51
74.9167975
0
ARC
8
DEFAULT_255_1_234
10
6.7954671
20
12.9356332
40
0.2643248
50
36.3580696
51
53.5291921
0
ARC
8
DEFAULT_255_1_234
10
6.7827914
20
12.9265998
40
0.2798884
50
4.8189881
51
36.3089977
0
ARC
8
DEFAULT_255_1_234
10
6.7048749
20
12.915627
40
0.358478
50
359.9370252
51
5.5204067
0
ARC
8
DEFAULT_255_1_234
10
6.672427
20
12.9115667
40
0.3909429
50
344.7478609
51
0.5373281
0
ARC
8
DEFAULT_255_1_234
10
6.7715242
20
12.8848544
40
0.2883093
50
311.1786488
51
344.6886812
0
ARC
8
DEFAULT_255_1_234
10
6.7423289
20
12.9211987
40
0.3348923
50
286.0418249
51
310.8441291
0
ARC
8
DEFAULT_255_1_234
10
6.6916121
20
13.0858807
40
0.5071869
50
274.1042341
51
286.4071509
0
ARC
8
DEFAULT_255_1_234
10
6.6739376
20
13.2742229
40
0.6963234
50
269.9236873
51
274.445647
0
ARC
8
DEFAULT_255_1_234
10
6.6785377
20
13.0402537
40
0.3362634
50
269.6055768
51
281.3740047
0
ARC
8
DEFAULT_255_1_234
10
6.7016015
20
12.9309353
40
0.224546
50
281.1055983
51
302.5132223
0
ARC
8
DEFAULT_255_1_234
10
6.7162915
20
12.9045823
40
0.1944357
50
303.0368945
51
311.8811219
0
ARC
8
DEFAULT_255_1_234
10
6.7234321
20
12.896089
40
0.1833454
50
311.9916004
51
351.7143462
0
ARC
8
DEFAULT_255_1_234
10
6.6417551
20
12.912593
40
0.2665871
50
350.7339597
51
0.2221581
0
ARC
8
DEFAULT_255_1_234
10
6.6309997
20
12.9182467
40
0.2773789
50
359.0456241
51
17.2296242
0
ARC
8
DEFAULT_255_1_234
10
6.7349114
20
12.9491163
40
0.1689915
50
17.6685481
51
78.9940892
0
ARC
8
DEFAULT_255_1_234
10
6.6832278
20
12.7636224
40
0.3612658
50
76.5635957
51
90.6980921
0
LINE
8
DEFAULT_255_1_234
10
6.6788263
20
13.1248613
11
6.6786324
21
13.1248614
0
ARC
8
DEFAULT_255_1_234
10
6.6567939
20
13.5771036
40
0.3285612
50
269.6064736
51
281.4533503
0
ARC
8
DEFAULT_255_1_234
10
6.6790758
20
13.4719688
40
0.2210975
50
281.2041486
51
302.5148063
0
ARC
8
DEFAULT_255_1_234
10
6.6927608
20
13.4473241
40
0.1929674
50
303.021671
51
309.8369575
0
ARC
8
DEFAULT_255_1_234
10
6.711107
20
13.4267488
40
0.1654181
50
309.5228395
51
356.9509836
0
ARC
8
DEFAULT_255_1_234
10
6.6447652
20
13.4362932
40
0.2322512
50
355.4701227
51
0.0492546
0
ARC
8
DEFAULT_255_1_234
10
6.6168743
20
13.4385094
40
0.2601498
50
359.5558597
51
11.2096359
0
ARC
8
DEFAULT_255_1_234
10
6.7126033
20
13.458323
40
0.1623975
50
10.9182341
51
31.3230275
0
ARC
8
DEFAULT_255_1_234
10
6.7411767
20
13.4742214
40
0.1297302
50
31.8852677
51
52.1412565
0
ARC
8
DEFAULT_255_1_234
10
6.7137499
20
13.435475
40
0.1771663
50
52.8285564
51
71.9850297
0
ARC
8
DEFAULT_255_1_234
10
6.6761676
20
13.3248664
40
0.2939794
50
71.6863486
51
82.8455995
0
ARC
8
DEFAULT_255_1_234
10
6.6522212
20
13.1439149
40
0.476506
50
82.6984714
51
90.1729175
0
ARC
8
DEFAULT_255_1_234
10
6.6499847
20
13.2662623
40
0.3541573
50
89.8708275
51
90.0431131
0
LINE
8
DEFAULT_255_1_234
10
4.893177
20
21.6848211
11
5.0481896
21
21.6848211
0
LINE
8
DEFAULT_255_1_234
10
5.0481896
20
21.6848211
11
5.0481896
21
20.889679
0
LINE
8
DEFAULT_255_1_234
10
4.6642725
20
20.5009429
11
4.6233106
21
20.4993365
0
LINE
8
DEFAULT_255_1_234
10
4.2016443
20
20.8880727
11
4.2016443
21
21.6848211
0
LINE
8
DEFAULT_255_1_234
10
4.2016443
20
21.6848211
11
4.3542474
21
21.6848211
0
LINE
8
DEFAULT_255_1_234
10
4.3542474
20
21.6848211
11
4.3542474
21
20.8928917
0
LINE
8
DEFAULT_255_1_234
10
4.893177
20
20.8920885
11
4.893177
21
21.6848211
0
ARC
8
DEFAULT_255_1_234
10
4.6128794
20
20.8876928
40
0.4353147
50
343.0898354
51
0.2614217
0
ARC
8
DEFAULT_255_1_234
10
4.6957195
20
20.8645837
40
0.3493402
50
315.3345598
51
342.7641223
0
ARC
8
DEFAULT_255_1_234
10
4.6733644
20
20.8877682
40
0.3815385
50
284.6606969
51
315.2182466
0
ARC
8
DEFAULT_255_1_234
10
4.6278357
20
21.0423755
40
0.5426573
50
273.8500273
51
285.1797701
0
ARC
8
DEFAULT_255_1_234
10
4.6190408
20
21.0765475
40
0.5772268
50
257.6317484
51
270.4238298
0
ARC
8
DEFAULT_255_1_234
10
4.5765606
20
20.8944198
40
0.3902347
50
230.6087562
51
257.9964012
0
ARC
8
DEFAULT_255_1_234
10
4.5633608
20
20.8737802
40
0.3659186
50
227.7440991
51
230.1551448
0
ARC
8
DEFAULT_255_1_234
10
4.5499439
20
20.8576471
40
0.3449568
50
189.2524587
51
227.5916061
0
ARC
8
DEFAULT_255_1_234
10
4.7021126
20
20.8904013
40
0.5004737
50
180.2665968
51
190.1525252
0
ARC
8
DEFAULT_255_1_234
10
4.7243146
20
20.8900918
40
0.3700778
50
179.5665184
51
191.9952995
0
ARC
8
DEFAULT_255_1_234
10
4.6015252
20
20.8627043
40
0.2442808
50
191.6974072
51
215.1404042
0
ARC
8
DEFAULT_255_1_234
10
4.5777167
20
20.8485108
40
0.2166522
50
215.6950207
51
224.8513522
0
ARC
8
DEFAULT_255_1_234
10
4.583291
20
20.8564697
40
0.2262237
50
225.2846858
51
255.0111758
0
ARC
8
DEFAULT_255_1_234
10
4.615687
20
20.9678455
40
0.3421979
50
254.5944985
51
267.9129803
0
ARC
8
DEFAULT_255_1_234
10
4.6231351
20
21.0762903
40
0.4508556
50
267.4689655
51
270.0223026
0
ARC
8
DEFAULT_255_1_234
10
4.6261496
20
21.0173849
40
0.3919604
50
269.5849941
51
281.1843768
0
ARC
8
DEFAULT_255_1_234
10
4.6540261
20
20.8821059
40
0.2538457
50
280.9344262
51
300.9743589
0
ARC
8
DEFAULT_255_1_234
10
4.6752866
20
20.8429688
40
0.2093566
50
301.4980046
51
315.1466847
0
ARC
8
DEFAULT_255_1_234
10
4.6608405
20
20.8548236
40
0.2279656
50
315.5952539
51
345.6678731
0
ARC
8
DEFAULT_255_1_234
10
4.5488921
20
20.8860009
40
0.3441564
50
345.2524969
51
358.6304371
0
ARC
8
DEFAULT_255_1_234
10
4.4471275
20
20.8919916
40
0.4460494
50
358.1735671
51
0.0124524
0
LINE
8
DEFAULT_255_1_234
10
6.0674171
20
21.3466849
11
5.9124046
21
21.3466849
0
LINE
8
DEFAULT_255_1_234
10
5.2200688
20
20.8543394
11
5.3750813
21
20.8543394
0
ARC
8
DEFAULT_255_1_234
10
5.9782859
20
22.2413768
40
1.252368
50
248.9199003
51
254.1439814
0
ARC
8
DEFAULT_255_1_234
10
5.8102354
20
21.8087234
40
0.788226
50
241.633709
51
249.0064503
0
ARC
8
DEFAULT_255_1_234
10
5.6573748
20
21.5286317
40
0.4691427
50
230.498225
51
241.8087113
0
ARC
8
DEFAULT_255_1_234
10
5.5789322
20
21.4286906
40
0.3421437
50
227.4064532
51
229.9881192
0
ARC
8
DEFAULT_255_1_234
10
5.5301843
20
21.3811088
40
0.2741476
50
200.6781896
51
228.1763934
0
ARC
8
DEFAULT_255_1_234
10
5.5374154
20
21.3796077
40
0.2804109
50
179.5061581
51
199.8694617
0
ARC
8
DEFAULT_255_1_234
10
5.5364905
20
21.387021
40
0.2795204
50
132.4834203
51
181.0242172
0
ARC
8
DEFAULT_255_1_234
10
5.5960488
20
21.3307704
40
0.3612768
50
129.2532479
51
133.4242687
0
ARC
8
DEFAULT_255_1_234
10
5.6106937
20
21.3087965
40
0.3875675
50
101.98776
51
128.8742646
0
ARC
8
DEFAULT_255_1_234
10
5.6505548
20
21.1366741
40
0.5642249
50
89.5906553
51
102.3169264
0
ARC
8
DEFAULT_255_1_234
10
5.657604
20
21.1685148
40
0.5323783
50
77.2360837
51
90.3248275
0
ARC
8
DEFAULT_255_1_234
10
5.6783119
20
21.26524
40
0.4334697
50
63.837784
51
77.0809408
0
ARC
8
DEFAULT_255_1_234
10
5.7060881
20
21.3169911
40
0.3747796
50
45.9864267
51
64.1607727
0
ARC
8
DEFAULT_255_1_234
10
5.7321762
20
21.3467866
40
0.3352302
50
32.2747395
51
45.6547121
0
ARC
8
DEFAULT_255_1_234
10
5.7388203
20
21.348688
40
0.328603
50
359.6507365
51
32.6130309
0
ARC
8
DEFAULT_255_1_234
10
5.6445298
20
21.349166
40
0.2678863
50
359.469343
51
14.9832209
0
ARC
8
DEFAULT_255_1_234
10
5.7150361
20
21.3680539
40
0.1948938
50
14.9781179
51
48.2004265
0
ARC
8
DEFAULT_255_1_234
10
5.6986005
20
21.3473983
40
0.2212521
50
48.5927837
51
74.1241538
0
ARC
8
DEFAULT_255_1_234
10
5.6652494
20
21.2373248
40
0.3362561
50
73.7888341
51
86.6652678
0
ARC
8
DEFAULT_255_1_234
10
5.655006
20
21.1165881
40
0.4573953
50
86.2640471
51
90.0526343
0
ARC
8
DEFAULT_255_1_234
10
5.6521772
20
21.1561192
40
0.4178709
50
89.6697524
51
99.2309573
0
ARC
8
DEFAULT_255_1_234
10
5.6279223
20
21.3005964
40
0.2713749
50
99.069534
51
113.7658566
0
ARC
8
DEFAULT_255_1_234
10
5.6005414
20
21.3651677
40
0.2012469
50
114.0401004
51
127.9850673
0
ARC
8
DEFAULT_255_1_234
10
5.5764978
20
21.394773
40
0.1631167
50
127.7287463
51
176.7105154
0
ARC
8
DEFAULT_255_1_234
10
5.6443696
20
21.3846693
40
0.2315392
50
175.1779447
51
180.0581938
0
ARC
8
DEFAULT_255_1_234
10
5.5600542
20
21.3834428
40
0.1472271
50
179.6142195
51
228.1246017
0
ARC
8
DEFAULT_255_1_234
10
5.6042211
20
21.4243308
40
0.2072299
50
226.5779593
51
230.8800004
0
ARC
8
DEFAULT_255_1_234
10
5.651329
20
21.4868636
40
0.2854818
50
231.4635071
51
241.9260842
0
ARC
8
DEFAULT_255_1_234
10
5.7710468
20
21.70718
40
0.53622
50
241.7178533
51
248.3259551
0
ARC
8
DEFAULT_255_1_234
10
5.909584
20
22.0504064
40
0.9063478
50
248.2007737
51
252.4528373
0
ARC
8
DEFAULT_255_1_234
10
6.0299565
20
22.4225441
40
1.2974635
50
252.3391078
51
254.3469452
0
ARC
8
DEFAULT_255_1_234
10
5.2757267
20
19.7248148
40
1.5037162
50
71.0197183
51
74.4087047
0
ARC
8
DEFAULT_255_1_234
10
5.4451952
20
20.2140111
40
0.9859993
50
66.1847285
51
71.086374
0
ARC
8
DEFAULT_255_1_234
10
5.6008265
20
20.56442
40
0.6025855
50
59.3536294
51
66.2691831
0
ARC
8
DEFAULT_255_1_234
10
5.6896917
20
20.7147609
40
0.4279449
50
49.1020879
51
59.3293958
0
ARC
8
DEFAULT_255_1_234
10
5.7715657
20
20.8080834
40
0.3038015
50
32.7919921
51
49.2505539
0
ARC
8
DEFAULT_255_1_234
10
5.8036747
20
20.8309191
40
0.264448
50
31.1181161
51
32.4005348
0
ARC
8
DEFAULT_255_1_234
10
5.7948285
20
20.8273779
40
0.2738556
50
8.1116974
51
30.7958831
0
ARC
8
DEFAULT_255_1_234
10
5.7137953
20
20.8135753
40
0.3560327
50
359.8389159
51
8.4706516
0
ARC
8
DEFAULT_255_1_234
10
5.7763744
20
20.8087137
40
0.2934776
50
337.4731098
51
0.7537279
0
ARC
8
DEFAULT_255_1_234
10
5.7942439
20
20.8067387
40
0.2762607
50
307.5917067
51
336.4315538
0
ARC
8
DEFAULT_255_1_234
10
5.7482267
20
20.8580102
40
0.3449979
50
307.6551545
51
308.4529766
0
ARC
8
DEFAULT_255_1_234
10
5.7251986
20
20.893525
40
0.3871988
50
284.3734338
51
307.1424381
0
ARC
8
DEFAULT_255_1_234
10
5.6756816
20
21.0756932
40
0.5759636
50
272.4382747
51
284.646547
0
ARC
8
DEFAULT_255_1_234
10
5.6630025
20
21.2556893
40
0.7563528
50
269.9708387
51
272.8178037
0
ARC
8
DEFAULT_255_1_234
10
5.6587064
20
21.0518716
40
0.5525489
50
248.2707594
51
270.4055579
0
ARC
8
DEFAULT_255_1_234
10
5.6532806
20
21.0328192
40
0.5328452
50
246.1383403
51
248.0542782
0
ARC
8
DEFAULT_255_1_234
10
5.6114185
20
20.9448843
40
0.4355005
50
233.1670131
51
246.4950969
0
ARC
8
DEFAULT_255_1_234
10
5.5560089
20
20.8700812
40
0.3424126
50
215.3403242
51
233.0843104
0
ARC
8
DEFAULT_255_1_234
10
5.5287521
20
20.8502549
40
0.3087104
50
179.2419209
51
215.2648451
0
ARC
8
DEFAULT_255_1_234
10
5.6055115
20
20.8516666
40
0.2304457
50
179.335461
51
199.1045811
0
ARC
8
DEFAULT_255_1_234
10
5.5722791
20
20.8429766
40
0.1962176
50
199.8828939
51
232.7063202
0
ARC
8
DEFAULT_255_1_234
10
5.6195059
20
20.9023788
40
0.2720938
50
232.3738199
51
255.5136649
0
ARC
8
DEFAULT_255_1_234
10
5.6535926
20
21.0267835
40
0.4010747
50
255.2446292
51
267.5320849
0
ARC
8
DEFAULT_255_1_234
10
5.6623549
20
21.1500702
40
0.5246356
50
267.1557994
51
270.0286766
0
ARC
8
DEFAULT_255_1_234
10
5.6651322
20
21.105695
40
0.4802668
50
269.7000017
51
278.1660162
0
ARC
8
DEFAULT_255_1_234
10
5.6907327
20
20.9326515
40
0.3053425
50
278.0231263
51
290.625471
0
ARC
8
DEFAULT_255_1_234
10
5.7255014
20
20.8399025
40
0.206291
50
290.6619762
51
307.0370976
0
ARC
8
DEFAULT_255_1_234
10
5.7555403
20
20.8030504
40
0.1587906
50
306.3943566
51
355.3030547
0
ARC
8
DEFAULT_255_1_234
10
5.7043334
20
20.8107113
40
0.2104809
50
354.3660432
51
0.0698737
0
ARC
8
DEFAULT_255_1_234
10
5.718568
20
20.8129617
40
0.1962563
50
359.417946
51
16.1971788
0
ARC
8
DEFAULT_255_1_234
10
5.764099
20
20.8254418
40
0.149053
50
16.4723299
51
52.6262157
0
ARC
8
DEFAULT_255_1_234
10
5.6820044
20
20.7170433
40
0.2850296
50
52.7386432
51
62.4979148
0
ARC
8
DEFAULT_255_1_234
10
5.5435121
20
20.4564283
40
0.5801521
50
62.2515216
51
68.1220564
0
ARC
8
DEFAULT_255_1_234
10
5.3715031
20
20.0336872
40
1.0365451
50
68.0062803
51
71.8053402
0
ARC
8
DEFAULT_255_1_234
10
5.1919403
20
19.4951758
40
1.6042013
50
71.7183119
51
73.9258742
0
LINE
8
DEFAULT_255_1_234
10
6.6730102
20
20.5154
11
6.2674074
21
20.5154
0
LINE
8
DEFAULT_255_1_234
10
6.2674074
20
20.5154
11
6.2674074
21
21.6848211
0
LINE
8
DEFAULT_255_1_234
10
6.2674074
20
21.6848211
11
6.6497182
21
21.6848211
0
LINE
8
DEFAULT_255_1_234
10
6.6786324
20
21.0623614
11
6.4216168
21
21.0623614
0
LINE
8
DEFAULT_255_1_234
10
6.4216168
20
21.0623614
11
6.4216168
21
20.6414983
0
LINE
8
DEFAULT_255_1_234
10
6.4216168
20
20.6414983
11
6.6762229
21
20.6414983
0
LINE
8
DEFAULT_255_1_234
10
6.4216168
20
21.5579196
11
6.4216168
21
21.1860501
0
LINE
8
DEFAULT_255_1_234
10
6.4216168
20
21.1860501
11
6.6545372
21
21.1860501
0
LINE
8
DEFAULT_255_1_234
10
6.6497182
20
21.5579196
11
6.4216168
21
21.5579196
0
ARC
8
DEFAULT_255_1_234
10
6.653489
20
20.9480901
40
0.7367406
50
82.1257326
51
90.2932599
0
ARC
8
DEFAULT_255_1_234
10
6.6923845
20
21.2199013
40
0.4621653
50
69.9044149
51
82.2857423
0
ARC
8
DEFAULT_255_1_234
10
6.7494523
20
21.3741637
40
0.2976871
50
51.1838526
51
70.0181538
0
ARC
8
DEFAULT_255_1_234
10
6.7749489
20
21.411224
40
0.2528517
50
12.1017251
51
50.4214761
0
ARC
8
DEFAULT_255_1_234
10
6.6365363
20
21.3764676
40
0.3955061
50
359.5251267
51
12.8211707
0
ARC
8
DEFAULT_255_1_234
10
6.794529
20
21.3695344
40
0.2375281
50
323.4908128
51
0.8817314
0
ARC
8
DEFAULT_255_1_234
10
6.7526976
20
21.401855
40
0.2903817
50
298.6825083
51
323.2756573
0
ARC
8
DEFAULT_255_1_234
10
6.7165339
20
21.4619649
40
0.3604842
50
293.1999386
51
299.1396394
0
ARC
8
DEFAULT_255_1_234
10
6.7838312
20
20.8534126
40
0.2871098
50
54.0011765
51
74.9167975
0
ARC
8
DEFAULT_255_1_234
10
6.7954671
20
20.8731332
40
0.2643248
50
36.3580696
51
53.5291921
0
ARC
8
DEFAULT_255_1_234
10
6.7827914
20
20.8640998
40
0.2798884
50
4.8189881
51
36.3089977
0
ARC
8
DEFAULT_255_1_234
10
6.7048749
20
20.853127
40
0.358478
50
359.9370252
51
5.5204067
0
ARC
8
DEFAULT_255_1_234
10
6.672427
20
20.8490667
40
0.3909429
50
344.7478609
51
0.5373281
0
ARC
8
DEFAULT_255_1_234
10
6.7715242
20
20.8223544
40
0.2883093
50
311.1786488
51
344.6886812
0
ARC
8
DEFAULT_255_1_234
10
6.7423289
20
20.8586987
40
0.3348923
50
286.0418249
51
310.8441291
0
ARC
8
DEFAULT_255_1_234
10
6.6916121
20
21.0233807
40
0.5071869
50
274.1042341
51
286.4071509
0
ARC
8
DEFAULT_255_1_234
10
6.6739376
20
21.2117229
40
0.6963234
50
269.9236873
51
274.445647
0
ARC
8
DEFAULT_255_1_234
10
6.6785377
20
20.9777537
40
0.3362634
50
269.6055768
51
281.3740047
0
ARC
8
DEFAULT_255_1_234
10
6.7016015
20
20.8684353
40
0.224546
50
281.1055983
51
302.5132223
0
ARC
8
DEFAULT_255_1_234
10
6.7162915
20
20.8420823
40
0.1944357
50
303.0368945
51
311.8811219
0
ARC
8
DEFAULT_255_1_234
10
6.7234321
20
20.833589
40
0.1833454
50
311.9916004
51
351.7143462
0
ARC
8
DEFAULT_255_1_234
10
6.6417551
20
20.850093
40
0.2665871
50
350.7339597
51
0.2221581
0
ARC
8
DEFAULT_255_1_234
10
6.6309997
20
20.8557467
40
0.2773789
50
359.0456241
51
17.2296242
0
ARC
8
DEFAULT_255_1_234
10
6.7349114
20
20.8866163
40
0.1689915
50
17.6685481
51
78.9940892
0
ARC
8
DEFAULT_255_1_234
10
6.6832278
20
20.7011224
40
0.3612658
50
76.5635957
51
90.6980921
0
LINE
8
DEFAULT_255_1_234
10
6.6788263
20
21.0623613
11
6.6786324
21
21.0623614
0
ARC
8
DEFAULT_255_1_234
10
6.6567939
20
21.5146036
40
0.3285612
50
269.6064736
51
281.4533503
0
ARC
8
DEFAULT_255_1_234
10
6.6790758
20
21.4094688
40
0.2210975
50
281.2041486
51
302.5148063
0
ARC
8
DEFAULT_255_1_234
10
6.6927608
20
21.3848241
40
0.1929674
50
303.021671
51
309.8369575
0
ARC
8
DEFAULT_255_1_234
10
6.711107
20
21.3642488
40
0.1654181
50
309.5228395
51
356.9509836
0
ARC
8
DEFAULT_255_1_234
10
6.6447652
20
21.3737932
40
0.2322512
50
355.4701227
51
0.0492546
0
ARC
8
DEFAULT_255_1_234
10
6.6168743
20
21.3760094
40
0.2601498
50
359.5558597
51
11.2096359
0
ARC
8
DEFAULT_255_1_234
10
6.7126033
20
21.395823
40
0.1623975
50
10.9182341
51
31.3230275
0
ARC
8
DEFAULT_255_1_234
10
6.7411767
20
21.4117214
40
0.1297302
50
31.8852677
51
52.1412565
0
ARC
8
DEFAULT_255_1_234
10
6.7137499
20
21.372975
40
0.1771663
50
52.8285564
51
71.9850297
0
ARC
8
DEFAULT_255_1_234
10
6.6761676
20
21.2623664
40
0.2939794
50
71.6863486
51
82.8455995
0
ARC
8
DEFAULT_255_1_234
10
6.6522212
20
21.0814149
40
0.476506
50
82.6984714
51
90.1729175
0
ARC
8
DEFAULT_255_1_234
10
6.6499847
20
21.2037623
40
0.3541573
50
89.8708275
51
90.0431131
0
LINE
8
DEFAULT_255_1_234
10
4.3329902
20
29.6223211
11
4.3329902
21
28.4529
0
LINE
8
DEFAULT_255_1_234
10
4.3329902
20
28.4529
11
4.1787808
21
28.4529
0
LINE
8
DEFAULT_255_1_234
10
4.1787808
20
28.4529
11
4.1787808
21
29.6223211
0
LINE
8
DEFAULT_255_1_234
10
4.1787808
20
29.6223211
11
4.3329902
21
29.6223211
0
LINE
8
DEFAULT_255_1_234
10
5.2759163
20
29.1195343
11
5.2759163
21
28.993436
0
LINE
8
DEFAULT_255_1_234
10
5.2759163
20
28.993436
11
4.7691136
21
28.993436
0
LINE
8
DEFAULT_255_1_234
10
4.7691136
20
28.993436
11
4.7691136
21
28.5789983
0
LINE
8
DEFAULT_255_1_234
10
4.7691136
20
28.5789983
11
5.35784
21
28.5789983
0
LINE
8
DEFAULT_255_1_234
10
5.35784
20
28.5789983
11
5.35784
21
28.4529
0
LINE
8
DEFAULT_255_1_234
10
5.35784
20
28.4529
11
4.6149042
21
28.4529
0
LINE
8
DEFAULT_255_1_234
10
4.6149042
20
28.4529
11
4.6149042
21
29.6223211
0
LINE
8
DEFAULT_255_1_234
10
4.6149042
20
29.6223211
11
5.3498083
21
29.6223211
0
LINE
8
DEFAULT_255_1_234
10
5.3498083
20
29.6223211
11
5.3498083
21
29.4954196
0
LINE
8
DEFAULT_255_1_234
10
5.3498083
20
29.4954196
11
4.7691136
21
29.4954196
0
LINE
8
DEFAULT_255_1_234
10
4.7691136
20
29.4954196
11
4.7691136
21
29.1195343
0
LINE
8
DEFAULT_255_1_234
10
4.7691136
20
29.1195343
11
5.2759163
21
29.1195343
0
LINE
8
DEFAULT_255_1_234
10
4.5343344
20
36.8482091
11
4.2588458
21
36.8482091
0
LINE
8
DEFAULT_255_1_234
10
4.2588458
20
36.8482091
11
4.2588458
21
36.3904
0
LINE
8
DEFAULT_255_1_234
10
4.2588458
20
36.3904
11
4.1046364
21
36.3904
0
LINE
8
DEFAULT_255_1_234
10
4.1046364
20
36.3904
11
4.1046364
21
37.5598211
0
LINE
8
DEFAULT_255_1_234
10
4.1046364
20
37.5598211
11
4.5359407
21
37.5598211
0
LINE
8
DEFAULT_255_1_234
10
4.2588458
20
37.4329196
11
4.2588458
21
36.9743074
0
LINE
8
DEFAULT_255_1_234
10
4.2588458
20
36.9743074
11
4.5359407
21
36.9743074
0
LINE
8
DEFAULT_255_1_234
10
4.5447756
20
37.4329196
11
4.2588458
21
37.4329196
0
ARC
8
DEFAULT_255_1_234
10
4.5401534
20
36.9539195
40
0.6059162
50
78.8378113
51
90.3983573
0
ARC
8
DEFAULT_255_1_234
10
4.5817548
20
37.1559879
40
0.3996205
50
58.9632738
51
79.0810598
0
ARC
8
DEFAULT_255_1_234
10
4.611909
20
37.2119721
40
0.3361177
50
48.0197965
51
58.447194
0
ARC
8
DEFAULT_255_1_234
10
4.6207951
20
37.2205225
40
0.3238191
50
3.3375044
51
48.1766626
0
ARC
8
DEFAULT_255_1_234
10
4.497779
20
37.2028171
40
0.4477806
50
359.9477528
51
4.6829065
0
ARC
8
DEFAULT_255_1_234
10
4.5101107
20
37.1985628
40
0.4354656
50
346.1877825
51
0.5060252
0
ARC
8
DEFAULT_255_1_234
10
4.6459975
20
37.1632731
40
0.295089
50
310.8831995
51
346.5426355
0
ARC
8
DEFAULT_255_1_234
10
4.6151395
20
37.2049695
40
0.3468331
50
286.6925341
51
310.2288297
0
ARC
8
DEFAULT_255_1_234
10
4.5582226
20
37.3839882
40
0.5346654
50
274.6850312
51
287.0245141
0
ARC
8
DEFAULT_255_1_234
10
4.5356949
20
37.6048932
40
0.7566852
50
269.8969846
51
275.018904
0
ARC
8
DEFAULT_255_1_234
10
4.538454
20
37.3969707
40
0.4226708
50
269.6593078
51
279.4153575
0
ARC
8
DEFAULT_255_1_234
10
4.5641815
20
37.2479133
40
0.2714146
50
279.2049762
51
294.9900808
0
ARC
8
DEFAULT_255_1_234
10
4.5932141
20
37.1831508
40
0.2004525
50
295.2888114
51
311.2911209
0
ARC
8
DEFAULT_255_1_234
10
4.6003035
20
37.172622
40
0.1878703
50
311.7854996
51
347.2861051
0
ARC
8
DEFAULT_255_1_234
10
4.5019194
20
37.1979092
40
0.2894234
50
346.6893224
51
0.1059443
0
ARC
8
DEFAULT_255_1_234
10
4.4264089
20
37.2007685
40
0.3649409
50
359.6350983
51
0.0053152
0
ARC
8
DEFAULT_255_1_234
10
4.5234417
20
37.2032937
40
0.2679199
50
359.4672059
51
15.5933957
0
ARC
8
DEFAULT_255_1_234
10
4.5859306
20
37.2201779
40
0.2031932
50
15.7442113
51
46.6203375
0
ARC
8
DEFAULT_255_1_234
10
4.5711527
20
37.2031484
40
0.2257226
50
46.8628658
51
75.6676503
0
ARC
8
DEFAULT_255_1_234
10
4.5417347
20
37.0972718
40
0.3355939
50
75.276167
51
88.2915297
0
ARC
8
DEFAULT_255_1_234
10
4.5359054
20
37.0094524
40
0.4235602
50
87.8575022
51
88.8000139
0
LINE
8
DEFAULT_255_1_234
10
5.8700125
20
36.5116792
11
5.8700125
21
36.3904
0
LINE
8
DEFAULT_255_1_234
10
5.8700125
20
36.3904
11
5.1037846
21
36.3904
0
LINE
8
DEFAULT_255_1_234
10
5.1037846
20
36.3904
11
5.1037846
21
36.4972221
0
LINE
8
DEFAULT_255_1_234
10
5.1037846
20
36.4972221
11
5.5085842
21
36.9469995
0
LINE
8
DEFAULT_255_1_234
10
5.2298829
20
37.2152595
11
5.0812958
21
37.2152595
0
LINE
8
DEFAULT_255_1_234
10
5.5961302
20
36.8514218
11
5.2828924
21
36.5116792
0
LINE
8
DEFAULT_255_1_234
10
5.2828924
20
36.5116792
11
5.8700125
21
36.5116792
0
ARC
8
DEFAULT_255_1_234
10
4.1595676
20
38.1399527
40
1.8008286
50
318.5132453
51
320.7828378
0
ARC
8
DEFAULT_255_1_234
10
4.688265
20
37.7096426
40
1.1191493
50
320.7372736
51
323.9737074
0
ARC
8
DEFAULT_255_1_234
10
5.0802506
20
37.4256361
40
0.6350923
50
323.8961724
51
328.6421089
0
ARC
8
DEFAULT_255_1_234
10
5.2849102
20
37.2994031
40
0.3946393
50
328.8299013
51
331.789948
0
ARC
8
DEFAULT_255_1_234
10
5.384628
20
37.2479509
40
0.2824501
50
331.4255242
51
352.9364833
0
ARC
8
DEFAULT_255_1_234
10
5.3982781
20
37.2448976
40
0.2685315
50
353.2248685
51
0.0169286
0
ARC
8
DEFAULT_255_1_234
10
5.4192658
20
37.247195
40
0.2475536
50
359.4866256
51
15.9339782
0
ARC
8
DEFAULT_255_1_234
10
5.4699643
20
37.2608286
40
0.1950618
50
16.1714718
51
43.5284424
0
ARC
8
DEFAULT_255_1_234
10
5.4776952
20
37.2685573
40
0.184134
50
43.4415429
51
83.1661404
0
ARC
8
DEFAULT_255_1_234
10
5.464287
20
37.1948771
40
0.258926
50
82.160215
51
90.1505798
0
ARC
8
DEFAULT_255_1_234
10
5.4611297
20
37.1411865
40
0.3126255
50
89.5460705
51
102.5418777
0
ARC
8
DEFAULT_255_1_234
10
5.4368383
20
37.2442665
40
0.2067346
50
102.1739365
51
129.2061916
0
ARC
8
DEFAULT_255_1_234
10
5.4289455
20
37.2567094
40
0.1921118
50
129.7279328
51
135.7542026
0
ARC
8
DEFAULT_255_1_234
10
5.4410983
20
37.2470045
40
0.2075944
50
136.175737
51
166.3674722
0
ARC
8
DEFAULT_255_1_234
10
5.5417902
20
37.2200182
40
0.3118201
50
165.9092917
51
178.8683903
0
ARC
8
DEFAULT_255_1_234
10
5.6282763
20
37.2153179
40
0.3983935
50
178.438168
51
180.0083905
0
ARC
8
DEFAULT_255_1_234
10
5.4881365
20
37.2192231
40
0.4068601
50
163.2878735
51
180.5581814
0
ARC
8
DEFAULT_255_1_234
10
5.4079627
20
37.241284
40
0.3237344
50
133.454115
51
162.9470031
0
ARC
8
DEFAULT_255_1_234
10
5.4258168
20
37.2223
40
0.349795
50
100.7869394
51
133.4384016
0
ARC
8
DEFAULT_255_1_234
10
5.4605939
20
37.0674319
40
0.5084616
50
89.6605301
51
101.3704185
0
ARC
8
DEFAULT_255_1_234
10
5.4672278
20
37.0735496
40
0.502348
50
78.2171172
51
90.4130393
0
ARC
8
DEFAULT_255_1_234
10
5.5027357
20
37.2359637
40
0.3361092
50
55.9268222
51
78.4888551
0
ARC
8
DEFAULT_255_1_234
10
5.5223797
20
37.2698324
40
0.2970617
50
47.9292255
51
55.4054003
0
ARC
8
DEFAULT_255_1_234
10
5.5325357
20
37.2801502
40
0.2825983
50
4.3347696
51
48.0560701
0
ARC
8
DEFAULT_255_1_234
10
5.4229751
20
37.2631601
40
0.393225
50
359.925209
51
5.5967654
0
ARC
8
DEFAULT_255_1_234
10
5.4658643
20
37.2687816
40
0.3503892
50
337.8914096
51
358.9967724
0
ARC
8
DEFAULT_255_1_234
10
5.1945055
20
37.3734706
40
0.6412172
50
326.9135351
51
338.3505194
0
ARC
8
DEFAULT_255_1_234
10
4.7959359
20
37.6289284
40
1.1146189
50
319.6472867
51
327.095818
0
ARC
8
DEFAULT_255_1_234
10
4.4126362
20
37.9451
40
1.6114559
50
317.2586784
51
319.9046139
0
LINE
8
DEFAULT_255_1_234
10
4.5256344
20
44.7857091
11
4.2501458
21
44.7857091
0
LINE
8
DEFAULT_255_1_234
10
4.2501458
20
44.7857091
11
4.2501458
21
44.3279
0
LINE
8
DEFAULT_255_1_234
10
4.2501458
20
44.3279
11
4.0959364
21
44.3279
0
LINE
8
DEFAULT_255_1_234
10
4.0959364
20
44.3279
11
4.0959364
21
45.4973211
0
LINE
8
DEFAULT_255_1_234
10
4.0959364
20
45.4973211
11
4.5272407
21
45.4973211
0
LINE
8
DEFAULT_255_1_234
10
4.2501458
20
45.3704196
11
4.2501458
21
44.9118074
0
LINE
8
DEFAULT_255_1_234
10
4.2501458
20
44.9118074
11
4.5272407
21
44.9118074
0
LINE
8
DEFAULT_255_1_234
10
4.5360756
20
45.3704196
11
4.2501458
21
45.3704196
0
ARC
8
DEFAULT_255_1_234
10
4.5314534
20
44.8914195
40
0.6059162
50
78.8378113
51
90.3983573
0
ARC
8
DEFAULT_255_1_234
10
4.5730548
20
45.0934879
40
0.3996205
50
58.9632738
51
79.0810598
0
ARC
8
DEFAULT_255_1_234
10
4.603209
20
45.1494721
40
0.3361177
50
48.0197965
51
58.447194
0
ARC
8
DEFAULT_255_1_234
10
4.6120951
20
45.1580225
40
0.3238191
50
3.3375044
51
48.1766626
0
ARC
8
DEFAULT_255_1_234
10
4.489079
20
45.1403171
40
0.4477806
50
359.9477528
51
4.6829065
0
ARC
8
DEFAULT_255_1_234
10
4.5014107
20
45.1360628
40
0.4354656
50
346.1877825
51
0.5060252
0
ARC
8
DEFAULT_255_1_234
10
4.6372975
20
45.1007731
40
0.295089
50
310.8831995
51
346.5426355
0
ARC
8
DEFAULT_255_1_234
10
4.6064395
20
45.1424695
40
0.3468331
50
286.6925341
51
310.2288297
0
ARC
8
DEFAULT_255_1_234
10
4.5495226
20
45.3214882
40
0.5346654
50
274.6850312
51
287.0245141
0
ARC
8
DEFAULT_255_1_234
10
4.5269949
20
45.5423932
40
0.7566852
50
269.8969846
51
275.018904
0
ARC
8
DEFAULT_255_1_234
10
4.529754
20
45.3344707
40
0.4226708
50
269.6593078
51
279.4153575
0
ARC
8
DEFAULT_255_1_234
10
4.5554815
20
45.1854133
40
0.2714146
50
279.2049762
51
294.9900808
0
ARC
8
DEFAULT_255_1_234
10
4.5845141
20
45.1206508
40
0.2004525
50
295.2888114
51
311.2911209
0
ARC
8
DEFAULT_255_1_234
10
4.5916035
20
45.110122
40
0.1878703
50
311.7854996
51
347.2861051
0
ARC
8
DEFAULT_255_1_234
10
4.4932194
20
45.1354092
40
0.2894234
50
346.6893224
51
0.1059443
0
ARC
8
DEFAULT_255_1_234
10
4.4177089
20
45.1382685
40
0.3649409
50
359.6350983
51
0.0053152
0
ARC
8
DEFAULT_255_1_234
10
4.5147417
20
45.1407937
40
0.2679199
50
359.4672059
51
15.5933957
0
ARC
8
DEFAULT_255_1_234
10
4.5772306
20
45.1576779
40
0.2031932
50
15.7442113
51
46.6203375
0
ARC
8
DEFAULT_255_1_234
10
4.5624527
20
45.1406484
40
0.2257226
50
46.8628658
51
75.6676503
0
ARC
8
DEFAULT_255_1_234
10
4.5330347
20
45.0347718
40
0.3355939
50
75.276167
51
88.2915297
0
ARC
8
DEFAULT_255_1_234
10
4.5272054
20
44.9469524
40
0.4235602
50
87.8575022
51
88.8000139
0
LINE
8
DEFAULT_255_1_234
10
5.5834143
20
45.5029433
11
5.5834143
21
44.3279
0
LINE
8
DEFAULT_255_1_234
10
5.5834143
20
44.3279
11
5.434024
21
44.3279
0
LINE
8
DEFAULT_255_1_234
10
5.434024
20
44.3279
11
5.434024
21
45.3182133
0
LINE
8
DEFAULT_255_1_234
10
5.434024
20
45.3182133
11
5.1344401
21
45.2081785
0
LINE
8
DEFAULT_255_1_234
10
5.1344401
20
45.2081785
11
5.1344401
21
45.3431117
0
LINE
8
DEFAULT_255_1_234
10
5.1344401
20
45.3431117
11
5.5601223
21
45.5029433
0
LINE
8
DEFAULT_255_1_234
10
5.5601223
20
45.5029433
11
5.5834143
21
45.5029433
0
LINE
8
DEFAULT_255_1_234
10
4.8764119
20
52.3866792
11
4.8764119
21
52.2654
0
LINE
8
DEFAULT_255_1_234
10
4.8764119
20
52.2654
11
4.110184
21
52.2654
0
LINE
8
DEFAULT_255_1_234
10
4.110184
20
52.2654
11
4.110184
21
52.3722221
0
LINE
8
DEFAULT_255_1_234
10
4.110184
20
52.3722221
11
4.5149836
21
52.8219995
0
LINE
8
DEFAULT_255_1_234
10
4.2362823
20
53.0902595
11
4.0876952
21
53.0902595
0
LINE
8
DEFAULT_255_1_234
10
4.6025296
20
52.7264218
11
4.2892918
21
52.3866792
0
LINE
8
DEFAULT_255_1_234
10
4.2892918
20
52.3866792
11
4.8764119
21
52.3866792
0
ARC
8
DEFAULT_255_1_234
10
3.165967
20
54.0149527
40
1.8008286
50
318.5132453
51
320.7828378
0
ARC
8
DEFAULT_255_1_234
10
3.6946644
20
53.5846426
40
1.1191493
50
320.7372736
51
323.9737074
0
ARC
8
DEFAULT_255_1_234
10
4.0866501
20
53.3006361
40
0.6350923
50
323.8961724
51
328.6421089
0
ARC
8
DEFAULT_255_1_234
10
4.2913096
20
53.1744031
40
0.3946393
50
328.8299013
51
331.789948
0
ARC
8
DEFAULT_255_1_234
10
4.3910274
20
53.1229509
40
0.2824501
50
331.4255242
51
352.9364833
0
ARC
8
DEFAULT_255_1_234
10
4.4046775
20
53.1198976
40
0.2685315
50
353.2248685
51
0.0169286
0
ARC
8
DEFAULT_255_1_234
10
4.4256652
20
53.122195
40
0.2475536
50
359.4866256
51
15.9339782
0
ARC
8
DEFAULT_255_1_234
10
4.4763637
20
53.1358286
40
0.1950618
50
16.1714718
51
43.5284424
0
ARC
8
DEFAULT_255_1_234
10
4.4840946
20
53.1435573
40
0.184134
50
43.4415429
51
83.1661404
0
ARC
8
DEFAULT_255_1_234
10
4.4706864
20
53.0698771
40
0.258926
50
82.160215
51
90.1505798
0
ARC
8
DEFAULT_255_1_234
10
4.4675291
20
53.0161865
40
0.3126255
50
89.5460705
51
102.5418777
0
ARC
8
DEFAULT_255_1_234
10
4.4432377
20
53.1192665
40
0.2067346
50
102.1739365
51
129.2061916
0
ARC
8
DEFAULT_255_1_234
10
4.4353449
20
53.1317094
40
0.1921118
50
129.7279328
51
135.7542026
0
ARC
8
DEFAULT_255_1_234
10
4.4474977
20
53.1220045
40
0.2075944
50
136.175737
51
166.3674722
0
ARC
8
DEFAULT_255_1_234
10
4.5481896
20
53.0950182
40
0.3118201
50
165.9092917
51
178.8683903
0
ARC
8
DEFAULT_255_1_234
10
4.6346757
20
53.0903179
40
0.3983935
50
178.438168
51
180.0083905
0
ARC
8
DEFAULT_255_1_234
10
4.4945359
20
53.0942231
40
0.4068601
50
163.2878735
51
180.5581814
0
ARC
8
DEFAULT_255_1_234
10
4.4143621
20
53.116284
40
0.3237344
50
133.454115
51
162.9470031
0
ARC
8
DEFAULT_255_1_234
10
4.4322162
20
53.0973
40
0.349795
50
100.7869394
51
133.4384016
0
ARC
8
DEFAULT_255_1_234
10
4.4669934
20
52.9424319
40
0.5084616
50
89.6605301
51
101.3704185
0
ARC
8
DEFAULT_255_1_234
10
4.4736273
20
52.9485496
40
0.502348
50
78.2171172
51
90.4130393
0
ARC
8
DEFAULT_255_1_234
10
4.5091351
20
53.1109637
40
0.3361092
50
55.9268222
51
78.4888551
0
ARC
8
DEFAULT_255_1_234
10
4.5287791
20
53.1448324
40
0.2970617
50
47.9292255
51
55.4054003
0
ARC
8
DEFAULT_255_1_234
10
4.5389352
20
53.1551502
40
0.2825983
50
4.3347696
51
48.0560701
0
ARC
8
DEFAULT_255_1_234
10
4.4293745
20
53.1381601
40
0.393225
50
359.925209
51
5.5967654
0
ARC
8
DEFAULT_255_1_234
10
4.4722637
20
53.1437816
40
0.3503892
50
337.8914096
51
358.9967724
0
ARC
8
DEFAULT_255_1_234
10
4.2009049
20
53.2484706
40
0.6412172
50
326.9135351
51
338.3505194
0
ARC
8
DEFAULT_255_1_234
10
3.8023353
20
53.5039284
40
1.1146189
50
319.6472867
51
327.095818
0
ARC
8
DEFAULT_255_1_234
10
3.4190356
20
53.8201
40
1.6114559
50
317.2586784
51
319.9046139
0
LINE
8
DEFAULT_255_1_234
10
5.2273988
20
53.4348211
11
5.2273988
21
52.3914983
0
LINE
8
DEFAULT_255_1_234
10
5.2273988
20
52.3914983
11
5.7815888
21
52.3914983
0
LINE
8
DEFAULT_255_1_234
10
5.7815888
20
52.3914983
11
5.7815888
21
52.2654
0
LINE
8
DEFAULT_255_1_234
10
5.7815888
20
52.2654
11
5.0723863
21
52.2654
0
LINE
8
DEFAULT_255_1_234
10
5.0723863
20
52.2654
11
5.0723863
21
53.4348211
0
LINE
8
DEFAULT_255_1_234
10
5.0723863
20
53.4348211
11
5.2273988
21
53.4348211
0
LINE
8
DEFAULT_255_1_234
10
6.3598739
20
53.2340276
11
6.3598739
21
52.8926788
0
LINE
8
DEFAULT_255_1_234
10
6.3598739
20
52.8926788
11
6.6859625
21
52.8926788
0
LINE
8
DEFAULT_255_1_234
10
6.6859625
20
52.8926788
11
6.6859625
21
52.7521233
0
LINE
8
DEFAULT_255_1_234
10
6.6859625
20
52.7521233
11
6.3598739
21
52.7521233
0
LINE
8
DEFAULT_255_1_234
10
6.3598739
20
52.7521233
11
6.3598739
21
52.3826634
0
LINE
8
DEFAULT_255_1_234
10
6.3598739
20
52.3826634
11
6.2104836
21
52.3826634
0
LINE
8
DEFAULT_255_1_234
10
6.2104836
20
52.3826634
11
6.2104836
21
52.7521233
0
LINE
8
DEFAULT_255_1_234
10
6.2104836
20
52.7521233
11
5.884395
21
52.7521233
0
LINE
8
DEFAULT_255_1_234
10
5.884395
20
52.7521233
11
5.884395
21
52.8926788
0
LINE
8
DEFAULT_255_1_234
10
5.884395
20
52.8926788
11
6.2104836
21
52.8926788
0
LINE
8
DEFAULT_255_1_234
10
6.2104836
20
52.8926788
11
6.2104836
21
53.2340276
0
LINE
8
DEFAULT_255_1_234
10
6.2104836
20
53.2340276
11
6.3598739
21
53.2340276
0
LINE
8
DEFAULT_255_1_234
10
22.5129137
20
61.3779433
11
22.5129137
21
60.2029
0
LINE
8
DEFAULT_255_1_234
10
22.5129137
20
60.2029
11
22.3635234
21
60.2029
0
LINE
8
DEFAULT_255_1_234
10
22.3635234
20
60.2029
11
22.3635234
21
61.1932133
0
LINE
8
DEFAULT_255_1_234
10
22.3635234
20
61.1932133
11
22.0639396
21
61.0831785
0
LINE
8
DEFAULT_255_1_234
10
22.0639396
20
61.0831785
11
22.0639396
21
61.2181117
0
LINE
8
DEFAULT_255_1_234
10
22.0639396
20
61.2181117
11
22.4896217
21
61.3779433
0
LINE
8
DEFAULT_255_1_234
10
22.4896217
20
61.3779433
11
22.5129137
21
61.3779433
0
LINE
8
DEFAULT_255_1_234
10
22.9867863
20
61.3723211
11
23.1859734
21
61.3723211
0
LINE
8
DEFAULT_255_1_234
10
23.1859734
20
61.3723211
11
23.5682841
21
60.4181506
0
LINE
8
DEFAULT_255_1_234
10
23.5682841
20
60.4181506
11
23.9505949
21
61.3723211
0
LINE
8
DEFAULT_255_1_234
10
23.9505949
20
61.3723211
11
24.1505852
21
61.3723211
0
LINE
8
DEFAULT_255_1_234
10
24.1505852
20
61.3723211
11
24.1505852
21
60.2029
0
LINE
8
DEFAULT_255_1_234
10
24.1505852
20
60.2029
11
23.9963758
21
60.2029
0
LINE
8
DEFAULT_255_1_234
10
23.9963758
20
60.2029
11
23.9963758
21
60.6582996
0
LINE
8
DEFAULT_255_1_234
10
23.9963758
20
60.6582996
11
24.0108329
21
61.1498419
0
LINE
8
DEFAULT_255_1_234
10
24.0108329
20
61.1498419
11
23.6269158
21
60.2029
0
LINE
8
DEFAULT_255_1_234
10
23.6269158
20
60.2029
11
23.5088493
21
60.2029
0
LINE
8
DEFAULT_255_1_234
10
23.5088493
20
60.2029
11
23.1257354
21
61.1474324
0
LINE
8
DEFAULT_255_1_234
10
23.1257354
20
61.1474324
11
23.1409957
21
60.6582996
0
LINE
8
DEFAULT_255_1_234
10
23.1409957
20
60.6582996
11
23.1409957
21
60.2029
0
LINE
8
DEFAULT_255_1_234
10
23.1409957
20
60.2029
11
22.9867863
21
60.2029
0
LINE
8
DEFAULT_255_1_234
10
22.9867863
20
60.2029
11
22.9867863
21
61.3723211
0
LINE
8
DEFAULT_255_1_234
10
22.7908119
20
52.3866792
11
22.7908119
21
52.2654
0
LINE
8
DEFAULT_255_1_234
10
22.7908119
20
52.2654
11
22.024584
21
52.2654
0
LINE
8
DEFAULT_255_1_234
10
22.024584
20
52.2654
11
22.024584
21
52.3722221
0
LINE
8
DEFAULT_255_1_234
10
22.024584
20
52.3722221
11
22.4293836
21
52.8219995
0
LINE
8
DEFAULT_255_1_234
10
22.1506823
20
53.0902595
11
22.0020952
21
53.0902595
0
LINE
8
DEFAULT_255_1_234
10
22.5169296
20
52.7264218
11
22.2036918
21
52.3866792
0
LINE
8
DEFAULT_255_1_234
10
22.2036918
20
52.3866792
11
22.7908119
21
52.3866792
0
ARC
8
DEFAULT_255_1_234
10
21.080367
20
54.0149527
40
1.8008286
50
318.5132453
51
320.7828378
0
ARC
8
DEFAULT_255_1_234
10
21.6090644
20
53.5846426
40
1.1191493
50
320.7372736
51
323.9737074
0
ARC
8
DEFAULT_255_1_234
10
22.0010501
20
53.3006361
40
0.6350923
50
323.8961724
51
328.6421089
0
ARC
8
DEFAULT_255_1_234
10
22.2057096
20
53.1744031
40
0.3946393
50
328.8299013
51
331.789948
0
ARC
8
DEFAULT_255_1_234
10
22.3054274
20
53.1229509
40
0.2824501
50
331.4255242
51
352.9364833
0
ARC
8
DEFAULT_255_1_234
10
22.3190775
20
53.1198976
40
0.2685315
50
353.2248685
51
0.0169286
0
ARC
8
DEFAULT_255_1_234
10
22.3400652
20
53.122195
40
0.2475536
50
359.4866256
51
15.9339782
0
ARC
8
DEFAULT_255_1_234
10
22.3907637
20
53.1358286
40
0.1950618
50
16.1714718
51
43.5284424
0
ARC
8
DEFAULT_255_1_234
10
22.3984946
20
53.1435573
40
0.184134
50
43.4415429
51
83.1661404
0
ARC
8
DEFAULT_255_1_234
10
22.3850864
20
53.0698771
40
0.258926
50
82.160215
51
90.1505798
0
ARC
8
DEFAULT_255_1_234
10
22.3819291
20
53.0161865
40
0.3126255
50
89.5460705
51
102.5418777
0
ARC
8
DEFAULT_255_1_234
10
22.3576377
20
53.1192665
40
0.2067346
50
102.1739365
51
129.2061916
0
ARC
8
DEFAULT_255_1_234
10
22.3497449
20
53.1317094
40
0.1921118
50
129.7279328
51
135.7542026
0
ARC
8
DEFAULT_255_1_234
10
22.3618977
20
53.1220045
40
0.2075944
50
136.175737
51
166.3674722
0
ARC
8
DEFAULT_255_1_234
10
22.4625896
20
53.0950182
40
0.3118201
50
165.9092917
51
178.8683903
0
ARC
8
DEFAULT_255_1_234
10
22.5490757
20
53.0903179
40
0.3983935
50
178.438168
51
180.0083905
0
ARC
8
DEFAULT_255_1_234
10
22.4089359
20
53.0942231
40
0.4068601
50
163.2878735
51
180.5581814
0
ARC
8
DEFAULT_255_1_234
10
22.3287621
20
53.116284
40
0.3237344
50
133.454115
51
162.9470031
0
ARC
8
DEFAULT_255_1_234
10
22.3466162
20
53.0973
40
0.349795
50
100.7869394
51
133.4384016
0
ARC
8
DEFAULT_255_1_234
10
22.3813934
20
52.9424319
40
0.5084616
50
89.6605301
51
101.3704185
0
ARC
8
DEFAULT_255_1_234
10
22.3880273
20
52.9485496
40
0.502348
50
78.2171172
51
90.4130393
0
ARC
8
DEFAULT_255_1_234
10
22.4235351
20
53.1109637
40
0.3361092
50
55.9268222
51
78.4888551
0
ARC
8
DEFAULT_255_1_234
10
22.4431791
20
53.1448324
40
0.2970617
50
47.9292255
51
55.4054003
0
ARC
8
DEFAULT_255_1_234
10
22.4533352
20
53.1551502
40
0.2825983
50
4.3347696
51
48.0560701
0
ARC
8
DEFAULT_255_1_234
10
22.3437745
20
53.1381601
40
0.393225
50
359.925209
51
5.5967654
0
ARC
8
DEFAULT_255_1_234
10
22.3866637
20
53.1437816
40
0.3503892
50
337.8914096
51
358.9967724
0
ARC
8
DEFAULT_255_1_234
10
22.1153049
20
53.2484706
40
0.6412172
50
326.9135351
51
338.3505194
0
ARC
8
DEFAULT_255_1_234
10
21.7167353
20
53.5039284
40
1.1146189
50
319.6472867
51
327.095818
0
ARC
8
DEFAULT_255_1_234
10
21.3334356
20
53.8201
40
1.6114559
50
317.2586784
51
319.9046139
0
LINE
8
DEFAULT_255_1_234
10
22.9867863
20
53.4348211
11
23.1859734
21
53.4348211
0
LINE
8
DEFAULT_255_1_234
10
23.1859734
20
53.4348211
11
23.5682841
21
52.4806506
0
LINE
8
DEFAULT_255_1_234
10
23.5682841
20
52.4806506
11
23.9505949
21
53.4348211
0
LINE
8
DEFAULT_255_1_234
10
23.9505949
20
53.4348211
11
24.1505852
21
53.4348211
0
LINE
8
DEFAULT_255_1_234
10
24.1505852
20
53.4348211
11
24.1505852
21
52.2654
0
LINE
8
DEFAULT_255_1_234
10
24.1505852
20
52.2654
11
23.9963758
21
52.2654
0
LINE
8
DEFAULT_255_1_234
10
23.9963758
20
52.2654
11
23.9963758
21
52.7207996
0
LINE
8
DEFAULT_255_1_234
10
23.9963758
20
52.7207996
11
24.0108329
21
53.2123419
0
LINE
8
DEFAULT_255_1_234
10
24.0108329
20
53.2123419
11
23.6269158
21
52.2654
0
LINE
8
DEFAULT_255_1_234
10
23.6269158
20
52.2654
11
23.5088493
21
52.2654
0
LINE
8
DEFAULT_255_1_234
10
23.5088493
20
52.2654
11
23.1257354
21
53.2099324
0
LINE
8
DEFAULT_255_1_234
10
23.1257354
20
53.2099324
11
23.1409957
21
52.7207996
0
LINE
8
DEFAULT_255_1_234
10
23.1409957
20
52.7207996
11
23.1409957
21
52.2654
0
LINE
8
DEFAULT_255_1_234
10
23.1409957
20
52.2654
11
22.9867863
21
52.2654
0
LINE
8
DEFAULT_255_1_234
10
22.9867863
20
52.2654
11
22.9867863
21
53.4348211
0
ENDSEC
0
EOF