0
SECTION
2
HEADER
9
$MEASUREMENT
70
1
0
ENDSEC
0
SECTION
2
TABLES
0
TABLE
2
LTYPE
0
LTYPE
72
65
70
64
2
CONTINUOUS
3
______
73
0
40
0
0
ENDTAB
0
TABLE
2
LAYER
0
LAYER
2
DEFAULT_255_2_778
70
0
62
255
6
CONTINUOUS
0
ENDTAB
0
ENDSEC
0
SECTION
2
ENTITIES
0
LINE
8
DEFAULT_255_2_778
10
7.7151025
20
41.0728585
11
6.2152025
21
41.0728585
0
LINE
8
DEFAULT_255_2_778
10
6.2152025
20
41.0728585
11
5.8133025
21
42.5727585
0
LINE
8
DEFAULT_255_2_778
10
5.8133025
20
42.5727585
11
5.5305025
21
42.5727585
0
LINE
8
DEFAULT_255_2_778
10
5.5305025
20
42.5727585
11
5.4085025
21
42.5653585
0
LINE
8
DEFAULT_255_2_778
10
5.4085025
20
42.5653585
11
5.2884025
21
42.5431585
0
LINE
8
DEFAULT_255_2_778
10
5.2884025
20
42.5431585
11
5.1719025
21
42.5063585
0
LINE
8
DEFAULT_255_2_778
10
5.1719025
20
42.5063585
11
5.0608025
21
42.4557585
0
LINE
8
DEFAULT_255_2_778
10
5.0608025
20
42.4557585
11
4.9568025
21
42.3920585
0
LINE
8
DEFAULT_255_2_778
10
4.9568025
20
42.3920585
11
2.3414025
21
40.5608585
0
LINE
8
DEFAULT_255_2_778
10
2.3414025
20
40.5608585
11
2.1956025
21
40.4362585
0
LINE
8
DEFAULT_255_2_778
10
2.1956025
20
40.4362585
11
2.0763025
21
40.2862585
0
LINE
8
DEFAULT_255_2_778
10
2.0763025
20
40.2862585
11
1.9877025
21
40.1160585
0
LINE
8
DEFAULT_255_2_778
10
1.9877025
20
40.1160585
11
1.9332025
21
39.9321585
0
LINE
8
DEFAULT_255_2_778
10
1.9332025
20
39.9321585
11
1.9149025
21
39.7414585
0
LINE
8
DEFAULT_255_2_778
10
1.9149025
20
39.7414585
11
1.9149025
21
38.7357585
0
LINE
8
DEFAULT_255_2_778
10
1.9149025
20
38.7357585
11
1.9427025
21
38.5775585
0
LINE
8
DEFAULT_255_2_778
10
7.7149025
20
41.0685585
11
6.2152025
21
41.0685585
0
LINE
8
DEFAULT_255_2_778
10
6.2152025
20
41.0685585
11
5.8133025
21
42.5685585
0
LINE
8
DEFAULT_255_2_778
10
5.8133025
20
42.5685585
11
5.5305025
21
42.5685585
0
LINE
8
DEFAULT_255_2_778
10
5.5305025
20
42.5685585
11
5.4085025
21
42.5610585
0
LINE
8
DEFAULT_255_2_778
10
5.4085025
20
42.5610585
11
5.2884025
21
42.5388585
0
LINE
8
DEFAULT_255_2_778
10
5.2884025
20
42.5388585
11
5.1719025
21
42.5020585
0
LINE
8
DEFAULT_255_2_778
10
5.1719025
20
42.5020585
11
5.0608025
21
42.4515585
0
LINE
8
DEFAULT_255_2_778
10
5.0608025
20
42.4515585
11
4.9568025
21
42.3877585
0
LINE
8
DEFAULT_255_2_778
10
4.9568025
20
42.3877585
11
2.3414025
21
40.5566585
0
LINE
8
DEFAULT_255_2_778
10
2.3414025
20
40.5566585
11
2.1956025
21
40.4319585
0
LINE
8
DEFAULT_255_2_778
10
2.1956025
20
40.4319585
11
2.0763025
21
40.2819585
0
LINE
8
DEFAULT_255_2_778
10
2.0763025
20
40.2819585
11
1.9877025
21
40.1118585
0
LINE
8
DEFAULT_255_2_778
10
1.9877025
20
40.1118585
11
1.9332025
21
39.9279585
0
LINE
8
DEFAULT_255_2_778
10
1.9332025
20
39.9279585
11
1.9149025
21
39.7372585
0
LINE
8
DEFAULT_255_2_778
10
0.4404025
20
76.8227585
11
0.4520025
21
76.7293585
0
LINE
8
DEFAULT_255_2_778
10
0.4520025
20
76.7293585
11
0.4658025
21
76.6362585
0
LINE
8
DEFAULT_255_2_778
10
0.4658025
20
76.6362585
11
0.4817025
21
76.5433585
0
LINE
8
DEFAULT_255_2_778
10
0.4817025
20
76.5433585
11
0.4999025
21
76.4510585
0
LINE
8
DEFAULT_255_2_778
10
0.4999025
20
76.4510585
11
0.5203025
21
76.3592585
0
LINE
8
DEFAULT_255_2_778
10
0.5203025
20
76.3592585
11
0.5428025
21
76.2676585
0
LINE
8
DEFAULT_255_2_778
10
0.5428025
20
76.2676585
11
0.5674025
21
76.1769585
0
LINE
8
DEFAULT_255_2_778
10
0.5674025
20
76.1769585
11
0.5941025
21
76.0867585
0
LINE
8
DEFAULT_255_2_778
10
0.5941025
20
76.0867585
11
0.6230025
21
75.9970585
0
LINE
8
DEFAULT_255_2_778
10
0.6230025
20
75.9970585
11
0.6539025
21
75.9081585
0
LINE
8
DEFAULT_255_2_778
10
0.6539025
20
75.9081585
11
0.6870025
21
75.8200585
0
LINE
8
DEFAULT_255_2_778
10
0.6870025
20
75.8200585
11
0.7222025
21
75.7327585
0
LINE
8
DEFAULT_255_2_778
10
0.7222025
20
75.7327585
11
0.7595025
21
75.6461585
0
LINE
8
DEFAULT_255_2_778
10
0.7595025
20
75.6461585
11
0.7986025
21
75.5607585
0
LINE
8
DEFAULT_255_2_778
10
0.7986025
20
75.5607585
11
0.8399025
21
75.4760585
0
LINE
8
DEFAULT_255_2_778
10
0.8399025
20
75.4760585
11
0.8830025
21
75.3924585
0
LINE
8
DEFAULT_255_2_778
10
0.8830025
20
75.3924585
11
0.9283025
21
75.3099585
0
LINE
8
DEFAULT_255_2_778
10
0.9283025
20
75.3099585
11
0.9754025
21
75.2284585
0
LINE
8
DEFAULT_255_2_778
10
0.9754025
20
75.2284585
11
1.0243025
21
75.1479585
0
LINE
8
DEFAULT_255_2_778
10
1.0243025
20
75.1479585
11
1.0751025
21
75.0688585
0
LINE
8
DEFAULT_255_2_778
10
1.0751025
20
75.0688585
11
1.1278025
21
74.9908585
0
LINE
8
DEFAULT_255_2_778
10
1.1278025
20
74.9908585
11
1.1823025
21
74.9140585
0
LINE
8
DEFAULT_255_2_778
10
1.1823025
20
74.9140585
11
1.2386025
21
74.8386585
0
LINE
8
DEFAULT_255_2_778
10
1.2386025
20
74.8386585
11
1.2966025
21
74.7645585
0
LINE
8
DEFAULT_255_2_778
10
1.2966025
20
74.7645585
11
1.3564025
21
74.6918585
0
LINE
8
DEFAULT_255_2_778
10
1.3564025
20
74.6918585
11
1.4178025
21
74.6206585
0
LINE
8
DEFAULT_255_2_778
10
1.4178025
20
74.6206585
11
1.4810025
21
74.5508585
0
LINE
8
DEFAULT_255_2_778
10
1.4810025
20
74.5508585
11
1.5458025
21
74.4825585
0
LINE
8
DEFAULT_255_2_778
10
1.5458025
20
74.4825585
11
1.6122025
21
74.4158585
0
LINE
8
DEFAULT_255_2_778
10
1.6122025
20
74.4158585
11
1.6802025
21
74.3507585
0
LINE
8
DEFAULT_255_2_778
10
1.6802025
20
74.3507585
11
1.7498025
21
74.2872585
0
LINE
8
DEFAULT_255_2_778
10
1.7498025
20
74.2872585
11
1.8207025
21
74.2253585
0
LINE
8
DEFAULT_255_2_778
10
1.8207025
20
74.2253585
11
1.8932025
21
74.1653585
0
LINE
8
DEFAULT_255_2_778
10
1.8932025
20
74.1653585
11
1.9670025
21
74.1068585
0
LINE
8
DEFAULT_255_2_778
10
1.9670025
20
74.1068585
11
2.0422025
21
74.0502585
0
LINE
8
DEFAULT_255_2_778
10
2.0422025
20
74.0502585
11
2.1187025
21
73.9951585
0
LINE
8
DEFAULT_255_2_778
10
2.1187025
20
73.9951585
11
2.1964025
21
73.9420585
0
LINE
8
DEFAULT_255_2_778
10
2.1964025
20
73.9420585
11
2.2753025
21
73.8906585
0
LINE
8
DEFAULT_255_2_778
10
2.2753025
20
73.8906585
11
2.3555025
21
73.8411585
0
LINE
8
DEFAULT_255_2_778
10
2.3555025
20
73.8411585
11
2.4367025
21
73.7935585
0
LINE
8
DEFAULT_255_2_778
10
2.4367025
20
73.7935585
11
2.5190025
21
73.7480585
0
LINE
8
DEFAULT_255_2_778
10
2.5190025
20
73.7480585
11
2.6023025
21
73.7044585
0
LINE
8
DEFAULT_255_2_778
10
2.6023025
20
73.7044585
11
2.6867025
21
73.6626585
0
LINE
8
DEFAULT_255_2_778
10
2.6867025
20
73.6626585
11
2.7719025
21
73.6229585
0
LINE
8
DEFAULT_255_2_778
10
2.7719025
20
73.6229585
11
2.8582025
21
73.5853585
0
LINE
8
DEFAULT_255_2_778
10
2.8582025
20
73.5853585
11
2.9452025
21
73.5496585
0
LINE
8
DEFAULT_255_2_778
10
2.9452025
20
73.5496585
11
3.0331025
21
73.5160585
0
LINE
8
DEFAULT_255_2_778
10
3.0331025
20
73.5160585
11
3.1217025
21
73.4845585
0
LINE
8
DEFAULT_255_2_778
10
3.1217025
20
73.4845585
11
3.2111025
21
73.4551585
0
LINE
8
DEFAULT_255_2_778
10
3.2111025
20
73.4551585
11
3.3011025
21
73.4279585
0
LINE
8
DEFAULT_255_2_778
10
3.3011025
20
73.4279585
11
3.3918025
21
73.4027585
0
LINE
8
DEFAULT_255_2_778
10
3.3918025
20
73.4027585
11
3.4831025
21
73.3797585
0
LINE
8
DEFAULT_255_2_778
10
3.4831025
20
73.3797585
11
3.5749025
21
73.3588585
0
LINE
8
DEFAULT_255_2_778
10
3.5749025
20
73.3588585
11
3.6673025
21
73.3400585
0
LINE
8
DEFAULT_255_2_778
10
3.6673025
20
73.3400585
11
3.7599025
21
73.3236585
0
LINE
8
DEFAULT_255_2_778
10
3.7599025
20
73.3236585
11
3.8530025
21
73.3093585
0
LINE
8
DEFAULT_255_2_778
10
3.8530025
20
73.3093585
11
3.9464025
21
73.2972585
0
LINE
8
DEFAULT_255_2_778
10
3.9464025
20
73.2972585
11
4.0401025
21
73.2871585
0
LINE
8
DEFAULT_255_2_778
10
4.0401025
20
73.2871585
11
4.1337025
21
73.2794585
0
LINE
8
DEFAULT_255_2_778
10
4.1337025
20
73.2794585
11
4.2276025
21
73.2739585
0
LINE
8
DEFAULT_255_2_778
10
4.2276025
20
73.2739585
11
4.3216025
21
73.2704585
0
LINE
8
DEFAULT_255_2_778
10
4.3216025
20
73.2704585
11
4.4158025
21
73.2694585
0
LINE
8
DEFAULT_255_2_778
10
4.4158025
20
73.2694585
11
4.6732025
21
73.2694585
0
LINE
8
DEFAULT_255_2_778
10
4.6732025
20
73.2694585
11
4.6941025
21
73.2696585
0
LINE
8
DEFAULT_255_2_778
10
4.6941025
20
73.2696585
11
4.7150025
21
73.2702585
0
LINE
8
DEFAULT_255_2_778
10
4.7150025
20
73.2702585
11
4.7359025
21
73.2712585
0
LINE
8
DEFAULT_255_2_778
10
4.7359025
20
73.2712585
11
4.7568025
21
73.2728585
0
LINE
8
DEFAULT_255_2_778
10
4.7568025
20
73.2728585
11
4.7774025
21
73.2747585
0
LINE
8
DEFAULT_255_2_778
10
4.7774025
20
73.2747585
11
4.7981025
21
73.2771585
0
LINE
8
DEFAULT_255_2_778
10
4.7981025
20
73.2771585
11
4.8187025
21
73.2800585
0
LINE
8
DEFAULT_255_2_778
10
4.8187025
20
73.2800585
11
4.8394025
21
73.2831585
0
LINE
8
DEFAULT_255_2_778
10
4.8394025
20
73.2831585
11
4.8597025
21
73.2868585
0
LINE
8
DEFAULT_255_2_778
10
4.8597025
20
73.2868585
11
4.8801025
21
73.2908585
0
LINE
8
DEFAULT_255_2_778
10
4.8801025
20
73.2908585
11
4.9005025
21
73.2953585
0
LINE
8
DEFAULT_255_2_778
10
4.9005025
20
73.2953585
11
4.9206025
21
73.3003585
0
LINE
8
DEFAULT_255_2_778
10
4.9206025
20
73.3003585
11
4.9407025
21
73.3056585
0
LINE
8
DEFAULT_255_2_778
10
4.9407025
20
73.3056585
11
4.9608025
21
73.3115585
0
LINE
8
DEFAULT_255_2_778
10
4.9608025
20
73.3115585
11
4.9806025
21
73.3175585
0
LINE
8
DEFAULT_255_2_778
10
4.9806025
20
73.3175585
11
5.0005025
21
73.3242585
0
LINE
8
DEFAULT_255_2_778
10
5.0005025
20
73.3242585
11
5.0201025
21
73.3313585
0
LINE
8
DEFAULT_255_2_778
10
5.0201025
20
73.3313585
11
5.0397025
21
73.3387585
0
LINE
8
DEFAULT_255_2_778
10
5.0397025
20
73.3387585
11
5.0590025
21
73.3466585
0
LINE
8
DEFAULT_255_2_778
10
5.0590025
20
73.3466585
11
5.0780025
21
73.3548585
0
LINE
8
DEFAULT_255_2_778
10
5.0780025
20
73.3548585
11
5.0971025
21
73.3636585
0
LINE
8
DEFAULT_255_2_778
10
5.0971025
20
73.3636585
11
5.1159025
21
73.3726585
0
LINE
8
DEFAULT_255_2_778
10
5.1159025
20
73.3726585
11
5.1344025
21
73.3821585
0
LINE
8
DEFAULT_255_2_778
10
5.1344025
20
73.3821585
11
5.1526025
21
73.3919585
0
LINE
8
DEFAULT_255_2_778
10
5.1526025
20
73.3919585
11
5.1709025
21
73.4019585
0
LINE
8
DEFAULT_255_2_778
10
5.1709025
20
73.4019585
11
5.1889025
21
73.4125585
0
LINE
8
DEFAULT_255_2_778
10
5.1889025
20
73.4125585
11
5.2066025
21
73.4234585
0
LINE
8
DEFAULT_255_2_778
10
5.2066025
20
73.4234585
11
5.2241025
21
73.4347585
0
LINE
8
DEFAULT_255_2_778
10
5.2241025
20
73.4347585
11
5.2413025
21
73.4464585
0
LINE
8
DEFAULT_255_2_778
10
5.2413025
20
73.4464585
11
5.2582025
21
73.4583585
0
LINE
8
DEFAULT_255_2_778
10
5.2582025
20
73.4583585
11
5.2749025
21
73.4707585
0
LINE
8
DEFAULT_255_2_778
10
5.2749025
20
73.4707585
11
5.2913025
21
73.4834585
0
LINE
8
DEFAULT_255_2_778
10
5.2913025
20
73.4834585
11
5.3074025
21
73.4964585
0
LINE
8
DEFAULT_255_2_778
10
5.3074025
20
73.4964585
11
5.3233025
21
73.5099585
0
LINE
8
DEFAULT_255_2_778
10
5.3233025
20
73.5099585
11
5.3389025
21
73.5236585
0
LINE
8
DEFAULT_255_2_778
10
5.3389025
20
73.5236585
11
5.3542025
21
73.5377585
0
LINE
8
DEFAULT_255_2_778
10
5.3542025
20
73.5377585
11
5.3693025
21
73.5520585
0
LINE
8
DEFAULT_255_2_778
10
5.3693025
20
73.5520585
11
5.3841025
21
73.5665585
0
LINE
8
DEFAULT_255_2_778
10
5.3841025
20
73.5665585
11
5.3987025
21
73.5816585
0
LINE
8
DEFAULT_255_2_778
10
5.3987025
20
73.5816585
11
5.4130025
21
73.5969585
0
LINE
8
DEFAULT_255_2_778
10
5.4130025
20
73.5969585
11
5.4267025
21
73.6125585
0
LINE
8
DEFAULT_255_2_778
10
5.4267025
20
73.6125585
11
5.4402025
21
73.6284585
0
LINE
8
DEFAULT_255_2_778
10
5.4402025
20
73.6284585
11
5.4535025
21
73.6446585
0
LINE
8
DEFAULT_255_2_778
10
5.4535025
20
73.6446585
11
5.4664025
21
73.6610585
0
LINE
8
DEFAULT_255_2_778
10
5.4664025
20
73.6610585
11
5.4789025
21
73.6776585
0
LINE
8
DEFAULT_255_2_778
10
5.4789025
20
73.6776585
11
5.4910025
21
73.6946585
0
LINE
8
DEFAULT_255_2_778
10
5.4910025
20
73.6946585
11
5.5029025
21
73.7118585
0
LINE
8
DEFAULT_255_2_778
10
5.5029025
20
73.7118585
11
5.5143025
21
73.7292585
0
LINE
8
DEFAULT_255_2_778
10
5.5143025
20
73.7292585
11
5.5254025
21
73.7470585
0
LINE
8
DEFAULT_255_2_778
10
5.5254025
20
73.7470585
11
5.5360025
21
73.7649585
0
LINE
8
DEFAULT_255_2_778
10
5.5360025
20
73.7649585
11
5.5463025
21
73.7829585
0
LINE
8
DEFAULT_255_2_778
10
5.5463025
20
73.7829585
11
5.5564025
21
73.8012585
0
LINE
8
DEFAULT_255_2_778
10
5.5564025
20
73.8012585
11
5.5659025
21
73.8197585
0
LINE
8
DEFAULT_255_2_778
10
5.5659025
20
73.8197585
11
5.5752025
21
73.8385585
0
LINE
8
DEFAULT_255_2_778
10
5.5752025
20
73.8385585
11
5.5839025
21
73.8573585
0
LINE
8
DEFAULT_255_2_778
10
5.5839025
20
73.8573585
11
5.5924025
21
73.8763585
0
LINE
8
DEFAULT_255_2_778
10
5.5924025
20
73.8763585
11
5.6003025
21
73.8957585
0
LINE
8
DEFAULT_255_2_778
10
5.6003025
20
73.8957585
11
5.6080025
21
73.9150585
0
LINE
8
DEFAULT_255_2_778
10
5.6080025
20
73.9150585
11
5.6151025
21
73.9345585
0
LINE
8
DEFAULT_255_2_778
10
5.6151025
20
73.9345585
11
5.6220025
21
73.9541585
0
LINE
8
DEFAULT_255_2_778
10
5.6220025
20
73.9541585
11
5.6283025
21
73.9740585
0
LINE
8
DEFAULT_255_2_778
10
5.6283025
20
73.9740585
11
5.6342025
21
73.9938585
0
LINE
8
DEFAULT_255_2_778
10
5.6342025
20
73.9938585
11
6.3861025
21
76.6158585
0
LINE
8
DEFAULT_255_2_778
10
26.8654025
20
72.6188585
11
22.9654025
21
72.6188585
0
LINE
8
DEFAULT_255_2_778
10
22.9654025
20
74.9683585
11
26.8654025
21
74.9683585
0
LINE
8
DEFAULT_255_2_778
10
26.8654025
20
74.9683585
11
26.8654025
21
70.2693585
0
LINE
8
DEFAULT_255_2_778
10
26.8654025
20
70.2693585
11
22.9654025
21
70.2693585
0
LINE
8
DEFAULT_255_2_778
10
22.9654025
20
100.8686585
11
26.7053025
21
100.8686585
0
LINE
8
DEFAULT_255_2_778
10
26.7053025
20
100.8686585
11
26.7053025
21
76.8685585
0
LINE
8
DEFAULT_255_2_778
10
26.7053025
20
76.8685585
11
22.9654025
21
76.8685585
0
LINE
8
DEFAULT_255_2_778
10
26.7053025
20
79.0018585
11
22.9654025
21
79.0018585
0
LINE
8
DEFAULT_255_2_778
10
26.7053025
20
77.2342585
11
22.9654025
21
77.2342585
0
LINE
8
DEFAULT_255_2_778
10
26.7053025
20
76.9018585
11
22.9654025
21
76.9018585
0
LINE
8
DEFAULT_255_2_778
10
26.7053499
20
100.8354029
11
22.9654499
21
100.8354029
0
LINE
8
DEFAULT_255_2_778
10
26.7053499
20
100.5031029
11
22.9654499
21
100.5031029
0
LINE
8
DEFAULT_255_2_778
10
26.7053499
20
98.7354029
11
22.9654499
21
98.7354029
0
LINE
8
DEFAULT_255_2_778
10
26.8654499
20
105.1187029
11
22.9654499
21
105.1187029
0
LINE
8
DEFAULT_255_2_778
10
22.9654499
20
107.4682029
11
26.8654499
21
107.4682029
0
LINE
8
DEFAULT_255_2_778
10
26.8654499
20
107.4682029
11
26.8654499
21
102.7692029
0
LINE
8
DEFAULT_255_2_778
10
26.8654499
20
102.7692029
11
22.9654499
21
102.7692029
0
LINE
8
DEFAULT_255_2_778
10
73.7654499
20
110.5739029
11
73.7654499
21
111.1687029
0
LINE
8
DEFAULT_255_2_778
10
73.7654499
20
111.1687029
11
73.7403499
21
111.1687029
0
LINE
8
DEFAULT_255_2_778
10
5.6810499
20
111.5288029
11
5.2153499
21
111.5288029
0
LINE
8
DEFAULT_255_2_778
10
5.2153499
20
111.5288029
11
5.2153499
21
108.5895029
0
LINE
8
DEFAULT_255_2_778
10
71.6958499
20
112.1651029
11
64.8524499
21
112.7062029
0
LINE
8
DEFAULT_255_2_778
10
64.8524499
20
112.7062029
11
58.0005499
21
113.1271029
0
LINE
8
DEFAULT_255_2_778
10
58.0005499
20
113.1271029
11
51.1422499
21
113.4280029
0
LINE
8
DEFAULT_255_2_778
10
51.1422499
20
113.4280029
11
44.2797499
21
113.6084029
0
LINE
8
DEFAULT_255_2_778
10
44.2797499
20
113.6084029
11
37.4151499
21
113.6685029
0
LINE
8
DEFAULT_255_2_778
10
37.4151499
20
113.6685029
11
19.9153499
21
113.6685029
0
LINE
8
DEFAULT_255_2_778
10
19.9153499
20
113.6685029
11
19.9153499
21
114.5768029
0
LINE
8
DEFAULT_255_2_778
10
8.6152499
20
116.8681029
11
8.6152499
21
118.3688029
0
LINE
8
DEFAULT_255_2_778
10
8.6152499
20
118.3688029
11
14.1553499
21
118.3688029
0
LINE
8
DEFAULT_255_2_778
10
14.1553499
20
118.3688029
11
14.1553499
21
116.3146029
0
ARC
8
DEFAULT_255_2_778
10
14.5712373
20
114.1014749
40
2.4999479
50
42.1888303
51
80.0049168
0
ARC
8
DEFAULT_255_2_778
10
5.2153469
20
111.2286707
40
0.3001094
50
90.0208901
51
179.9791099
0
LINE
8
DEFAULT_255_2_778
10
71.6958375
20
112.1650802
11
72.0979375
21
112.1296802
0
LINE
8
DEFAULT_255_2_778
10
72.0979375
20
112.1296802
11
72.4998375
21
112.0936802
0
LINE
8
DEFAULT_255_2_778
10
72.4998375
20
112.0936802
11
72.9017375
21
112.0573802
0
LINE
8
DEFAULT_255_2_778
10
72.9017375
20
112.0573802
11
73.3037375
21
112.0206802
0
LINE
8
DEFAULT_255_2_778
10
73.3037375
20
112.0206802
11
73.7056375
21
111.9832802
0
LINE
8
DEFAULT_255_2_778
10
73.7056375
20
111.9832802
11
73.7341375
21
111.3207802
0
LINE
8
DEFAULT_255_2_778
10
73.7341375
20
111.3207802
11
73.7894375
21
109.9957802
0
LINE
8
DEFAULT_255_2_778
10
32.0152375
20
63.8688802
11
22.9651375
21
67.7687802
0
LINE
8
DEFAULT_255_2_778
10
22.9651375
20
67.7687802
11
22.9651375
21
113.6686802
0
LINE
8
DEFAULT_255_2_778
10
14.1553375
20
116.7132802
11
15.0051375
21
116.5634802
0
LINE
8
DEFAULT_255_2_778
10
4.9152375
20
111.2287802
11
4.9152375
21
106.6953802
0
LINE
8
DEFAULT_255_2_778
10
1.9151375
20
38.7400802
11
1.9437375
21
38.5780802
0
LINE
8
DEFAULT_255_2_778
10
16.4151946
20
-0.2312485
11
16.4151946
21
115.7824515
0
LINE
8
DEFAULT_255_2_778
10
32.0152946
20
-0.2312485
11
32.0152946
21
113.6686515
0
LINE
8
DEFAULT_255_2_778
10
74.1093946
20
101.0914515
11
74.1093946
21
101.0914515
0
LINE
8
DEFAULT_255_2_778
10
74.1093946
20
101.0914515
11
74.1093946
21
101.0917515
0
LINE
8
DEFAULT_255_2_778
10
74.1093946
20
101.0917515
11
74.1093946
21
101.0925515
0
LINE
8
DEFAULT_255_2_778
10
74.1093946
20
101.0925515
11
74.1091946
21
101.0999515
0
LINE
8
DEFAULT_255_2_778
10
74.1091946
20
101.0999515
11
74.1059946
21
101.2052515
0
LINE
8
DEFAULT_255_2_778
10
74.1059946
20
101.2052515
11
74.1056946
21
101.2105515
0
LINE
8
DEFAULT_255_2_778
10
74.1056946
20
101.2105515
11
74.1056946
21
101.2160515
0
LINE
8
DEFAULT_255_2_778
10
74.1056946
20
101.2160515
11
74.1054946
21
101.2216515
0
LINE
8
DEFAULT_255_2_778
10
74.1054946
20
101.2216515
11
74.1051946
21
101.2274515
0
LINE
8
DEFAULT_255_2_778
10
74.1051946
20
101.2274515
11
74.1051946
21
101.2332515
0
LINE
8
DEFAULT_255_2_778
10
74.1051946
20
101.2332515
11
74.1048946
21
101.2393515
0
LINE
8
DEFAULT_255_2_778
10
74.1048946
20
101.2393515
11
74.1046946
21
101.2454515
0
LINE
8
DEFAULT_255_2_778
10
74.1046946
20
101.2454515
11
74.1043946
21
101.2517515
0
LINE
8
DEFAULT_255_2_778
10
74.1043946
20
101.2517515
11
74.1043946
21
101.2581515
0
LINE
8
DEFAULT_255_2_778
10
74.1043946
20
101.2581515
11
74.1041946
21
101.2644515
0
LINE
8
DEFAULT_255_2_778
10
74.1041946
20
101.2644515
11
74.1038946
21
101.2711515
0
LINE
8
DEFAULT_255_2_778
10
74.1038946
20
101.2711515
11
74.1038946
21
101.2777515
0
LINE
8
DEFAULT_255_2_778
10
74.1038946
20
101.2777515
11
74.1035946
21
101.2843515
0
LINE
8
DEFAULT_255_2_778
10
74.1035946
20
101.2843515
11
74.1033946
21
101.2912515
0
LINE
8
DEFAULT_255_2_778
10
74.1033946
20
101.2912515
11
74.1030946
21
101.2981515
0
LINE
8
DEFAULT_255_2_778
10
74.1030946
20
101.2981515
11
74.1027946
21
101.3052515
0
LINE
8
DEFAULT_255_2_778
10
74.1027946
20
101.3052515
11
74.0982946
21
101.4560515
0
LINE
8
DEFAULT_255_2_778
10
74.0982946
20
101.4560515
11
74.0980946
21
101.4647515
0
LINE
8
DEFAULT_255_2_778
10
74.0980946
20
101.4647515
11
74.0977946
21
101.4735515
0
LINE
8
DEFAULT_255_2_778
10
74.0977946
20
101.4735515
11
74.0974946
21
101.4822515
0
LINE
8
DEFAULT_255_2_778
10
74.0974946
20
101.4822515
11
74.0972946
21
101.4909515
0
LINE
8
DEFAULT_255_2_778
10
74.0972946
20
101.4909515
11
74.0969946
21
101.4999515
0
LINE
8
DEFAULT_255_2_778
10
74.0969946
20
101.4999515
11
74.0966946
21
101.5089515
0
LINE
8
DEFAULT_255_2_778
10
74.0966946
20
101.5089515
11
74.0964946
21
101.5179515
0
LINE
8
DEFAULT_255_2_778
10
74.0964946
20
101.5179515
11
74.0961946
21
101.5269515
0
LINE
8
DEFAULT_255_2_778
10
74.0961946
20
101.5269515
11
74.0959946
21
101.5359515
0
LINE
8
DEFAULT_255_2_778
10
74.0959946
20
101.5359515
11
74.0956946
21
101.5452515
0
LINE
8
DEFAULT_255_2_778
10
74.0956946
20
101.5452515
11
74.0953946
21
101.5544515
0
LINE
8
DEFAULT_255_2_778
10
74.0953946
20
101.5544515
11
74.0951946
21
101.5637515
0
LINE
8
DEFAULT_255_2_778
10
74.0951946
20
101.5637515
11
74.0948946
21
101.5730515
0
LINE
8
DEFAULT_255_2_778
10
74.0948946
20
101.5730515
11
74.0945946
21
101.5822515
0
LINE
8
DEFAULT_255_2_778
10
74.0945946
20
101.5822515
11
74.0943946
21
101.5917515
0
LINE
8
DEFAULT_255_2_778
10
74.0943946
20
101.5917515
11
74.0940946
21
101.6013515
0
LINE
8
DEFAULT_255_2_778
10
74.0940946
20
101.6013515
11
74.0937946
21
101.6108515
0
LINE
8
DEFAULT_255_2_778
10
74.0937946
20
101.6108515
11
74.0935946
21
101.6203515
0
LINE
8
DEFAULT_255_2_778
10
74.0935946
20
101.6203515
11
74.0932946
21
101.6298515
0
LINE
8
DEFAULT_255_2_778
10
74.0932946
20
101.6298515
11
74.0929946
21
101.6396515
0
LINE
8
DEFAULT_255_2_778
10
74.0929946
20
101.6396515
11
74.0927946
21
101.6494515
0
LINE
8
DEFAULT_255_2_778
10
74.0927946
20
101.6494515
11
74.0924946
21
101.6592515
0
LINE
8
DEFAULT_255_2_778
10
74.0924946
20
101.6592515
11
74.0921946
21
101.6690515
0
LINE
8
DEFAULT_255_2_778
10
74.0921946
20
101.6690515
11
74.0919946
21
101.6788515
0
LINE
8
DEFAULT_255_2_778
10
74.0919946
20
101.6788515
11
74.0916946
21
101.6886515
0
LINE
8
DEFAULT_255_2_778
10
74.0916946
20
101.6886515
11
74.0914946
21
101.6984515
0
LINE
8
DEFAULT_255_2_778
10
74.0914946
20
101.6984515
11
74.0911946
21
101.7082515
0
LINE
8
DEFAULT_255_2_778
10
74.0911946
20
101.7082515
11
74.0908946
21
101.7179515
0
LINE
8
DEFAULT_255_2_778
10
74.0908946
20
101.7179515
11
74.0678946
21
102.4919515
0
LINE
8
DEFAULT_255_2_778
10
74.3295946
20
67.3229515
11
74.3379946
21
67.8590515
0
LINE
8
DEFAULT_255_2_778
10
74.3379946
20
67.8590515
11
74.3461946
21
68.3950515
0
LINE
8
DEFAULT_255_2_778
10
74.3461946
20
68.3950515
11
74.3538946
21
68.9310515
0
LINE
8
DEFAULT_255_2_778
10
74.3538946
20
68.9310515
11
74.3612946
21
69.4671515
0
LINE
8
DEFAULT_255_2_778
10
74.3612946
20
69.4671515
11
74.3681946
21
70.0031515
0
LINE
8
DEFAULT_255_2_778
10
74.3681946
20
70.0031515
11
74.3747946
21
70.5392515
0
LINE
8
DEFAULT_255_2_778
10
74.3747946
20
70.5392515
11
74.3808946
21
71.0752515
0
LINE
8
DEFAULT_255_2_778
10
74.3808946
20
71.0752515
11
74.3866946
21
71.6113515
0
LINE
8
DEFAULT_255_2_778
10
74.3866946
20
71.6113515
11
74.3919946
21
72.1473515
0
LINE
8
DEFAULT_255_2_778
10
74.3919946
20
72.1473515
11
74.3969946
21
72.6834515
0
LINE
8
DEFAULT_255_2_778
10
74.3969946
20
72.6834515
11
74.4014946
21
73.2194515
0
LINE
8
DEFAULT_255_2_778
10
74.4014946
20
73.2194515
11
74.4057946
21
73.7555515
0
LINE
8
DEFAULT_255_2_778
10
74.4057946
20
73.7555515
11
74.4096946
21
74.2915515
0
LINE
8
DEFAULT_255_2_778
10
74.4096946
20
74.2915515
11
74.4131946
21
74.8275515
0
LINE
8
DEFAULT_255_2_778
10
74.4131946
20
74.8275515
11
74.4163946
21
75.3636515
0
LINE
8
DEFAULT_255_2_778
10
74.4163946
20
75.3636515
11
74.4189946
21
75.8996515
0
LINE
8
DEFAULT_255_2_778
10
74.4189946
20
75.8996515
11
74.4213946
21
76.4357515
0
LINE
8
DEFAULT_255_2_778
10
74.4213946
20
76.4357515
11
74.4231946
21
76.9717515
0
LINE
8
DEFAULT_255_2_778
10
74.4231946
20
76.9717515
11
74.4247946
21
77.5078515
0
LINE
8
DEFAULT_255_2_778
10
74.4247946
20
77.5078515
11
74.4258946
21
78.0438515
0
LINE
8
DEFAULT_255_2_778
10
74.4258946
20
78.0438515
11
74.4266946
21
78.5799515
0
LINE
8
DEFAULT_255_2_778
10
74.4266946
20
78.5799515
11
74.4271946
21
79.1159515
0
LINE
8
DEFAULT_255_2_778
10
74.4271946
20
79.1159515
11
74.4271946
21
79.6520515
0
LINE
8
DEFAULT_255_2_778
10
74.4271946
20
79.6520515
11
74.4268946
21
80.1880515
0
LINE
8
DEFAULT_255_2_778
10
74.4268946
20
80.1880515
11
74.4261946
21
80.7241515
0
LINE
8
DEFAULT_255_2_778
10
74.4261946
20
80.7241515
11
74.4250946
21
81.2601515
0
LINE
8
DEFAULT_255_2_778
10
74.4250946
20
81.2601515
11
74.4234946
21
81.7961515
0
LINE
8
DEFAULT_255_2_778
10
74.4234946
20
81.7961515
11
74.4216946
21
82.3322515
0
LINE
8
DEFAULT_255_2_778
10
74.4216946
20
82.3322515
11
74.4192946
21
82.8682515
0
LINE
8
DEFAULT_255_2_778
10
74.4192946
20
82.8682515
11
74.4165946
21
83.4043515
0
LINE
8
DEFAULT_255_2_778
10
74.4165946
20
83.4043515
11
74.4136946
21
83.9403515
0
LINE
8
DEFAULT_255_2_778
10
74.4136946
20
83.9403515
11
74.4102946
21
84.4764515
0
LINE
8
DEFAULT_255_2_778
10
74.4102946
20
84.4764515
11
74.4065946
21
85.0124515
0
LINE
8
DEFAULT_255_2_778
10
74.4065946
20
85.0124515
11
74.4022946
21
85.5485515
0
LINE
8
DEFAULT_255_2_778
10
74.4022946
20
85.5485515
11
74.3977946
21
86.0845515
0
LINE
8
DEFAULT_255_2_778
10
74.3977946
20
86.0845515
11
74.3927946
21
86.6206515
0
LINE
8
DEFAULT_255_2_778
10
74.3927946
20
86.6206515
11
74.3874946
21
87.1566515
0
LINE
8
DEFAULT_255_2_778
10
74.3874946
20
87.1566515
11
74.3816946
21
87.6926515
0
LINE
8
DEFAULT_255_2_778
10
74.3816946
20
87.6926515
11
74.3755946
21
88.2287515
0
LINE
8
DEFAULT_255_2_778
10
74.3755946
20
88.2287515
11
74.3689946
21
88.7647515
0
LINE
8
DEFAULT_255_2_778
10
74.3689946
20
88.7647515
11
74.3620946
21
89.3008515
0
LINE
8
DEFAULT_255_2_778
10
74.3620946
20
89.3008515
11
74.3549946
21
89.8368515
0
LINE
8
DEFAULT_255_2_778
10
74.3549946
20
89.8368515
11
74.3472946
21
90.3729515
0
LINE
8
DEFAULT_255_2_778
10
74.3472946
20
90.3729515
11
74.3393946
21
90.9089515
0
LINE
8
DEFAULT_255_2_778
10
74.3393946
20
90.9089515
11
74.3308946
21
91.4450515
0
LINE
8
DEFAULT_255_2_778
10
74.3308946
20
91.4450515
11
74.3221946
21
91.9810515
0
LINE
8
DEFAULT_255_2_778
10
74.3221946
20
91.9810515
11
74.3128946
21
92.5171515
0
LINE
8
DEFAULT_255_2_778
10
74.3128946
20
92.5171515
11
74.3033946
21
93.0531515
0
LINE
8
DEFAULT_255_2_778
10
74.3033946
20
93.0531515
11
74.2932946
21
93.5892515
0
LINE
8
DEFAULT_255_2_778
10
74.2932946
20
93.5892515
11
74.2829946
21
94.1252515
0
LINE
8
DEFAULT_255_2_778
10
74.2829946
20
94.1252515
11
74.2723946
21
94.6612515
0
LINE
8
DEFAULT_255_2_778
10
74.2723946
20
94.6612515
11
74.2612946
21
95.1973515
0
LINE
8
DEFAULT_255_2_778
10
74.2612946
20
95.1973515
11
74.2498946
21
95.7333515
0
LINE
8
DEFAULT_255_2_778
10
74.2498946
20
95.7333515
11
74.2379946
21
96.2694515
0
LINE
8
DEFAULT_255_2_778
10
74.2379946
20
96.2694515
11
74.2258946
21
96.8054515
0
LINE
8
DEFAULT_255_2_778
10
74.2258946
20
96.8054515
11
74.2131946
21
97.3412515
0
LINE
8
DEFAULT_255_2_778
10
74.2131946
20
97.3412515
11
74.2001946
21
97.8770515
0
LINE
8
DEFAULT_255_2_778
10
74.2001946
20
97.8770515
11
74.1866946
21
98.4128515
0
LINE
8
DEFAULT_255_2_778
10
74.1866946
20
98.4128515
11
74.1728946
21
98.9486515
0
LINE
8
DEFAULT_255_2_778
10
74.1728946
20
98.9486515
11
74.1586946
21
99.4843515
0
LINE
8
DEFAULT_255_2_778
10
74.1586946
20
99.4843515
11
74.1440946
21
100.0201515
0
LINE
8
DEFAULT_255_2_778
10
74.1440946
20
100.0201515
11
74.1136946
21
101.0917515
0
ARC
8
DEFAULT_255_2_778
10
8.4153324
20
86.8707737
40
29.9980744
50
67.4582043
51
90.0001594
0
ARC
8
DEFAULT_255_2_778
10
8.4152676
20
86.8689509
40
29.9998974
50
90.0000356
51
93.164643
0
ARC
8
DEFAULT_255_2_778
10
6.7755168
20
116.5239169
40
0.2996316
50
93.1384082
51
171.0755932
0
ARC
8
DEFAULT_255_2_778
10
71.5195501
20
109.8952116
40
2.2742033
50
2.305539
51
26.5391667
0
ARC
8
DEFAULT_255_2_778
10
71.5119292
20
109.8913042
40
2.2827671
50
26.5414398
51
76.4174025
0
ARC
8
DEFAULT_255_2_778
10
71.5125246
20
109.8813028
40
2.2923508
50
76.4905748
51
84.9624549
0
LINE
8
DEFAULT_255_2_778
10
6.4795125
20
116.5703992
11
0.1853125
21
76.8317992
0
LINE
8
DEFAULT_255_2_778
10
0.1853125
20
76.8317992
11
7.7153125
21
76.5687992
0
LINE
8
DEFAULT_255_2_778
10
7.7153125
20
76.5687992
11
7.7153125
21
40.8688992
0
LINE
8
DEFAULT_255_2_778
10
7.7153125
20
40.8688992
11
5.0841125
21
40.7769992
0
LINE
8
DEFAULT_255_2_778
10
5.0841125
20
40.7769992
11
1.7654125
21
38.4531992
0
LINE
8
DEFAULT_255_2_778
10
1.7654125
20
38.4531992
11
0.4155125
21
29.9296992
0
LINE
8
DEFAULT_255_2_778
10
0.4155125
20
29.9296992
11
0.4155125
21
-0.2310008
0
LINE
8
DEFAULT_255_2_778
10
0.4155125
20
-0.2310008
11
68.3790125
21
-0.2310008
0
LINE
8
DEFAULT_255_2_778
10
68.3790125
20
-0.2310008
11
68.4031125
21
-0.2307008
0
LINE
8
DEFAULT_255_2_778
10
68.4031125
20
-0.2307008
11
68.4272125
21
-0.2302008
0
LINE
8
DEFAULT_255_2_778
10
68.4272125
20
-0.2302008
11
68.4510125
21
-0.2294008
0
LINE
8
DEFAULT_255_2_778
10
68.4510125
20
-0.2294008
11
68.4748125
21
-0.2283008
0
LINE
8
DEFAULT_255_2_778
10
68.4748125
20
-0.2283008
11
68.4986125
21
-0.2270008
0
LINE
8
DEFAULT_255_2_778
10
68.4986125
20
-0.2270008
11
68.5224125
21
-0.2254008
0
LINE
8
DEFAULT_255_2_778
10
68.5224125
20
-0.2254008
11
68.5462125
21
-0.2236008
0
LINE
8
DEFAULT_255_2_778
10
68.5462125
20
-0.2236008
11
68.5700125
21
-0.2215008
0
LINE
8
DEFAULT_255_2_778
10
68.5700125
20
-0.2215008
11
68.5936125
21
-0.2191008
0
LINE
8
DEFAULT_255_2_778
10
68.5936125
20
-0.2191008
11
68.6171125
21
-0.2165008
0
LINE
8
DEFAULT_255_2_778
10
68.6171125
20
-0.2165008
11
68.6407125
21
-0.2135008
0
LINE
8
DEFAULT_255_2_778
10
68.6407125
20
-0.2135008
11
68.6642125
21
-0.2104008
0
LINE
8
DEFAULT_255_2_778
10
68.6642125
20
-0.2104008
11
68.6878125
21
-0.2069008
0
LINE
8
DEFAULT_255_2_778
10
68.6878125
20
-0.2069008
11
68.7113125
21
-0.2032008
0
LINE
8
DEFAULT_255_2_778
10
68.7113125
20
-0.2032008
11
68.7346125
21
-0.1992008
0
LINE
8
DEFAULT_255_2_778
10
68.7346125
20
-0.1992008
11
68.7579125
21
-0.1950008
0
LINE
8
DEFAULT_255_2_778
10
68.7579125
20
-0.1950008
11
68.7812125
21
-0.1902008
0
LINE
8
DEFAULT_255_2_778
10
68.7812125
20
-0.1902008
11
68.8045125
21
-0.1852008
0
LINE
8
DEFAULT_255_2_778
10
68.8045125
20
-0.1852008
11
68.8277125
21
-0.1799008
0
LINE
8
DEFAULT_255_2_778
10
68.8277125
20
-0.1799008
11
68.8508125
21
-0.1744008
0
LINE
8
DEFAULT_255_2_778
10
68.8508125
20
-0.1744008
11
68.8738125
21
-0.1685008
0
LINE
8
DEFAULT_255_2_778
10
68.8738125
20
-0.1685008
11
68.8968125
21
-0.1625008
0
LINE
8
DEFAULT_255_2_778
10
68.8968125
20
-0.1625008
11
68.9198125
21
-0.1561008
0
LINE
8
DEFAULT_255_2_778
10
68.9198125
20
-0.1561008
11
68.9428125
21
-0.1495008
0
LINE
8
DEFAULT_255_2_778
10
68.9428125
20
-0.1495008
11
68.9659125
21
-0.1426008
0
LINE
8
DEFAULT_255_2_778
10
68.9659125
20
-0.1426008
11
68.9886125
21
-0.1355008
0
LINE
8
DEFAULT_255_2_778
10
68.9886125
20
-0.1355008
11
69.0114125
21
-0.1281008
0
LINE
8
DEFAULT_255_2_778
10
69.0114125
20
-0.1281008
11
69.0341125
21
-0.1204008
0
LINE
8
DEFAULT_255_2_778
10
69.0341125
20
-0.1204008
11
69.0569125
21
-0.1125008
0
LINE
8
DEFAULT_255_2_778
10
69.0569125
20
-0.1125008
11
69.0794125
21
-0.1043008
0
LINE
8
DEFAULT_255_2_778
10
69.0794125
20
-0.1043008
11
69.1018125
21
-0.0958008
0
LINE
8
DEFAULT_255_2_778
10
69.1018125
20
-0.0958008
11
69.1241125
21
-0.0871008
0
LINE
8
DEFAULT_255_2_778
10
69.1241125
20
-0.0871008
11
69.1463125
21
-0.0781008
0
LINE
8
DEFAULT_255_2_778
10
69.1463125
20
-0.0781008
11
69.1683125
21
-0.0688008
0
LINE
8
DEFAULT_255_2_778
10
69.1683125
20
-0.0688008
11
69.1902125
21
-0.0593008
0
LINE
8
DEFAULT_255_2_778
10
69.1902125
20
-0.0593008
11
69.2119125
21
-0.0495008
0
LINE
8
DEFAULT_255_2_778
10
69.2119125
20
-0.0495008
11
69.2333125
21
-0.0394008
0
LINE
8
DEFAULT_255_2_778
10
69.2333125
20
-0.0394008
11
69.2548125
21
-0.0291008
0
LINE
8
DEFAULT_255_2_778
10
69.2548125
20
-0.0291008
11
69.2759125
21
-0.0185008
0
LINE
8
DEFAULT_255_2_778
10
69.2759125
20
-0.0185008
11
69.2971125
21
-0.0077008
0
LINE
8
DEFAULT_255_2_778
10
69.2971125
20
-0.0077008
11
69.3180125
21
0.0033992
0
LINE
8
DEFAULT_255_2_778
10
69.3180125
20
0.0033992
11
69.3389125
21
0.0147992
0
LINE
8
DEFAULT_255_2_778
10
69.3389125
20
0.0147992
11
69.3596125
21
0.0263992
0
LINE
8
DEFAULT_255_2_778
10
69.3596125
20
0.0263992
11
69.3802125
21
0.0380992
0
LINE
8
DEFAULT_255_2_778
10
69.3802125
20
0.0380992
11
69.4006125
21
0.0499992
0
LINE
8
DEFAULT_255_2_778
10
69.4006125
20
0.0499992
11
69.4209125
21
0.0621992
0
LINE
8
DEFAULT_255_2_778
10
69.4209125
20
0.0621992
11
69.4410125
21
0.0745992
0
LINE
8
DEFAULT_255_2_778
10
69.4410125
20
0.0745992
11
69.4612125
21
0.0872992
0
LINE
8
DEFAULT_255_2_778
10
69.4612125
20
0.0872992
11
69.4810125
21
0.1002992
0
LINE
8
DEFAULT_255_2_778
10
69.4810125
20
0.1002992
11
69.5008125
21
0.1134992
0
LINE
8
DEFAULT_255_2_778
10
69.5008125
20
0.1134992
11
69.5204125
21
0.1269992
0
LINE
8
DEFAULT_255_2_778
10
69.5204125
20
0.1269992
11
69.5400125
21
0.1406992
0
LINE
8
DEFAULT_255_2_778
10
69.5400125
20
0.1406992
11
69.5593125
21
0.1547992
0
LINE
8
DEFAULT_255_2_778
10
69.5593125
20
0.1547992
11
69.5786125
21
0.1690992
0
LINE
8
DEFAULT_255_2_778
10
69.5786125
20
0.1690992
11
69.5977125
21
0.1835992
0
LINE
8
DEFAULT_255_2_778
10
69.5977125
20
0.1835992
11
69.6167125
21
0.1983992
0
LINE
8
DEFAULT_255_2_778
10
69.6167125
20
0.1983992
11
69.6355125
21
0.2134992
0
LINE
8
DEFAULT_255_2_778
10
69.6355125
20
0.2134992
11
69.6540125
21
0.2285992
0
LINE
8
DEFAULT_255_2_778
10
69.6540125
20
0.2285992
11
69.6723125
21
0.2438992
0
LINE
8
DEFAULT_255_2_778
10
69.6723125
20
0.2438992
11
69.6905125
21
0.2594992
0
LINE
8
DEFAULT_255_2_778
10
69.6905125
20
0.2594992
11
69.7085125
21
0.2753992
0
LINE
8
DEFAULT_255_2_778
10
69.7085125
20
0.2753992
11
69.7263125
21
0.2912992
0
LINE
8
DEFAULT_255_2_778
10
69.7263125
20
0.2912992
11
69.7437125
21
0.3073992
0
LINE
8
DEFAULT_255_2_778
10
69.7437125
20
0.3073992
11
69.7609125
21
0.3237992
0
LINE
8
DEFAULT_255_2_778
10
69.7609125
20
0.3237992
11
69.7781125
21
0.3404992
0
LINE
8
DEFAULT_255_2_778
10
69.7781125
20
0.3404992
11
69.7951125
21
0.3571992
0
LINE
8
DEFAULT_255_2_778
10
69.7951125
20
0.3571992
11
69.8117125
21
0.3740992
0
LINE
8
DEFAULT_255_2_778
10
69.8117125
20
0.3740992
11
69.8281125
21
0.3912992
0
LINE
8
DEFAULT_255_2_778
10
69.8281125
20
0.3912992
11
69.8443125
21
0.4084992
0
LINE
8
DEFAULT_255_2_778
10
69.8443125
20
0.4084992
11
69.8604125
21
0.4259992
0
LINE
8
DEFAULT_255_2_778
10
69.8604125
20
0.4259992
11
69.8763125
21
0.4436992
0
LINE
8
DEFAULT_255_2_778
10
69.8763125
20
0.4436992
11
69.8919125
21
0.4616992
0
LINE
8
DEFAULT_255_2_778
10
69.8919125
20
0.4616992
11
69.9072125
21
0.4796992
0
LINE
8
DEFAULT_255_2_778
10
69.9072125
20
0.4796992
11
69.9223125
21
0.4978992
0
LINE
8
DEFAULT_255_2_778
10
69.9223125
20
0.4978992
11
69.9374125
21
0.5163992
0
LINE
8
DEFAULT_255_2_778
10
69.9374125
20
0.5163992
11
69.9522125
21
0.5349992
0
LINE
8
DEFAULT_255_2_778
10
69.9522125
20
0.5349992
11
69.9668125
21
0.5536992
0
LINE
8
DEFAULT_255_2_778
10
69.9668125
20
0.5536992
11
69.9811125
21
0.5727992
0
LINE
8
DEFAULT_255_2_778
10
69.9811125
20
0.5727992
11
69.9951125
21
0.5918992
0
LINE
8
DEFAULT_255_2_778
10
69.9951125
20
0.5918992
11
70.0091125
21
0.6111992
0
LINE
8
DEFAULT_255_2_778
10
70.0091125
20
0.6111992
11
70.0229125
21
0.6307992
0
LINE
8
DEFAULT_255_2_778
10
70.0229125
20
0.6307992
11
70.0364125
21
0.6505992
0
LINE
8
DEFAULT_255_2_778
10
70.0364125
20
0.6505992
11
70.0496125
21
0.6703992
0
LINE
8
DEFAULT_255_2_778
10
70.0496125
20
0.6703992
11
70.0626125
21
0.6905992
0
LINE
8
DEFAULT_255_2_778
10
70.0626125
20
0.6905992
11
70.0755125
21
0.7108992
0
LINE
8
DEFAULT_255_2_778
10
70.0755125
20
0.7108992
11
70.0882125
21
0.7312992
0
LINE
8
DEFAULT_255_2_778
10
70.0882125
20
0.7312992
11
70.1007125
21
0.7518992
0
LINE
8
DEFAULT_255_2_778
10
70.1007125
20
0.7518992
11
70.1128125
21
0.7725992
0
LINE
8
DEFAULT_255_2_778
10
70.1128125
20
0.7725992
11
70.1247125
21
0.7933992
0
LINE
8
DEFAULT_255_2_778
10
70.1247125
20
0.7933992
11
70.1364125
21
0.8143992
0
LINE
8
DEFAULT_255_2_778
10
70.1364125
20
0.8143992
11
70.1477125
21
0.8352992
0
LINE
8
DEFAULT_255_2_778
10
70.1477125
20
0.8352992
11
70.1589125
21
0.8563992
0
LINE
8
DEFAULT_255_2_778
10
70.1589125
20
0.8563992
11
70.1697125
21
0.8775992
0
LINE
8
DEFAULT_255_2_778
10
70.1697125
20
0.8775992
11
70.1803125
21
0.8989992
0
LINE
8
DEFAULT_255_2_778
10
70.1803125
20
0.8989992
11
70.1906125
21
0.9204992
0
LINE
8
DEFAULT_255_2_778
10
70.1906125
20
0.9204992
11
70.2007125
21
0.9418992
0
LINE
8
DEFAULT_255_2_778
10
70.2007125
20
0.9418992
11
70.2105125
21
0.9635992
0
LINE
8
DEFAULT_255_2_778
10
70.2105125
20
0.9635992
11
70.2200125
21
0.9852992
0
LINE
8
DEFAULT_255_2_778
10
70.2200125
20
0.9852992
11
70.2292125
21
1.0071992
0
LINE
8
DEFAULT_255_2_778
10
70.2292125
20
1.0071992
11
70.2382125
21
1.0291992
0
LINE
8
DEFAULT_255_2_778
10
70.2382125
20
1.0291992
11
70.2470125
21
1.0513992
0
LINE
8
DEFAULT_255_2_778
10
70.2470125
20
1.0513992
11
70.2554125
21
1.0736992
0
LINE
8
DEFAULT_255_2_778
10
70.2554125
20
1.0736992
11
70.2636125
21
1.0958992
0
LINE
8
DEFAULT_255_2_778
10
70.2636125
20
1.0958992
11
70.2716125
21
1.1183992
0
LINE
8
DEFAULT_255_2_778
10
70.2716125
20
1.1183992
11
70.2792125
21
1.1407992
0
LINE
8
DEFAULT_255_2_778
10
70.2792125
20
1.1407992
11
70.2867125
21
1.1635992
0
LINE
8
DEFAULT_255_2_778
10
70.2867125
20
1.1635992
11
70.2938125
21
1.1863992
0
LINE
8
DEFAULT_255_2_778
10
70.2938125
20
1.1863992
11
70.3007125
21
1.2090992
0
LINE
8
DEFAULT_255_2_778
10
70.3007125
20
1.2090992
11
70.3073125
21
1.2321992
0
LINE
8
DEFAULT_255_2_778
10
70.3073125
20
1.2321992
11
70.3136125
21
1.2550992
0
LINE
8
DEFAULT_255_2_778
10
70.3136125
20
1.2550992
11
70.3197125
21
1.2784992
0
LINE
8
DEFAULT_255_2_778
10
70.3197125
20
1.2784992
11
70.3255125
21
1.3016992
0
LINE
8
DEFAULT_255_2_778
10
70.3255125
20
1.3016992
11
70.3311125
21
1.3249992
0
LINE
8
DEFAULT_255_2_778
10
70.3311125
20
1.3249992
11
70.3364125
21
1.3485992
0
LINE
8
DEFAULT_255_2_778
10
70.3364125
20
1.3485992
11
70.3414125
21
1.3720992
0
LINE
8
DEFAULT_255_2_778
10
70.3414125
20
1.3720992
11
70.3462125
21
1.3955992
0
LINE
8
DEFAULT_255_2_778
10
70.3462125
20
1.3955992
11
70.3504125
21
1.4191992
0
LINE
8
DEFAULT_255_2_778
10
70.3504125
20
1.4191992
11
70.3544125
21
1.4427992
0
LINE
8
DEFAULT_255_2_778
10
70.3544125
20
1.4427992
11
70.3581125
21
1.4665992
0
LINE
8
DEFAULT_255_2_778
10
70.3581125
20
1.4665992
11
70.3615125
21
1.4903992
0
LINE
8
DEFAULT_255_2_778
10
70.3615125
20
1.4903992
11
70.3647125
21
1.5141992
0
LINE
8
DEFAULT_255_2_778
10
70.3647125
20
1.5141992
11
70.3676125
21
1.5379992
0
LINE
8
DEFAULT_255_2_778
10
70.3676125
20
1.5379992
11
70.3703125
21
1.5617992
0
LINE
8
DEFAULT_255_2_778
10
70.3703125
20
1.5617992
11
70.7769125
21
5.5633992
0
LINE
8
DEFAULT_255_2_778
10
70.7769125
20
5.5633992
11
71.1619125
21
9.5667992
0
LINE
8
DEFAULT_255_2_778
10
71.1619125
20
9.5667992
11
71.5254125
21
13.5720992
0
LINE
8
DEFAULT_255_2_778
10
71.5254125
20
13.5720992
11
71.8675125
21
17.5791992
0
LINE
8
DEFAULT_255_2_778
10
71.8675125
20
17.5791992
11
72.1882125
21
21.5880992
0
LINE
8
DEFAULT_255_2_778
10
72.1882125
20
21.5880992
11
72.4872125
21
25.5989992
0
LINE
8
DEFAULT_255_2_778
10
72.4872125
20
25.5989992
11
72.7647125
21
29.6115992
0
LINE
8
DEFAULT_255_2_778
10
72.7647125
20
29.6115992
11
73.0209125
21
33.6255992
0
LINE
8
DEFAULT_255_2_778
10
73.0209125
20
33.6255992
11
73.2553125
21
37.6406992
0
LINE
8
DEFAULT_255_2_778
10
73.2553125
20
37.6406992
11
73.4683125
21
41.6567992
0
LINE
8
DEFAULT_255_2_778
10
73.4683125
20
41.6567992
11
73.6598125
21
45.6739992
0
LINE
8
DEFAULT_255_2_778
10
73.6598125
20
45.6739992
11
73.8297125
21
49.6921992
0
LINE
8
DEFAULT_255_2_778
10
73.8297125
20
49.6921992
11
73.9781125
21
53.7114992
0
LINE
8
DEFAULT_255_2_778
10
73.9781125
20
53.7114992
11
74.1049125
21
57.7314992
0
LINE
8
DEFAULT_255_2_778
10
74.1049125
20
57.7314992
11
74.2102125
21
61.7518992
0
LINE
8
DEFAULT_255_2_778
10
74.2102125
20
61.7518992
11
74.2938125
21
65.7719992
0
LINE
8
DEFAULT_255_2_778
10
74.2938125
20
65.7719992
11
74.3559125
21
69.7919992
0
LINE
8
DEFAULT_255_2_778
10
74.3559125
20
69.7919992
11
74.3964125
21
73.8118992
0
LINE
8
DEFAULT_255_2_778
10
74.3964125
20
73.8118992
11
74.4155125
21
77.8316992
0
LINE
8
DEFAULT_255_2_778
10
74.4155125
20
77.8316992
11
74.4128125
21
81.8514992
0
LINE
8
DEFAULT_255_2_778
10
74.4128125
20
81.8514992
11
74.3888125
21
85.8709992
0
LINE
8
DEFAULT_255_2_778
10
74.3888125
20
85.8709992
11
74.3432125
21
89.8905992
0
LINE
8
DEFAULT_255_2_778
10
74.3432125
20
89.8905992
11
74.2760125
21
93.9100992
0
LINE
8
DEFAULT_255_2_778
10
74.2760125
20
93.9100992
11
74.1874125
21
97.9293992
0
LINE
8
DEFAULT_255_2_778
10
74.1874125
20
97.9293992
11
74.0771125
21
101.9486992
0
LINE
8
DEFAULT_255_2_778
10
74.0771125
20
101.9486992
11
73.9453125
21
105.9676992
0
LINE
8
DEFAULT_255_2_778
10
73.9453125
20
105.9676992
11
73.7919125
21
109.9866992
0
ENDSEC
0
EOF