0
SECTION
2
HEADER
9
$MEASUREMENT
70
1
0
ENDSEC
0
SECTION
2
TABLES
0
TABLE
2
LTYPE
0
LTYPE
72
65
70
64
2
CONTINUOUS
3
______
73
0
40
0
0
ENDTAB
0
TABLE
2
LAYER
0
LAYER
2
DEFAULT_255_2_778
70
0
62
255
6
CONTINUOUS
0
ENDTAB
0
ENDSEC
0
SECTION
2
ENTITIES
0
ARC
8
DEFAULT_255_2_778
10
14.5777478
20
114.1011972
40
2.5002675
50
42.1913343
51
80.0024027
0
LINE
8
DEFAULT_255_2_778
10
0.4470114
20
76.8228982
11
0.4586114
21
76.7294982
0
LINE
8
DEFAULT_255_2_778
10
0.4586114
20
76.7294982
11
0.4724114
21
76.6362982
0
LINE
8
DEFAULT_255_2_778
10
0.4724114
20
76.6362982
11
0.4883114
21
76.5434982
0
LINE
8
DEFAULT_255_2_778
10
0.4883114
20
76.5434982
11
0.5065114
21
76.4510982
0
LINE
8
DEFAULT_255_2_778
10
0.5065114
20
76.4510982
11
0.5269114
21
76.3592982
0
LINE
8
DEFAULT_255_2_778
10
0.5269114
20
76.3592982
11
0.5494114
21
76.2679982
0
LINE
8
DEFAULT_255_2_778
10
0.5494114
20
76.2679982
11
0.5740114
21
76.1769982
0
LINE
8
DEFAULT_255_2_778
10
0.5740114
20
76.1769982
11
0.6007114
21
76.0867982
0
LINE
8
DEFAULT_255_2_778
10
0.6007114
20
76.0867982
11
0.6296114
21
75.9970982
0
LINE
8
DEFAULT_255_2_778
10
0.6296114
20
75.9970982
11
0.6605114
21
75.9081982
0
LINE
8
DEFAULT_255_2_778
10
0.6605114
20
75.9081982
11
0.6936114
21
75.8200982
0
LINE
8
DEFAULT_255_2_778
10
0.6936114
20
75.8200982
11
0.7288114
21
75.7327982
0
LINE
8
DEFAULT_255_2_778
10
0.7288114
20
75.7327982
11
0.7661114
21
75.6462982
0
LINE
8
DEFAULT_255_2_778
10
0.7661114
20
75.6462982
11
0.8465114
21
75.4760982
0
LINE
8
DEFAULT_255_2_778
10
0.8465114
20
75.4760982
11
0.9349114
21
75.3099982
0
LINE
8
DEFAULT_255_2_778
10
0.9349114
20
75.3099982
11
1.0309114
21
75.1480982
0
LINE
8
DEFAULT_255_2_778
10
1.0309114
20
75.1480982
11
1.1347114
21
74.9908982
0
LINE
8
DEFAULT_255_2_778
10
1.1347114
20
74.9908982
11
1.2455114
21
74.8387982
0
LINE
8
DEFAULT_255_2_778
10
1.2455114
20
74.8387982
11
1.3633114
21
74.6918982
0
LINE
8
DEFAULT_255_2_778
10
1.3633114
20
74.6918982
11
1.4879114
21
74.5508982
0
LINE
8
DEFAULT_255_2_778
10
1.4879114
20
74.5508982
11
1.6191114
21
74.4159982
0
LINE
8
DEFAULT_255_2_778
10
1.6191114
20
74.4159982
11
1.7564114
21
74.2873982
0
LINE
8
DEFAULT_255_2_778
10
1.7564114
20
74.2873982
11
1.8998114
21
74.1653982
0
LINE
8
DEFAULT_255_2_778
10
1.8998114
20
74.1653982
11
2.0488114
21
74.0502982
0
LINE
8
DEFAULT_255_2_778
10
2.0488114
20
74.0502982
11
2.2028114
21
73.9420982
0
LINE
8
DEFAULT_255_2_778
10
2.2028114
20
73.9420982
11
2.4430114
21
73.7938982
0
LINE
8
DEFAULT_255_2_778
10
2.4430114
20
73.7938982
11
2.6930114
21
73.6628982
0
LINE
8
DEFAULT_255_2_778
10
2.6930114
20
73.6628982
11
2.9518114
21
73.5499982
0
LINE
8
DEFAULT_255_2_778
10
2.9518114
20
73.5499982
11
3.2177114
21
73.4554982
0
LINE
8
DEFAULT_255_2_778
10
3.2177114
20
73.4554982
11
3.4897114
21
73.3800982
0
LINE
8
DEFAULT_255_2_778
10
3.4897114
20
73.3800982
11
3.7665114
21
73.3239982
0
LINE
8
DEFAULT_255_2_778
10
3.7665114
20
73.3239982
11
4.0464114
21
73.2874982
0
LINE
8
DEFAULT_255_2_778
10
4.0464114
20
73.2874982
11
4.3282114
21
73.2707982
0
LINE
8
DEFAULT_255_2_778
10
4.3282114
20
73.2707982
11
4.8251114
21
73.2803982
0
LINE
8
DEFAULT_255_2_778
10
4.8251114
20
73.2803982
11
5.0653114
21
73.3469982
0
LINE
8
DEFAULT_255_2_778
10
5.0653114
20
73.3469982
11
5.2648114
21
73.4586982
0
LINE
8
DEFAULT_255_2_778
10
5.2648114
20
73.4586982
11
5.4198114
21
73.5972982
0
LINE
8
DEFAULT_255_2_778
10
5.4198114
20
73.5972982
11
5.5212114
21
73.7293982
0
LINE
8
DEFAULT_255_2_778
10
5.5212114
20
73.7293982
11
5.5820114
21
73.8383982
0
LINE
8
DEFAULT_255_2_778
10
5.5820114
20
73.8383982
11
5.6220114
21
73.9343982
0
LINE
8
DEFAULT_255_2_778
10
5.6220114
20
73.9343982
11
5.6410114
21
73.9938982
0
LINE
8
DEFAULT_255_2_778
10
5.6410114
20
73.9938982
11
6.3930114
21
76.6159982
0
LINE
8
DEFAULT_255_2_778
10
22.9720114
20
100.8686982
11
26.7119114
21
100.8686982
0
LINE
8
DEFAULT_255_2_778
10
26.7119114
20
100.8686982
11
26.7119114
21
76.8685982
0
LINE
8
DEFAULT_255_2_778
10
26.7119114
20
76.8685982
11
22.9720114
21
76.8685982
0
LINE
8
DEFAULT_255_2_778
10
5.6876114
20
111.5287982
11
5.2222114
21
111.5287982
0
LINE
8
DEFAULT_255_2_778
10
5.2222114
20
111.5287982
11
5.2222114
21
108.5894982
0
LINE
8
DEFAULT_255_2_778
10
8.6218114
20
116.8680982
11
8.6218114
21
118.3687982
0
LINE
8
DEFAULT_255_2_778
10
8.6218114
20
118.3687982
11
14.1619114
21
118.3687982
0
LINE
8
DEFAULT_255_2_778
10
14.1619114
20
118.3687982
11
14.1619114
21
116.3145982
0
LINE
8
DEFAULT_255_2_778
10
71.7025114
20
112.1650982
11
73.7125114
21
111.9832982
0
LINE
8
DEFAULT_255_2_778
10
73.7125114
20
111.9832982
11
73.7411114
21
111.3207982
0
LINE
8
DEFAULT_255_2_778
10
73.7411114
20
111.3207982
11
73.7964114
21
109.9954982
0
LINE
8
DEFAULT_255_2_778
10
14.1619114
20
116.7132982
11
15.0118114
21
116.5634982
0
LINE
8
DEFAULT_255_2_778
10
32.0218114
20
63.8685982
11
22.9718114
21
67.7685982
0
LINE
8
DEFAULT_255_2_778
10
22.9718114
20
67.7685982
11
22.9718114
21
113.6686982
0
ARC
8
DEFAULT_255_2_778
10
5.2219677
20
111.2286421
40
0.3001094
50
90.0208901
51
179.9791099
0
LINE
8
DEFAULT_255_2_778
10
4.9218583
20
111.2287515
11
4.9218583
21
106.6953515
0
LINE
8
DEFAULT_255_2_778
10
16.4217583
20
-0.2312485
11
16.4217583
21
115.7824515
0
LINE
8
DEFAULT_255_2_778
10
16.4217583
20
115.7824515
11
17.1331583
21
115.5760515
0
LINE
8
DEFAULT_255_2_778
10
17.1331583
20
115.5760515
11
17.8393583
21
115.3522515
0
LINE
8
DEFAULT_255_2_778
10
17.8393583
20
115.3522515
11
18.5396583
21
115.1109515
0
LINE
8
DEFAULT_255_2_778
10
18.5396583
20
115.1109515
11
19.2339583
21
114.8524515
0
LINE
8
DEFAULT_255_2_778
10
19.2339583
20
114.8524515
11
19.9216583
21
114.5770515
0
LINE
8
DEFAULT_255_2_778
10
19.9216583
20
114.5770515
11
19.9216583
21
113.6686515
0
LINE
8
DEFAULT_255_2_778
10
19.9216583
20
113.6686515
11
37.4216583
21
113.6686515
0
LINE
8
DEFAULT_255_2_778
10
37.4216583
20
113.6686515
11
44.2863583
21
113.6086515
0
LINE
8
DEFAULT_255_2_778
10
44.2863583
20
113.6086515
11
51.1488583
21
113.4281515
0
LINE
8
DEFAULT_255_2_778
10
51.1488583
20
113.4281515
11
58.0070583
21
113.1273515
0
LINE
8
DEFAULT_255_2_778
10
58.0070583
20
113.1273515
11
64.8589583
21
112.7064515
0
LINE
8
DEFAULT_255_2_778
10
64.8589583
20
112.7064515
11
71.7024583
21
112.1653515
0
LINE
8
DEFAULT_255_2_778
10
1.9217583
20
38.7400515
11
1.9503583
21
38.5780515
0
LINE
8
DEFAULT_255_2_778
10
32.0218583
20
-0.2312485
11
32.0218583
21
113.6686515
0
LINE
8
DEFAULT_255_2_778
10
73.9402583
20
52.2253515
11
73.9609583
21
52.7968515
0
LINE
8
DEFAULT_255_2_778
10
73.9609583
20
52.7968515
11
73.9744583
21
53.1778515
0
LINE
8
DEFAULT_255_2_778
10
73.9744583
20
53.1778515
11
73.9876583
21
53.5588515
0
LINE
8
DEFAULT_255_2_778
10
73.7950583
20
48.4811515
11
73.8484583
21
49.7911515
0
ARC
8
DEFAULT_255_2_778
10
8.4227437
20
86.8748239
40
29.9939256
50
74.5322412
51
90.0009636
0
ARC
8
DEFAULT_255_2_778
10
8.4222485
20
86.8621831
40
30.0065663
50
90.0000178
51
92.0584232
0
ARC
8
DEFAULT_255_2_778
10
8.4223631
20
86.8587363
40
30.010015
50
92.0584054
51
93.1645343
0
ARC
8
DEFAULT_255_2_778
10
6.7819294
20
116.5239899
40
0.2994398
50
93.1057055
51
171.0857508
0
ARC
8
DEFAULT_255_2_778
10
71.5245638
20
109.8947049
40
2.2741833
50
2.3054955
51
26.5392795
0
ARC
8
DEFAULT_255_2_778
10
71.5171165
20
109.8909054
40
2.2825435
50
26.5410766
51
76.4210445
0
ARC
8
DEFAULT_255_2_778
10
71.517748
20
109.8809896
40
2.2920357
50
76.4945882
51
84.9675255
0
LINE
8
DEFAULT_255_2_778
10
6.4861062
20
116.5703899
11
0.1919062
21
76.8317899
0
LINE
8
DEFAULT_255_2_778
10
0.1919062
20
76.8317899
11
7.7219062
21
76.5687899
0
LINE
8
DEFAULT_255_2_778
10
7.7219062
20
76.5687899
11
7.7219062
21
40.8688899
0
LINE
8
DEFAULT_255_2_778
10
7.7219062
20
40.8688899
11
5.0907062
21
40.7769899
0
LINE
8
DEFAULT_255_2_778
10
5.0907062
20
40.7769899
11
1.7720062
21
38.4531899
0
LINE
8
DEFAULT_255_2_778
10
1.7720062
20
38.4531899
11
0.4221062
21
29.9295899
0
LINE
8
DEFAULT_255_2_778
10
0.4221062
20
29.9295899
11
0.4221062
21
-0.2310101
0
LINE
8
DEFAULT_255_2_778
10
0.4221062
20
-0.2310101
11
68.6007062
21
-0.2194101
0
LINE
8
DEFAULT_255_2_778
10
68.6007062
20
-0.2194101
11
69.0412062
21
-0.1207101
0
LINE
8
DEFAULT_255_2_778
10
69.0412062
20
-0.1207101
11
69.4080062
21
0.0496899
0
LINE
8
DEFAULT_255_2_778
10
69.4080062
20
0.0496899
11
69.6979062
21
0.2592899
0
LINE
8
DEFAULT_255_2_778
10
69.6979062
20
0.2592899
11
69.9297062
21
0.4973899
0
LINE
8
DEFAULT_255_2_778
10
69.9297062
20
0.4973899
11
70.0829062
21
0.7103899
0
LINE
8
DEFAULT_255_2_778
10
70.0829062
20
0.7103899
11
70.1866062
21
0.8984899
0
LINE
8
DEFAULT_255_2_778
10
70.1866062
20
0.8984899
11
70.2610062
21
1.0730899
0
LINE
8
DEFAULT_255_2_778
10
70.2610062
20
1.0730899
11
70.3057062
21
1.2085899
0
LINE
8
DEFAULT_255_2_778
10
70.3057062
20
1.2085899
11
70.3359062
21
1.3244899
0
LINE
8
DEFAULT_255_2_778
10
70.3359062
20
1.3244899
11
70.3549062
21
1.4186899
0
LINE
8
DEFAULT_255_2_778
10
70.3549062
20
1.4186899
11
70.3663062
21
1.4897899
0
LINE
8
DEFAULT_255_2_778
10
70.3663062
20
1.4897899
11
70.3750062
21
1.5614899
0
LINE
8
DEFAULT_255_2_778
10
70.3750062
20
1.5614899
11
70.7817062
21
5.5630899
0
LINE
8
DEFAULT_255_2_778
10
70.7817062
20
5.5630899
11
71.1666062
21
9.5664899
0
LINE
8
DEFAULT_255_2_778
10
71.1666062
20
9.5664899
11
71.5302062
21
13.5717899
0
LINE
8
DEFAULT_255_2_778
10
71.5302062
20
13.5717899
11
71.8723062
21
17.5788899
0
LINE
8
DEFAULT_255_2_778
10
71.8723062
20
17.5788899
11
72.1930062
21
21.5877899
0
LINE
8
DEFAULT_255_2_778
10
72.1930062
20
21.5877899
11
72.4919062
21
25.5986899
0
LINE
8
DEFAULT_255_2_778
10
72.4919062
20
25.5986899
11
72.7695062
21
29.6112899
0
LINE
8
DEFAULT_255_2_778
10
72.7695062
20
29.6112899
11
73.0256062
21
33.6252899
0
LINE
8
DEFAULT_255_2_778
10
73.0256062
20
33.6252899
11
73.2603062
21
37.6403899
0
LINE
8
DEFAULT_255_2_778
10
73.2603062
20
37.6403899
11
73.4733062
21
41.6564899
0
LINE
8
DEFAULT_255_2_778
10
73.4733062
20
41.6564899
11
73.6648062
21
45.6736899
0
LINE
8
DEFAULT_255_2_778
10
73.6648062
20
45.6736899
11
73.8347062
21
49.6918899
0
LINE
8
DEFAULT_255_2_778
10
73.8347062
20
49.6918899
11
73.9831062
21
53.7111899
0
LINE
8
DEFAULT_255_2_778
10
73.9831062
20
53.7111899
11
74.1099062
21
57.7312899
0
LINE
8
DEFAULT_255_2_778
10
74.1099062
20
57.7312899
11
74.2152062
21
61.7512899
0
LINE
8
DEFAULT_255_2_778
10
74.2152062
20
61.7512899
11
74.2988062
21
65.7713899
0
LINE
8
DEFAULT_255_2_778
10
74.2988062
20
65.7713899
11
74.3610062
21
69.7914899
0
LINE
8
DEFAULT_255_2_778
10
74.3610062
20
69.7914899
11
74.4014062
21
73.8112899
0
LINE
8
DEFAULT_255_2_778
10
74.4014062
20
73.8112899
11
74.4205062
21
77.8310899
0
LINE
8
DEFAULT_255_2_778
10
74.4205062
20
77.8310899
11
74.4178062
21
81.8508899
0
LINE
8
DEFAULT_255_2_778
10
74.4178062
20
81.8508899
11
74.3938062
21
85.8704899
0
LINE
8
DEFAULT_255_2_778
10
74.3938062
20
85.8704899
11
74.3483062
21
89.8899899
0
LINE
8
DEFAULT_255_2_778
10
74.3483062
20
89.8899899
11
74.2811062
21
93.9095899
0
LINE
8
DEFAULT_255_2_778
10
74.2811062
20
93.9095899
11
74.1924062
21
97.9288899
0
LINE
8
DEFAULT_255_2_778
10
74.1924062
20
97.9288899
11
74.0821062
21
101.9481899
0
LINE
8
DEFAULT_255_2_778
10
74.0821062
20
101.9481899
11
73.9503062
21
105.9671899
0
LINE
8
DEFAULT_255_2_778
10
73.9503062
20
105.9671899
11
73.7969062
21
109.9861899
0
LINE
8
DEFAULT_255_2_778
10
1.9217062
20
39.7371899
11
1.9400062
21
39.9279899
0
LINE
8
DEFAULT_255_2_778
10
1.9400062
20
39.9279899
11
1.9945062
21
40.1118899
0
LINE
8
DEFAULT_255_2_778
10
1.9945062
20
40.1118899
11
2.0831062
21
40.2819899
0
LINE
8
DEFAULT_255_2_778
10
2.0831062
20
40.2819899
11
2.2025062
21
40.4319899
0
LINE
8
DEFAULT_255_2_778
10
2.2025062
20
40.4319899
11
2.3483062
21
40.5565899
0
LINE
8
DEFAULT_255_2_778
10
2.3483062
20
40.5565899
11
4.9637062
21
42.3877899
0
LINE
8
DEFAULT_255_2_778
10
4.9637062
20
42.3877899
11
5.0676062
21
42.4515899
0
LINE
8
DEFAULT_255_2_778
10
5.0676062
20
42.4515899
11
5.1788062
21
42.5020899
0
LINE
8
DEFAULT_255_2_778
10
5.1788062
20
42.5020899
11
5.2952062
21
42.5388899
0
LINE
8
DEFAULT_255_2_778
10
5.2952062
20
42.5388899
11
5.4153062
21
42.5610899
0
LINE
8
DEFAULT_255_2_778
10
5.4153062
20
42.5610899
11
5.5373062
21
42.5684899
0
LINE
8
DEFAULT_255_2_778
10
5.5373062
20
42.5684899
11
5.8201062
21
42.5684899
0
LINE
8
DEFAULT_255_2_778
10
5.8201062
20
42.5684899
11
6.2220062
21
41.0685899
0
LINE
8
DEFAULT_255_2_778
10
6.2220062
20
41.0685899
11
7.7219062
21
41.0685899
0
LINE
8
DEFAULT_255_2_778
10
1.9497962
20
38.5775454
11
1.9217962
21
38.7357454
0
LINE
8
DEFAULT_255_2_778
10
1.9217962
20
38.7357454
11
1.9217962
21
39.7414454
0
LINE
8
DEFAULT_255_2_778
10
1.9217962
20
39.7414454
11
1.9400962
21
39.9322454
0
LINE
8
DEFAULT_255_2_778
10
1.9400962
20
39.9322454
11
1.9945962
21
40.1161454
0
LINE
8
DEFAULT_255_2_778
10
1.9945962
20
40.1161454
11
2.0831962
21
40.2862454
0
LINE
8
DEFAULT_255_2_778
10
2.0831962
20
40.2862454
11
2.2024962
21
40.4362454
0
LINE
8
DEFAULT_255_2_778
10
2.2024962
20
40.4362454
11
2.3482962
21
40.5608454
0
LINE
8
DEFAULT_255_2_778
10
2.3482962
20
40.5608454
11
4.9636962
21
42.3920454
0
LINE
8
DEFAULT_255_2_778
10
4.9636962
20
42.3920454
11
5.0676962
21
42.4558454
0
LINE
8
DEFAULT_255_2_778
10
5.0676962
20
42.4558454
11
5.1787962
21
42.5063454
0
LINE
8
DEFAULT_255_2_778
10
5.1787962
20
42.5063454
11
5.2951962
21
42.5431454
0
LINE
8
DEFAULT_255_2_778
10
5.2951962
20
42.5431454
11
5.4153962
21
42.5653454
0
LINE
8
DEFAULT_255_2_778
10
5.4153962
20
42.5653454
11
5.5372962
21
42.5727454
0
LINE
8
DEFAULT_255_2_778
10
5.5372962
20
42.5727454
11
5.8201962
21
42.5727454
0
LINE
8
DEFAULT_255_2_778
10
5.8201962
20
42.5727454
11
6.2220962
21
41.0728454
0
LINE
8
DEFAULT_255_2_778
10
6.2220962
20
41.0728454
11
7.7219962
21
41.0728454
0
LINE
8
DEFAULT_255_2_778
10
26.8719962
20
72.6188454
11
22.9719962
21
72.6188454
0
LINE
8
DEFAULT_255_2_778
10
22.9720209
20
74.9683641
11
26.8720209
21
74.9683641
0
LINE
8
DEFAULT_255_2_778
10
26.8720209
20
74.9683641
11
26.8720209
21
70.2693641
0
LINE
8
DEFAULT_255_2_778
10
26.8720209
20
70.2693641
11
22.9720209
21
70.2693641
0
LINE
8
DEFAULT_255_2_778
10
26.7119209
20
79.0018641
11
22.9720209
21
79.0018641
0
LINE
8
DEFAULT_255_2_778
10
26.7119209
20
77.2344641
11
22.9720209
21
77.2344641
0
LINE
8
DEFAULT_255_2_778
10
26.7119209
20
76.9021641
11
22.9720209
21
76.9021641
0
LINE
8
DEFAULT_255_2_778
10
26.7119209
20
100.8353641
11
22.9720209
21
100.8353641
0
LINE
8
DEFAULT_255_2_778
10
26.7119209
20
100.5029641
11
22.9720209
21
100.5029641
0
LINE
8
DEFAULT_255_2_778
10
26.7119209
20
98.7353641
11
22.9720209
21
98.7353641
0
LINE
8
DEFAULT_255_2_778
10
26.8720209
20
105.1186641
11
22.9720209
21
105.1186641
0
LINE
8
DEFAULT_255_2_778
10
22.9720209
20
107.4681999
11
26.8720209
21
107.4681999
0
LINE
8
DEFAULT_255_2_778
10
26.8720209
20
107.4681999
11
26.8720209
21
102.7691999
0
LINE
8
DEFAULT_255_2_778
10
26.8720209
20
102.7691999
11
22.9720209
21
102.7691999
0
ENDSEC
0
EOF