0
SECTION
2
HEADER
9
$MEASUREMENT
70
1
0
ENDSEC
0
SECTION
2
TABLES
0
TABLE
2
LTYPE
0
LTYPE
72
65
70
64
2
CONTINUOUS
3
______
73
0
40
0
0
ENDTAB
0
TABLE
2
LAYER
0
LAYER
2
DEFAULT_255_2_778
70
0
62
255
6
CONTINUOUS
0
LAYER
2
DEFAULT_255_1_234
70
0
62
255
6
CONTINUOUS
0
ENDTAB
0
ENDSEC
0
SECTION
2
ENTITIES
0
ARC
8
DEFAULT_255_2_778
10
3.5695693
20
115.4926525
40
0.7914215
50
129.1312896
51
180.1450914
0
ARC
8
DEFAULT_255_2_778
10
3.5698345
20
115.4931396
40
0.7912112
50
89.854026
51
129.1684493
0
ARC
8
DEFAULT_255_2_778
10
25.7988937
20
115.4928261
40
0.7915249
50
39.4792447
51
90.147911
0
ARC
8
DEFAULT_255_2_778
10
25.7994935
20
115.4926728
40
0.7911595
50
359.8533901
51
39.5154338
0
ARC
8
DEFAULT_255_2_778
10
25.7991693
20
-1.9863998
40
0.7914836
50
309.4761667
51
0.1482649
0
ARC
8
DEFAULT_255_2_778
10
25.798898
20
-1.9868309
40
0.7913235
50
269.8517415
51
309.511178
0
ARC
8
DEFAULT_255_2_778
10
3.569842
20
-1.9867727
40
0.7913815
50
219.1282118
51
270.1454017
0
ARC
8
DEFAULT_255_2_778
10
3.5695247
20
-1.9863902
40
0.7913769
50
179.8524075
51
219.1641908
0
LINE
8
DEFAULT_255_2_778
10
3.5718503
20
116.2843483
11
25.7968503
21
116.2843483
0
LINE
8
DEFAULT_255_2_778
10
26.5906503
20
115.4906483
11
26.5906503
21
-1.9843517
0
LINE
8
DEFAULT_255_2_778
10
25.7968503
20
-2.7781517
11
3.5718503
21
-2.7781517
0
LINE
8
DEFAULT_255_2_778
10
2.7781503
20
-1.9843517
11
2.7781503
21
115.4906483
0
LINE
8
DEFAULT_255_1_234
10
6.6668835
20
0.5189243
11
6.6933882
21
0.5189243
0
LINE
8
DEFAULT_255_1_234
10
6.6933882
20
0.5189243
11
6.6933882
21
0.392826
0
LINE
8
DEFAULT_255_1_234
10
6.6933882
20
0.392826
11
6.6660803
21
0.392826
0
LINE
8
DEFAULT_255_1_234
10
6.1191189
20
-0.2063417
11
6.1191189
21
-0.1493164
0
LINE
8
DEFAULT_255_1_234
10
6.2685093
20
-0.1685925
11
6.2685093
21
-0.2232083
0
ARC
8
DEFAULT_255_1_234
10
6.6713151
20
-0.1069545
40
0.4998079
50
90.6001036
51
104.514704
0
ARC
8
DEFAULT_255_1_234
10
6.6324667
20
0.0375131
40
0.3502176
50
104.2855254
51
133.862935
0
ARC
8
DEFAULT_255_1_234
10
6.6488424
20
0.026683
40
0.3693984
50
134.5302688
51
161.6210873
0
ARC
8
DEFAULT_255_1_234
10
6.8141613
20
-0.0316105
40
0.5446739
50
161.2849839
51
174.2076652
0
ARC
8
DEFAULT_255_1_234
10
6.954855
20
-0.0510213
40
0.6866274
50
173.7810589
51
174.9254635
0
ARC
8
DEFAULT_255_1_234
10
6.4998382
20
-0.1893161
40
0.3033419
50
95.8330959
51
138.9954921
0
ARC
8
DEFAULT_255_1_234
10
6.5221738
20
-0.3171625
40
0.4328947
50
89.8753725
51
97.0544009
0
ARC
8
DEFAULT_255_1_234
10
6.5269204
20
-0.2336252
40
0.3493769
50
71.6407809
51
90.6240094
0
ARC
8
DEFAULT_255_1_234
10
6.5419777
20
-0.1781918
40
0.2920396
50
39.6367836
51
71.019018
0
ARC
8
DEFAULT_255_1_234
10
6.478325
20
-0.2332002
40
0.3761538
50
10.658731
51
39.9043955
0
ARC
8
DEFAULT_255_1_234
10
6.3235333
20
-0.2668314
40
0.5345136
50
359.682601
51
11.132623
0
ARC
8
DEFAULT_255_1_234
10
6.3195464
20
-0.273899
40
0.5385081
50
347.2486944
51
0.4369317
0
ARC
8
DEFAULT_255_1_234
10
6.4862941
20
-0.3140193
40
0.3670249
50
318.1409698
51
347.6118597
0
ARC
8
DEFAULT_255_1_234
10
6.5187934
20
-0.3407298
40
0.3250007
50
275.6342139
51
317.8248465
0
ARC
8
DEFAULT_255_1_234
10
6.4967045
20
-0.2107781
40
0.4565864
50
269.8874292
51
276.7917694
0
ARC
8
DEFAULT_255_1_234
10
6.4912116
20
-0.3133257
40
0.3540676
50
246.9140195
51
270.7437342
0
ARC
8
DEFAULT_255_1_234
10
6.4918506
20
-0.3275616
40
0.3412781
50
218.1665114
51
245.878116
0
ARC
8
DEFAULT_255_1_234
10
6.5797967
20
-0.2539721
40
0.455911
50
191.4115814
51
218.6077802
0
ARC
8
DEFAULT_255_1_234
10
6.7736056
20
-0.2105167
40
0.6545001
50
179.6345085
51
191.7836486
0
ARC
8
DEFAULT_255_1_234
10
7.3318393
20
-0.1426303
40
1.2127388
50
171.4525249
51
180.3158839
0
ARC
8
DEFAULT_255_1_234
10
6.8923269
20
-0.0742392
40
0.7679464
50
157.9802646
51
171.6246686
0
ARC
8
DEFAULT_255_1_234
10
6.670929
20
0.0140421
40
0.5296008
50
141.4298019
51
157.854097
0
ARC
8
DEFAULT_255_1_234
10
6.606761
20
0.0594381
40
0.4511509
50
102.8715806
51
140.8564722
0
ARC
8
DEFAULT_255_1_234
10
6.6715226
20
-0.1845448
40
0.7034845
50
90.3778349
51
103.5869322
0
ARC
8
DEFAULT_255_1_234
10
6.4977002
20
-0.245027
40
0.2370698
50
89.8751008
51
126.2071704
0
ARC
8
DEFAULT_255_1_234
10
6.5022792
20
-0.2604697
40
0.2522934
50
124.9745049
51
144.895901
0
ARC
8
DEFAULT_255_1_234
10
6.4846982
20
-0.246144
40
0.2296779
50
145.2974905
51
160.2660252
0
ARC
8
DEFAULT_255_1_234
10
6.7919521
20
-0.2263929
40
0.5234525
50
179.6514266
51
190.2855912
0
ARC
8
DEFAULT_255_1_234
10
6.6225658
20
-0.2583214
40
0.3510893
50
190.0945431
51
207.5098196
0
ARC
8
DEFAULT_255_1_234
10
6.5659928
20
-0.2852377
40
0.288489
50
207.9583163
51
216.3251085
0
ARC
8
DEFAULT_255_1_234
10
6.5320036
20
-0.3131895
40
0.2445587
50
215.7661442
51
232.5456785
0
ARC
8
DEFAULT_255_1_234
10
6.4937019
20
-0.3618518
40
0.1826382
50
232.8005391
51
270.6605633
0
ARC
8
DEFAULT_255_1_234
10
6.498272
20
-0.3254388
40
0.2190529
50
269.35537
51
288.4744281
0
ARC
8
DEFAULT_255_1_234
10
6.5075617
20
-0.3603882
40
0.1829749
50
289.1833337
51
322.9683818
0
ARC
8
DEFAULT_255_1_234
10
6.4464139
20
-0.3121609
40
0.2608399
50
322.6007884
51
346.5182367
0
ARC
8
DEFAULT_255_1_234
10
6.3306735
20
-0.2826384
40
0.3802777
50
346.2582162
51
358.7741648
0
ARC
8
DEFAULT_255_1_234
10
6.2288404
20
-0.2771035
40
0.4822176
50
358.3755224
51
0.0098023
0
ARC
8
DEFAULT_255_1_234
10
6.3044591
20
-0.2743343
40
0.4066078
50
359.6214041
51
11.2839074
0
ARC
8
DEFAULT_255_1_234
10
6.4321738
20
-0.2476934
40
0.2761514
50
11.0482309
51
31.8146458
0
ARC
8
DEFAULT_255_1_234
10
6.4630781
20
-0.2309416
40
0.2410679
50
32.3035391
51
38.082671
0
ARC
8
DEFAULT_255_1_234
10
6.5051441
20
-0.1928338
40
0.1844966
50
36.825067
51
85.7415724
0
ARC
8
DEFAULT_255_1_234
10
6.4984274
20
-0.2428699
40
0.2349122
50
85.0140713
51
90.0513278
0
LINE
8
DEFAULT_255_1_234
10
7.7334983
20
0.0153343
11
7.7334983
21
-0.110764
0
LINE
8
DEFAULT_255_1_234
10
7.7334983
20
-0.110764
11
7.2266957
21
-0.110764
0
LINE
8
DEFAULT_255_1_234
10
7.2266957
20
-0.110764
11
7.2266957
21
-0.5252017
0
LINE
8
DEFAULT_255_1_234
10
7.2266957
20
-0.5252017
11
7.8154221
21
-0.5252017
0
LINE
8
DEFAULT_255_1_234
10
7.8154221
20
-0.5252017
11
7.8154221
21
-0.6513
0
LINE
8
DEFAULT_255_1_234
10
7.8154221
20
-0.6513
11
7.0724863
21
-0.6513
0
LINE
8
DEFAULT_255_1_234
10
7.0724863
20
-0.6513
11
7.0724863
21
0.5181211
0
LINE
8
DEFAULT_255_1_234
10
7.0724863
20
0.5181211
11
7.8073903
21
0.5181211
0
LINE
8
DEFAULT_255_1_234
10
7.8073903
20
0.5181211
11
7.8073903
21
0.3912196
0
LINE
8
DEFAULT_255_1_234
10
7.8073903
20
0.3912196
11
7.2266957
21
0.3912196
0
LINE
8
DEFAULT_255_1_234
10
7.2266957
20
0.3912196
11
7.2266957
21
0.0153343
0
LINE
8
DEFAULT_255_1_234
10
7.2266957
20
0.0153343
11
7.7334983
21
0.0153343
0
LINE
8
DEFAULT_255_1_234
10
8.7832465
20
0.1799849
11
8.628234
21
0.1799849
0
LINE
8
DEFAULT_255_1_234
10
7.9358981
20
-0.3123606
11
8.0909107
21
-0.3123606
0
ARC
8
DEFAULT_255_1_234
10
8.6941153
20
1.0746768
40
1.252368
50
248.9199003
51
254.1439814
0
ARC
8
DEFAULT_255_1_234
10
8.5260648
20
0.6420234
40
0.788226
50
241.633709
51
249.0064503
0
ARC
8
DEFAULT_255_1_234
10
8.3732042
20
0.3619317
40
0.4691427
50
230.498225
51
241.8087113
0
ARC
8
DEFAULT_255_1_234
10
8.2947616
20
0.2619906
40
0.3421437
50
227.4064532
51
229.9881192
0
ARC
8
DEFAULT_255_1_234
10
8.2460137
20
0.2144088
40
0.2741476
50
200.6781896
51
228.1763934
0
ARC
8
DEFAULT_255_1_234
10
8.2532447
20
0.2129077
40
0.2804109
50
179.5061581
51
199.8694617
0
ARC
8
DEFAULT_255_1_234
10
8.2523199
20
0.220321
40
0.2795204
50
132.4834203
51
181.0242172
0
ARC
8
DEFAULT_255_1_234
10
8.3118782
20
0.1640704
40
0.3612768
50
129.2532479
51
133.4242687
0
ARC
8
DEFAULT_255_1_234
10
8.3265231
20
0.1420965
40
0.3875675
50
101.98776
51
128.8742646
0
ARC
8
DEFAULT_255_1_234
10
8.3663842
20
-0.0300259
40
0.5642249
50
89.5906553
51
102.3169264
0
ARC
8
DEFAULT_255_1_234
10
8.3734334
20
0.0018148
40
0.5323783
50
77.2360837
51
90.3248275
0
ARC
8
DEFAULT_255_1_234
10
8.3941413
20
0.09854
40
0.4334697
50
63.837784
51
77.0809408
0
ARC
8
DEFAULT_255_1_234
10
8.4219175
20
0.1502911
40
0.3747796
50
45.9864267
51
64.1607727
0
ARC
8
DEFAULT_255_1_234
10
8.4480056
20
0.1800866
40
0.3352302
50
32.2747395
51
45.6547121
0
ARC
8
DEFAULT_255_1_234
10
8.4546497
20
0.181988
40
0.328603
50
359.6507365
51
32.6130309
0
ARC
8
DEFAULT_255_1_234
10
8.3603592
20
0.182466
40
0.2678863
50
359.469343
51
14.9832209
0
ARC
8
DEFAULT_255_1_234
10
8.4308654
20
0.2013539
40
0.1948938
50
14.9781179
51
48.2004265
0
ARC
8
DEFAULT_255_1_234
10
8.4144299
20
0.1806983
40
0.2212521
50
48.5927837
51
74.1241538
0
ARC
8
DEFAULT_255_1_234
10
8.3810788
20
0.0706248
40
0.3362561
50
73.7888341
51
86.6652678
0
ARC
8
DEFAULT_255_1_234
10
8.3708354
20
-0.0501119
40
0.4573953
50
86.2640471
51
90.0526343
0
ARC
8
DEFAULT_255_1_234
10
8.3680066
20
-0.0105808
40
0.4178709
50
89.6697524
51
99.2309573
0
ARC
8
DEFAULT_255_1_234
10
8.3437517
20
0.1338964
40
0.2713749
50
99.069534
51
113.7658566
0
ARC
8
DEFAULT_255_1_234
10
8.3163708
20
0.1984677
40
0.2012469
50
114.0401004
51
127.9850673
0
ARC
8
DEFAULT_255_1_234
10
8.2923272
20
0.228073
40
0.1631167
50
127.7287463
51
176.7105154
0
ARC
8
DEFAULT_255_1_234
10
8.360199
20
0.2179693
40
0.2315392
50
175.1779447
51
180.0581938
0
ARC
8
DEFAULT_255_1_234
10
8.2758836
20
0.2167428
40
0.1472271
50
179.6142195
51
228.1246017
0
ARC
8
DEFAULT_255_1_234
10
8.3200505
20
0.2576308
40
0.2072299
50
226.5779593
51
230.8800004
0
ARC
8
DEFAULT_255_1_234
10
8.3671584
20
0.3201636
40
0.2854818
50
231.4635071
51
241.9260842
0
ARC
8
DEFAULT_255_1_234
10
8.4868762
20
0.54048
40
0.53622
50
241.7178533
51
248.3259551
0
ARC
8
DEFAULT_255_1_234
10
8.6254134
20
0.8837064
40
0.9063478
50
248.2007737
51
252.4528373
0
ARC
8
DEFAULT_255_1_234
10
8.7457858
20
1.2558441
40
1.2974635
50
252.3391078
51
254.3469452
0
ARC
8
DEFAULT_255_1_234
10
7.9915561
20
-1.4418852
40
1.5037162
50
71.0197183
51
74.4087047
0
ARC
8
DEFAULT_255_1_234
10
8.1610246
20
-0.9526889
40
0.9859993
50
66.1847285
51
71.086374
0
ARC
8
DEFAULT_255_1_234
10
8.3166559
20
-0.60228
40
0.6025855
50
59.3536294
51
66.2691831
0
ARC
8
DEFAULT_255_1_234
10
8.4055211
20
-0.4519391
40
0.4279449
50
49.1020879
51
59.3293958
0
ARC
8
DEFAULT_255_1_234
10
8.4873951
20
-0.3586166
40
0.3038015
50
32.7919921
51
49.2505539
0
ARC
8
DEFAULT_255_1_234
10
8.5195041
20
-0.3357809
40
0.264448
50
31.1181161
51
32.4005348
0
ARC
8
DEFAULT_255_1_234
10
8.5106579
20
-0.3393221
40
0.2738556
50
8.1116974
51
30.7958831
0
ARC
8
DEFAULT_255_1_234
10
8.4296247
20
-0.3531247
40
0.3560327
50
359.8389159
51
8.4706516
0
ARC
8
DEFAULT_255_1_234
10
8.4922038
20
-0.3579863
40
0.2934776
50
337.4731098
51
0.7537279
0
ARC
8
DEFAULT_255_1_234
10
8.5100733
20
-0.3599613
40
0.2762607
50
307.5917067
51
336.4315538
0
ARC
8
DEFAULT_255_1_234
10
8.4640561
20
-0.3086898
40
0.3449979
50
307.6551545
51
308.4529766
0
ARC
8
DEFAULT_255_1_234
10
8.441028
20
-0.273175
40
0.3871988
50
284.3734338
51
307.1424381
0
ARC
8
DEFAULT_255_1_234
10
8.391511
20
-0.0910068
40
0.5759636
50
272.4382747
51
284.646547
0
ARC
8
DEFAULT_255_1_234
10
8.3788319
20
0.0889893
40
0.7563528
50
269.9708387
51
272.8178037
0
ARC
8
DEFAULT_255_1_234
10
8.3745358
20
-0.1148284
40
0.5525489
50
248.2707594
51
270.4055579
0
ARC
8
DEFAULT_255_1_234
10
8.36911
20
-0.1338808
40
0.5328452
50
246.1383403
51
248.0542782
0
ARC
8
DEFAULT_255_1_234
10
8.3272478
20
-0.2218157
40
0.4355005
50
233.1670131
51
246.4950969
0
ARC
8
DEFAULT_255_1_234
10
8.2718383
20
-0.2966188
40
0.3424126
50
215.3403242
51
233.0843104
0
ARC
8
DEFAULT_255_1_234
10
8.2445815
20
-0.3164451
40
0.3087104
50
179.2419209
51
215.2648451
0
ARC
8
DEFAULT_255_1_234
10
8.3213409
20
-0.3150334
40
0.2304457
50
179.335461
51
199.1045811
0
ARC
8
DEFAULT_255_1_234
10
8.2881085
20
-0.3237234
40
0.1962176
50
199.8828939
51
232.7063202
0
ARC
8
DEFAULT_255_1_234
10
8.3353353
20
-0.2643212
40
0.2720938
50
232.3738199
51
255.5136649
0
ARC
8
DEFAULT_255_1_234
10
8.369422
20
-0.1399165
40
0.4010747
50
255.2446292
51
267.5320849
0
ARC
8
DEFAULT_255_1_234
10
8.3781843
20
-0.0166298
40
0.5246356
50
267.1557994
51
270.0286766
0
ARC
8
DEFAULT_255_1_234
10
8.3809616
20
-0.061005
40
0.4802668
50
269.7000017
51
278.1660162
0
ARC
8
DEFAULT_255_1_234
10
8.406562
20
-0.2340485
40
0.3053425
50
278.0231263
51
290.625471
0
ARC
8
DEFAULT_255_1_234
10
8.4413308
20
-0.3267975
40
0.206291
50
290.6619762
51
307.0370976
0
ARC
8
DEFAULT_255_1_234
10
8.4713697
20
-0.3636496
40
0.1587906
50
306.3943566
51
355.3030547
0
ARC
8
DEFAULT_255_1_234
10
8.4201628
20
-0.3559887
40
0.2104809
50
354.3660432
51
0.0698737
0
ARC
8
DEFAULT_255_1_234
10
8.4343973
20
-0.3537383
40
0.1962563
50
359.417946
51
16.1971788
0
ARC
8
DEFAULT_255_1_234
10
8.4799284
20
-0.3412582
40
0.149053
50
16.4723299
51
52.6262157
0
ARC
8
DEFAULT_255_1_234
10
8.3978338
20
-0.4496567
40
0.2850296
50
52.7386432
51
62.4979148
0
ARC
8
DEFAULT_255_1_234
10
8.2593415
20
-0.7102717
40
0.5801521
50
62.2515216
51
68.1220564
0
ARC
8
DEFAULT_255_1_234
10
8.0873325
20
-1.1330128
40
1.0365451
50
68.0062803
51
71.8053402
0
ARC
8
DEFAULT_255_1_234
10
7.9077697
20
-1.6715242
40
1.6042013
50
71.7183119
51
73.9258742
0
LINE
8
DEFAULT_255_1_234
10
9.6996679
20
0.5181211
11
9.6996679
21
0.434591
0
LINE
8
DEFAULT_255_1_234
10
9.6996679
20
0.434591
11
9.2153541
21
-0.6513
0
LINE
8
DEFAULT_255_1_234
10
9.2153541
20
-0.6513
11
9.0595383
21
-0.6513
0
LINE
8
DEFAULT_255_1_234
10
9.0595383
20
-0.6513
11
9.5422458
21
0.3960387
0
LINE
8
DEFAULT_255_1_234
10
9.5422458
20
0.3960387
11
8.9093448
21
0.3960387
0
LINE
8
DEFAULT_255_1_234
10
8.9093448
20
0.3960387
11
8.9093448
21
0.5181211
0
LINE
8
DEFAULT_255_1_234
10
8.9093448
20
0.5181211
11
9.6996679
21
0.5181211
0
LINE
8
DEFAULT_255_1_234
10
10.3566641
20
0.5237433
11
10.3566641
21
-0.6513
0
LINE
8
DEFAULT_255_1_234
10
10.3566641
20
-0.6513
11
10.2072737
21
-0.6513
0
LINE
8
DEFAULT_255_1_234
10
10.2072737
20
-0.6513
11
10.2072737
21
0.3390133
0
LINE
8
DEFAULT_255_1_234
10
10.2072737
20
0.3390133
11
9.9076899
21
0.2289785
0
LINE
8
DEFAULT_255_1_234
10
9.9076899
20
0.2289785
11
9.9076899
21
0.3639117
0
LINE
8
DEFAULT_255_1_234
10
9.9076899
20
0.3639117
11
10.333372
21
0.5237433
0
LINE
8
DEFAULT_255_1_234
10
10.333372
20
0.5237433
11
10.3566641
21
0.5237433
0
LINE
8
DEFAULT_255_1_234
10
11.008038
20
-0.1155831
11
11.008038
21
0.0056962
0
LINE
8
DEFAULT_255_1_234
10
11.008038
20
0.0056962
11
11.1196792
21
0.0056962
0
LINE
8
DEFAULT_255_1_234
10
10.929327
20
0.2113087
11
10.7807398
21
0.2113087
0
LINE
8
DEFAULT_255_1_234
10
10.7702986
20
-0.3428813
11
10.9196889
21
-0.3428813
0
LINE
8
DEFAULT_255_1_234
10
11.1196792
20
-0.1155831
11
11.008038
21
-0.1155831
0
ARC
8
DEFAULT_255_1_234
10
11.1167658
20
0.3449713
40
0.3392876
50
270.4919872
51
281.8951556
0
ARC
8
DEFAULT_255_1_234
10
11.140892
20
0.2347702
40
0.2264817
50
281.6691735
51
301.2943132
0
ARC
8
DEFAULT_255_1_234
10
11.157913
20
0.2036304
40
0.1910381
50
301.7833094
51
311.7545298
0
ARC
8
DEFAULT_255_1_234
10
11.1670706
20
0.1934748
40
0.1773635
50
311.7323931
51
354.2802411
0
ARC
8
DEFAULT_255_1_234
10
11.0944331
20
0.2059722
40
0.2509385
50
353.0937916
51
0.1181479
0
ARC
8
DEFAULT_255_1_234
10
11.0483116
20
0.2107386
40
0.2970898
50
359.1805295
51
15.0453146
0
ARC
8
DEFAULT_255_1_234
10
11.1828953
20
0.2499992
40
0.1569564
50
13.9577229
51
77.6713066
0
ARC
8
DEFAULT_255_1_234
10
11.1442482
20
0.1114949
40
0.3006298
50
76.1116566
51
90.7026153
0
ARC
8
DEFAULT_255_1_234
10
11.1383321
20
0.1388545
40
0.2732568
50
89.5324876
51
103.531937
0
ARC
8
DEFAULT_255_1_234
10
11.1182765
20
0.2187884
40
0.1908508
50
103.2931773
51
133.5619022
0
ARC
8
DEFAULT_255_1_234
10
11.1138253
20
0.2247375
40
0.1834746
50
133.8349307
51
173.5344437
0
ARC
8
DEFAULT_255_1_234
10
11.1861296
20
0.2119213
40
0.2568033
50
172.5096846
51
180.1366907
0
ARC
8
DEFAULT_255_1_234
10
11.091019
20
0.2153622
40
0.3103056
50
155.3484492
51
180.7484736
0
ARC
8
DEFAULT_255_1_234
10
11.0861279
20
0.2124846
40
0.3070957
50
131.5744599
51
154.4798489
0
ARC
8
DEFAULT_255_1_234
10
11.1174427
20
0.180831
40
0.3515643
50
96.9875458
51
131.9690667
0
ARC
8
DEFAULT_255_1_234
10
11.1393906
20
0.0562636
40
0.4779224
50
89.8596053
51
97.7825159
0
ARC
8
DEFAULT_255_1_234
10
11.144197
20
0.0300616
40
0.5041361
50
78.3655447
51
90.4131539
0
ARC
8
DEFAULT_255_1_234
10
11.1799887
20
0.1959887
40
0.3344039
50
56.6229102
51
78.638727
0
ARC
8
DEFAULT_255_1_234
10
11.2014831
20
0.2335805
40
0.2912001
50
47.0253525
51
56.0854072
0
ARC
8
DEFAULT_255_1_234
10
11.2034611
20
0.2375223
40
0.2869704
50
10.9208013
51
46.7778124
0
ARC
8
DEFAULT_255_1_234
10
11.0670678
20
0.2059857
40
0.426899
50
359.6364486
51
11.6087304
0
ARC
8
DEFAULT_255_1_234
10
11.2505522
20
0.2044752
40
0.243409
50
332.3549906
51
359.7179418
0
ARC
8
DEFAULT_255_1_234
10
11.1855123
20
0.2353142
40
0.3153459
50
325.2333722
51
332.8745602
0
ARC
8
DEFAULT_255_1_234
10
11.2007747
20
0.2246828
40
0.2967456
50
292.9802137
51
325.2392345
0
ARC
8
DEFAULT_255_1_234
10
11.1733121
20
0.2780863
40
0.3566604
50
292.5402179
51
293.6924929
0
ARC
8
DEFAULT_255_1_234
10
11.2125717
20
-0.3673909
40
0.3307468
50
57.6435486
51
72.8625112
0
ARC
8
DEFAULT_255_1_234
10
11.2480216
20
-0.3099451
40
0.2632492
50
36.7248896
51
57.4697979
0
ARC
8
DEFAULT_255_1_234
10
11.2468849
20
-0.308678
40
0.2634081
50
8.0545065
51
36.356114
0
ARC
8
DEFAULT_255_1_234
10
11.1606034
20
-0.3241826
40
0.3510261
50
359.8320645
51
8.5869982
0
ARC
8
DEFAULT_255_1_234
10
11.1230811
20
-0.3289899
40
0.3885653
50
343.9829931
51
0.5571613
0
ARC
8
DEFAULT_255_1_234
10
11.2117008
20
-0.3532562
40
0.2966924
50
311.6359546
51
343.7651759
0
ARC
8
DEFAULT_255_1_234
10
11.1738577
20
-0.3105898
40
0.3537231
50
279.7829875
51
311.6255694
0
ARC
8
DEFAULT_255_1_234
10
11.1437353
20
-0.166872
40
0.5004971
50
269.7286406
51
280.3856417
0
ARC
8
DEFAULT_255_1_234
10
11.1375426
20
-0.1710004
40
0.4963778
50
256.6828919
51
270.4412052
0
ARC
8
DEFAULT_255_1_234
10
11.1036722
20
-0.3094606
40
0.3538406
50
229.4223008
51
256.8556159
0
ARC
8
DEFAULT_255_1_234
10
11.0622114
20
-0.3561264
40
0.2914296
50
181.818294
51
229.6455059
0
ARC
8
DEFAULT_255_1_234
10
11.1662071
20
-0.3430504
40
0.3959084
50
179.9755256
51
183.2323064
0
ARC
8
DEFAULT_255_1_234
10
11.1489816
20
-0.3450963
40
0.2293034
50
179.4465117
51
196.2869258
0
ARC
8
DEFAULT_255_1_234
10
11.1002224
20
-0.3584349
40
0.1787621
50
196.5661473
51
227.705904
0
ARC
8
DEFAULT_255_1_234
10
11.1166319
20
-0.3400845
40
0.2033784
50
227.7652068
51
257.8762805
0
ARC
8
DEFAULT_255_1_234
10
11.1391289
20
-0.2457844
40
0.3003081
50
257.4584385
51
270.426602
0
ARC
8
DEFAULT_255_1_234
10
11.1436856
20
-0.2168004
40
0.329292
50
269.5962073
51
280.8789248
0
ARC
8
DEFAULT_255_1_234
10
11.1666384
20
-0.3314315
40
0.2123908
50
280.6346389
51
299.8595945
0
ARC
8
DEFAULT_255_1_234
10
11.1857291
20
-0.3676788
40
0.171457
50
300.3576302
51
314.5517981
0
ARC
8
DEFAULT_255_1_234
10
11.1774351
20
-0.3616081
40
0.1816095
50
315.0728369
51
345.0431014
0
ARC
8
DEFAULT_255_1_234
10
11.0851166
20
-0.3347159
40
0.2777492
50
344.5986631
51
357.9269593
0
ARC
8
DEFAULT_255_1_234
10
10.9955492
20
-0.3285724
40
0.3674917
50
357.4748886
51
0.0231117
0
ARC
8
DEFAULT_255_1_234
10
11.0978601
20
-0.3261321
40
0.2651907
50
359.5047933
51
13.4239635
0
ARC
8
DEFAULT_255_1_234
10
11.1845245
20
-0.3039522
40
0.1757509
50
12.9498199
51
48.7551375
0
ARC
8
DEFAULT_255_1_234
10
11.1662979
20
-0.32886
40
0.2065134
50
49.5088623
51
72.1836453
0
ARC
8
DEFAULT_255_1_234
10
11.1305131
20
-0.4350709
40
0.3185836
50
71.9010081
51
84.3554254
0
ARC
8
DEFAULT_255_1_234
10
11.1143763
20
-0.5711674
40
0.4556151
50
84.0193428
51
89.333121
0
LINE
8
DEFAULT_255_1_234
10
12.481862
20
-0.5300208
11
12.481862
21
-0.6513
0
LINE
8
DEFAULT_255_1_234
10
12.481862
20
-0.6513
11
11.7156342
21
-0.6513
0
LINE
8
DEFAULT_255_1_234
10
11.7156342
20
-0.6513
11
11.7156342
21
-0.5444779
0
LINE
8
DEFAULT_255_1_234
10
11.7156342
20
-0.5444779
11
12.1204338
21
-0.0947005
0
LINE
8
DEFAULT_255_1_234
10
11.8417325
20
0.1735595
11
11.6931453
21
0.1735595
0
LINE
8
DEFAULT_255_1_234
10
12.2079797
20
-0.1902782
11
11.8947419
21
-0.5300208
0
LINE
8
DEFAULT_255_1_234
10
11.8947419
20
-0.5300208
11
12.481862
21
-0.5300208
0
ARC
8
DEFAULT_255_1_234
10
10.7714171
20
1.0982527
40
1.8008286
50
318.5132453
51
320.7828378
0
ARC
8
DEFAULT_255_1_234
10
11.3001146
20
0.6679426
40
1.1191493
50
320.7372736
51
323.9737074
0
ARC
8
DEFAULT_255_1_234
10
11.6921002
20
0.3839361
40
0.6350923
50
323.8961724
51
328.6421089
0
ARC
8
DEFAULT_255_1_234
10
11.8967597
20
0.2577031
40
0.3946393
50
328.8299013
51
331.789948
0
ARC
8
DEFAULT_255_1_234
10
11.9964776
20
0.2062509
40
0.2824501
50
331.4255242
51
352.9364833
0
ARC
8
DEFAULT_255_1_234
10
12.0101277
20
0.2031976
40
0.2685315
50
353.2248685
51
0.0169286
0
ARC
8
DEFAULT_255_1_234
10
12.0311153
20
0.205495
40
0.2475536
50
359.4866256
51
15.9339782
0
ARC
8
DEFAULT_255_1_234
10
12.0818139
20
0.2191286
40
0.1950618
50
16.1714718
51
43.5284424
0
ARC
8
DEFAULT_255_1_234
10
12.0895447
20
0.2268573
40
0.184134
50
43.4415429
51
83.1661404
0
ARC
8
DEFAULT_255_1_234
10
12.0761365
20
0.1531771
40
0.258926
50
82.160215
51
90.1505798
0
ARC
8
DEFAULT_255_1_234
10
12.0729793
20
0.0994865
40
0.3126255
50
89.5460705
51
102.5418777
0
ARC
8
DEFAULT_255_1_234
10
12.0486879
20
0.2025665
40
0.2067346
50
102.1739365
51
129.2061916
0
ARC
8
DEFAULT_255_1_234
10
12.0407951
20
0.2150094
40
0.1921118
50
129.7279328
51
135.7542026
0
ARC
8
DEFAULT_255_1_234
10
12.0529478
20
0.2053045
40
0.2075944
50
136.175737
51
166.3674722
0
ARC
8
DEFAULT_255_1_234
10
12.1536398
20
0.1783182
40
0.3118201
50
165.9092917
51
178.8683903
0
ARC
8
DEFAULT_255_1_234
10
12.2401259
20
0.1736179
40
0.3983935
50
178.438168
51
180.0083905
0
ARC
8
DEFAULT_255_1_234
10
12.0999861
20
0.1775231
40
0.4068601
50
163.2878735
51
180.5581814
0
ARC
8
DEFAULT_255_1_234
10
12.0198122
20
0.199584
40
0.3237344
50
133.454115
51
162.9470031
0
ARC
8
DEFAULT_255_1_234
10
12.0376664
20
0.1806
40
0.349795
50
100.7869394
51
133.4384016
0
ARC
8
DEFAULT_255_1_234
10
12.0724435
20
0.0257319
40
0.5084616
50
89.6605301
51
101.3704185
0
ARC
8
DEFAULT_255_1_234
10
12.0790774
20
0.0318496
40
0.502348
50
78.2171172
51
90.4130393
0
ARC
8
DEFAULT_255_1_234
10
12.1145852
20
0.1942637
40
0.3361092
50
55.9268222
51
78.4888551
0
ARC
8
DEFAULT_255_1_234
10
12.1342292
20
0.2281324
40
0.2970617
50
47.9292255
51
55.4054003
0
ARC
8
DEFAULT_255_1_234
10
12.1443853
20
0.2384502
40
0.2825983
50
4.3347696
51
48.0560701
0
ARC
8
DEFAULT_255_1_234
10
12.0348247
20
0.2214601
40
0.393225
50
359.925209
51
5.5967654
0
ARC
8
DEFAULT_255_1_234
10
12.0777138
20
0.2270816
40
0.3503892
50
337.8914096
51
358.9967724
0
ARC
8
DEFAULT_255_1_234
10
11.8063551
20
0.3317706
40
0.6412172
50
326.9135351
51
338.3505194
0
ARC
8
DEFAULT_255_1_234
10
11.4077854
20
0.5872284
40
1.1146189
50
319.6472867
51
327.095818
0
ARC
8
DEFAULT_255_1_234
10
11.0244857
20
0.9034
40
1.6114559
50
317.2586784
51
319.9046139
0
LINE
8
DEFAULT_255_1_234
10
12.9637663
20
-0.0938974
11
12.9637663
21
-0.2151766
0
LINE
8
DEFAULT_255_1_234
10
12.9637663
20
-0.2151766
11
12.5718175
21
-0.2151766
0
LINE
8
DEFAULT_255_1_234
10
12.5718175
20
-0.2151766
11
12.5718175
21
-0.0938974
0
LINE
8
DEFAULT_255_1_234
10
12.5718175
20
-0.0938974
11
12.9637663
21
-0.0938974
0
LINE
8
DEFAULT_255_1_234
10
13.6496768
20
0.5189243
11
13.6761815
21
0.5189243
0
LINE
8
DEFAULT_255_1_234
10
13.6761815
20
0.5189243
11
13.6761815
21
0.392826
0
LINE
8
DEFAULT_255_1_234
10
13.6761815
20
0.392826
11
13.6488736
21
0.392826
0
LINE
8
DEFAULT_255_1_234
10
13.1019122
20
-0.2063417
11
13.1019122
21
-0.1493164
0
LINE
8
DEFAULT_255_1_234
10
13.2513025
20
-0.1685925
11
13.2513025
21
-0.2232083
0
ARC
8
DEFAULT_255_1_234
10
13.6541084
20
-0.1069545
40
0.4998079
50
90.6001036
51
104.514704
0
ARC
8
DEFAULT_255_1_234
10
13.6152599
20
0.0375131
40
0.3502176
50
104.2855254
51
133.862935
0
ARC
8
DEFAULT_255_1_234
10
13.6316357
20
0.026683
40
0.3693984
50
134.5302688
51
161.6210873
0
ARC
8
DEFAULT_255_1_234
10
13.7969545
20
-0.0316105
40
0.5446739
50
161.2849839
51
174.2076652
0
ARC
8
DEFAULT_255_1_234
10
13.9376482
20
-0.0510213
40
0.6866274
50
173.7810589
51
174.9254635
0
ARC
8
DEFAULT_255_1_234
10
13.4826314
20
-0.1893161
40
0.3033419
50
95.8330959
51
138.9954921
0
ARC
8
DEFAULT_255_1_234
10
13.504967
20
-0.3171625
40
0.4328947
50
89.8753725
51
97.0544009
0
ARC
8
DEFAULT_255_1_234
10
13.5097136
20
-0.2336252
40
0.3493769
50
71.6407809
51
90.6240094
0
ARC
8
DEFAULT_255_1_234
10
13.524771
20
-0.1781918
40
0.2920396
50
39.6367836
51
71.019018
0
ARC
8
DEFAULT_255_1_234
10
13.4611183
20
-0.2332002
40
0.3761538
50
10.658731
51
39.9043955
0
ARC
8
DEFAULT_255_1_234
10
13.3063266
20
-0.2668314
40
0.5345136
50
359.682601
51
11.132623
0
ARC
8
DEFAULT_255_1_234
10
13.3023397
20
-0.273899
40
0.5385081
50
347.2486944
51
0.4369317
0
ARC
8
DEFAULT_255_1_234
10
13.4690874
20
-0.3140193
40
0.3670249
50
318.1409698
51
347.6118597
0
ARC
8
DEFAULT_255_1_234
10
13.5015867
20
-0.3407298
40
0.3250007
50
275.6342139
51
317.8248465
0
ARC
8
DEFAULT_255_1_234
10
13.4794978
20
-0.2107781
40
0.4565864
50
269.8874292
51
276.7917694
0
ARC
8
DEFAULT_255_1_234
10
13.4740048
20
-0.3133257
40
0.3540676
50
246.9140195
51
270.7437342
0
ARC
8
DEFAULT_255_1_234
10
13.4746439
20
-0.3275616
40
0.3412781
50
218.1665114
51
245.878116
0
ARC
8
DEFAULT_255_1_234
10
13.56259
20
-0.2539721
40
0.455911
50
191.4115814
51
218.6077802
0
ARC
8
DEFAULT_255_1_234
10
13.7563989
20
-0.2105167
40
0.6545001
50
179.6345085
51
191.7836486
0
ARC
8
DEFAULT_255_1_234
10
14.3146326
20
-0.1426303
40
1.2127388
50
171.4525249
51
180.3158839
0
ARC
8
DEFAULT_255_1_234
10
13.8751201
20
-0.0742392
40
0.7679464
50
157.9802646
51
171.6246686
0
ARC
8
DEFAULT_255_1_234
10
13.6537222
20
0.0140421
40
0.5296008
50
141.4298019
51
157.854097
0
ARC
8
DEFAULT_255_1_234
10
13.5895543
20
0.0594381
40
0.4511509
50
102.8715806
51
140.8564722
0
ARC
8
DEFAULT_255_1_234
10
13.6543158
20
-0.1845448
40
0.7034845
50
90.3778349
51
103.5869322
0
ARC
8
DEFAULT_255_1_234
10
13.4804935
20
-0.245027
40
0.2370698
50
89.8751008
51
126.2071704
0
ARC
8
DEFAULT_255_1_234
10
13.4850724
20
-0.2604697
40
0.2522934
50
124.9745049
51
144.895901
0
ARC
8
DEFAULT_255_1_234
10
13.4674915
20
-0.246144
40
0.2296779
50
145.2974905
51
160.2660252
0
ARC
8
DEFAULT_255_1_234
10
13.7747454
20
-0.2263929
40
0.5234525
50
179.6514266
51
190.2855912
0
ARC
8
DEFAULT_255_1_234
10
13.6053591
20
-0.2583214
40
0.3510893
50
190.0945431
51
207.5098196
0
ARC
8
DEFAULT_255_1_234
10
13.5487861
20
-0.2852377
40
0.288489
50
207.9583163
51
216.3251085
0
ARC
8
DEFAULT_255_1_234
10
13.5147969
20
-0.3131895
40
0.2445587
50
215.7661442
51
232.5456785
0
ARC
8
DEFAULT_255_1_234
10
13.4764951
20
-0.3618518
40
0.1826382
50
232.8005391
51
270.6605633
0
ARC
8
DEFAULT_255_1_234
10
13.4810652
20
-0.3254388
40
0.2190529
50
269.35537
51
288.4744281
0
ARC
8
DEFAULT_255_1_234
10
13.4903549
20
-0.3603882
40
0.1829749
50
289.1833337
51
322.9683818
0
ARC
8
DEFAULT_255_1_234
10
13.4292072
20
-0.3121609
40
0.2608399
50
322.6007884
51
346.5182367
0
ARC
8
DEFAULT_255_1_234
10
13.3134668
20
-0.2826384
40
0.3802777
50
346.2582162
51
358.7741648
0
ARC
8
DEFAULT_255_1_234
10
13.2116337
20
-0.2771035
40
0.4822176
50
358.3755224
51
0.0098023
0
ARC
8
DEFAULT_255_1_234
10
13.2872524
20
-0.2743343
40
0.4066078
50
359.6214041
51
11.2839074
0
ARC
8
DEFAULT_255_1_234
10
13.4149671
20
-0.2476934
40
0.2761514
50
11.0482309
51
31.8146458
0
ARC
8
DEFAULT_255_1_234
10
13.4458714
20
-0.2309416
40
0.2410679
50
32.3035391
51
38.082671
0
ARC
8
DEFAULT_255_1_234
10
13.4879373
20
-0.1928338
40
0.1844966
50
36.825067
51
85.7415724
0
ARC
8
DEFAULT_255_1_234
10
13.4812207
20
-0.2428699
40
0.2349122
50
85.0140713
51
90.0513278
0
LINE
8
DEFAULT_255_1_234
10
14.4608823
20
-0.6513
11
14.0552795
21
-0.6513
0
LINE
8
DEFAULT_255_1_234
10
14.0552795
20
-0.6513
11
14.0552795
21
0.5181211
0
LINE
8
DEFAULT_255_1_234
10
14.0552795
20
0.5181211
11
14.4375903
21
0.5181211
0
LINE
8
DEFAULT_255_1_234
10
14.4665045
20
-0.1043386
11
14.2094889
21
-0.1043386
0
LINE
8
DEFAULT_255_1_234
10
14.2094889
20
-0.1043386
11
14.2094889
21
-0.5252017
0
LINE
8
DEFAULT_255_1_234
10
14.2094889
20
-0.5252017
11
14.464095
21
-0.5252017
0
LINE
8
DEFAULT_255_1_234
10
14.2094889
20
0.3912196
11
14.2094889
21
0.0193501
0
LINE
8
DEFAULT_255_1_234
10
14.2094889
20
0.0193501
11
14.4424093
21
0.0193501
0
LINE
8
DEFAULT_255_1_234
10
14.4375903
20
0.3912196
11
14.2094889
21
0.3912196
0
ARC
8
DEFAULT_255_1_234
10
14.4413612
20
-0.2186099
40
0.7367406
50
82.1257326
51
90.2932599
0
ARC
8
DEFAULT_255_1_234
10
14.4802566
20
0.0532013
40
0.4621653
50
69.9044149
51
82.2857423
0
ARC
8
DEFAULT_255_1_234
10
14.5373244
20
0.2074637
40
0.2976871
50
51.1838526
51
70.0181538
0
ARC
8
DEFAULT_255_1_234
10
14.562821
20
0.244524
40
0.2528517
50
12.1017251
51
50.4214761
0
ARC
8
DEFAULT_255_1_234
10
14.4244084
20
0.2097676
40
0.3955061
50
359.5251267
51
12.8211707
0
ARC
8
DEFAULT_255_1_234
10
14.5824011
20
0.2028344
40
0.2375281
50
323.4908128
51
0.8817314
0
ARC
8
DEFAULT_255_1_234
10
14.5405698
20
0.235155
40
0.2903817
50
298.6825083
51
323.2756573
0
ARC
8
DEFAULT_255_1_234
10
14.5044061
20
0.2952649
40
0.3604842
50
293.1999386
51
299.1396394
0
ARC
8
DEFAULT_255_1_234
10
14.5717033
20
-0.3132874
40
0.2871098
50
54.0011765
51
74.9167975
0
ARC
8
DEFAULT_255_1_234
10
14.5833393
20
-0.2935668
40
0.2643248
50
36.3580696
51
53.5291921
0
ARC
8
DEFAULT_255_1_234
10
14.5706635
20
-0.3026002
40
0.2798884
50
4.8189881
51
36.3089977
0
ARC
8
DEFAULT_255_1_234
10
14.492747
20
-0.313573
40
0.358478
50
359.9370252
51
5.5204067
0
ARC
8
DEFAULT_255_1_234
10
14.4602991
20
-0.3176333
40
0.3909429
50
344.7478609
51
0.5373281
0
ARC
8
DEFAULT_255_1_234
10
14.5593963
20
-0.3443456
40
0.2883093
50
311.1786488
51
344.6886812
0
ARC
8
DEFAULT_255_1_234
10
14.530201
20
-0.3080013
40
0.3348923
50
286.0418249
51
310.8441291
0
ARC
8
DEFAULT_255_1_234
10
14.4794842
20
-0.1433193
40
0.5071869
50
274.1042341
51
286.4071509
0
ARC
8
DEFAULT_255_1_234
10
14.4618098
20
0.0450229
40
0.6963234
50
269.9236873
51
274.445647
0
ARC
8
DEFAULT_255_1_234
10
14.4664098
20
-0.1889463
40
0.3362634
50
269.6055768
51
281.3740047
0
ARC
8
DEFAULT_255_1_234
10
14.4894736
20
-0.2982647
40
0.224546
50
281.1055983
51
302.5132223
0
ARC
8
DEFAULT_255_1_234
10
14.5041636
20
-0.3246177
40
0.1944357
50
303.0368945
51
311.8811219
0
ARC
8
DEFAULT_255_1_234
10
14.5113042
20
-0.333111
40
0.1833454
50
311.9916004
51
351.7143462
0
ARC
8
DEFAULT_255_1_234
10
14.4296272
20
-0.316607
40
0.2665871
50
350.7339597
51
0.2221581
0
ARC
8
DEFAULT_255_1_234
10
14.4188718
20
-0.3109533
40
0.2773789
50
359.0456241
51
17.2296242
0
ARC
8
DEFAULT_255_1_234
10
14.5227836
20
-0.2800837
40
0.1689915
50
17.6685481
51
78.9940892
0
ARC
8
DEFAULT_255_1_234
10
14.4710999
20
-0.4655776
40
0.3612658
50
76.5635957
51
90.6980921
0
LINE
8
DEFAULT_255_1_234
10
14.4666984
20
-0.1043387
11
14.4665045
21
-0.1043386
0
ARC
8
DEFAULT_255_1_234
10
14.444666
20
0.3479036
40
0.3285612
50
269.6064736
51
281.4533503
0
ARC
8
DEFAULT_255_1_234
10
14.4669479
20
0.2427688
40
0.2210975
50
281.2041486
51
302.5148063
0
ARC
8
DEFAULT_255_1_234
10
14.4806329
20
0.2181241
40
0.1929674
50
303.021671
51
309.8369575
0
ARC
8
DEFAULT_255_1_234
10
14.4989791
20
0.1975488
40
0.1654181
50
309.5228395
51
356.9509836
0
ARC
8
DEFAULT_255_1_234
10
14.4326373
20
0.2070932
40
0.2322512
50
355.4701227
51
0.0492546
0
ARC
8
DEFAULT_255_1_234
10
14.4047465
20
0.2093094
40
0.2601498
50
359.5558597
51
11.2096359
0
ARC
8
DEFAULT_255_1_234
10
14.5004754
20
0.229123
40
0.1623975
50
10.9182341
51
31.3230275
0
ARC
8
DEFAULT_255_1_234
10
14.5290488
20
0.2450214
40
0.1297302
50
31.8852677
51
52.1412565
0
ARC
8
DEFAULT_255_1_234
10
14.5016221
20
0.206275
40
0.1771663
50
52.8285564
51
71.9850297
0
ARC
8
DEFAULT_255_1_234
10
14.4640397
20
0.0956664
40
0.2939794
50
71.6863486
51
82.8455995
0
ARC
8
DEFAULT_255_1_234
10
14.4400933
20
-0.0852851
40
0.476506
50
82.6984714
51
90.1729175
0
ARC
8
DEFAULT_255_1_234
10
14.4378568
20
0.0370623
40
0.3541573
50
89.8708275
51
90.0431131
0
LINE
8
DEFAULT_255_1_234
10
15.4030052
20
-0.6513
11
15.0793262
21
-0.6513
0
LINE
8
DEFAULT_255_1_234
10
15.0793262
20
-0.6513
11
15.0793262
21
0.5181211
0
LINE
8
DEFAULT_255_1_234
10
15.0793262
20
0.5181211
11
15.4094306
21
0.5181211
0
LINE
8
DEFAULT_255_1_234
10
15.9250682
20
-0.0272339
11
15.9250682
21
-0.1019291
0
LINE
8
DEFAULT_255_1_234
10
15.4134465
20
0.3912196
11
15.2335355
21
0.3912196
0
LINE
8
DEFAULT_255_1_234
10
15.2335355
20
0.3912196
11
15.2335355
21
-0.5252017
0
LINE
8
DEFAULT_255_1_234
10
15.2335355
20
-0.5252017
11
15.3957767
21
-0.5252017
0
LINE
8
DEFAULT_255_1_234
10
15.7724652
20
-0.0987164
11
15.7724652
21
-0.0304466
0
ARC
8
DEFAULT_255_1_234
10
15.4133249
20
-0.0684106
40
0.5865446
50
75.4101064
51
90.3804066
0
ARC
8
DEFAULT_255_1_234
10
15.4362762
20
0.0272492
40
0.4881916
50
60.145586
51
75.1888407
0
ARC
8
DEFAULT_255_1_234
10
15.4521538
20
0.0549199
40
0.4562893
50
26.5253612
51
60.1450928
0
ARC
8
DEFAULT_255_1_234
10
15.3401287
20
-0.0044842
40
0.5830602
50
7.4030428
51
26.8320788
0
ARC
8
DEFAULT_255_1_234
10
15.1807044
20
-0.0293196
40
0.7443669
50
0.1605367
51
7.7176192
0
ARC
8
DEFAULT_255_1_234
10
15.1970948
20
-0.1057566
40
0.7279835
50
348.7289388
51
0.3012466
0
ARC
8
DEFAULT_255_1_234
10
15.3627379
20
-0.1386614
40
0.559104
50
333.0706509
51
348.7181832
0
ARC
8
DEFAULT_255_1_234
10
15.4594136
20
-0.1911681
40
0.4491417
50
299.2531685
51
333.4571258
0
ARC
8
DEFAULT_255_1_234
10
15.4233276
20
-0.1226172
40
0.5265881
50
278.107187
51
299.0339503
0
ARC
8
DEFAULT_255_1_234
10
15.3977355
20
0.0281216
40
0.679442
50
270.4443897
51
278.4511052
0
ARC
8
DEFAULT_255_1_234
10
15.3998185
20
-0.0647787
40
0.4604407
50
269.4970433
51
284.0205042
0
ARC
8
DEFAULT_255_1_234
10
15.4353486
20
-0.2013022
40
0.3193797
50
283.7700273
51
318.1555492
0
ARC
8
DEFAULT_255_1_234
10
15.4016244
20
-0.1760633
40
0.3613588
50
318.7415601
51
343.6873628
0
ARC
8
DEFAULT_255_1_234
10
15.2212267
20
-0.1197168
40
0.5503313
50
343.3325091
51
355.8548958
0
ARC
8
DEFAULT_255_1_234
10
15.0113952
20
-0.0997681
40
0.7610708
50
355.4988528
51
0.0791727
0
ARC
8
DEFAULT_255_1_234
10
15.0896574
20
-0.026222
40
0.6828208
50
359.6455037
51
9.8607896
0
ARC
8
DEFAULT_255_1_234
10
15.3257272
20
0.0164099
40
0.4429406
50
9.6571907
51
26.1932807
0
ARC
8
DEFAULT_255_1_234
10
15.4185261
20
0.0595118
40
0.3406537
50
26.5777228
51
40.1532208
0
ARC
8
DEFAULT_255_1_234
10
15.4440987
20
0.0794619
40
0.308246
50
40.3840491
51
80.1431104
0
ARC
8
DEFAULT_255_1_234
10
15.4114105
20
-0.0654667
40
0.4566909
50
79.2152159
51
89.7445637
0
LINE
8
DEFAULT_255_1_234
10
16.8856641
20
-0.5300208
11
16.8856641
21
-0.6513
0
LINE
8
DEFAULT_255_1_234
10
16.8856641
20
-0.6513
11
16.1194363
21
-0.6513
0
LINE
8
DEFAULT_255_1_234
10
16.1194363
20
-0.6513
11
16.1194363
21
-0.5444779
0
LINE
8
DEFAULT_255_1_234
10
16.1194363
20
-0.5444779
11
16.5242359
21
-0.0947005
0
LINE
8
DEFAULT_255_1_234
10
16.2455346
20
0.1735595
11
16.0969474
21
0.1735595
0
LINE
8
DEFAULT_255_1_234
10
16.6117818
20
-0.1902782
11
16.298544
21
-0.5300208
0
LINE
8
DEFAULT_255_1_234
10
16.298544
20
-0.5300208
11
16.8856641
21
-0.5300208
0
ARC
8
DEFAULT_255_1_234
10
15.1752192
20
1.0982527
40
1.8008286
50
318.5132453
51
320.7828378
0
ARC
8
DEFAULT_255_1_234
10
15.7039167
20
0.6679426
40
1.1191493
50
320.7372736
51
323.9737074
0
ARC
8
DEFAULT_255_1_234
10
16.0959023
20
0.3839361
40
0.6350923
50
323.8961724
51
328.6421089
0
ARC
8
DEFAULT_255_1_234
10
16.3005618
20
0.2577031
40
0.3946393
50
328.8299013
51
331.789948
0
ARC
8
DEFAULT_255_1_234
10
16.4002797
20
0.2062509
40
0.2824501
50
331.4255242
51
352.9364833
0
ARC
8
DEFAULT_255_1_234
10
16.4139298
20
0.2031976
40
0.2685315
50
353.2248685
51
0.0169286
0
ARC
8
DEFAULT_255_1_234
10
16.4349174
20
0.205495
40
0.2475536
50
359.4866256
51
15.9339782
0
ARC
8
DEFAULT_255_1_234
10
16.485616
20
0.2191286
40
0.1950618
50
16.1714718
51
43.5284424
0
ARC
8
DEFAULT_255_1_234
10
16.4933468
20
0.2268573
40
0.184134
50
43.4415429
51
83.1661404
0
ARC
8
DEFAULT_255_1_234
10
16.4799386
20
0.1531771
40
0.258926
50
82.160215
51
90.1505798
0
ARC
8
DEFAULT_255_1_234
10
16.4767814
20
0.0994865
40
0.3126255
50
89.5460705
51
102.5418777
0
ARC
8
DEFAULT_255_1_234
10
16.45249
20
0.2025665
40
0.2067346
50
102.1739365
51
129.2061916
0
ARC
8
DEFAULT_255_1_234
10
16.4445972
20
0.2150094
40
0.1921118
50
129.7279328
51
135.7542026
0
ARC
8
DEFAULT_255_1_234
10
16.4567499
20
0.2053045
40
0.2075944
50
136.175737
51
166.3674722
0
ARC
8
DEFAULT_255_1_234
10
16.5574419
20
0.1783182
40
0.3118201
50
165.9092917
51
178.8683903
0
ARC
8
DEFAULT_255_1_234
10
16.643928
20
0.1736179
40
0.3983935
50
178.438168
51
180.0083905
0
ARC
8
DEFAULT_255_1_234
10
16.5037882
20
0.1775231
40
0.4068601
50
163.2878735
51
180.5581814
0
ARC
8
DEFAULT_255_1_234
10
16.4236143
20
0.199584
40
0.3237344
50
133.454115
51
162.9470031
0
ARC
8
DEFAULT_255_1_234
10
16.4414685
20
0.1806
40
0.349795
50
100.7869394
51
133.4384016
0
ARC
8
DEFAULT_255_1_234
10
16.4762456
20
0.0257319
40
0.5084616
50
89.6605301
51
101.3704185
0
ARC
8
DEFAULT_255_1_234
10
16.4828795
20
0.0318496
40
0.502348
50
78.2171172
51
90.4130393
0
ARC
8
DEFAULT_255_1_234
10
16.5183873
20
0.1942637
40
0.3361092
50
55.9268222
51
78.4888551
0
ARC
8
DEFAULT_255_1_234
10
16.5380313
20
0.2281324
40
0.2970617
50
47.9292255
51
55.4054003
0
ARC
8
DEFAULT_255_1_234
10
16.5481874
20
0.2384502
40
0.2825983
50
4.3347696
51
48.0560701
0
ARC
8
DEFAULT_255_1_234
10
16.4386268
20
0.2214601
40
0.393225
50
359.925209
51
5.5967654
0
ARC
8
DEFAULT_255_1_234
10
16.4815159
20
0.2270816
40
0.3503892
50
337.8914096
51
358.9967724
0
ARC
8
DEFAULT_255_1_234
10
16.2101572
20
0.3317706
40
0.6412172
50
326.9135351
51
338.3505194
0
ARC
8
DEFAULT_255_1_234
10
15.8115875
20
0.5872284
40
1.1146189
50
319.6472867
51
327.095818
0
ARC
8
DEFAULT_255_1_234
10
15.4282878
20
0.9034
40
1.6114559
50
317.2586784
51
319.9046139
0
LINE
8
DEFAULT_255_1_234
10
17.7763839
20
0.0402327
11
17.7763839
21
-0.1525291
0
LINE
8
DEFAULT_255_1_234
10
17.0382671
20
-0.1726084
11
17.0382671
21
0.0257755
0
LINE
8
DEFAULT_255_1_234
10
17.6277967
20
-0.1926877
11
17.6277967
21
0.0506739
0
LINE
8
DEFAULT_255_1_234
10
17.1868543
20
0.0619184
11
17.1868543
21
-0.1758211
0
ARC
8
DEFAULT_255_1_234
10
16.5516728
20
-0.1574195
40
1.2247208
50
353.8441951
51
0.2287902
0
ARC
8
DEFAULT_255_1_234
10
17.0156232
20
-0.2092194
40
0.7578929
50
344.4934747
51
353.9765454
0
ARC
8
DEFAULT_255_1_234
10
17.3148822
20
-0.2943019
40
0.4467846
50
329.2803592
51
344.7472793
0
ARC
8
DEFAULT_255_1_234
10
17.4141647
20
-0.3487982
40
0.3336173
50
324.9352394
51
328.6160465
0
ARC
8
DEFAULT_255_1_234
10
17.4518756
20
-0.3751573
40
0.2876076
50
280.580143
51
324.9173126
0
ARC
8
DEFAULT_255_1_234
10
17.4117548
20
-0.2080901
40
0.4592847
50
269.5977311
51
281.6734359
0
ARC
8
DEFAULT_255_1_234
10
17.4045454
20
-0.2200827
40
0.4472986
50
256.6228859
51
270.51044
0
ARC
8
DEFAULT_255_1_234
10
17.3643432
20
-0.3749123
40
0.2873874
50
215.8618325
51
257.2788573
0
ARC
8
DEFAULT_255_1_234
10
17.4664463
20
-0.3064023
40
0.4102928
50
197.9693508
51
215.2623606
0
ARC
8
DEFAULT_255_1_234
10
17.7149579
20
-0.2225291
40
0.6725652
50
187.8816417
51
198.2346507
0
ARC
8
DEFAULT_255_1_234
10
18.1107787
20
-0.1653921
40
1.0724845
50
180.8976217
51
188.0055519
0
ARC
8
DEFAULT_255_1_234
10
18.3907976
20
-0.1550223
40
1.3526448
50
180.7449369
51
181.1510016
0
ARC
8
DEFAULT_255_1_234
10
18.2330705
20
0.0306042
40
1.1948131
50
173.7675579
51
180.231553
0
ARC
8
DEFAULT_255_1_234
10
17.7812851
20
0.0816666
40
0.7401564
50
164.3058563
51
173.9002247
0
ARC
8
DEFAULT_255_1_234
10
17.490092
20
0.1655656
40
0.4371288
50
148.7922025
51
164.568378
0
ARC
8
DEFAULT_255_1_234
10
17.3949372
20
0.2186929
40
0.3282386
50
144.5883898
51
148.1176286
0
ARC
8
DEFAULT_255_1_234
10
17.360627
20
0.2426315
40
0.2864044
50
101.6440918
51
144.514236
0
ARC
8
DEFAULT_255_1_234
10
17.4031337
20
0.0737069
40
0.4604934
50
89.5284041
51
102.5819763
0
ARC
8
DEFAULT_255_1_234
10
17.4110425
20
0.0698018
40
0.464401
50
77.0437873
51
90.5081339
0
ARC
8
DEFAULT_255_1_234
10
17.4512426
20
0.2340615
40
0.2953195
50
48.2778575
51
77.4994676
0
ARC
8
DEFAULT_255_1_234
10
17.4585058
20
0.2469746
40
0.2808655
50
36.3142134
51
47.6305865
0
ARC
8
DEFAULT_255_1_234
10
17.3716365
20
0.1884515
40
0.3855453
50
18.2931786
51
35.6769206
0
ARC
8
DEFAULT_255_1_234
10
17.1173123
20
0.1011593
40
0.654423
50
8.024666
51
18.5605216
0
ARC
8
DEFAULT_255_1_234
10
16.7010043
20
0.0396792
40
1.0752407
50
1.1274072
51
8.1718305
0
ARC
8
DEFAULT_255_1_234
10
16.3774234
20
0.0269885
40
1.3990231
50
0.5424119
51
1.3863029
0
ARC
8
DEFAULT_255_1_234
10
16.5595612
20
0.0542342
40
1.0682415
50
359.8090433
51
4.9407866
0
ARC
8
DEFAULT_255_1_234
10
16.9805626
20
0.0918113
40
0.6455691
50
4.8362157
51
12.2904523
0
ARC
8
DEFAULT_255_1_234
10
17.2560741
20
0.1531965
40
0.3633074
50
12.0805627
51
23.8173984
0
ARC
8
DEFAULT_255_1_234
10
17.3734446
20
0.2028919
40
0.2358723
50
24.2871213
51
31.3935614
0
ARC
8
DEFAULT_255_1_234
10
17.4259143
20
0.2372233
40
0.1732111
50
30.7407893
51
82.4657128
0
ARC
8
DEFAULT_255_1_234
10
17.4079278
20
0.1488691
40
0.263235
50
81.1060089
51
90.2184952
0
ARC
8
DEFAULT_255_1_234
10
17.4043576
20
0.1746924
40
0.2374236
50
89.3806855
51
105.6762551
0
ARC
8
DEFAULT_255_1_234
10
17.3860207
20
0.2413567
40
0.1682847
50
105.7981136
51
149.7388061
0
ARC
8
DEFAULT_255_1_234
10
17.4924285
20
0.177395
40
0.2924306
50
149.4208916
51
163.6286378
0
ARC
8
DEFAULT_255_1_234
10
17.7015173
20
0.113625
40
0.5110213
50
163.3763315
51
172.1410975
0
ARC
8
DEFAULT_255_1_234
10
18.0315892
20
0.0663518
40
0.8444586
50
172.0259487
51
178.0703232
0
ARC
8
DEFAULT_255_1_234
10
18.3345982
20
0.0519906
40
1.1477868
50
177.8631668
51
179.5044149
0
ARC
8
DEFAULT_255_1_234
10
18.2273386
20
-0.1794611
40
1.0404907
50
179.7995573
51
185.2460446
0
ARC
8
DEFAULT_255_1_234
10
17.8230426
20
-0.2177487
40
0.6343885
50
185.1411642
51
193.0079639
0
ARC
8
DEFAULT_255_1_234
10
17.5586898
20
-0.2802359
40
0.3627568
50
192.7897626
51
205.2507664
0
ARC
8
DEFAULT_255_1_234
10
17.4540445
20
-0.3269585
40
0.2481908
50
205.8005384
51
211.2537509
0
ARC
8
DEFAULT_255_1_234
10
17.4016886
20
-0.362042
40
0.1852521
50
210.3789793
51
238.4008143
0
ARC
8
DEFAULT_255_1_234
10
17.3997408
20
-0.3573624
40
0.1882621
50
239.6520629
51
265.9793761
0
ARC
8
DEFAULT_255_1_234
10
17.4082608
20
-0.2901573
40
0.2559272
50
265.1315437
51
270.060332
0
ARC
8
DEFAULT_255_1_234
10
17.4111387
20
-0.3225466
40
0.2235528
50
269.3314664
51
287.2178029
0
ARC
8
DEFAULT_255_1_234
10
17.4249239
20
-0.3728721
40
0.1714108
50
287.7958004
51
329.080874
0
ARC
8
DEFAULT_255_1_234
10
17.3291695
20
-0.313107
40
0.2842745
50
328.6634704
51
343.3325132
0
ARC
8
DEFAULT_255_1_234
10
17.1118715
20
-0.2454137
40
0.5118644
50
343.0499468
51
351.9393422
0
ARC
8
DEFAULT_255_1_234
10
16.7652015
20
-0.1943051
40
0.8622784
50
351.8069023
51
357.7959224
0
ARC
8
DEFAULT_255_1_234
10
16.4416571
20
-0.1775279
40
1.1862365
50
357.5871873
51
359.2677531
0
LINE
8
DEFAULT_255_1_234
10
18.2912183
20
-0.0938974
11
18.2912183
21
-0.2151766
0
LINE
8
DEFAULT_255_1_234
10
18.2912183
20
-0.2151766
11
17.8992695
21
-0.2151766
0
LINE
8
DEFAULT_255_1_234
10
17.8992695
20
-0.2151766
11
17.8992695
21
-0.0938974
0
LINE
8
DEFAULT_255_1_234
10
17.8992695
20
-0.0938974
11
18.2912183
21
-0.0938974
0
LINE
8
DEFAULT_255_1_234
10
19.153827
20
0.0402327
11
19.153827
21
-0.1525291
0
LINE
8
DEFAULT_255_1_234
10
18.4157103
20
-0.1726084
11
18.4157103
21
0.0257755
0
LINE
8
DEFAULT_255_1_234
10
19.0052398
20
-0.1926877
11
19.0052398
21
0.0506739
0
LINE
8
DEFAULT_255_1_234
10
18.5642974
20
0.0619184
11
18.5642974
21
-0.1758211
0
ARC
8
DEFAULT_255_1_234
10
17.929116
20
-0.1574195
40
1.2247208
50
353.8441951
51
0.2287902
0
ARC
8
DEFAULT_255_1_234
10
18.3930663
20
-0.2092194
40
0.7578929
50
344.4934747
51
353.9765454
0
ARC
8
DEFAULT_255_1_234
10
18.6923253
20
-0.2943019
40
0.4467846
50
329.2803592
51
344.7472793
0
ARC
8
DEFAULT_255_1_234
10
18.7916078
20
-0.3487982
40
0.3336173
50
324.9352394
51
328.6160465
0
ARC
8
DEFAULT_255_1_234
10
18.8293187
20
-0.3751573
40
0.2876076
50
280.580143
51
324.9173126
0
ARC
8
DEFAULT_255_1_234
10
18.789198
20
-0.2080901
40
0.4592847
50
269.5977311
51
281.6734359
0
ARC
8
DEFAULT_255_1_234
10
18.7819885
20
-0.2200827
40
0.4472986
50
256.6228859
51
270.51044
0
ARC
8
DEFAULT_255_1_234
10
18.7417863
20
-0.3749123
40
0.2873874
50
215.8618325
51
257.2788573
0
ARC
8
DEFAULT_255_1_234
10
18.8438895
20
-0.3064023
40
0.4102928
50
197.9693508
51
215.2623606
0
ARC
8
DEFAULT_255_1_234
10
19.092401
20
-0.2225291
40
0.6725652
50
187.8816417
51
198.2346507
0
ARC
8
DEFAULT_255_1_234
10
19.4882219
20
-0.1653921
40
1.0724845
50
180.8976217
51
188.0055519
0
ARC
8
DEFAULT_255_1_234
10
19.7682407
20
-0.1550223
40
1.3526448
50
180.7449369
51
181.1510016
0
ARC
8
DEFAULT_255_1_234
10
19.6105136
20
0.0306042
40
1.1948131
50
173.7675579
51
180.231553
0
ARC
8
DEFAULT_255_1_234
10
19.1587282
20
0.0816666
40
0.7401564
50
164.3058563
51
173.9002247
0
ARC
8
DEFAULT_255_1_234
10
18.8675351
20
0.1655656
40
0.4371288
50
148.7922025
51
164.568378
0
ARC
8
DEFAULT_255_1_234
10
18.7723803
20
0.2186929
40
0.3282386
50
144.5883898
51
148.1176286
0
ARC
8
DEFAULT_255_1_234
10
18.7380701
20
0.2426315
40
0.2864044
50
101.6440918
51
144.514236
0
ARC
8
DEFAULT_255_1_234
10
18.7805768
20
0.0737069
40
0.4604934
50
89.5284041
51
102.5819763
0
ARC
8
DEFAULT_255_1_234
10
18.7884856
20
0.0698018
40
0.464401
50
77.0437873
51
90.5081339
0
ARC
8
DEFAULT_255_1_234
10
18.8286857
20
0.2340615
40
0.2953195
50
48.2778575
51
77.4994676
0
ARC
8
DEFAULT_255_1_234
10
18.8359489
20
0.2469746
40
0.2808655
50
36.3142134
51
47.6305865
0
ARC
8
DEFAULT_255_1_234
10
18.7490796
20
0.1884515
40
0.3855453
50
18.2931786
51
35.6769206
0
ARC
8
DEFAULT_255_1_234
10
18.4947555
20
0.1011593
40
0.654423
50
8.024666
51
18.5605216
0
ARC
8
DEFAULT_255_1_234
10
18.0784475
20
0.0396792
40
1.0752407
50
1.1274072
51
8.1718305
0
ARC
8
DEFAULT_255_1_234
10
17.7548665
20
0.0269885
40
1.3990231
50
0.5424119
51
1.3863029
0
ARC
8
DEFAULT_255_1_234
10
17.9370043
20
0.0542342
40
1.0682415
50
359.8090433
51
4.9407866
0
ARC
8
DEFAULT_255_1_234
10
18.3580057
20
0.0918113
40
0.6455691
50
4.8362157
51
12.2904523
0
ARC
8
DEFAULT_255_1_234
10
18.6335172
20
0.1531965
40
0.3633074
50
12.0805627
51
23.8173984
0
ARC
8
DEFAULT_255_1_234
10
18.7508877
20
0.2028919
40
0.2358723
50
24.2871213
51
31.3935614
0
ARC
8
DEFAULT_255_1_234
10
18.8033574
20
0.2372233
40
0.1732111
50
30.7407893
51
82.4657128
0
ARC
8
DEFAULT_255_1_234
10
18.7853709
20
0.1488691
40
0.263235
50
81.1060089
51
90.2184952
0
ARC
8
DEFAULT_255_1_234
10
18.7818008
20
0.1746924
40
0.2374236
50
89.3806855
51
105.6762551
0
ARC
8
DEFAULT_255_1_234
10
18.7634638
20
0.2413567
40
0.1682847
50
105.7981136
51
149.7388061
0
ARC
8
DEFAULT_255_1_234
10
18.8698717
20
0.177395
40
0.2924306
50
149.4208916
51
163.6286378
0
ARC
8
DEFAULT_255_1_234
10
19.0789605
20
0.113625
40
0.5110213
50
163.3763315
51
172.1410975
0
ARC
8
DEFAULT_255_1_234
10
19.4090324
20
0.0663518
40
0.8444586
50
172.0259487
51
178.0703232
0
ARC
8
DEFAULT_255_1_234
10
19.7120413
20
0.0519906
40
1.1477868
50
177.8631668
51
179.5044149
0
ARC
8
DEFAULT_255_1_234
10
19.6047817
20
-0.1794611
40
1.0404907
50
179.7995573
51
185.2460446
0
ARC
8
DEFAULT_255_1_234
10
19.2004857
20
-0.2177487
40
0.6343885
50
185.1411642
51
193.0079639
0
ARC
8
DEFAULT_255_1_234
10
18.9361329
20
-0.2802359
40
0.3627568
50
192.7897626
51
205.2507664
0
ARC
8
DEFAULT_255_1_234
10
18.8314876
20
-0.3269585
40
0.2481908
50
205.8005384
51
211.2537509
0
ARC
8
DEFAULT_255_1_234
10
18.7791317
20
-0.362042
40
0.1852521
50
210.3789793
51
238.4008143
0
ARC
8
DEFAULT_255_1_234
10
18.7771839
20
-0.3573624
40
0.1882621
50
239.6520629
51
265.9793761
0
ARC
8
DEFAULT_255_1_234
10
18.7857039
20
-0.2901573
40
0.2559272
50
265.1315437
51
270.060332
0
ARC
8
DEFAULT_255_1_234
10
18.7885818
20
-0.3225466
40
0.2235528
50
269.3314664
51
287.2178029
0
ARC
8
DEFAULT_255_1_234
10
18.802367
20
-0.3728721
40
0.1714108
50
287.7958004
51
329.080874
0
ARC
8
DEFAULT_255_1_234
10
18.7066126
20
-0.313107
40
0.2842745
50
328.6634704
51
343.3325132
0
ARC
8
DEFAULT_255_1_234
10
18.4893146
20
-0.2454137
40
0.5118644
50
343.0499468
51
351.9393422
0
ARC
8
DEFAULT_255_1_234
10
18.1426446
20
-0.1943051
40
0.8622784
50
351.8069023
51
357.7959224
0
ARC
8
DEFAULT_255_1_234
10
17.8191002
20
-0.1775279
40
1.1862365
50
357.5871873
51
359.2677531
0
LINE
8
DEFAULT_255_1_234
10
20.0879182
20
-0.2802337
11
20.2429307
21
-0.2802337
0
LINE
8
DEFAULT_255_1_234
10
19.3425729
20
-0.1212053
11
19.3425729
21
-0.0087609
0
LINE
8
DEFAULT_255_1_234
10
20.2429307
20
0.1422357
11
20.0879182
21
0.1422357
0
LINE
8
DEFAULT_255_1_234
10
19.4975854
20
-0.0127768
11
19.4975854
21
-0.1260243
0
ARC
8
DEFAULT_255_1_234
10
19.6948694
20
-0.2205154
40
0.5513052
50
340.1774281
51
353.7814284
0
ARC
8
DEFAULT_255_1_234
10
19.8520046
20
-0.2790418
40
0.3836379
50
311.4558989
51
340.4421614
0
ARC
8
DEFAULT_255_1_234
10
19.8486715
20
-0.2679472
40
0.3941894
50
282.4333181
51
310.7513653
0
ARC
8
DEFAULT_255_1_234
10
19.8047454
20
-0.0864321
40
0.5809175
50
269.9358511
51
282.809604
0
ARC
8
DEFAULT_255_1_234
10
19.799552
20
0.0593212
40
0.7266847
50
270.0021091
51
270.3581957
0
ARC
8
DEFAULT_255_1_234
10
19.7942937
20
-0.2007415
40
0.4666519
50
250.7884749
51
270.6489167
0
ARC
8
DEFAULT_255_1_234
10
19.7774771
20
-0.2644681
40
0.4009729
50
219.3627325
51
250.0611886
0
ARC
8
DEFAULT_255_1_234
10
19.8603983
20
-0.1939958
40
0.5097822
50
193.5479632
51
219.5756669
0
ARC
8
DEFAULT_255_1_234
10
20.0975603
20
-0.1324081
40
0.7547848
50
181.1218675
51
193.87563
0
ARC
8
DEFAULT_255_1_234
10
20.3045784
20
-0.121342
40
0.9620055
50
179.9918545
51
181.5394234
0
ARC
8
DEFAULT_255_1_234
10
20.1194886
20
-0.0050212
40
0.7769248
50
169.5837241
51
180.2757934
0
ARC
8
DEFAULT_255_1_234
10
19.9357825
20
0.0289229
40
0.590109
50
155.0365899
51
169.6003176
0
ARC
8
DEFAULT_255_1_234
10
19.8222289
20
0.0836677
40
0.4640625
50
136.783148
51
155.2472683
0
ARC
8
DEFAULT_255_1_234
10
19.7832765
20
0.1167562
40
0.4130255
50
121.7633186
51
136.428115
0
ARC
8
DEFAULT_255_1_234
10
19.7967728
20
0.0918227
40
0.4413323
50
95.6459699
51
121.5490577
0
ARC
8
DEFAULT_255_1_234
10
19.8125009
20
-0.0190051
40
0.55319
50
89.924208
51
96.1377933
0
ARC
8
DEFAULT_255_1_234
10
19.8175442
20
-0.0071458
40
0.5413475
50
76.6779277
51
90.4563316
0
ARC
8
DEFAULT_255_1_234
10
19.8569066
20
0.1519114
40
0.3775041
50
47.485847
51
76.9287264
0
ARC
8
DEFAULT_255_1_234
10
19.8422038
20
0.1419159
40
0.3948286
50
16.5424086
51
46.8933463
0
ARC
8
DEFAULT_255_1_234
10
19.6814195
20
0.0890861
40
0.564021
50
5.4072051
51
17.0365086
0
ARC
8
DEFAULT_255_1_234
10
19.5375213
20
0.0659679
40
0.5556559
50
7.8891745
51
15.9239216
0
ARC
8
DEFAULT_255_1_234
10
19.7362226
20
0.1236631
40
0.3487515
50
15.7653144
51
27.9410532
0
ARC
8
DEFAULT_255_1_234
10
19.8466444
20
0.182779
40
0.2235026
50
27.8166557
51
46.4008329
0
ARC
8
DEFAULT_255_1_234
10
19.8516087
20
0.1822082
40
0.2205286
50
47.4371857
51
75.0698205
0
ARC
8
DEFAULT_255_1_234
10
19.8207481
20
0.0747765
40
0.3322915
50
74.7008593
51
87.8124495
0
ARC
8
DEFAULT_255_1_234
10
19.8134169
20
-0.0308156
40
0.4380987
50
87.3814673
51
90.0240855
0
ARC
8
DEFAULT_255_1_234
10
19.8095712
20
0.0869291
40
0.3203749
50
89.3451631
51
108.5745436
0
ARC
8
DEFAULT_255_1_234
10
19.7958817
20
0.1382908
40
0.2673494
50
109.2998449
51
143.3037509
0
ARC
8
DEFAULT_255_1_234
10
19.872089
20
0.0796881
40
0.3634757
50
143.0753173
51
163.1916937
0
ARC
8
DEFAULT_255_1_234
10
20.0672617
20
0.0180967
40
0.5681262
50
162.9373603
51
174.6208611
0
ARC
8
DEFAULT_255_1_234
10
20.329866
20
-0.010699
40
0.8322832
50
174.3419979
51
180.1430411
0
ARC
8
DEFAULT_255_1_234
10
20.2367816
20
-0.1301302
40
0.7392076
50
179.6817502
51
189.150529
0
ARC
8
DEFAULT_255_1_234
10
19.9867064
20
-0.171781
40
0.4856932
50
188.9910863
51
203.5773039
0
ARC
8
DEFAULT_255_1_234
10
19.8787397
20
-0.2165789
40
0.3688271
50
203.9077269
51
215.1312379
0
ARC
8
DEFAULT_255_1_234
10
19.786449
20
-0.2881059
40
0.2522457
50
213.9071664
51
263.8849284
0
ARC
8
DEFAULT_255_1_234
10
19.798982
20
-0.2096482
40
0.3316174
50
263.1758525
51
270.1031083
0
ARC
8
DEFAULT_255_1_234
10
19.8021911
20
-0.0849635
40
0.4563091
50
269.6719807
51
279.0609165
0
ARC
8
DEFAULT_255_1_234
10
19.8288679
20
-0.2462093
40
0.2928759
50
278.8750225
51
293.6346586
0
ARC
8
DEFAULT_255_1_234
10
19.8608888
20
-0.32141
40
0.2111472
50
293.8553404
51
310.0518804
0
ARC
8
DEFAULT_255_1_234
10
19.8613741
20
-0.3276484
40
0.2060917
50
311.0646779
51
332.0108348
0
ARC
8
DEFAULT_255_1_234
10
19.7421468
20
-0.2619022
40
0.3422352
50
331.6588543
51
343.2878891
0
ARC
8
DEFAULT_255_1_234
10
19.5358983
20
-0.1985202
40
0.5580003
50
343.1446044
51
351.010618
0
ARC
8
DEFAULT_255_1_234
10
19.381763
20
-0.1704129
40
0.7146438
50
350.7157277
51
351.1602153
0
LINE
8
DEFAULT_255_1_234
10
21.2107552
20
-0.6513
11
21.099114
21
-0.3460939
0
LINE
8
DEFAULT_255_1_234
10
21.099114
20
-0.3460939
11
20.609178
21
-0.3460939
0
LINE
8
DEFAULT_255_1_234
10
20.609178
20
-0.3460939
11
20.4991432
21
-0.6513
0
LINE
8
DEFAULT_255_1_234
10
20.4991432
20
-0.6513
11
20.3401147
21
-0.6513
0
LINE
8
DEFAULT_255_1_234
10
20.3401147
20
-0.6513
11
20.7866794
21
0.5181211
0
LINE
8
DEFAULT_255_1_234
10
20.7866794
20
0.5181211
11
20.9216126
21
0.5181211
0
LINE
8
DEFAULT_255_1_234
10
20.9216126
20
0.5181211
11
21.3689804
21
-0.6513
0
LINE
8
DEFAULT_255_1_234
10
21.3689804
20
-0.6513
11
21.2107552
21
-0.6513
0
LINE
8
DEFAULT_255_1_234
10
20.854146
20
0.3277689
11
20.6557621
21
-0.2191925
0
LINE
8
DEFAULT_255_1_234
10
20.6557621
20
-0.2191925
11
21.0533331
21
-0.2191925
0
LINE
8
DEFAULT_255_1_234
10
21.0533331
20
-0.2191925
11
20.854146
21
0.3277689
0
LINE
8
DEFAULT_255_1_234
10
22.2211479
20
0.0402327
11
22.2211479
21
-0.1525291
0
LINE
8
DEFAULT_255_1_234
10
21.4830311
20
-0.1726084
11
21.4830311
21
0.0257755
0
LINE
8
DEFAULT_255_1_234
10
22.0725607
20
-0.1926877
11
22.0725607
21
0.0506739
0
LINE
8
DEFAULT_255_1_234
10
21.6316183
20
0.0619184
11
21.6316183
21
-0.1758211
0
ARC
8
DEFAULT_255_1_234
10
20.9964368
20
-0.1574195
40
1.2247208
50
353.8441951
51
0.2287902
0
ARC
8
DEFAULT_255_1_234
10
21.4603872
20
-0.2092194
40
0.7578929
50
344.4934747
51
353.9765454
0
ARC
8
DEFAULT_255_1_234
10
21.7596462
20
-0.2943019
40
0.4467846
50
329.2803592
51
344.7472793
0
ARC
8
DEFAULT_255_1_234
10
21.8589287
20
-0.3487982
40
0.3336173
50
324.9352394
51
328.6160465
0
ARC
8
DEFAULT_255_1_234
10
21.8966396
20
-0.3751573
40
0.2876076
50
280.580143
51
324.9173126
0
ARC
8
DEFAULT_255_1_234
10
21.8565188
20
-0.2080901
40
0.4592847
50
269.5977311
51
281.6734359
0
ARC
8
DEFAULT_255_1_234
10
21.8493094
20
-0.2200827
40
0.4472986
50
256.6228859
51
270.51044
0
ARC
8
DEFAULT_255_1_234
10
21.8091072
20
-0.3749123
40
0.2873874
50
215.8618325
51
257.2788573
0
ARC
8
DEFAULT_255_1_234
10
21.9112103
20
-0.3064023
40
0.4102928
50
197.9693508
51
215.2623606
0
ARC
8
DEFAULT_255_1_234
10
22.1597219
20
-0.2225291
40
0.6725652
50
187.8816417
51
198.2346507
0
ARC
8
DEFAULT_255_1_234
10
22.5555427
20
-0.1653921
40
1.0724845
50
180.8976217
51
188.0055519
0
ARC
8
DEFAULT_255_1_234
10
22.8355615
20
-0.1550223
40
1.3526448
50
180.7449369
51
181.1510016
0
ARC
8
DEFAULT_255_1_234
10
22.6778344
20
0.0306042
40
1.1948131
50
173.7675579
51
180.231553
0
ARC
8
DEFAULT_255_1_234
10
22.2260491
20
0.0816666
40
0.7401564
50
164.3058563
51
173.9002247
0
ARC
8
DEFAULT_255_1_234
10
21.934856
20
0.1655656
40
0.4371288
50
148.7922025
51
164.568378
0
ARC
8
DEFAULT_255_1_234
10
21.8397012
20
0.2186929
40
0.3282386
50
144.5883898
51
148.1176286
0
ARC
8
DEFAULT_255_1_234
10
21.805391
20
0.2426315
40
0.2864044
50
101.6440918
51
144.514236
0
ARC
8
DEFAULT_255_1_234
10
21.8478977
20
0.0737069
40
0.4604934
50
89.5284041
51
102.5819763
0
ARC
8
DEFAULT_255_1_234
10
21.8558064
20
0.0698018
40
0.464401
50
77.0437873
51
90.5081339
0
ARC
8
DEFAULT_255_1_234
10
21.8960066
20
0.2340615
40
0.2953195
50
48.2778575
51
77.4994676
0
ARC
8
DEFAULT_255_1_234
10
21.9032697
20
0.2469746
40
0.2808655
50
36.3142134
51
47.6305865
0
ARC
8
DEFAULT_255_1_234
10
21.8164004
20
0.1884515
40
0.3855453
50
18.2931786
51
35.6769206
0
ARC
8
DEFAULT_255_1_234
10
21.5620763
20
0.1011593
40
0.654423
50
8.024666
51
18.5605216
0
ARC
8
DEFAULT_255_1_234
10
21.1457683
20
0.0396792
40
1.0752407
50
1.1274072
51
8.1718305
0
ARC
8
DEFAULT_255_1_234
10
20.8221874
20
0.0269885
40
1.3990231
50
0.5424119
51
1.3863029
0
ARC
8
DEFAULT_255_1_234
10
21.0043252
20
0.0542342
40
1.0682415
50
359.8090433
51
4.9407866
0
ARC
8
DEFAULT_255_1_234
10
21.4253266
20
0.0918113
40
0.6455691
50
4.8362157
51
12.2904523
0
ARC
8
DEFAULT_255_1_234
10
21.700838
20
0.1531965
40
0.3633074
50
12.0805627
51
23.8173984
0
ARC
8
DEFAULT_255_1_234
10
21.8182086
20
0.2028919
40
0.2358723
50
24.2871213
51
31.3935614
0
ARC
8
DEFAULT_255_1_234
10
21.8706783
20
0.2372233
40
0.1732111
50
30.7407893
51
82.4657128
0
ARC
8
DEFAULT_255_1_234
10
21.8526917
20
0.1488691
40
0.263235
50
81.1060089
51
90.2184952
0
ARC
8
DEFAULT_255_1_234
10
21.8491216
20
0.1746924
40
0.2374236
50
89.3806855
51
105.6762551
0
ARC
8
DEFAULT_255_1_234
10
21.8307847
20
0.2413567
40
0.1682847
50
105.7981136
51
149.7388061
0
ARC
8
DEFAULT_255_1_234
10
21.9371925
20
0.177395
40
0.2924306
50
149.4208916
51
163.6286378
0
ARC
8
DEFAULT_255_1_234
10
22.1462813
20
0.113625
40
0.5110213
50
163.3763315
51
172.1410975
0
ARC
8
DEFAULT_255_1_234
10
22.4763532
20
0.0663518
40
0.8444586
50
172.0259487
51
178.0703232
0
ARC
8
DEFAULT_255_1_234
10
22.7793622
20
0.0519906
40
1.1477868
50
177.8631668
51
179.5044149
0
ARC
8
DEFAULT_255_1_234
10
22.6721026
20
-0.1794611
40
1.0404907
50
179.7995573
51
185.2460446
0
ARC
8
DEFAULT_255_1_234
10
22.2678065
20
-0.2177487
40
0.6343885
50
185.1411642
51
193.0079639
0
ARC
8
DEFAULT_255_1_234
10
22.0034538
20
-0.2802359
40
0.3627568
50
192.7897626
51
205.2507664
0
ARC
8
DEFAULT_255_1_234
10
21.8988085
20
-0.3269585
40
0.2481908
50
205.8005384
51
211.2537509
0
ARC
8
DEFAULT_255_1_234
10
21.8464525
20
-0.362042
40
0.1852521
50
210.3789793
51
238.4008143
0
ARC
8
DEFAULT_255_1_234
10
21.8445047
20
-0.3573624
40
0.1882621
50
239.6520629
51
265.9793761
0
ARC
8
DEFAULT_255_1_234
10
21.8530247
20
-0.2901573
40
0.2559272
50
265.1315437
51
270.060332
0
ARC
8
DEFAULT_255_1_234
10
21.8559026
20
-0.3225466
40
0.2235528
50
269.3314664
51
287.2178029
0
ARC
8
DEFAULT_255_1_234
10
21.8696878
20
-0.3728721
40
0.1714108
50
287.7958004
51
329.080874
0
ARC
8
DEFAULT_255_1_234
10
21.7739335
20
-0.313107
40
0.2842745
50
328.6634704
51
343.3325132
0
ARC
8
DEFAULT_255_1_234
10
21.5566355
20
-0.2454137
40
0.5118644
50
343.0499468
51
351.9393422
0
ARC
8
DEFAULT_255_1_234
10
21.2099655
20
-0.1943051
40
0.8622784
50
351.8069023
51
357.7959224
0
ARC
8
DEFAULT_255_1_234
10
20.8864211
20
-0.1775279
40
1.1862365
50
357.5871873
51
359.2677531
0
ARC
8
DEFAULT_255_2_778
10
7.7537338
20
115.8387992
40
3.0484709
50
251.6854144
51
258.6071955
0
ARC
8
DEFAULT_255_2_778
10
7.539521
20
114.7571738
40
1.9458471
50
258.4992492
51
268.3986479
0
ARC
8
DEFAULT_255_2_778
10
7.5172314
20
114.3269206
40
1.5151737
50
268.7865272
51
269.9950384
0
ARC
8
DEFAULT_255_2_778
10
7.5277432
20
113.8757355
40
1.0640417
50
269.426895
51
279.6711067
0
ARC
8
DEFAULT_255_2_778
10
7.6417753
20
113.2461746
40
0.4243233
50
278.7731084
51
300.3324923
0
ARC
8
DEFAULT_255_2_778
10
7.760746
20
113.0435552
40
0.1893587
50
300.2240287
51
1.9041213
0
ARC
8
DEFAULT_255_2_778
10
7.7452705
20
113.0527089
40
0.2047497
50
359.1991369
51
359.99965
0
ARC
8
DEFAULT_255_2_778
10
7.7523233
20
113.0535378
40
0.1976988
50
359.7594145
51
47.1793976
0
ARC
8
DEFAULT_255_2_778
10
7.6187277
20
112.904931
40
0.3975169
50
47.6144502
51
60.8366176
0
ARC
8
DEFAULT_255_2_778
10
7.0190958
20
111.8889865
40
1.5771337
50
59.799464
51
64.8885807
0
ARC
8
DEFAULT_255_2_778
10
6.0948833
20
109.9599682
40
3.7160912
50
64.6076081
51
66.8386974
0
ARC
8
DEFAULT_255_2_778
10
9.6419609
20
118.3230052
40
5.368109
50
244.3032309
51
247.1393781
0
ARC
8
DEFAULT_255_2_778
10
8.5507088
20
116.063018
40
2.8584574
50
240.2323579
51
244.3709759
0
ARC
8
DEFAULT_255_2_778
10
7.7800475
20
114.7261591
40
1.315392
50
233.2209971
51
240.4606284
0
ARC
8
DEFAULT_255_2_778
10
7.3561477
20
114.1550187
40
0.6041399
50
225.6990744
51
232.9899679
0
ARC
8
DEFAULT_255_2_778
10
7.3965073
20
114.1794214
40
0.6499005
50
178.2783416
51
224.6550883
0
ARC
8
DEFAULT_255_2_778
10
7.5059624
20
114.2127974
40
0.7591885
50
157.033673
51
181.0453383
0
ARC
8
DEFAULT_255_2_778
10
7.378439
20
114.2536396
40
0.6259551
50
124.9113017
51
155.9211516
0
ARC
8
DEFAULT_255_2_778
10
7.5960466
20
113.9450681
40
1.0035357
50
100.4079723
51
125.0168617
0
ARC
8
DEFAULT_255_2_778
10
7.6991199
20
113.4510046
40
1.5081396
50
89.6483922
51
100.8684975
0
ARC
8
DEFAULT_255_2_778
10
7.7083242
20
113.0987988
40
1.8603169
50
89.5079487
51
89.9984402
0
ARC
8
DEFAULT_255_2_778
10
7.7099573
20
113.0335694
40
1.9255311
50
83.9170631
51
89.5732113
0
ARC
8
DEFAULT_255_2_778
10
7.5071517
20
111.0259957
40
3.9433074
50
80.7325723
51
84.0779772
0
ARC
8
DEFAULT_255_2_778
10
7.0208457
20
108.003082
40
7.0050837
50
78.5086351
51
80.7886813
0
ARC
8
DEFAULT_255_2_778
10
7.6620177
20
112.6025544
40
1.9415426
50
67.135818
51
78.0934208
0
ARC
8
DEFAULT_255_2_778
10
7.7851814
20
113.1729809
40
1.3579807
50
78.2126325
51
89.7333975
0
ARC
8
DEFAULT_255_2_778
10
7.7793853
20
113.5881211
40
0.9429038
50
89.2638155
51
100.5666868
0
ARC
8
DEFAULT_255_2_778
10
7.6660949
20
114.1579419
40
0.362036
50
99.4784875
51
124.329414
0
ARC
8
DEFAULT_255_2_778
10
7.5705593
20
114.306051
40
0.1859067
50
125.7571195
51
182.2824883
0
ARC
8
DEFAULT_255_2_778
10
7.5493239
20
114.2993629
40
0.1645253
50
180.2492993
51
239.8144161
0
ARC
8
DEFAULT_255_2_778
10
7.932718
20
114.8994128
40
0.876484
50
237.8725734
51
242.8068846
0
ARC
8
DEFAULT_255_2_778
10
9.4175857
20
117.7159958
40
4.0604642
50
242.3328458
51
244.031083
0
ARC
8
DEFAULT_255_2_778
10
12.3804066
20
123.7644314
40
10.7955807
50
243.950624
51
244.8024316
0
ARC
8
DEFAULT_255_2_778
10
15.4009918
20
130.1484175
40
17.8580926
50
244.7535425
51
244.9563234
0
ARC
8
DEFAULT_255_2_778
10
5.8652927
20
109.6468264
40
4.7527588
50
62.2505456
51
65.4301556
0
ARC
8
DEFAULT_255_2_778
10
6.9275435
20
111.6549172
40
2.4810291
50
57.2951304
51
62.3684211
0
ARC
8
DEFAULT_255_2_778
10
7.6807233
20
112.8182235
40
1.0952081
50
48.7345704
51
57.5685367
0
ARC
8
DEFAULT_255_2_778
10
8.0117486
20
113.2057722
40
0.5856147
50
44.3236031
51
48.0704418
0
ARC
8
DEFAULT_255_2_778
10
7.9783002
20
113.1857468
40
0.6236013
50
1.3523843
51
43.4925744
0
ARC
8
DEFAULT_255_2_778
10
7.7103531
20
113.1528151
40
0.8926473
50
359.9763756
51
3.0599076
0
ARC
8
DEFAULT_255_2_778
10
7.8645343
20
113.1377407
40
0.7386124
50
333.0361889
51
1.1408766
0
ARC
8
DEFAULT_255_2_778
10
7.8947908
20
113.1446919
40
0.7150741
50
300.8430083
51
331.4403095
0
ARC
8
DEFAULT_255_2_778
10
7.694568
20
113.4582162
40
1.0869673
50
281.4258583
51
301.4316118
0
ARC
8
DEFAULT_255_2_778
10
7.5632666
20
114.0664414
40
1.7091691
50
270.2273513
51
281.7010805
0
ARC
8
DEFAULT_255_2_778
10
7.5453797
20
114.5431043
40
2.1859577
50
269.9983113
51
270.6466065
0
LINE
8
DEFAULT_255_2_778
10
7.5453153
20
112.3571465
11
7.5438002
21
112.357147
0
ARC
8
DEFAULT_255_2_778
10
7.5509161
20
115.5400969
40
3.1829579
50
256.2431122
51
269.871909
0
ARC
8
DEFAULT_255_2_778
10
21.7538511
20
115.7646629
40
2.9720345
50
251.5709223
51
258.7508181
0
ARC
8
DEFAULT_255_2_778
10
21.5538128
20
114.7414385
40
1.9294488
50
258.6495077
51
268.8281511
0
ARC
8
DEFAULT_255_2_778
10
21.5355488
20
114.3466193
40
1.5343723
50
269.2085037
51
269.9981866
0
ARC
8
DEFAULT_255_2_778
10
21.5473849
20
113.8782184
40
1.0660376
50
269.3612297
51
279.5899087
0
ARC
8
DEFAULT_255_2_778
10
21.6608439
20
113.2467324
40
0.424527
50
278.6895227
51
300.2363944
0
ARC
8
DEFAULT_255_2_778
10
21.7799083
20
113.0432793
40
0.188796
50
300.1108484
51
1.9024905
0
ARC
8
DEFAULT_255_2_778
10
21.7439577
20
113.0539221
40
0.2246851
50
358.8842611
51
0.0019649
0
ARC
8
DEFAULT_255_2_778
10
21.7769791
20
113.0578385
40
0.1917038
50
358.831716
51
47.0900458
0
ARC
8
DEFAULT_255_2_778
10
21.6364654
20
112.898484
40
0.4041259
50
47.8812665
51
61.174665
0
ARC
8
DEFAULT_255_2_778
10
21.0418848
20
111.8785117
40
1.5846568
50
60.1210877
51
65.1917015
0
ARC
8
DEFAULT_255_2_778
10
20.1415278
20
109.9729122
40
3.6922188
50
64.9168629
51
67.1565628
0
ARC
8
DEFAULT_255_2_778
10
23.6275467
20
118.2444888
40
5.2839333
50
244.2656926
51
247.1407051
0
ARC
8
DEFAULT_255_2_778
10
22.5594997
20
116.036265
40
2.8309849
50
240.1545061
51
244.3326325
0
ARC
8
DEFAULT_255_2_778
10
21.7856548
20
114.7002346
40
1.2870531
50
232.697515
51
240.4357497
0
ARC
8
DEFAULT_255_2_778
10
21.3705506
20
114.1492218
40
0.5972006
50
225.5850892
51
232.3393736
0
ARC
8
DEFAULT_255_2_778
10
21.4133941
20
114.1787933
40
0.6483829
50
178.7795739
51
224.7095916
0
ARC
8
DEFAULT_255_2_778
10
21.6669319
20
114.2028135
40
0.9018316
50
179.997867
51
180.6487041
0
ARC
8
DEFAULT_255_2_778
10
21.5167738
20
114.2166249
40
0.7517998
50
156.9195758
51
181.050088
0
ARC
8
DEFAULT_255_2_778
10
21.3928482
20
114.2560712
40
0.6224513
50
124.7111133
51
155.7879672
0
ARC
8
DEFAULT_255_2_778
10
21.6055459
20
113.9641942
40
0.9835402
50
101.7934503
51
125.2143527
0
ARC
8
DEFAULT_255_2_778
10
21.729848
20
113.4116326
40
1.5498677
50
89.5248728
51
102.1166783
0
ARC
8
DEFAULT_255_2_778
10
21.7283109
20
112.8580834
40
2.1034129
50
83.2889725
51
89.6080411
0
ARC
8
DEFAULT_255_2_778
10
21.529975
20
111.0902668
40
3.8823067
50
79.4764054
51
83.4308492
0
ARC
8
DEFAULT_255_2_778
10
21.2186357
20
109.3370673
40
5.6628977
50
78.2224868
51
79.6190915
0
ARC
8
DEFAULT_255_2_778
10
21.6838473
20
112.6145715
40
1.9311543
50
67.1323814
51
78.3148813
0
ARC
8
DEFAULT_255_2_778
10
21.801359
20
113.1660614
40
1.3672981
50
78.4565774
51
89.7552271
0
ARC
8
DEFAULT_255_2_778
10
21.7951366
20
113.596947
40
0.9364778
50
89.2619009
51
100.5950934
0
ARC
8
DEFAULT_255_2_778
10
21.6824182
20
114.1624169
40
0.3599879
50
99.5087086
51
124.406715
0
ARC
8
DEFAULT_255_2_778
10
21.5878565
20
114.308843
40
0.1858061
50
125.8630185
51
182.2986975
0
ARC
8
DEFAULT_255_2_778
10
21.5497296
20
114.3013047
40
0.1475296
50
179.9666559
51
180.100057
0
ARC
8
DEFAULT_255_2_778
10
21.566185
20
114.301293
40
0.163985
50
180.0859454
51
239.8819968
0
ARC
8
DEFAULT_255_2_778
10
21.9379018
20
114.8880619
40
0.8584853
50
238.072871
51
243.0442008
0
ARC
8
DEFAULT_255_2_778
10
23.4872034
20
117.8530845
40
4.2038426
50
242.5409111
51
244.1884903
0
ARC
8
DEFAULT_255_2_778
10
26.6463384
20
124.347696
40
11.4260319
50
244.1076525
51
244.9219574
0
ARC
8
DEFAULT_255_2_778
10
29.9038827
20
131.271355
40
19.0777309
50
244.8743531
51
245.066969
0
ARC
8
DEFAULT_255_2_778
10
19.8865272
20
109.6791274
40
4.7250654
50
62.0340028
51
65.293009
0
ARC
8
DEFAULT_255_2_778
10
20.9507744
20
111.6740758
40
2.464003
50
57.1127289
51
62.13736
0
ARC
8
DEFAULT_255_2_778
10
21.7037139
20
112.8277906
40
1.0863604
50
48.3695509
51
57.4197129
0
ARC
8
DEFAULT_255_2_778
10
22.0286268
20
113.2045419
40
0.5889589
50
44.472493
51
47.6467012
0
ARC
8
DEFAULT_255_2_778
10
21.9979457
20
113.1874032
40
0.6229283
50
1.2061613
51
43.6203607
0
ARC
8
DEFAULT_255_2_778
10
21.7312413
20
113.1549903
40
0.890659
50
359.9779196
51
2.9299178
0
ARC
8
DEFAULT_255_2_778
10
21.8802547
20
113.1398837
40
0.7417924
50
333.172934
51
1.140392
0
ARC
8
DEFAULT_255_2_778
10
21.9146167
20
113.1445736
40
0.7135172
50
300.9808035
51
331.5913995
0
ARC
8
DEFAULT_255_2_778
10
21.7182603
20
113.4544862
40
1.0803281
50
281.9040909
51
301.4483918
0
ARC
8
DEFAULT_255_2_778
10
21.5848425
20
114.0530518
40
1.6935565
50
270.5796874
51
282.1436175
0
ARC
8
DEFAULT_255_2_778
10
21.5636722
20
114.5479735
40
2.1887267
50
269.9959074
51
271.0027751
0
LINE
8
DEFAULT_255_2_778
10
21.5635158
20
112.3592468
11
21.5625002
21
112.359247
0
ARC
8
DEFAULT_255_2_778
10
21.5700221
20
115.5480174
40
3.1887792
50
256.2556596
51
269.8648469
0
LINE
8
DEFAULT_255_2_778
10
6.7958002
20
112.450047
11
6.7958002
21
112.944747
0
LINE
8
DEFAULT_255_2_778
10
8.4164002
20
114.867747
11
8.4164002
21
114.391547
0
LINE
8
DEFAULT_255_2_778
10
6.7940002
20
112.448447
11
6.7958002
21
112.450047
0
LINE
8
DEFAULT_255_2_778
10
8.9866002
20
114.917247
11
9.6629002
21
114.917247
0
LINE
8
DEFAULT_255_2_778
10
9.6629002
20
114.917247
11
9.6629002
21
112.409847
0
LINE
8
DEFAULT_255_2_778
10
9.6629002
20
112.409847
11
8.9866002
21
112.409847
0
LINE
8
DEFAULT_255_2_778
10
8.9866002
20
112.409847
11
8.9866002
21
114.917247
0
LINE
8
DEFAULT_255_2_778
10
10.2809002
20
112.409847
11
10.2809002
21
114.917247
0
LINE
8
DEFAULT_255_2_778
10
10.2809002
20
114.917247
11
12.0132002
21
114.917247
0
LINE
8
DEFAULT_255_2_778
10
12.0132002
20
114.917247
11
12.0132002
21
114.463547
0
LINE
8
DEFAULT_255_2_778
10
12.0132002
20
114.463547
11
10.9321002
21
114.463547
0
LINE
8
DEFAULT_255_2_778
10
10.9321002
20
114.463547
11
10.9321002
21
113.897247
0
LINE
8
DEFAULT_255_2_778
10
10.9321002
20
113.897247
11
11.8735002
21
113.897247
0
LINE
8
DEFAULT_255_2_778
10
11.8735002
20
113.897247
11
11.8735002
21
113.483747
0
LINE
8
DEFAULT_255_2_778
10
11.8735002
20
113.483747
11
10.9321002
21
113.483747
0
LINE
8
DEFAULT_255_2_778
10
10.9321002
20
113.483747
11
10.9321002
21
112.888447
0
LINE
8
DEFAULT_255_2_778
10
10.9321002
20
112.888447
11
12.0412002
21
112.888447
0
LINE
8
DEFAULT_255_2_778
10
12.0412002
20
112.888447
11
12.0412002
21
112.408247
0
LINE
8
DEFAULT_255_2_778
10
12.0412002
20
112.408247
11
10.2809002
21
112.409847
0
LINE
8
DEFAULT_255_2_778
10
12.4817002
20
112.409847
11
12.4817002
21
114.917247
0
LINE
8
DEFAULT_255_2_778
10
12.4817002
20
114.917247
11
13.3575002
21
114.917247
0
LINE
8
DEFAULT_255_2_778
10
13.3575002
20
114.917247
11
13.9671002
21
113.314947
0
LINE
8
DEFAULT_255_2_778
10
13.9671002
20
113.314947
11
14.5897002
21
114.917247
0
LINE
8
DEFAULT_255_2_778
10
14.5897002
20
114.917247
11
15.4215002
21
114.917247
0
LINE
8
DEFAULT_255_2_778
10
15.4215002
20
114.917247
11
15.4215002
21
112.409847
0
LINE
8
DEFAULT_255_2_778
10
15.4215002
20
112.409847
11
14.7812002
21
112.409847
0
LINE
8
DEFAULT_255_2_778
10
14.7812002
20
112.409847
11
14.7812002
21
114.185647
0
LINE
8
DEFAULT_255_2_778
10
14.7812002
20
114.185647
11
14.0724002
21
112.385447
0
LINE
8
DEFAULT_255_2_778
10
14.0724002
20
112.385447
11
13.6515002
21
112.385447
0
LINE
8
DEFAULT_255_2_778
10
13.6515002
20
112.385447
11
12.9559002
21
114.185647
0
LINE
8
DEFAULT_255_2_778
10
12.9559002
20
114.185647
11
12.9559002
21
112.409547
0
LINE
8
DEFAULT_255_2_778
10
12.9559002
20
112.409547
11
12.4817002
21
112.409847
0
LINE
8
DEFAULT_255_2_778
10
16.0409002
20
112.409847
11
16.0409002
21
114.917247
0
LINE
8
DEFAULT_255_2_778
10
16.0409002
20
114.917247
11
17.7731002
21
114.917247
0
LINE
8
DEFAULT_255_2_778
10
17.7731002
20
114.917247
11
17.7731002
21
114.463547
0
LINE
8
DEFAULT_255_2_778
10
17.7731002
20
114.463547
11
16.6921002
21
114.463547
0
LINE
8
DEFAULT_255_2_778
10
16.6921002
20
114.463547
11
16.6921002
21
113.897247
0
LINE
8
DEFAULT_255_2_778
10
16.6921002
20
113.897247
11
17.6334002
21
113.897247
0
LINE
8
DEFAULT_255_2_778
10
17.6334002
20
113.897247
11
17.6334002
21
113.483747
0
LINE
8
DEFAULT_255_2_778
10
17.6334002
20
113.483747
11
16.6921002
21
113.483747
0
LINE
8
DEFAULT_255_2_778
10
16.6921002
20
113.483747
11
16.6921002
21
112.888447
0
LINE
8
DEFAULT_255_2_778
10
16.6921002
20
112.888447
11
17.8030002
21
112.888447
0
LINE
8
DEFAULT_255_2_778
10
17.8030002
20
112.888447
11
17.8030002
21
112.408247
0
LINE
8
DEFAULT_255_2_778
10
17.8030002
20
112.408247
11
16.0409002
21
112.409847
0
LINE
8
DEFAULT_255_2_778
10
18.2454002
20
112.409847
11
18.2454002
21
114.917247
0
LINE
8
DEFAULT_255_2_778
10
18.2454002
20
114.917247
11
19.0283002
21
114.917247
0
LINE
8
DEFAULT_255_2_778
10
19.0283002
20
114.917247
11
19.8586002
21
113.238447
0
LINE
8
DEFAULT_255_2_778
10
19.8586002
20
113.238447
11
19.8586002
21
114.917247
0
LINE
8
DEFAULT_255_2_778
10
19.8586002
20
114.917247
11
20.3343002
21
114.917247
0
LINE
8
DEFAULT_255_2_778
10
20.3343002
20
114.917247
11
20.3343002
21
112.409847
0
LINE
8
DEFAULT_255_2_778
10
20.3343002
20
112.409847
11
19.5739002
21
112.409847
0
LINE
8
DEFAULT_255_2_778
10
19.5739002
20
112.409847
11
18.7214002
21
114.111047
0
LINE
8
DEFAULT_255_2_778
10
18.7214002
20
114.111047
11
18.7214002
21
112.409847
0
LINE
8
DEFAULT_255_2_778
10
18.7214002
20
112.409847
11
18.2454002
21
112.409847
0
LINE
8
DEFAULT_255_2_778
10
20.8143002
20
112.450247
11
20.8143002
21
112.945047
0
LINE
8
DEFAULT_255_2_778
10
22.3745002
20
114.880747
11
22.4343002
21
114.870147
0
LINE
8
DEFAULT_255_2_778
10
22.4343002
20
114.870147
11
22.4343002
21
114.393947
0
LINE
8
DEFAULT_255_2_778
10
20.8124002
20
112.450547
11
20.8143002
21
112.450247
0
LINE
8
DEFAULT_255_1_234
10
8.2062023
20
110.6434849
11
8.0511897
21
110.6434849
0
LINE
8
DEFAULT_255_1_234
10
7.3588539
20
110.1511394
11
7.5138665
21
110.1511394
0
ARC
8
DEFAULT_255_1_234
10
8.117071
20
111.5381768
40
1.252368
50
248.9199003
51
254.1439814
0
ARC
8
DEFAULT_255_1_234
10
7.9490205
20
111.1055234
40
0.788226
50
241.633709
51
249.0064503
0
ARC
8
DEFAULT_255_1_234
10
7.79616
20
110.8254317
40
0.4691427
50
230.498225
51
241.8087113
0
ARC
8
DEFAULT_255_1_234
10
7.7177174
20
110.7254906
40
0.3421437
50
227.4064532
51
229.9881192
0
ARC
8
DEFAULT_255_1_234
10
7.6689694
20
110.6779088
40
0.2741476
50
200.6781896
51
228.1763934
0
ARC
8
DEFAULT_255_1_234
10
7.6762005
20
110.6764077
40
0.2804109
50
179.5061581
51
199.8694617
0
ARC
8
DEFAULT_255_1_234
10
7.6752757
20
110.683821
40
0.2795204
50
132.4834203
51
181.0242172
0
ARC
8
DEFAULT_255_1_234
10
7.7348339
20
110.6275704
40
0.3612768
50
129.2532479
51
133.4242687
0
ARC
8
DEFAULT_255_1_234
10
7.7494789
20
110.6055965
40
0.3875675
50
101.98776
51
128.8742646
0
ARC
8
DEFAULT_255_1_234
10
7.7893399
20
110.4334741
40
0.5642249
50
89.5906553
51
102.3169264
0
ARC
8
DEFAULT_255_1_234
10
7.7963891
20
110.4653148
40
0.5323783
50
77.2360837
51
90.3248275
0
ARC
8
DEFAULT_255_1_234
10
7.8170971
20
110.56204
40
0.4334697
50
63.837784
51
77.0809408
0
ARC
8
DEFAULT_255_1_234
10
7.8448732
20
110.6137911
40
0.3747796
50
45.9864267
51
64.1607727
0
ARC
8
DEFAULT_255_1_234
10
7.8709614
20
110.6435866
40
0.3352302
50
32.2747395
51
45.6547121
0
ARC
8
DEFAULT_255_1_234
10
7.8776054
20
110.645488
40
0.328603
50
359.6507365
51
32.6130309
0
ARC
8
DEFAULT_255_1_234
10
7.783315
20
110.645966
40
0.2678863
50
359.469343
51
14.9832209
0
ARC
8
DEFAULT_255_1_234
10
7.8538212
20
110.6648539
40
0.1948938
50
14.9781179
51
48.2004265
0
ARC
8
DEFAULT_255_1_234
10
7.8373856
20
110.6441983
40
0.2212521
50
48.5927837
51
74.1241538
0
ARC
8
DEFAULT_255_1_234
10
7.8040346
20
110.5341248
40
0.3362561
50
73.7888341
51
86.6652678
0
ARC
8
DEFAULT_255_1_234
10
7.7937911
20
110.4133881
40
0.4573953
50
86.2640471
51
90.0526343
0
ARC
8
DEFAULT_255_1_234
10
7.7909624
20
110.4529192
40
0.4178709
50
89.6697524
51
99.2309573
0
ARC
8
DEFAULT_255_1_234
10
7.7667075
20
110.5973964
40
0.2713749
50
99.069534
51
113.7658566
0
ARC
8
DEFAULT_255_1_234
10
7.7393266
20
110.6619677
40
0.2012469
50
114.0401004
51
127.9850673
0
ARC
8
DEFAULT_255_1_234
10
7.715283
20
110.691573
40
0.1631167
50
127.7287463
51
176.7105154
0
ARC
8
DEFAULT_255_1_234
10
7.7831547
20
110.6814693
40
0.2315392
50
175.1779447
51
180.0581938
0
ARC
8
DEFAULT_255_1_234
10
7.6988394
20
110.6802428
40
0.1472271
50
179.6142195
51
228.1246017
0
ARC
8
DEFAULT_255_1_234
10
7.7430063
20
110.7211308
40
0.2072299
50
226.5779593
51
230.8800004
0
ARC
8
DEFAULT_255_1_234
10
7.7901141
20
110.7836636
40
0.2854818
50
231.4635071
51
241.9260842
0
ARC
8
DEFAULT_255_1_234
10
7.9098319
20
111.00398
40
0.53622
50
241.7178533
51
248.3259551
0
ARC
8
DEFAULT_255_1_234
10
8.0483691
20
111.3472064
40
0.9063478
50
248.2007737
51
252.4528373
0
ARC
8
DEFAULT_255_1_234
10
8.1687416
20
111.7193441
40
1.2974635
50
252.3391078
51
254.3469452
0
ARC
8
DEFAULT_255_1_234
10
7.4145119
20
109.0216148
40
1.5037162
50
71.0197183
51
74.4087047
0
ARC
8
DEFAULT_255_1_234
10
7.5839804
20
109.5108111
40
0.9859993
50
66.1847285
51
71.086374
0
ARC
8
DEFAULT_255_1_234
10
7.7396116
20
109.86122
40
0.6025855
50
59.3536294
51
66.2691831
0
ARC
8
DEFAULT_255_1_234
10
7.8284769
20
110.0115609
40
0.4279449
50
49.1020879
51
59.3293958
0
ARC
8
DEFAULT_255_1_234
10
7.9103509
20
110.1048834
40
0.3038015
50
32.7919921
51
49.2505539
0
ARC
8
DEFAULT_255_1_234
10
7.9424599
20
110.1277191
40
0.264448
50
31.1181161
51
32.4005348
0
ARC
8
DEFAULT_255_1_234
10
7.9336136
20
110.1241779
40
0.2738556
50
8.1116974
51
30.7958831
0
ARC
8
DEFAULT_255_1_234
10
7.8525804
20
110.1103753
40
0.3560327
50
359.8389159
51
8.4706516
0
ARC
8
DEFAULT_255_1_234
10
7.9151596
20
110.1055137
40
0.2934776
50
337.4731098
51
0.7537279
0
ARC
8
DEFAULT_255_1_234
10
7.9330291
20
110.1035387
40
0.2762607
50
307.5917067
51
336.4315538
0
ARC
8
DEFAULT_255_1_234
10
7.8870119
20
110.1548102
40
0.3449979
50
307.6551545
51
308.4529766
0
ARC
8
DEFAULT_255_1_234
10
7.8639838
20
110.190325
40
0.3871988
50
284.3734338
51
307.1424381
0
ARC
8
DEFAULT_255_1_234
10
7.8144668
20
110.3724932
40
0.5759636
50
272.4382747
51
284.646547
0
ARC
8
DEFAULT_255_1_234
10
7.8017876
20
110.5524893
40
0.7563528
50
269.9708387
51
272.8178037
0
ARC
8
DEFAULT_255_1_234
10
7.7974916
20
110.3486716
40
0.5525489
50
248.2707594
51
270.4055579
0
ARC
8
DEFAULT_255_1_234
10
7.7920657
20
110.3296192
40
0.5328452
50
246.1383403
51
248.0542782
0
ARC
8
DEFAULT_255_1_234
10
7.7502036
20
110.2416843
40
0.4355005
50
233.1670131
51
246.4950969
0
ARC
8
DEFAULT_255_1_234
10
7.6947941
20
110.1668812
40
0.3424126
50
215.3403242
51
233.0843104
0
ARC
8
DEFAULT_255_1_234
10
7.6675372
20
110.1470549
40
0.3087104
50
179.2419209
51
215.2648451
0
ARC
8
DEFAULT_255_1_234
10
7.7442966
20
110.1484666
40
0.2304457
50
179.335461
51
199.1045811
0
ARC
8
DEFAULT_255_1_234
10
7.7110643
20
110.1397766
40
0.1962176
50
199.8828939
51
232.7063202
0
ARC
8
DEFAULT_255_1_234
10
7.7582911
20
110.1991788
40
0.2720938
50
232.3738199
51
255.5136649
0
ARC
8
DEFAULT_255_1_234
10
7.7923778
20
110.3235835
40
0.4010747
50
255.2446292
51
267.5320849
0
ARC
8
DEFAULT_255_1_234
10
7.8011401
20
110.4468702
40
0.5246356
50
267.1557994
51
270.0286766
0
ARC
8
DEFAULT_255_1_234
10
7.8039173
20
110.402495
40
0.4802668
50
269.7000017
51
278.1660162
0
ARC
8
DEFAULT_255_1_234
10
7.8295178
20
110.2294515
40
0.3053425
50
278.0231263
51
290.625471
0
ARC
8
DEFAULT_255_1_234
10
7.8642865
20
110.1367025
40
0.206291
50
290.6619762
51
307.0370976
0
ARC
8
DEFAULT_255_1_234
10
7.8943254
20
110.0998504
40
0.1587906
50
306.3943566
51
355.3030547
0
ARC
8
DEFAULT_255_1_234
10
7.8431186
20
110.1075113
40
0.2104809
50
354.3660432
51
0.0698737
0
ARC
8
DEFAULT_255_1_234
10
7.8573531
20
110.1097617
40
0.1962563
50
359.417946
51
16.1971788
0
ARC
8
DEFAULT_255_1_234
10
7.9028841
20
110.1222418
40
0.149053
50
16.4723299
51
52.6262157
0
ARC
8
DEFAULT_255_1_234
10
7.8207895
20
110.0138433
40
0.2850296
50
52.7386432
51
62.4979148
0
ARC
8
DEFAULT_255_1_234
10
7.6822972
20
109.7532283
40
0.5801521
50
62.2515216
51
68.1220564
0
ARC
8
DEFAULT_255_1_234
10
7.5102883
20
109.3304872
40
1.0365451
50
68.0062803
51
71.8053402
0
ARC
8
DEFAULT_255_1_234
10
7.3307255
20
108.7919758
40
1.6042013
50
71.7183119
51
73.9258742
0
LINE
8
DEFAULT_255_1_234
10
8.5716464
20
110.9816211
11
8.5716464
21
109.8122
0
LINE
8
DEFAULT_255_1_234
10
8.5716464
20
109.8122
11
8.417437
21
109.8122
0
LINE
8
DEFAULT_255_1_234
10
8.417437
20
109.8122
11
8.417437
21
110.9816211
0
LINE
8
DEFAULT_255_1_234
10
8.417437
20
110.9816211
11
8.5716464
21
110.9816211
0
LINE
8
DEFAULT_255_1_234
10
8.8535604
20
110.9816211
11
9.0527475
21
110.9816211
0
LINE
8
DEFAULT_255_1_234
10
9.0527475
20
110.9816211
11
9.4350583
21
110.0274506
0
LINE
8
DEFAULT_255_1_234
10
9.4350583
20
110.0274506
11
9.817369
21
110.9816211
0
LINE
8
DEFAULT_255_1_234
10
9.817369
20
110.9816211
11
10.0173593
21
110.9816211
0
LINE
8
DEFAULT_255_1_234
10
10.0173593
20
110.9816211
11
10.0173593
21
109.8122
0
LINE
8
DEFAULT_255_1_234
10
10.0173593
20
109.8122
11
9.8631499
21
109.8122
0
LINE
8
DEFAULT_255_1_234
10
9.8631499
20
109.8122
11
9.8631499
21
110.2675996
0
LINE
8
DEFAULT_255_1_234
10
9.8631499
20
110.2675996
11
9.877607
21
110.7591419
0
LINE
8
DEFAULT_255_1_234
10
9.877607
20
110.7591419
11
9.4936899
21
109.8122
0
LINE
8
DEFAULT_255_1_234
10
9.4936899
20
109.8122
11
9.3756234
21
109.8122
0
LINE
8
DEFAULT_255_1_234
10
9.3756234
20
109.8122
11
8.9925095
21
110.7567324
0
LINE
8
DEFAULT_255_1_234
10
8.9925095
20
110.7567324
11
9.0077698
21
110.2675996
0
LINE
8
DEFAULT_255_1_234
10
9.0077698
20
110.2675996
11
9.0077698
21
109.8122
0
LINE
8
DEFAULT_255_1_234
10
9.0077698
20
109.8122
11
8.8535604
21
109.8122
0
LINE
8
DEFAULT_255_1_234
10
8.8535604
20
109.8122
11
8.8535604
21
110.9816211
0
LINE
8
DEFAULT_255_1_234
10
11.0614853
20
109.8122
11
10.9498441
21
110.1174061
0
LINE
8
DEFAULT_255_1_234
10
10.9498441
20
110.1174061
11
10.4599081
21
110.1174061
0
LINE
8
DEFAULT_255_1_234
10
10.4599081
20
110.1174061
11
10.3498732
21
109.8122
0
LINE
8
DEFAULT_255_1_234
10
10.3498732
20
109.8122
11
10.1908448
21
109.8122
0
LINE
8
DEFAULT_255_1_234
10
10.1908448
20
109.8122
11
10.6374095
21
110.9816211
0
LINE
8
DEFAULT_255_1_234
10
10.6374095
20
110.9816211
11
10.7723427
21
110.9816211
0
LINE
8
DEFAULT_255_1_234
10
10.7723427
20
110.9816211
11
11.2197105
21
109.8122
0
LINE
8
DEFAULT_255_1_234
10
11.2197105
20
109.8122
11
11.0614853
21
109.8122
0
LINE
8
DEFAULT_255_1_234
10
10.7048761
20
110.7912689
11
10.5064921
21
110.2443075
0
LINE
8
DEFAULT_255_1_234
10
10.5064921
20
110.2443075
11
10.9040632
21
110.2443075
0
LINE
8
DEFAULT_255_1_234
10
10.9040632
20
110.2443075
11
10.7048761
21
110.7912689
0
LINE
8
DEFAULT_255_1_234
10
12.081516
20
110.9816211
11
12.081516
21
110.8547196
0
LINE
8
DEFAULT_255_1_234
10
12.081516
20
110.8547196
11
11.7056307
21
110.8547196
0
LINE
8
DEFAULT_255_1_234
10
11.7056307
20
110.8547196
11
11.7056307
21
109.8122
0
LINE
8
DEFAULT_255_1_234
10
11.7056307
20
109.8122
11
11.5522245
21
109.8122
0
LINE
8
DEFAULT_255_1_234
10
11.5522245
20
109.8122
11
11.5522245
21
110.8547196
0
LINE
8
DEFAULT_255_1_234
10
11.5522245
20
110.8547196
11
11.1771423
21
110.8547196
0
LINE
8
DEFAULT_255_1_234
10
11.1771423
20
110.8547196
11
11.1771423
21
110.9816211
0
LINE
8
DEFAULT_255_1_234
10
11.1771423
20
110.9816211
11
12.081516
21
110.9816211
0
LINE
8
DEFAULT_255_1_234
10
12.4204554
20
110.9816211
11
12.4204554
21
109.8122
0
LINE
8
DEFAULT_255_1_234
10
12.4204554
20
109.8122
11
12.266246
21
109.8122
0
LINE
8
DEFAULT_255_1_234
10
12.266246
20
109.8122
11
12.266246
21
110.9816211
0
LINE
8
DEFAULT_255_1_234
10
12.266246
20
110.9816211
11
12.4204554
21
110.9816211
0
LINE
8
DEFAULT_255_1_234
10
13.407556
20
110.1832663
11
13.5625686
21
110.1832663
0
LINE
8
DEFAULT_255_1_234
10
12.6622107
20
110.3422947
11
12.6622107
21
110.4547391
0
LINE
8
DEFAULT_255_1_234
10
13.5625686
20
110.6057357
11
13.407556
21
110.6057357
0
LINE
8
DEFAULT_255_1_234
10
12.8172232
20
110.4507232
11
12.8172232
21
110.3374757
0
ARC
8
DEFAULT_255_1_234
10
13.0145072
20
110.2429846
40
0.5513052
50
340.1774281
51
353.7814284
0
ARC
8
DEFAULT_255_1_234
10
13.1716425
20
110.1844582
40
0.3836379
50
311.4558989
51
340.4421614
0
ARC
8
DEFAULT_255_1_234
10
13.1683093
20
110.1955528
40
0.3941894
50
282.4333181
51
310.7513653
0
ARC
8
DEFAULT_255_1_234
10
13.1243832
20
110.3770679
40
0.5809175
50
269.9358511
51
282.809604
0
ARC
8
DEFAULT_255_1_234
10
13.1191899
20
110.5228212
40
0.7266847
50
270.0021091
51
270.3581957
0
ARC
8
DEFAULT_255_1_234
10
13.1139315
20
110.2627585
40
0.4666519
50
250.7884749
51
270.6489167
0
ARC
8
DEFAULT_255_1_234
10
13.097115
20
110.1990319
40
0.4009729
50
219.3627325
51
250.0611886
0
ARC
8
DEFAULT_255_1_234
10
13.1800361
20
110.2695042
40
0.5097822
50
193.5479632
51
219.5756669
0
ARC
8
DEFAULT_255_1_234
10
13.4171982
20
110.3310919
40
0.7547848
50
181.1218675
51
193.87563
0
ARC
8
DEFAULT_255_1_234
10
13.6242163
20
110.342158
40
0.9620055
50
179.9918545
51
181.5394234
0
ARC
8
DEFAULT_255_1_234
10
13.4391265
20
110.4584788
40
0.7769248
50
169.5837241
51
180.2757934
0
ARC
8
DEFAULT_255_1_234
10
13.2554203
20
110.4924229
40
0.590109
50
155.0365899
51
169.6003176
0
ARC
8
DEFAULT_255_1_234
10
13.1418667
20
110.5471677
40
0.4640625
50
136.783148
51
155.2472683
0
ARC
8
DEFAULT_255_1_234
10
13.1029144
20
110.5802562
40
0.4130255
50
121.7633186
51
136.428115
0
ARC
8
DEFAULT_255_1_234
10
13.1164106
20
110.5553227
40
0.4413323
50
95.6459699
51
121.5490577
0
ARC
8
DEFAULT_255_1_234
10
13.1321388
20
110.4444949
40
0.55319
50
89.924208
51
96.1377933
0
ARC
8
DEFAULT_255_1_234
10
13.1371821
20
110.4563542
40
0.5413475
50
76.6779277
51
90.4563316
0
ARC
8
DEFAULT_255_1_234
10
13.1765444
20
110.6154114
40
0.3775041
50
47.485847
51
76.9287264
0
ARC
8
DEFAULT_255_1_234
10
13.1618417
20
110.6054159
40
0.3948286
50
16.5424086
51
46.8933463
0
ARC
8
DEFAULT_255_1_234
10
13.0010574
20
110.5525861
40
0.564021
50
5.4072051
51
17.0365086
0
ARC
8
DEFAULT_255_1_234
10
12.8571591
20
110.5294679
40
0.5556559
50
7.8891745
51
15.9239216
0
ARC
8
DEFAULT_255_1_234
10
13.0558605
20
110.5871631
40
0.3487515
50
15.7653144
51
27.9410532
0
ARC
8
DEFAULT_255_1_234
10
13.1662822
20
110.646279
40
0.2235026
50
27.8166557
51
46.4008329
0
ARC
8
DEFAULT_255_1_234
10
13.1712465
20
110.6457082
40
0.2205286
50
47.4371857
51
75.0698205
0
ARC
8
DEFAULT_255_1_234
10
13.140386
20
110.5382765
40
0.3322915
50
74.7008593
51
87.8124495
0
ARC
8
DEFAULT_255_1_234
10
13.1330547
20
110.4326844
40
0.4380987
50
87.3814673
51
90.0240855
0
ARC
8
DEFAULT_255_1_234
10
13.1292091
20
110.5504291
40
0.3203749
50
89.3451631
51
108.5745436
0
ARC
8
DEFAULT_255_1_234
10
13.1155196
20
110.6017908
40
0.2673494
50
109.2998449
51
143.3037509
0
ARC
8
DEFAULT_255_1_234
10
13.1917268
20
110.5431881
40
0.3634757
50
143.0753173
51
163.1916937
0
ARC
8
DEFAULT_255_1_234
10
13.3868996
20
110.4815967
40
0.5681262
50
162.9373603
51
174.6208611
0
ARC
8
DEFAULT_255_1_234
10
13.6495038
20
110.452801
40
0.8322832
50
174.3419979
51
180.1430411
0
ARC
8
DEFAULT_255_1_234
10
13.5564194
20
110.3333698
40
0.7392076
50
179.6817502
51
189.150529
0
ARC
8
DEFAULT_255_1_234
10
13.3063443
20
110.291719
40
0.4856932
50
188.9910863
51
203.5773039
0
ARC
8
DEFAULT_255_1_234
10
13.1983775
20
110.2469211
40
0.3688271
50
203.9077269
51
215.1312379
0
ARC
8
DEFAULT_255_1_234
10
13.1060869
20
110.1753941
40
0.2522457
50
213.9071664
51
263.8849284
0
ARC
8
DEFAULT_255_1_234
10
13.1186198
20
110.2538518
40
0.3316174
50
263.1758525
51
270.1031083
0
ARC
8
DEFAULT_255_1_234
10
13.121829
20
110.3785365
40
0.4563091
50
269.6719807
51
279.0609165
0
ARC
8
DEFAULT_255_1_234
10
13.1485058
20
110.2172907
40
0.2928759
50
278.8750225
51
293.6346586
0
ARC
8
DEFAULT_255_1_234
10
13.1805266
20
110.14209
40
0.2111472
50
293.8553404
51
310.0518804
0
ARC
8
DEFAULT_255_1_234
10
13.181012
20
110.1358516
40
0.2060917
50
311.0646779
51
332.0108348
0
ARC
8
DEFAULT_255_1_234
10
13.0617847
20
110.2015978
40
0.3422352
50
331.6588543
51
343.2878891
0
ARC
8
DEFAULT_255_1_234
10
12.8555362
20
110.2649798
40
0.5580003
50
343.1446044
51
351.010618
0
ARC
8
DEFAULT_255_1_234
10
12.7014008
20
110.2930871
40
0.7146438
50
350.7157277
51
351.1602153
0
LINE
8
DEFAULT_255_1_234
10
14.8412213
20
110.4788343
11
14.8412213
21
110.352736
0
LINE
8
DEFAULT_255_1_234
10
14.8412213
20
110.352736
11
14.3344186
21
110.352736
0
LINE
8
DEFAULT_255_1_234
10
14.3344186
20
110.352736
11
14.3344186
21
109.9382983
0
LINE
8
DEFAULT_255_1_234
10
14.3344186
20
109.9382983
11
14.923145
21
109.9382983
0
LINE
8
DEFAULT_255_1_234
10
14.923145
20
109.9382983
11
14.923145
21
109.8122
0
LINE
8
DEFAULT_255_1_234
10
14.923145
20
109.8122
11
14.1802092
21
109.8122
0
LINE
8
DEFAULT_255_1_234
10
14.1802092
20
109.8122
11
14.1802092
21
110.9816211
0
LINE
8
DEFAULT_255_1_234
10
14.1802092
20
110.9816211
11
14.9151133
21
110.9816211
0
LINE
8
DEFAULT_255_1_234
10
14.9151133
20
110.9816211
11
14.9151133
21
110.8547196
0
LINE
8
DEFAULT_255_1_234
10
14.9151133
20
110.8547196
11
14.3344186
21
110.8547196
0
LINE
8
DEFAULT_255_1_234
10
14.3344186
20
110.8547196
11
14.3344186
21
110.4788343
0
LINE
8
DEFAULT_255_1_234
10
14.3344186
20
110.4788343
11
14.8412213
21
110.4788343
0
LINE
8
DEFAULT_255_1_234
10
15.9391599
20
110.9816211
11
15.9391599
21
110.8547196
0
LINE
8
DEFAULT_255_1_234
10
15.9391599
20
110.8547196
11
15.5632746
21
110.8547196
0
LINE
8
DEFAULT_255_1_234
10
15.5632746
20
110.8547196
11
15.5632746
21
109.8122
0
LINE
8
DEFAULT_255_1_234
10
15.5632746
20
109.8122
11
15.4098684
21
109.8122
0
LINE
8
DEFAULT_255_1_234
10
15.4098684
20
109.8122
11
15.4098684
21
110.8547196
0
LINE
8
DEFAULT_255_1_234
10
15.4098684
20
110.8547196
11
15.0347862
21
110.8547196
0
LINE
8
DEFAULT_255_1_234
10
15.0347862
20
110.8547196
11
15.0347862
21
110.9816211
0
LINE
8
DEFAULT_255_1_234
10
15.0347862
20
110.9816211
11
15.9391599
21
110.9816211
0
LINE
8
DEFAULT_255_1_234
10
16.212239
20
110.3696026
11
16.212239
21
110.2483234
0
LINE
8
DEFAULT_255_1_234
10
16.212239
20
110.2483234
11
15.8202902
21
110.2483234
0
LINE
8
DEFAULT_255_1_234
10
15.8202902
20
110.2483234
11
15.8202902
21
110.3696026
0
LINE
8
DEFAULT_255_1_234
10
15.8202902
20
110.3696026
11
16.212239
21
110.3696026
0
LINE
8
DEFAULT_255_1_234
10
17.1077778
20
109.9334792
11
17.1077778
21
109.8122
0
LINE
8
DEFAULT_255_1_234
10
17.1077778
20
109.8122
11
16.34155
21
109.8122
0
LINE
8
DEFAULT_255_1_234
10
16.34155
20
109.8122
11
16.34155
21
109.9190221
0
LINE
8
DEFAULT_255_1_234
10
16.34155
20
109.9190221
11
16.7463496
21
110.3687995
0
LINE
8
DEFAULT_255_1_234
10
16.4676483
20
110.6370595
11
16.3190611
21
110.6370595
0
LINE
8
DEFAULT_255_1_234
10
16.8338956
20
110.2732218
11
16.5206578
21
109.9334792
0
LINE
8
DEFAULT_255_1_234
10
16.5206578
20
109.9334792
11
17.1077778
21
109.9334792
0
ARC
8
DEFAULT_255_1_234
10
15.3973329
20
111.5617527
40
1.8008286
50
318.5132453
51
320.7828378
0
ARC
8
DEFAULT_255_1_234
10
15.9260304
20
111.1314426
40
1.1191493
50
320.7372736
51
323.9737074
0
ARC
8
DEFAULT_255_1_234
10
16.318016
20
110.8474361
40
0.6350923
50
323.8961724
51
328.6421089
0
ARC
8
DEFAULT_255_1_234
10
16.5226756
20
110.7212031
40
0.3946393
50
328.8299013
51
331.789948
0
ARC
8
DEFAULT_255_1_234
10
16.6223934
20
110.6697509
40
0.2824501
50
331.4255242
51
352.9364833
0
ARC
8
DEFAULT_255_1_234
10
16.6360435
20
110.6666976
40
0.2685315
50
353.2248685
51
0.0169286
0
ARC
8
DEFAULT_255_1_234
10
16.6570311
20
110.668995
40
0.2475536
50
359.4866256
51
15.9339782
0
ARC
8
DEFAULT_255_1_234
10
16.7077297
20
110.6826286
40
0.1950618
50
16.1714718
51
43.5284424
0
ARC
8
DEFAULT_255_1_234
10
16.7154605
20
110.6903573
40
0.184134
50
43.4415429
51
83.1661404
0
ARC
8
DEFAULT_255_1_234
10
16.7020524
20
110.6166771
40
0.258926
50
82.160215
51
90.1505798
0
ARC
8
DEFAULT_255_1_234
10
16.6988951
20
110.5629865
40
0.3126255
50
89.5460705
51
102.5418777
0
ARC
8
DEFAULT_255_1_234
10
16.6746037
20
110.6660665
40
0.2067346
50
102.1739365
51
129.2061916
0
ARC
8
DEFAULT_255_1_234
10
16.6667109
20
110.6785094
40
0.1921118
50
129.7279328
51
135.7542026
0
ARC
8
DEFAULT_255_1_234
10
16.6788636
20
110.6688045
40
0.2075944
50
136.175737
51
166.3674722
0
ARC
8
DEFAULT_255_1_234
10
16.7795556
20
110.6418182
40
0.3118201
50
165.9092917
51
178.8683903
0
ARC
8
DEFAULT_255_1_234
10
16.8660417
20
110.6371179
40
0.3983935
50
178.438168
51
180.0083905
0
ARC
8
DEFAULT_255_1_234
10
16.7259019
20
110.6410231
40
0.4068601
50
163.2878735
51
180.5581814
0
ARC
8
DEFAULT_255_1_234
10
16.645728
20
110.663084
40
0.3237344
50
133.454115
51
162.9470031
0
ARC
8
DEFAULT_255_1_234
10
16.6635822
20
110.6441
40
0.349795
50
100.7869394
51
133.4384016
0
ARC
8
DEFAULT_255_1_234
10
16.6983593
20
110.4892319
40
0.5084616
50
89.6605301
51
101.3704185
0
ARC
8
DEFAULT_255_1_234
10
16.7049932
20
110.4953496
40
0.502348
50
78.2171172
51
90.4130393
0
ARC
8
DEFAULT_255_1_234
10
16.740501
20
110.6577637
40
0.3361092
50
55.9268222
51
78.4888551
0
ARC
8
DEFAULT_255_1_234
10
16.7601451
20
110.6916324
40
0.2970617
50
47.9292255
51
55.4054003
0
ARC
8
DEFAULT_255_1_234
10
16.7703011
20
110.7019502
40
0.2825983
50
4.3347696
51
48.0560701
0
ARC
8
DEFAULT_255_1_234
10
16.6607405
20
110.6849601
40
0.393225
50
359.925209
51
5.5967654
0
ARC
8
DEFAULT_255_1_234
10
16.7036297
20
110.6905816
40
0.3503892
50
337.8914096
51
358.9967724
0
ARC
8
DEFAULT_255_1_234
10
16.4322709
20
110.7952706
40
0.6412172
50
326.9135351
51
338.3505194
0
ARC
8
DEFAULT_255_1_234
10
16.0337012
20
111.0507284
40
1.1146189
50
319.6472867
51
327.095818
0
ARC
8
DEFAULT_255_1_234
10
15.6504016
20
111.3669
40
1.6114559
50
317.2586784
51
319.9046139
0
LINE
8
DEFAULT_255_1_234
10
17.9984976
20
110.5037327
11
17.9984976
21
110.3109709
0
LINE
8
DEFAULT_255_1_234
10
17.2603809
20
110.2908916
11
17.2603809
21
110.4892755
0
LINE
8
DEFAULT_255_1_234
10
17.8499104
20
110.2708123
11
17.8499104
21
110.5141739
0
LINE
8
DEFAULT_255_1_234
10
17.408968
20
110.5254184
11
17.408968
21
110.2876789
0
ARC
8
DEFAULT_255_1_234
10
16.7737866
20
110.3060805
40
1.2247208
50
353.8441951
51
0.2287902
0
ARC
8
DEFAULT_255_1_234
10
17.2377369
20
110.2542806
40
0.7578929
50
344.4934747
51
353.9765454
0
ARC
8
DEFAULT_255_1_234
10
17.5369959
20
110.1691981
40
0.4467846
50
329.2803592
51
344.7472793
0
ARC
8
DEFAULT_255_1_234
10
17.6362784
20
110.1147018
40
0.3336173
50
324.9352394
51
328.6160465
0
ARC
8
DEFAULT_255_1_234
10
17.6739893
20
110.0883427
40
0.2876076
50
280.580143
51
324.9173126
0
ARC
8
DEFAULT_255_1_234
10
17.6338686
20
110.2554099
40
0.4592847
50
269.5977311
51
281.6734359
0
ARC
8
DEFAULT_255_1_234
10
17.6266591
20
110.2434173
40
0.4472986
50
256.6228859
51
270.51044
0
ARC
8
DEFAULT_255_1_234
10
17.5864569
20
110.0885877
40
0.2873874
50
215.8618325
51
257.2788573
0
ARC
8
DEFAULT_255_1_234
10
17.6885601
20
110.1570977
40
0.4102928
50
197.9693508
51
215.2623606
0
ARC
8
DEFAULT_255_1_234
10
17.9370716
20
110.2409709
40
0.6725652
50
187.8816417
51
198.2346507
0
ARC
8
DEFAULT_255_1_234
10
18.3328925
20
110.2981079
40
1.0724845
50
180.8976217
51
188.0055519
0
ARC
8
DEFAULT_255_1_234
10
18.6129113
20
110.3084777
40
1.3526448
50
180.7449369
51
181.1510016
0
ARC
8
DEFAULT_255_1_234
10
18.4551842
20
110.4941042
40
1.1948131
50
173.7675579
51
180.231553
0
ARC
8
DEFAULT_255_1_234
10
18.0033988
20
110.5451666
40
0.7401564
50
164.3058563
51
173.9002247
0
ARC
8
DEFAULT_255_1_234
10
17.7122057
20
110.6290656
40
0.4371288
50
148.7922025
51
164.568378
0
ARC
8
DEFAULT_255_1_234
10
17.6170509
20
110.6821929
40
0.3282386
50
144.5883898
51
148.1176286
0
ARC
8
DEFAULT_255_1_234
10
17.5827407
20
110.7061315
40
0.2864044
50
101.6440918
51
144.514236
0
ARC
8
DEFAULT_255_1_234
10
17.6252474
20
110.5372069
40
0.4604934
50
89.5284041
51
102.5819763
0
ARC
8
DEFAULT_255_1_234
10
17.6331562
20
110.5333018
40
0.464401
50
77.0437873
51
90.5081339
0
ARC
8
DEFAULT_255_1_234
10
17.6733564
20
110.6975615
40
0.2953195
50
48.2778575
51
77.4994676
0
ARC
8
DEFAULT_255_1_234
10
17.6806195
20
110.7104746
40
0.2808655
50
36.3142134
51
47.6305865
0
ARC
8
DEFAULT_255_1_234
10
17.5937502
20
110.6519515
40
0.3855453
50
18.2931786
51
35.6769206
0
ARC
8
DEFAULT_255_1_234
10
17.3394261
20
110.5646593
40
0.654423
50
8.024666
51
18.5605216
0
ARC
8
DEFAULT_255_1_234
10
16.9231181
20
110.5031792
40
1.0752407
50
1.1274072
51
8.1718305
0
ARC
8
DEFAULT_255_1_234
10
16.5995371
20
110.4904885
40
1.3990231
50
0.5424119
51
1.3863029
0
ARC
8
DEFAULT_255_1_234
10
16.7816749
20
110.5177342
40
1.0682415
50
359.8090433
51
4.9407866
0
ARC
8
DEFAULT_255_1_234
10
17.2026763
20
110.5553113
40
0.6455691
50
4.8362157
51
12.2904523
0
ARC
8
DEFAULT_255_1_234
10
17.4781878
20
110.6166965
40
0.3633074
50
12.0805627
51
23.8173984
0
ARC
8
DEFAULT_255_1_234
10
17.5955583
20
110.6663919
40
0.2358723
50
24.2871213
51
31.3935614
0
ARC
8
DEFAULT_255_1_234
10
17.648028
20
110.7007233
40
0.1732111
50
30.7407893
51
82.4657128
0
ARC
8
DEFAULT_255_1_234
10
17.6300415
20
110.6123691
40
0.263235
50
81.1060089
51
90.2184952
0
ARC
8
DEFAULT_255_1_234
10
17.6264714
20
110.6381924
40
0.2374236
50
89.3806855
51
105.6762551
0
ARC
8
DEFAULT_255_1_234
10
17.6081344
20
110.7048567
40
0.1682847
50
105.7981136
51
149.7388061
0
ARC
8
DEFAULT_255_1_234
10
17.7145423
20
110.640895
40
0.2924306
50
149.4208916
51
163.6286378
0
ARC
8
DEFAULT_255_1_234
10
17.9236311
20
110.577125
40
0.5110213
50
163.3763315
51
172.1410975
0
ARC
8
DEFAULT_255_1_234
10
18.253703
20
110.5298518
40
0.8444586
50
172.0259487
51
178.0703232
0
ARC
8
DEFAULT_255_1_234
10
18.5567119
20
110.5154906
40
1.1477868
50
177.8631668
51
179.5044149
0
ARC
8
DEFAULT_255_1_234
10
18.4494524
20
110.2840389
40
1.0404907
50
179.7995573
51
185.2460446
0
ARC
8
DEFAULT_255_1_234
10
18.0451563
20
110.2457513
40
0.6343885
50
185.1411642
51
193.0079639
0
ARC
8
DEFAULT_255_1_234
10
17.7808035
20
110.1832641
40
0.3627568
50
192.7897626
51
205.2507664
0
ARC
8
DEFAULT_255_1_234
10
17.6761582
20
110.1365415
40
0.2481908
50
205.8005384
51
211.2537509
0
ARC
8
DEFAULT_255_1_234
10
17.6238023
20
110.101458
40
0.1852521
50
210.3789793
51
238.4008143
0
ARC
8
DEFAULT_255_1_234
10
17.6218545
20
110.1061376
40
0.1882621
50
239.6520629
51
265.9793761
0
ARC
8
DEFAULT_255_1_234
10
17.6303745
20
110.1733427
40
0.2559272
50
265.1315437
51
270.060332
0
ARC
8
DEFAULT_255_1_234
10
17.6332524
20
110.1409534
40
0.2235528
50
269.3314664
51
287.2178029
0
ARC
8
DEFAULT_255_1_234
10
17.6470376
20
110.0906279
40
0.1714108
50
287.7958004
51
329.080874
0
ARC
8
DEFAULT_255_1_234
10
17.5512832
20
110.150393
40
0.2842745
50
328.6634704
51
343.3325132
0
ARC
8
DEFAULT_255_1_234
10
17.3339853
20
110.2180863
40
0.5118644
50
343.0499468
51
351.9393422
0
ARC
8
DEFAULT_255_1_234
10
16.9873153
20
110.2691949
40
0.8622784
50
351.8069023
51
357.7959224
0
ARC
8
DEFAULT_255_1_234
10
16.6637709
20
110.2859721
40
1.1862365
50
357.5871873
51
359.2677531
0
LINE
8
DEFAULT_255_1_234
10
18.9221475
20
110.5037327
11
18.9221475
21
110.3109709
0
LINE
8
DEFAULT_255_1_234
10
18.1840308
20
110.2908916
11
18.1840308
21
110.4892755
0
LINE
8
DEFAULT_255_1_234
10
18.7735604
20
110.2708123
11
18.7735604
21
110.5141739
0
LINE
8
DEFAULT_255_1_234
10
18.3326179
20
110.5254184
11
18.3326179
21
110.2876789
0
ARC
8
DEFAULT_255_1_234
10
17.6974365
20
110.3060805
40
1.2247208
50
353.8441951
51
0.2287902
0
ARC
8
DEFAULT_255_1_234
10
18.1613868
20
110.2542806
40
0.7578929
50
344.4934747
51
353.9765454
0
ARC
8
DEFAULT_255_1_234
10
18.4606459
20
110.1691981
40
0.4467846
50
329.2803592
51
344.7472793
0
ARC
8
DEFAULT_255_1_234
10
18.5599283
20
110.1147018
40
0.3336173
50
324.9352394
51
328.6160465
0
ARC
8
DEFAULT_255_1_234
10
18.5976392
20
110.0883427
40
0.2876076
50
280.580143
51
324.9173126
0
ARC
8
DEFAULT_255_1_234
10
18.5575185
20
110.2554099
40
0.4592847
50
269.5977311
51
281.6734359
0
ARC
8
DEFAULT_255_1_234
10
18.550309
20
110.2434173
40
0.4472986
50
256.6228859
51
270.51044
0
ARC
8
DEFAULT_255_1_234
10
18.5101068
20
110.0885877
40
0.2873874
50
215.8618325
51
257.2788573
0
ARC
8
DEFAULT_255_1_234
10
18.61221
20
110.1570977
40
0.4102928
50
197.9693508
51
215.2623606
0
ARC
8
DEFAULT_255_1_234
10
18.8607215
20
110.2409709
40
0.6725652
50
187.8816417
51
198.2346507
0
ARC
8
DEFAULT_255_1_234
10
19.2565424
20
110.2981079
40
1.0724845
50
180.8976217
51
188.0055519
0
ARC
8
DEFAULT_255_1_234
10
19.5365612
20
110.3084777
40
1.3526448
50
180.7449369
51
181.1510016
0
ARC
8
DEFAULT_255_1_234
10
19.3788341
20
110.4941042
40
1.1948131
50
173.7675579
51
180.231553
0
ARC
8
DEFAULT_255_1_234
10
18.9270487
20
110.5451666
40
0.7401564
50
164.3058563
51
173.9002247
0
ARC
8
DEFAULT_255_1_234
10
18.6358556
20
110.6290656
40
0.4371288
50
148.7922025
51
164.568378
0
ARC
8
DEFAULT_255_1_234
10
18.5407008
20
110.6821929
40
0.3282386
50
144.5883898
51
148.1176286
0
ARC
8
DEFAULT_255_1_234
10
18.5063906
20
110.7061315
40
0.2864044
50
101.6440918
51
144.514236
0
ARC
8
DEFAULT_255_1_234
10
18.5488973
20
110.5372069
40
0.4604934
50
89.5284041
51
102.5819763
0
ARC
8
DEFAULT_255_1_234
10
18.5568061
20
110.5333018
40
0.464401
50
77.0437873
51
90.5081339
0
ARC
8
DEFAULT_255_1_234
10
18.5970063
20
110.6975615
40
0.2953195
50
48.2778575
51
77.4994676
0
ARC
8
DEFAULT_255_1_234
10
18.6042694
20
110.7104746
40
0.2808655
50
36.3142134
51
47.6305865
0
ARC
8
DEFAULT_255_1_234
10
18.5174001
20
110.6519515
40
0.3855453
50
18.2931786
51
35.6769206
0
ARC
8
DEFAULT_255_1_234
10
18.263076
20
110.5646593
40
0.654423
50
8.024666
51
18.5605216
0
ARC
8
DEFAULT_255_1_234
10
17.846768
20
110.5031792
40
1.0752407
50
1.1274072
51
8.1718305
0
ARC
8
DEFAULT_255_1_234
10
17.523187
20
110.4904885
40
1.3990231
50
0.5424119
51
1.3863029
0
ARC
8
DEFAULT_255_1_234
10
17.7053248
20
110.5177342
40
1.0682415
50
359.8090433
51
4.9407866
0
ARC
8
DEFAULT_255_1_234
10
18.1263262
20
110.5553113
40
0.6455691
50
4.8362157
51
12.2904523
0
ARC
8
DEFAULT_255_1_234
10
18.4018377
20
110.6166965
40
0.3633074
50
12.0805627
51
23.8173984
0
ARC
8
DEFAULT_255_1_234
10
18.5192082
20
110.6663919
40
0.2358723
50
24.2871213
51
31.3935614
0
ARC
8
DEFAULT_255_1_234
10
18.5716779
20
110.7007233
40
0.1732111
50
30.7407893
51
82.4657128
0
ARC
8
DEFAULT_255_1_234
10
18.5536914
20
110.6123691
40
0.263235
50
81.1060089
51
90.2184952
0
ARC
8
DEFAULT_255_1_234
10
18.5501213
20
110.6381924
40
0.2374236
50
89.3806855
51
105.6762551
0
ARC
8
DEFAULT_255_1_234
10
18.5317843
20
110.7048567
40
0.1682847
50
105.7981136
51
149.7388061
0
ARC
8
DEFAULT_255_1_234
10
18.6381922
20
110.640895
40
0.2924306
50
149.4208916
51
163.6286378
0
ARC
8
DEFAULT_255_1_234
10
18.847281
20
110.577125
40
0.5110213
50
163.3763315
51
172.1410975
0
ARC
8
DEFAULT_255_1_234
10
19.1773529
20
110.5298518
40
0.8444586
50
172.0259487
51
178.0703232
0
ARC
8
DEFAULT_255_1_234
10
19.4803618
20
110.5154906
40
1.1477868
50
177.8631668
51
179.5044149
0
ARC
8
DEFAULT_255_1_234
10
19.3731023
20
110.2840389
40
1.0404907
50
179.7995573
51
185.2460446
0
ARC
8
DEFAULT_255_1_234
10
18.9688062
20
110.2457513
40
0.6343885
50
185.1411642
51
193.0079639
0
ARC
8
DEFAULT_255_1_234
10
18.7044534
20
110.1832641
40
0.3627568
50
192.7897626
51
205.2507664
0
ARC
8
DEFAULT_255_1_234
10
18.5998081
20
110.1365415
40
0.2481908
50
205.8005384
51
211.2537509
0
ARC
8
DEFAULT_255_1_234
10
18.5474522
20
110.101458
40
0.1852521
50
210.3789793
51
238.4008143
0
ARC
8
DEFAULT_255_1_234
10
18.5455044
20
110.1061376
40
0.1882621
50
239.6520629
51
265.9793761
0
ARC
8
DEFAULT_255_1_234
10
18.5540244
20
110.1733427
40
0.2559272
50
265.1315437
51
270.060332
0
ARC
8
DEFAULT_255_1_234
10
18.5569023
20
110.1409534
40
0.2235528
50
269.3314664
51
287.2178029
0
ARC
8
DEFAULT_255_1_234
10
18.5706875
20
110.0906279
40
0.1714108
50
287.7958004
51
329.080874
0
ARC
8
DEFAULT_255_1_234
10
18.4749332
20
110.150393
40
0.2842745
50
328.6634704
51
343.3325132
0
ARC
8
DEFAULT_255_1_234
10
18.2576352
20
110.2180863
40
0.5118644
50
343.0499468
51
351.9393422
0
ARC
8
DEFAULT_255_1_234
10
17.9109652
20
110.2691949
40
0.8622784
50
351.8069023
51
357.7959224
0
ARC
8
DEFAULT_255_1_234
10
17.5874208
20
110.2859721
40
1.1862365
50
357.5871873
51
359.2677531
0
LINE
8
DEFAULT_255_1_234
10
19.926918
20
110.6434849
11
19.7719054
21
110.6434849
0
LINE
8
DEFAULT_255_1_234
10
19.0795696
20
110.1511394
11
19.2345821
21
110.1511394
0
ARC
8
DEFAULT_255_1_234
10
19.8377867
20
111.5381768
40
1.252368
50
248.9199003
51
254.1439814
0
ARC
8
DEFAULT_255_1_234
10
19.6697362
20
111.1055234
40
0.788226
50
241.633709
51
249.0064503
0
ARC
8
DEFAULT_255_1_234
10
19.5168756
20
110.8254317
40
0.4691427
50
230.498225
51
241.8087113
0
ARC
8
DEFAULT_255_1_234
10
19.4384331
20
110.7254906
40
0.3421437
50
227.4064532
51
229.9881192
0
ARC
8
DEFAULT_255_1_234
10
19.3896851
20
110.6779088
40
0.2741476
50
200.6781896
51
228.1763934
0
ARC
8
DEFAULT_255_1_234
10
19.3969162
20
110.6764077
40
0.2804109
50
179.5061581
51
199.8694617
0
ARC
8
DEFAULT_255_1_234
10
19.3959913
20
110.683821
40
0.2795204
50
132.4834203
51
181.0242172
0
ARC
8
DEFAULT_255_1_234
10
19.4555496
20
110.6275704
40
0.3612768
50
129.2532479
51
133.4242687
0
ARC
8
DEFAULT_255_1_234
10
19.4701945
20
110.6055965
40
0.3875675
50
101.98776
51
128.8742646
0
ARC
8
DEFAULT_255_1_234
10
19.5100556
20
110.4334741
40
0.5642249
50
89.5906553
51
102.3169264
0
ARC
8
DEFAULT_255_1_234
10
19.5171048
20
110.4653148
40
0.5323783
50
77.2360837
51
90.3248275
0
ARC
8
DEFAULT_255_1_234
10
19.5378127
20
110.56204
40
0.4334697
50
63.837784
51
77.0809408
0
ARC
8
DEFAULT_255_1_234
10
19.5655889
20
110.6137911
40
0.3747796
50
45.9864267
51
64.1607727
0
ARC
8
DEFAULT_255_1_234
10
19.591677
20
110.6435866
40
0.3352302
50
32.2747395
51
45.6547121
0
ARC
8
DEFAULT_255_1_234
10
19.5983211
20
110.645488
40
0.328603
50
359.6507365
51
32.6130309
0
ARC
8
DEFAULT_255_1_234
10
19.5040306
20
110.645966
40
0.2678863
50
359.469343
51
14.9832209
0
ARC
8
DEFAULT_255_1_234
10
19.5745369
20
110.6648539
40
0.1948938
50
14.9781179
51
48.2004265
0
ARC
8
DEFAULT_255_1_234
10
19.5581013
20
110.6441983
40
0.2212521
50
48.5927837
51
74.1241538
0
ARC
8
DEFAULT_255_1_234
10
19.5247502
20
110.5341248
40
0.3362561
50
73.7888341
51
86.6652678
0
ARC
8
DEFAULT_255_1_234
10
19.5145068
20
110.4133881
40
0.4573953
50
86.2640471
51
90.0526343
0
ARC
8
DEFAULT_255_1_234
10
19.5116781
20
110.4529192
40
0.4178709
50
89.6697524
51
99.2309573
0
ARC
8
DEFAULT_255_1_234
10
19.4874232
20
110.5973964
40
0.2713749
50
99.069534
51
113.7658566
0
ARC
8
DEFAULT_255_1_234
10
19.4600423
20
110.6619677
40
0.2012469
50
114.0401004
51
127.9850673
0
ARC
8
DEFAULT_255_1_234
10
19.4359987
20
110.691573
40
0.1631167
50
127.7287463
51
176.7105154
0
ARC
8
DEFAULT_255_1_234
10
19.5038704
20
110.6814693
40
0.2315392
50
175.1779447
51
180.0581938
0
ARC
8
DEFAULT_255_1_234
10
19.4195551
20
110.6802428
40
0.1472271
50
179.6142195
51
228.1246017
0
ARC
8
DEFAULT_255_1_234
10
19.463722
20
110.7211308
40
0.2072299
50
226.5779593
51
230.8800004
0
ARC
8
DEFAULT_255_1_234
10
19.5108298
20
110.7836636
40
0.2854818
50
231.4635071
51
241.9260842
0
ARC
8
DEFAULT_255_1_234
10
19.6305476
20
111.00398
40
0.53622
50
241.7178533
51
248.3259551
0
ARC
8
DEFAULT_255_1_234
10
19.7690848
20
111.3472064
40
0.9063478
50
248.2007737
51
252.4528373
0
ARC
8
DEFAULT_255_1_234
10
19.8894573
20
111.7193441
40
1.2974635
50
252.3391078
51
254.3469452
0
ARC
8
DEFAULT_255_1_234
10
19.1352275
20
109.0216148
40
1.5037162
50
71.0197183
51
74.4087047
0
ARC
8
DEFAULT_255_1_234
10
19.3046961
20
109.5108111
40
0.9859993
50
66.1847285
51
71.086374
0
ARC
8
DEFAULT_255_1_234
10
19.4603273
20
109.86122
40
0.6025855
50
59.3536294
51
66.2691831
0
ARC
8
DEFAULT_255_1_234
10
19.5491925
20
110.0115609
40
0.4279449
50
49.1020879
51
59.3293958
0
ARC
8
DEFAULT_255_1_234
10
19.6310665
20
110.1048834
40
0.3038015
50
32.7919921
51
49.2505539
0
ARC
8
DEFAULT_255_1_234
10
19.6631755
20
110.1277191
40
0.264448
50
31.1181161
51
32.4005348
0
ARC
8
DEFAULT_255_1_234
10
19.6543293
20
110.1241779
40
0.2738556
50
8.1116974
51
30.7958831
0
ARC
8
DEFAULT_255_1_234
10
19.5732961
20
110.1103753
40
0.3560327
50
359.8389159
51
8.4706516
0
ARC
8
DEFAULT_255_1_234
10
19.6358753
20
110.1055137
40
0.2934776
50
337.4731098
51
0.7537279
0
ARC
8
DEFAULT_255_1_234
10
19.6537447
20
110.1035387
40
0.2762607
50
307.5917067
51
336.4315538
0
ARC
8
DEFAULT_255_1_234
10
19.6077275
20
110.1548102
40
0.3449979
50
307.6551545
51
308.4529766
0
ARC
8
DEFAULT_255_1_234
10
19.5846994
20
110.190325
40
0.3871988
50
284.3734338
51
307.1424381
0
ARC
8
DEFAULT_255_1_234
10
19.5351824
20
110.3724932
40
0.5759636
50
272.4382747
51
284.646547
0
ARC
8
DEFAULT_255_1_234
10
19.5225033
20
110.5524893
40
0.7563528
50
269.9708387
51
272.8178037
0
ARC
8
DEFAULT_255_1_234
10
19.5182073
20
110.3486716
40
0.5525489
50
248.2707594
51
270.4055579
0
ARC
8
DEFAULT_255_1_234
10
19.5127814
20
110.3296192
40
0.5328452
50
246.1383403
51
248.0542782
0
ARC
8
DEFAULT_255_1_234
10
19.4709193
20
110.2416843
40
0.4355005
50
233.1670131
51
246.4950969
0
ARC
8
DEFAULT_255_1_234
10
19.4155098
20
110.1668812
40
0.3424126
50
215.3403242
51
233.0843104
0
ARC
8
DEFAULT_255_1_234
10
19.3882529
20
110.1470549
40
0.3087104
50
179.2419209
51
215.2648451
0
ARC
8
DEFAULT_255_1_234
10
19.4650123
20
110.1484666
40
0.2304457
50
179.335461
51
199.1045811
0
ARC
8
DEFAULT_255_1_234
10
19.43178
20
110.1397766
40
0.1962176
50
199.8828939
51
232.7063202
0
ARC
8
DEFAULT_255_1_234
10
19.4790068
20
110.1991788
40
0.2720938
50
232.3738199
51
255.5136649
0
ARC
8
DEFAULT_255_1_234
10
19.5130935
20
110.3235835
40
0.4010747
50
255.2446292
51
267.5320849
0
ARC
8
DEFAULT_255_1_234
10
19.5218558
20
110.4468702
40
0.5246356
50
267.1557994
51
270.0286766
0
ARC
8
DEFAULT_255_1_234
10
19.524633
20
110.402495
40
0.4802668
50
269.7000017
51
278.1660162
0
ARC
8
DEFAULT_255_1_234
10
19.5502335
20
110.2294515
40
0.3053425
50
278.0231263
51
290.625471
0
ARC
8
DEFAULT_255_1_234
10
19.5850022
20
110.1367025
40
0.206291
50
290.6619762
51
307.0370976
0
ARC
8
DEFAULT_255_1_234
10
19.6150411
20
110.0998504
40
0.1587906
50
306.3943566
51
355.3030547
0
ARC
8
DEFAULT_255_1_234
10
19.5638343
20
110.1075113
40
0.2104809
50
354.3660432
51
0.0698737
0
ARC
8
DEFAULT_255_1_234
10
19.5780688
20
110.1097617
40
0.1962563
50
359.417946
51
16.1971788
0
ARC
8
DEFAULT_255_1_234
10
19.6235998
20
110.1222418
40
0.149053
50
16.4723299
51
52.6262157
0
ARC
8
DEFAULT_255_1_234
10
19.5415052
20
110.0138433
40
0.2850296
50
52.7386432
51
62.4979148
0
ARC
8
DEFAULT_255_1_234
10
19.4030129
20
109.7532283
40
0.5801521
50
62.2515216
51
68.1220564
0
ARC
8
DEFAULT_255_1_234
10
19.231004
20
109.3304872
40
1.0365451
50
68.0062803
51
71.8053402
0
ARC
8
DEFAULT_255_1_234
10
19.0514412
20
108.7919758
40
1.6042013
50
71.7183119
51
73.9258742
0
LINE
8
DEFAULT_255_1_234
10
20.5566062
20
110.2700091
11
20.2811176
21
110.2700091
0
LINE
8
DEFAULT_255_1_234
10
20.2811176
20
110.2700091
11
20.2811176
21
109.8122
0
LINE
8
DEFAULT_255_1_234
10
20.2811176
20
109.8122
11
20.1269083
21
109.8122
0
LINE
8
DEFAULT_255_1_234
10
20.1269083
20
109.8122
11
20.1269083
21
110.9816211
0
LINE
8
DEFAULT_255_1_234
10
20.1269083
20
110.9816211
11
20.5582126
21
110.9816211
0
LINE
8
DEFAULT_255_1_234
10
20.2811176
20
110.8547196
11
20.2811176
21
110.3961074
0
LINE
8
DEFAULT_255_1_234
10
20.2811176
20
110.3961074
11
20.5582126
21
110.3961074
0
LINE
8
DEFAULT_255_1_234
10
20.5670475
20
110.8547196
11
20.2811176
21
110.8547196
0
ARC
8
DEFAULT_255_1_234
10
20.5624253
20
110.3757195
40
0.6059162
50
78.8378113
51
90.3983573
0
ARC
8
DEFAULT_255_1_234
10
20.6040266
20
110.5777879
40
0.3996205
50
58.9632738
51
79.0810598
0
ARC
8
DEFAULT_255_1_234
10
20.6341809
20
110.6337721
40
0.3361177
50
48.0197965
51
58.447194
0
ARC
8
DEFAULT_255_1_234
10
20.643067
20
110.6423225
40
0.3238191
50
3.3375044
51
48.1766626
0
ARC
8
DEFAULT_255_1_234
10
20.5200509
20
110.6246171
40
0.4477806
50
359.9477528
51
4.6829065
0
ARC
8
DEFAULT_255_1_234
10
20.5323826
20
110.6203628
40
0.4354656
50
346.1877825
51
0.5060252
0
ARC
8
DEFAULT_255_1_234
10
20.6682694
20
110.5850731
40
0.295089
50
310.8831995
51
346.5426355
0
ARC
8
DEFAULT_255_1_234
10
20.6374114
20
110.6267695
40
0.3468331
50
286.6925341
51
310.2288297
0
ARC
8
DEFAULT_255_1_234
10
20.5804944
20
110.8057882
40
0.5346654
50
274.6850312
51
287.0245141
0
ARC
8
DEFAULT_255_1_234
10
20.5579667
20
111.0266932
40
0.7566852
50
269.8969846
51
275.018904
0
ARC
8
DEFAULT_255_1_234
10
20.5607259
20
110.8187707
40
0.4226708
50
269.6593078
51
279.4153575
0
ARC
8
DEFAULT_255_1_234
10
20.5864534
20
110.6697133
40
0.2714146
50
279.2049762
51
294.9900808
0
ARC
8
DEFAULT_255_1_234
10
20.615486
20
110.6049508
40
0.2004525
50
295.2888114
51
311.2911209
0
ARC
8
DEFAULT_255_1_234
10
20.6225754
20
110.594422
40
0.1878703
50
311.7854996
51
347.2861051
0
ARC
8
DEFAULT_255_1_234
10
20.5241912
20
110.6197092
40
0.2894234
50
346.6893224
51
0.1059443
0
ARC
8
DEFAULT_255_1_234
10
20.4486808
20
110.6225685
40
0.3649409
50
359.6350983
51
0.0053152
0
ARC
8
DEFAULT_255_1_234
10
20.5457136
20
110.6250937
40
0.2679199
50
359.4672059
51
15.5933957
0
ARC
8
DEFAULT_255_1_234
10
20.6082025
20
110.6419779
40
0.2031932
50
15.7442113
51
46.6203375
0
ARC
8
DEFAULT_255_1_234
10
20.5934245
20
110.6249484
40
0.2257226
50
46.8628658
51
75.6676503
0
ARC
8
DEFAULT_255_1_234
10
20.5640066
20
110.5190718
40
0.3355939
50
75.276167
51
88.2915297
0
ARC
8
DEFAULT_255_1_234
10
20.5581772
20
110.4312524
40
0.4235602
50
87.8575022
51
88.8000139
0
LINE
8
DEFAULT_255_2_778
10
9.3926834
20
55.4302333
11
12.0384834
21
55.4302333
0
LINE
8
DEFAULT_255_2_778
10
12.0384834
20
55.4302333
11
12.0384834
21
50.1385333
0
LINE
8
DEFAULT_255_2_778
10
12.0384834
20
50.1385333
11
9.3926834
21
50.1385333
0
LINE
8
DEFAULT_255_2_778
10
9.3926834
20
50.1385333
11
9.3926834
21
55.4302333
0
LINE
8
DEFAULT_255_2_778
10
10.7156
20
54.9010666
11
10.7156
21
50.6677666
0
LINE
8
DEFAULT_255_2_778
10
10.4510167
20
51.461475
11
10.7156167
21
50.667775
0
LINE
8
DEFAULT_255_2_778
10
10.7156167
20
50.667775
11
10.9802167
21
51.461475
0
LINE
8
DEFAULT_255_2_778
10
10.9802167
20
51.461475
11
10.4510167
21
51.461475
0
LINE
8
DEFAULT_255_2_778
10
9.3927417
20
100.4093987
11
10.7156417
21
100.4093987
0
LINE
8
DEFAULT_255_2_778
10
10.7156417
20
100.4093987
11
10.7156417
21
55.4301987
0
LINE
8
DEFAULT_255_2_778
10
10.7156417
20
50.1385987
11
10.7156417
21
5.1593987
0
LINE
8
DEFAULT_255_2_778
10
10.7156417
20
5.1593987
11
9.3927417
21
5.1593987
0
LINE
8
DEFAULT_255_1_234
10
4.2454489
20
108.9973211
11
4.2454489
21
107.9539983
0
LINE
8
DEFAULT_255_1_234
10
4.2454489
20
107.9539983
11
4.7996389
21
107.9539983
0
LINE
8
DEFAULT_255_1_234
10
4.7996389
20
107.9539983
11
4.7996389
21
107.8279
0
LINE
8
DEFAULT_255_1_234
10
4.7996389
20
107.8279
11
4.0904364
21
107.8279
0
LINE
8
DEFAULT_255_1_234
10
4.0904364
20
107.8279
11
4.0904364
21
108.9973211
0
LINE
8
DEFAULT_255_1_234
10
4.0904364
20
108.9973211
11
4.2454489
21
108.9973211
0
LINE
8
DEFAULT_255_1_234
10
5.377924
20
108.7965276
11
5.377924
21
108.4551788
0
LINE
8
DEFAULT_255_1_234
10
5.377924
20
108.4551788
11
5.7040126
21
108.4551788
0
LINE
8
DEFAULT_255_1_234
10
5.7040126
20
108.4551788
11
5.7040126
21
108.3146233
0
LINE
8
DEFAULT_255_1_234
10
5.7040126
20
108.3146233
11
5.377924
21
108.3146233
0
LINE
8
DEFAULT_255_1_234
10
5.377924
20
108.3146233
11
5.377924
21
107.9451634
0
LINE
8
DEFAULT_255_1_234
10
5.377924
20
107.9451634
11
5.2285337
21
107.9451634
0
LINE
8
DEFAULT_255_1_234
10
5.2285337
20
107.9451634
11
5.2285337
21
108.3146233
0
LINE
8
DEFAULT_255_1_234
10
5.2285337
20
108.3146233
11
4.9024451
21
108.3146233
0
LINE
8
DEFAULT_255_1_234
10
4.9024451
20
108.3146233
11
4.9024451
21
108.4551788
0
LINE
8
DEFAULT_255_1_234
10
4.9024451
20
108.4551788
11
5.2285337
21
108.4551788
0
LINE
8
DEFAULT_255_1_234
10
5.2285337
20
108.4551788
11
5.2285337
21
108.7965276
0
LINE
8
DEFAULT_255_1_234
10
5.2285337
20
108.7965276
11
5.377924
21
108.7965276
0
LINE
8
DEFAULT_255_1_234
10
4.1298364
20
5.8098211
11
4.3290235
21
5.8098211
0
LINE
8
DEFAULT_255_1_234
10
4.3290235
20
5.8098211
11
4.7113342
21
4.8556506
0
LINE
8
DEFAULT_255_1_234
10
4.7113342
20
4.8556506
11
5.093645
21
5.8098211
0
LINE
8
DEFAULT_255_1_234
10
5.093645
20
5.8098211
11
5.2936353
21
5.8098211
0
LINE
8
DEFAULT_255_1_234
10
5.2936353
20
5.8098211
11
5.2936353
21
4.6404
0
LINE
8
DEFAULT_255_1_234
10
5.2936353
20
4.6404
11
5.1394259
21
4.6404
0
LINE
8
DEFAULT_255_1_234
10
5.1394259
20
4.6404
11
5.1394259
21
5.0957996
0
LINE
8
DEFAULT_255_1_234
10
5.1394259
20
5.0957996
11
5.153883
21
5.5873419
0
LINE
8
DEFAULT_255_1_234
10
5.153883
20
5.5873419
11
4.7699659
21
4.6404
0
LINE
8
DEFAULT_255_1_234
10
4.7699659
20
4.6404
11
4.6518994
21
4.6404
0
LINE
8
DEFAULT_255_1_234
10
4.6518994
20
4.6404
11
4.2687854
21
5.5849324
0
LINE
8
DEFAULT_255_1_234
10
4.2687854
20
5.5849324
11
4.2840458
21
5.0957996
0
LINE
8
DEFAULT_255_1_234
10
4.2840458
20
5.0957996
11
4.2840458
21
4.6404
0
LINE
8
DEFAULT_255_1_234
10
4.2840458
20
4.6404
11
4.1298364
21
4.6404
0
LINE
8
DEFAULT_255_1_234
10
4.1298364
20
4.6404
11
4.1298364
21
5.8098211
0
LINE
8
DEFAULT_255_1_234
10
6.2823422
20
5.8098211
11
6.2823422
21
5.726291
0
LINE
8
DEFAULT_255_1_234
10
6.2823422
20
5.726291
11
5.7980284
21
4.6404
0
LINE
8
DEFAULT_255_1_234
10
5.7980284
20
4.6404
11
5.6422127
21
4.6404
0
LINE
8
DEFAULT_255_1_234
10
5.6422127
20
4.6404
11
6.1249202
21
5.6877387
0
LINE
8
DEFAULT_255_1_234
10
6.1249202
20
5.6877387
11
5.4920192
21
5.6877387
0
LINE
8
DEFAULT_255_1_234
10
5.4920192
20
5.6877387
11
5.4920192
21
5.8098211
0
LINE
8
DEFAULT_255_1_234
10
5.4920192
20
5.8098211
11
6.2823422
21
5.8098211
0
LINE
8
DEFAULT_255_1_234
10
4.1298364
20
13.7473211
11
4.3290235
21
13.7473211
0
LINE
8
DEFAULT_255_1_234
10
4.3290235
20
13.7473211
11
4.7113342
21
12.7931506
0
LINE
8
DEFAULT_255_1_234
10
4.7113342
20
12.7931506
11
5.093645
21
13.7473211
0
LINE
8
DEFAULT_255_1_234
10
5.093645
20
13.7473211
11
5.2936353
21
13.7473211
0
LINE
8
DEFAULT_255_1_234
10
5.2936353
20
13.7473211
11
5.2936353
21
12.5779
0
LINE
8
DEFAULT_255_1_234
10
5.2936353
20
12.5779
11
5.1394259
21
12.5779
0
LINE
8
DEFAULT_255_1_234
10
5.1394259
20
12.5779
11
5.1394259
21
13.0332996
0
LINE
8
DEFAULT_255_1_234
10
5.1394259
20
13.0332996
11
5.153883
21
13.5248419
0
LINE
8
DEFAULT_255_1_234
10
5.153883
20
13.5248419
11
4.7699659
21
12.5779
0
LINE
8
DEFAULT_255_1_234
10
4.7699659
20
12.5779
11
4.6518994
21
12.5779
0
LINE
8
DEFAULT_255_1_234
10
4.6518994
20
12.5779
11
4.2687854
21
13.5224324
0
LINE
8
DEFAULT_255_1_234
10
4.2687854
20
13.5224324
11
4.2840458
21
13.0332996
0
LINE
8
DEFAULT_255_1_234
10
4.2840458
20
13.0332996
11
4.2840458
21
12.5779
0
LINE
8
DEFAULT_255_1_234
10
4.2840458
20
12.5779
11
4.1298364
21
12.5779
0
LINE
8
DEFAULT_255_1_234
10
4.1298364
20
12.5779
11
4.1298364
21
13.7473211
0
LINE
8
DEFAULT_255_1_234
10
6.2823422
20
13.7473211
11
6.2823422
21
13.663791
0
LINE
8
DEFAULT_255_1_234
10
6.2823422
20
13.663791
11
5.7980284
21
12.5779
0
LINE
8
DEFAULT_255_1_234
10
5.7980284
20
12.5779
11
5.6422127
21
12.5779
0
LINE
8
DEFAULT_255_1_234
10
5.6422127
20
12.5779
11
6.1249202
21
13.6252387
0
LINE
8
DEFAULT_255_1_234
10
6.1249202
20
13.6252387
11
5.4920192
21
13.6252387
0
LINE
8
DEFAULT_255_1_234
10
5.4920192
20
13.6252387
11
5.4920192
21
13.7473211
0
LINE
8
DEFAULT_255_1_234
10
5.4920192
20
13.7473211
11
6.2823422
21
13.7473211
0
LINE
8
DEFAULT_255_1_234
10
4.1298364
20
21.6848211
11
4.3290235
21
21.6848211
0
LINE
8
DEFAULT_255_1_234
10
4.3290235
20
21.6848211
11
4.7113342
21
20.7306506
0
LINE
8
DEFAULT_255_1_234
10
4.7113342
20
20.7306506
11
5.093645
21
21.6848211
0
LINE
8
DEFAULT_255_1_234
10
5.093645
20
21.6848211
11
5.2936353
21
21.6848211
0
LINE
8
DEFAULT_255_1_234
10
5.2936353
20
21.6848211
11
5.2936353
21
20.5154
0
LINE
8
DEFAULT_255_1_234
10
5.2936353
20
20.5154
11
5.1394259
21
20.5154
0
LINE
8
DEFAULT_255_1_234
10
5.1394259
20
20.5154
11
5.1394259
21
20.9707996
0
LINE
8
DEFAULT_255_1_234
10
5.1394259
20
20.9707996
11
5.153883
21
21.4623419
0
LINE
8
DEFAULT_255_1_234
10
5.153883
20
21.4623419
11
4.7699659
21
20.5154
0
LINE
8
DEFAULT_255_1_234
10
4.7699659
20
20.5154
11
4.6518994
21
20.5154
0
LINE
8
DEFAULT_255_1_234
10
4.6518994
20
20.5154
11
4.2687854
21
21.4599324
0
LINE
8
DEFAULT_255_1_234
10
4.2687854
20
21.4599324
11
4.2840458
21
20.9707996
0
LINE
8
DEFAULT_255_1_234
10
4.2840458
20
20.9707996
11
4.2840458
21
20.5154
0
LINE
8
DEFAULT_255_1_234
10
4.2840458
20
20.5154
11
4.1298364
21
20.5154
0
LINE
8
DEFAULT_255_1_234
10
4.1298364
20
20.5154
11
4.1298364
21
21.6848211
0
LINE
8
DEFAULT_255_1_234
10
6.0839583
20
21.6856243
11
6.110463
21
21.6856243
0
LINE
8
DEFAULT_255_1_234
10
6.110463
20
21.6856243
11
6.110463
21
21.559526
0
LINE
8
DEFAULT_255_1_234
10
6.110463
20
21.559526
11
6.0831551
21
21.559526
0
LINE
8
DEFAULT_255_1_234
10
5.5361938
20
20.9603583
11
5.5361938
21
21.0173836
0
LINE
8
DEFAULT_255_1_234
10
5.6855841
20
20.9981075
11
5.6855841
21
20.9434917
0
ARC
8
DEFAULT_255_1_234
10
6.0883899
20
21.0597455
40
0.4998079
50
90.6001036
51
104.514704
0
ARC
8
DEFAULT_255_1_234
10
6.0495415
20
21.2042131
40
0.3502176
50
104.2855254
51
133.862935
0
ARC
8
DEFAULT_255_1_234
10
6.0659172
20
21.193383
40
0.3693984
50
134.5302688
51
161.6210873
0
ARC
8
DEFAULT_255_1_234
10
6.2312361
20
21.1350895
40
0.5446739
50
161.2849839
51
174.2076652
0
ARC
8
DEFAULT_255_1_234
10
6.3719298
20
21.1156787
40
0.6866274
50
173.7810589
51
174.9254635
0
ARC
8
DEFAULT_255_1_234
10
5.916913
20
20.9773839
40
0.3033419
50
95.8330959
51
138.9954921
0
ARC
8
DEFAULT_255_1_234
10
5.9392486
20
20.8495375
40
0.4328947
50
89.8753725
51
97.0544009
0
ARC
8
DEFAULT_255_1_234
10
5.9439952
20
20.9330748
40
0.3493769
50
71.6407809
51
90.6240094
0
ARC
8
DEFAULT_255_1_234
10
5.9590525
20
20.9885082
40
0.2920396
50
39.6367836
51
71.019018
0
ARC
8
DEFAULT_255_1_234
10
5.8953998
20
20.9334998
40
0.3761538
50
10.658731
51
39.9043955
0
ARC
8
DEFAULT_255_1_234
10
5.7406081
20
20.8998686
40
0.5345136
50
359.682601
51
11.132623
0
ARC
8
DEFAULT_255_1_234
10
5.7366212
20
20.892801
40
0.5385081
50
347.2486944
51
0.4369317
0
ARC
8
DEFAULT_255_1_234
10
5.9033689
20
20.8526807
40
0.3670249
50
318.1409698
51
347.6118597
0
ARC
8
DEFAULT_255_1_234
10
5.9358682
20
20.8259702
40
0.3250007
50
275.6342139
51
317.8248465
0
ARC
8
DEFAULT_255_1_234
10
5.9137793
20
20.9559219
40
0.4565864
50
269.8874292
51
276.7917694
0
ARC
8
DEFAULT_255_1_234
10
5.9082864
20
20.8533743
40
0.3540676
50
246.9140195
51
270.7437342
0
ARC
8
DEFAULT_255_1_234
10
5.9089254
20
20.8391384
40
0.3412781
50
218.1665114
51
245.878116
0
ARC
8
DEFAULT_255_1_234
10
5.9968715
20
20.9127279
40
0.455911
50
191.4115814
51
218.6077802
0
ARC
8
DEFAULT_255_1_234
10
6.1906804
20
20.9561833
40
0.6545001
50
179.6345085
51
191.7836486
0
ARC
8
DEFAULT_255_1_234
10
6.7489141
20
21.0240697
40
1.2127388
50
171.4525249
51
180.3158839
0
ARC
8
DEFAULT_255_1_234
10
6.3094017
20
21.0924608
40
0.7679464
50
157.9802646
51
171.6246686
0
ARC
8
DEFAULT_255_1_234
10
6.0880038
20
21.1807421
40
0.5296008
50
141.4298019
51
157.854097
0
ARC
8
DEFAULT_255_1_234
10
6.0238358
20
21.2261381
40
0.4511509
50
102.8715806
51
140.8564722
0
ARC
8
DEFAULT_255_1_234
10
6.0885974
20
20.9821552
40
0.7034845
50
90.3778349
51
103.5869322
0
ARC
8
DEFAULT_255_1_234
10
5.914775
20
20.921673
40
0.2370698
50
89.8751008
51
126.2071704
0
ARC
8
DEFAULT_255_1_234
10
5.919354
20
20.9062303
40
0.2522934
50
124.9745049
51
144.895901
0
ARC
8
DEFAULT_255_1_234
10
5.901773
20
20.920556
40
0.2296779
50
145.2974905
51
160.2660252
0
ARC
8
DEFAULT_255_1_234
10
6.2090269
20
20.9403071
40
0.5234525
50
179.6514266
51
190.2855912
0
ARC
8
DEFAULT_255_1_234
10
6.0396406
20
20.9083786
40
0.3510893
50
190.0945431
51
207.5098196
0
ARC
8
DEFAULT_255_1_234
10
5.9830676
20
20.8814623
40
0.288489
50
207.9583163
51
216.3251085
0
ARC
8
DEFAULT_255_1_234
10
5.9490784
20
20.8535105
40
0.2445587
50
215.7661442
51
232.5456785
0
ARC
8
DEFAULT_255_1_234
10
5.9107767
20
20.8048482
40
0.1826382
50
232.8005391
51
270.6605633
0
ARC
8
DEFAULT_255_1_234
10
5.9153468
20
20.8412612
40
0.2190529
50
269.35537
51
288.4744281
0
ARC
8
DEFAULT_255_1_234
10
5.9246365
20
20.8063118
40
0.1829749
50
289.1833337
51
322.9683818
0
ARC
8
DEFAULT_255_1_234
10
5.8634887
20
20.8545391
40
0.2608399
50
322.6007884
51
346.5182367
0
ARC
8
DEFAULT_255_1_234
10
5.7477483
20
20.8840616
40
0.3802777
50
346.2582162
51
358.7741648
0
ARC
8
DEFAULT_255_1_234
10
5.6459152
20
20.8895965
40
0.4822176
50
358.3755224
51
0.0098023
0
ARC
8
DEFAULT_255_1_234
10
5.7215339
20
20.8923657
40
0.4066078
50
359.6214041
51
11.2839074
0
ARC
8
DEFAULT_255_1_234
10
5.8492486
20
20.9190066
40
0.2761514
50
11.0482309
51
31.8146458
0
ARC
8
DEFAULT_255_1_234
10
5.8801529
20
20.9357584
40
0.2410679
50
32.3035391
51
38.082671
0
ARC
8
DEFAULT_255_1_234
10
5.9222189
20
20.9738662
40
0.1844966
50
36.825067
51
85.7415724
0
ARC
8
DEFAULT_255_1_234
10
5.9155022
20
20.9238301
40
0.2349122
50
85.0140713
51
90.0513278
0
LINE
8
DEFAULT_255_1_234
10
4.1298364
20
29.6223211
11
4.3290235
21
29.6223211
0
LINE
8
DEFAULT_255_1_234
10
4.3290235
20
29.6223211
11
4.7113342
21
28.6681506
0
LINE
8
DEFAULT_255_1_234
10
4.7113342
20
28.6681506
11
5.093645
21
29.6223211
0
LINE
8
DEFAULT_255_1_234
10
5.093645
20
29.6223211
11
5.2936353
21
29.6223211
0
LINE
8
DEFAULT_255_1_234
10
5.2936353
20
29.6223211
11
5.2936353
21
28.4529
0
LINE
8
DEFAULT_255_1_234
10
5.2936353
20
28.4529
11
5.1394259
21
28.4529
0
LINE
8
DEFAULT_255_1_234
10
5.1394259
20
28.4529
11
5.1394259
21
28.9082996
0
LINE
8
DEFAULT_255_1_234
10
5.1394259
20
28.9082996
11
5.153883
21
29.3998419
0
LINE
8
DEFAULT_255_1_234
10
5.153883
20
29.3998419
11
4.7699659
21
28.4529
0
LINE
8
DEFAULT_255_1_234
10
4.7699659
20
28.4529
11
4.6518994
21
28.4529
0
LINE
8
DEFAULT_255_1_234
10
4.6518994
20
28.4529
11
4.2687854
21
29.3974324
0
LINE
8
DEFAULT_255_1_234
10
4.2687854
20
29.3974324
11
4.2840458
21
28.9082996
0
LINE
8
DEFAULT_255_1_234
10
4.2840458
20
28.9082996
11
4.2840458
21
28.4529
0
LINE
8
DEFAULT_255_1_234
10
4.2840458
20
28.4529
11
4.1298364
21
28.4529
0
LINE
8
DEFAULT_255_1_234
10
4.1298364
20
28.4529
11
4.1298364
21
29.6223211
0
LINE
8
DEFAULT_255_1_234
10
5.7144983
20
29.0086963
11
5.5956286
21
29.0392169
0
LINE
8
DEFAULT_255_1_234
10
5.5956286
20
29.0392169
11
5.6550635
21
29.6223211
0
LINE
8
DEFAULT_255_1_234
10
5.6550635
20
29.6223211
11
6.2542312
21
29.6223211
0
LINE
8
DEFAULT_255_1_234
10
6.2542312
20
29.6223211
11
6.2542312
21
29.4849784
0
LINE
8
DEFAULT_255_1_234
10
6.2542312
20
29.4849784
11
5.7811618
21
29.4849784
0
LINE
8
DEFAULT_255_1_234
10
5.7811618
20
29.4849784
11
5.7458221
21
29.1661184
0
LINE
8
DEFAULT_255_1_234
10
5.5538636
20
28.7605156
11
5.694419
21
28.7605156
0
LINE
8
DEFAULT_255_1_234
10
5.7538539
20
29.0408232
11
5.7144983
21
29.0086963
0
ARC
8
DEFAULT_255_1_234
10
5.9313005
20
28.848123
40
0.3681349
50
93.7182161
51
120.2538958
0
ARC
8
DEFAULT_255_1_234
10
5.9407268
20
28.7673394
40
0.449379
50
89.9660152
51
94.2496022
0
ARC
8
DEFAULT_255_1_234
10
5.9448002
20
28.8262549
40
0.390482
50
73.8043271
51
90.5585896
0
ARC
8
DEFAULT_255_1_234
10
5.9682899
20
28.9120602
40
0.3015334
50
41.3071453
51
73.5430202
0
ARC
8
DEFAULT_255_1_234
10
5.9266726
20
28.8762324
40
0.3564457
50
13.5075983
51
41.2174222
0
ARC
8
DEFAULT_255_1_234
10
5.762493
20
28.8332486
40
0.5261351
50
1.1331335
51
13.8829381
0
ARC
8
DEFAULT_255_1_234
10
5.6213299
20
28.8256665
40
0.6674378
50
359.9919444
51
1.544251
0
ARC
8
DEFAULT_255_1_234
10
5.7490125
20
28.821528
40
0.5397702
50
347.8572367
51
0.4293338
0
ARC
8
DEFAULT_255_1_234
10
5.9240443
20
28.7818736
40
0.3603188
50
323.673004
51
348.1672506
0
ARC
8
DEFAULT_255_1_234
10
5.9534951
20
28.7639168
40
0.3259678
50
316.8171152
51
323.1492751
0
ARC
8
DEFAULT_255_1_234
10
5.959614
20
28.760246
40
0.3189975
50
281.8396411
51
316.5457803
0
ARC
8
DEFAULT_255_1_234
10
5.9220404
20
28.9157762
40
0.4789527
50
269.5770101
51
282.4214771
0
ARC
8
DEFAULT_255_1_234
10
5.9149215
20
28.8944125
40
0.45759
50
256.2427136
51
270.4486331
0
ARC
8
DEFAULT_255_1_234
10
5.8850118
20
28.7744229
40
0.3339303
50
228.9023911
51
256.3314342
0
ARC
8
DEFAULT_255_1_234
10
5.877635
20
28.7627746
40
0.32031
50
193.753695
51
228.5271154
0
ARC
8
DEFAULT_255_1_234
10
6.0014304
20
28.79908
40
0.4492253
50
184.924711
51
194.497588
0
ARC
8
DEFAULT_255_1_234
10
6.0206871
20
28.8026591
40
0.3289787
50
187.3600538
51
198.6732863
0
ARC
8
DEFAULT_255_1_234
10
5.9157165
20
28.7662674
40
0.217884
50
198.4451669
51
217.794479
0
ARC
8
DEFAULT_255_1_234
10
5.886134
20
28.7453085
40
0.1816698
50
218.2887171
51
228.5612368
0
ARC
8
DEFAULT_255_1_234
10
5.8959127
20
28.7584963
40
0.1980329
50
228.9654866
51
258.1234728
0
ARC
8
DEFAULT_255_1_234
10
5.9164837
20
28.8465833
40
0.2884748
50
257.7258293
51
270.401361
0
ARC
8
DEFAULT_255_1_234
10
5.9209724
20
28.8020821
40
0.2439788
50
269.4204404
51
286.4209037
0
ARC
8
DEFAULT_255_1_234
10
5.9358211
20
28.7481657
40
0.1880666
50
286.7251356
51
320.600362
0
ARC
8
DEFAULT_255_1_234
10
5.8975036
20
28.7792595
40
0.2374121
50
320.6712579
51
344.5441685
0
ARC
8
DEFAULT_255_1_234
10
5.7818362
20
28.8132045
40
0.3579479
50
344.2412205
51
356.7357071
0
ARC
8
DEFAULT_255_1_234
10
5.6569511
20
28.8235444
40
0.4832297
50
356.3548756
51
0.0500261
0
ARC
8
DEFAULT_255_1_234
10
5.790602
20
28.826665
40
0.3495889
50
359.5576869
51
12.953486
0
ARC
8
DEFAULT_255_1_234
10
5.8960917
20
28.8522434
40
0.2410532
50
12.6490276
51
41.6081334
0
ARC
8
DEFAULT_255_1_234
10
5.9191288
20
28.8718321
40
0.2108218
50
41.7850273
51
85.9892764
0
ARC
8
DEFAULT_255_1_234
10
5.9068025
20
28.7905462
40
0.2928454
50
84.6957577
51
90.0676183
0
ARC
8
DEFAULT_255_1_234
10
5.9044509
20
28.7236716
40
0.3597255
50
89.6804936
51
99.1614436
0
ARC
8
DEFAULT_255_1_234
10
5.883914
20
28.8464131
40
0.235281
50
98.9830931
51
113.8908934
0
ARC
8
DEFAULT_255_1_234
10
5.860955
20
28.9005587
40
0.176479
50
114.1950727
51
127.3641004
0
LINE
8
DEFAULT_255_1_234
10
4.2356364
20
37.5598211
11
4.4348235
21
37.5598211
0
LINE
8
DEFAULT_255_1_234
10
4.4348235
20
37.5598211
11
4.8171342
21
36.6056506
0
LINE
8
DEFAULT_255_1_234
10
4.8171342
20
36.6056506
11
5.199445
21
37.5598211
0
LINE
8
DEFAULT_255_1_234
10
5.199445
20
37.5598211
11
5.3994353
21
37.5598211
0
LINE
8
DEFAULT_255_1_234
10
5.3994353
20
37.5598211
11
5.3994353
21
36.3904
0
LINE
8
DEFAULT_255_1_234
10
5.3994353
20
36.3904
11
5.2452259
21
36.3904
0
LINE
8
DEFAULT_255_1_234
10
5.2452259
20
36.3904
11
5.2452259
21
36.8457996
0
LINE
8
DEFAULT_255_1_234
10
5.2452259
20
36.8457996
11
5.259683
21
37.3373419
0
LINE
8
DEFAULT_255_1_234
10
5.259683
20
37.3373419
11
4.8757659
21
36.3904
0
LINE
8
DEFAULT_255_1_234
10
4.8757659
20
36.3904
11
4.7576994
21
36.3904
0
LINE
8
DEFAULT_255_1_234
10
4.7576994
20
36.3904
11
4.3745854
21
37.3349324
0
LINE
8
DEFAULT_255_1_234
10
4.3745854
20
37.3349324
11
4.3898458
21
36.8457996
0
LINE
8
DEFAULT_255_1_234
10
4.3898458
20
36.8457996
11
4.3898458
21
36.3904
0
LINE
8
DEFAULT_255_1_234
10
4.3898458
20
36.3904
11
4.2356364
21
36.3904
0
LINE
8
DEFAULT_255_1_234
10
4.2356364
20
36.3904
11
4.2356364
21
37.5598211
0
LINE
8
DEFAULT_255_1_234
10
6.2604376
20
37.5598211
11
6.2604376
21
36.783152
0
LINE
8
DEFAULT_255_1_234
10
6.2604376
20
36.783152
11
6.4226787
21
36.783152
0
LINE
8
DEFAULT_255_1_234
10
6.4226787
20
36.783152
11
6.4226787
21
36.6618728
0
LINE
8
DEFAULT_255_1_234
10
6.4226787
20
36.6618728
11
6.2604376
21
36.6618728
0
LINE
8
DEFAULT_255_1_234
10
6.2604376
20
36.6618728
11
6.2604376
21
36.3904
0
LINE
8
DEFAULT_255_1_234
10
6.2604376
20
36.3904
11
6.1110473
21
36.3904
0
LINE
8
DEFAULT_255_1_234
10
6.1110473
20
36.3904
11
6.1110473
21
36.6618728
0
LINE
8
DEFAULT_255_1_234
10
6.1110473
20
36.6618728
11
5.578543
21
36.6618728
0
LINE
8
DEFAULT_255_1_234
10
5.578543
20
36.6618728
11
5.578543
21
36.7494187
0
LINE
8
DEFAULT_255_1_234
10
5.578543
20
36.7494187
11
6.1022124
21
37.5598211
0
LINE
8
DEFAULT_255_1_234
10
6.1022124
20
37.5598211
11
6.2604376
21
37.5598211
0
LINE
8
DEFAULT_255_1_234
10
6.0933774
20
37.3244912
11
5.7472095
21
36.783152
0
LINE
8
DEFAULT_255_1_234
10
5.7472095
20
36.783152
11
6.1110473
21
36.783152
0
LINE
8
DEFAULT_255_1_234
10
6.1110473
20
36.783152
11
6.1110473
21
37.3566181
0
LINE
8
DEFAULT_255_1_234
10
6.1110473
20
37.3566181
11
6.0933774
21
37.3244912
0
LINE
8
DEFAULT_255_1_234
10
4.1298364
20
45.4973211
11
4.3290235
21
45.4973211
0
LINE
8
DEFAULT_255_1_234
10
4.3290235
20
45.4973211
11
4.7113342
21
44.5431506
0
LINE
8
DEFAULT_255_1_234
10
4.7113342
20
44.5431506
11
5.093645
21
45.4973211
0
LINE
8
DEFAULT_255_1_234
10
5.093645
20
45.4973211
11
5.2936353
21
45.4973211
0
LINE
8
DEFAULT_255_1_234
10
5.2936353
20
45.4973211
11
5.2936353
21
44.3279
0
LINE
8
DEFAULT_255_1_234
10
5.2936353
20
44.3279
11
5.1394259
21
44.3279
0
LINE
8
DEFAULT_255_1_234
10
5.1394259
20
44.3279
11
5.1394259
21
44.7832996
0
LINE
8
DEFAULT_255_1_234
10
5.1394259
20
44.7832996
11
5.153883
21
45.2748419
0
LINE
8
DEFAULT_255_1_234
10
5.153883
20
45.2748419
11
4.7699659
21
44.3279
0
LINE
8
DEFAULT_255_1_234
10
4.7699659
20
44.3279
11
4.6518994
21
44.3279
0
LINE
8
DEFAULT_255_1_234
10
4.6518994
20
44.3279
11
4.2687854
21
45.2724324
0
LINE
8
DEFAULT_255_1_234
10
4.2687854
20
45.2724324
11
4.2840458
21
44.7832996
0
LINE
8
DEFAULT_255_1_234
10
4.2840458
20
44.7832996
11
4.2840458
21
44.3279
0
LINE
8
DEFAULT_255_1_234
10
4.2840458
20
44.3279
11
4.1298364
21
44.3279
0
LINE
8
DEFAULT_255_1_234
10
4.1298364
20
44.3279
11
4.1298364
21
45.4973211
0
LINE
8
DEFAULT_255_1_234
10
5.7434126
20
44.8636169
11
5.7434126
21
44.9848962
0
LINE
8
DEFAULT_255_1_234
10
5.7434126
20
44.9848962
11
5.8550538
21
44.9848962
0
LINE
8
DEFAULT_255_1_234
10
5.6647016
20
45.1905087
11
5.5161144
21
45.1905087
0
LINE
8
DEFAULT_255_1_234
10
5.5056731
20
44.6363188
11
5.6550635
21
44.6363188
0
LINE
8
DEFAULT_255_1_234
10
5.8550538
20
44.8636169
11
5.7434126
21
44.8636169
0
ARC
8
DEFAULT_255_1_234
10
5.8521404
20
45.3241713
40
0.3392876
50
270.4919872
51
281.8951556
0
ARC
8
DEFAULT_255_1_234
10
5.8762666
20
45.2139702
40
0.2264817
50
281.6691735
51
301.2943132
0
ARC
8
DEFAULT_255_1_234
10
5.8932876
20
45.1828304
40
0.1910381
50
301.7833094
51
311.7545298
0
ARC
8
DEFAULT_255_1_234
10
5.9024452
20
45.1726748
40
0.1773635
50
311.7323931
51
354.2802411
0
ARC
8
DEFAULT_255_1_234
10
5.8298077
20
45.1851722
40
0.2509385
50
353.0937916
51
0.1181479
0
ARC
8
DEFAULT_255_1_234
10
5.7836862
20
45.1899386
40
0.2970898
50
359.1805295
51
15.0453146
0
ARC
8
DEFAULT_255_1_234
10
5.9182699
20
45.2291992
40
0.1569564
50
13.9577229
51
77.6713066
0
ARC
8
DEFAULT_255_1_234
10
5.8796228
20
45.0906949
40
0.3006298
50
76.1116566
51
90.7026153
0
ARC
8
DEFAULT_255_1_234
10
5.8737066
20
45.1180545
40
0.2732568
50
89.5324876
51
103.531937
0
ARC
8
DEFAULT_255_1_234
10
5.853651
20
45.1979884
40
0.1908508
50
103.2931773
51
133.5619022
0
ARC
8
DEFAULT_255_1_234
10
5.8491999
20
45.2039375
40
0.1834746
50
133.8349307
51
173.5344437
0
ARC
8
DEFAULT_255_1_234
10
5.9215042
20
45.1911213
40
0.2568033
50
172.5096846
51
180.1366907
0
ARC
8
DEFAULT_255_1_234
10
5.8263936
20
45.1945622
40
0.3103056
50
155.3484492
51
180.7484736
0
ARC
8
DEFAULT_255_1_234
10
5.8215025
20
45.1916846
40
0.3070957
50
131.5744599
51
154.4798489
0
ARC
8
DEFAULT_255_1_234
10
5.8528172
20
45.160031
40
0.3515643
50
96.9875458
51
131.9690667
0
ARC
8
DEFAULT_255_1_234
10
5.8747652
20
45.0354636
40
0.4779224
50
89.8596053
51
97.7825159
0
ARC
8
DEFAULT_255_1_234
10
5.8795715
20
45.0092616
40
0.5041361
50
78.3655447
51
90.4131539
0
ARC
8
DEFAULT_255_1_234
10
5.9153633
20
45.1751887
40
0.3344039
50
56.6229102
51
78.638727
0
ARC
8
DEFAULT_255_1_234
10
5.9368577
20
45.2127805
40
0.2912001
50
47.0253525
51
56.0854072
0
ARC
8
DEFAULT_255_1_234
10
5.9388357
20
45.2167223
40
0.2869704
50
10.9208013
51
46.7778124
0
ARC
8
DEFAULT_255_1_234
10
5.8024423
20
45.1851857
40
0.426899
50
359.6364486
51
11.6087304
0
ARC
8
DEFAULT_255_1_234
10
5.9859267
20
45.1836752
40
0.243409
50
332.3549906
51
359.7179418
0
ARC
8
DEFAULT_255_1_234
10
5.9208869
20
45.2145142
40
0.3153459
50
325.2333722
51
332.8745602
0
ARC
8
DEFAULT_255_1_234
10
5.9361493
20
45.2038828
40
0.2967456
50
292.9802137
51
325.2392345
0
ARC
8
DEFAULT_255_1_234
10
5.9086866
20
45.2572863
40
0.3566604
50
292.5402179
51
293.6924929
0
ARC
8
DEFAULT_255_1_234
10
5.9479462
20
44.6118091
40
0.3307468
50
57.6435486
51
72.8625112
0
ARC
8
DEFAULT_255_1_234
10
5.9833962
20
44.6692549
40
0.2632492
50
36.7248896
51
57.4697979
0
ARC
8
DEFAULT_255_1_234
10
5.9822595
20
44.670522
40
0.2634081
50
8.0545065
51
36.356114
0
ARC
8
DEFAULT_255_1_234
10
5.895978
20
44.6550174
40
0.3510261
50
359.8320645
51
8.5869982
0
ARC
8
DEFAULT_255_1_234
10
5.8584556
20
44.6502101
40
0.3885653
50
343.9829931
51
0.5571613
0
ARC
8
DEFAULT_255_1_234
10
5.9470753
20
44.6259438
40
0.2966924
50
311.6359546
51
343.7651759
0
ARC
8
DEFAULT_255_1_234
10
5.9092323
20
44.6686102
40
0.3537231
50
279.7829875
51
311.6255694
0
ARC
8
DEFAULT_255_1_234
10
5.8791099
20
44.812328
40
0.5004971
50
269.7286406
51
280.3856417
0
ARC
8
DEFAULT_255_1_234
10
5.8729171
20
44.8081996
40
0.4963778
50
256.6828919
51
270.4412052
0
ARC
8
DEFAULT_255_1_234
10
5.8390467
20
44.6697394
40
0.3538406
50
229.4223008
51
256.8556159
0
ARC
8
DEFAULT_255_1_234
10
5.797586
20
44.6230736
40
0.2914296
50
181.818294
51
229.6455059
0
ARC
8
DEFAULT_255_1_234
10
5.9015816
20
44.6361496
40
0.3959084
50
179.9755256
51
183.2323064
0
ARC
8
DEFAULT_255_1_234
10
5.8843562
20
44.6341037
40
0.2293034
50
179.4465117
51
196.2869258
0
ARC
8
DEFAULT_255_1_234
10
5.835597
20
44.6207651
40
0.1787621
50
196.5661473
51
227.705904
0
ARC
8
DEFAULT_255_1_234
10
5.8520065
20
44.6391155
40
0.2033784
50
227.7652068
51
257.8762805
0
ARC
8
DEFAULT_255_1_234
10
5.8745035
20
44.7334156
40
0.3003081
50
257.4584385
51
270.426602
0
ARC
8
DEFAULT_255_1_234
10
5.8790601
20
44.7623996
40
0.329292
50
269.5962073
51
280.8789248
0
ARC
8
DEFAULT_255_1_234
10
5.902013
20
44.6477685
40
0.2123908
50
280.6346389
51
299.8595945
0
ARC
8
DEFAULT_255_1_234
10
5.9211037
20
44.6115212
40
0.171457
50
300.3576302
51
314.5517981
0
ARC
8
DEFAULT_255_1_234
10
5.9128097
20
44.6175919
40
0.1816095
50
315.0728369
51
345.0431014
0
ARC
8
DEFAULT_255_1_234
10
5.8204911
20
44.6444841
40
0.2777492
50
344.5986631
51
357.9269593
0
ARC
8
DEFAULT_255_1_234
10
5.7309238
20
44.6506276
40
0.3674917
50
357.4748886
51
0.0231117
0
ARC
8
DEFAULT_255_1_234
10
5.8332347
20
44.6530679
40
0.2651907
50
359.5047933
51
13.4239635
0
ARC
8
DEFAULT_255_1_234
10
5.919899
20
44.6752478
40
0.1757509
50
12.9498199
51
48.7551375
0
ARC
8
DEFAULT_255_1_234
10
5.9016724
20
44.65034
40
0.2065134
50
49.5088623
51
72.1836453
0
ARC
8
DEFAULT_255_1_234
10
5.8658877
20
44.5441291
40
0.3185836
50
71.9010081
51
84.3554254
0
ARC
8
DEFAULT_255_1_234
10
5.8497509
20
44.4080326
40
0.4556151
50
84.0193428
51
89.333121
0
LINE
8
DEFAULT_255_1_234
10
4.1298364
20
53.4348211
11
4.3290235
21
53.4348211
0
LINE
8
DEFAULT_255_1_234
10
4.3290235
20
53.4348211
11
4.7113342
21
52.4806506
0
LINE
8
DEFAULT_255_1_234
10
4.7113342
20
52.4806506
11
5.093645
21
53.4348211
0
LINE
8
DEFAULT_255_1_234
10
5.093645
20
53.4348211
11
5.2936353
21
53.4348211
0
LINE
8
DEFAULT_255_1_234
10
5.2936353
20
53.4348211
11
5.2936353
21
52.2654
0
LINE
8
DEFAULT_255_1_234
10
5.2936353
20
52.2654
11
5.1394259
21
52.2654
0
LINE
8
DEFAULT_255_1_234
10
5.1394259
20
52.2654
11
5.1394259
21
52.7207996
0
LINE
8
DEFAULT_255_1_234
10
5.1394259
20
52.7207996
11
5.153883
21
53.2123419
0
LINE
8
DEFAULT_255_1_234
10
5.153883
20
53.2123419
11
4.7699659
21
52.2654
0
LINE
8
DEFAULT_255_1_234
10
4.7699659
20
52.2654
11
4.6518994
21
52.2654
0
LINE
8
DEFAULT_255_1_234
10
4.6518994
20
52.2654
11
4.2687854
21
53.2099324
0
LINE
8
DEFAULT_255_1_234
10
4.2687854
20
53.2099324
11
4.2840458
21
52.7207996
0
LINE
8
DEFAULT_255_1_234
10
4.2840458
20
52.7207996
11
4.2840458
21
52.2654
0
LINE
8
DEFAULT_255_1_234
10
4.2840458
20
52.2654
11
4.1298364
21
52.2654
0
LINE
8
DEFAULT_255_1_234
10
4.1298364
20
52.2654
11
4.1298364
21
53.4348211
0
LINE
8
DEFAULT_255_1_234
10
6.2935867
20
52.3866792
11
6.2935867
21
52.2654
0
LINE
8
DEFAULT_255_1_234
10
6.2935867
20
52.2654
11
5.5273588
21
52.2654
0
LINE
8
DEFAULT_255_1_234
10
5.5273588
20
52.2654
11
5.5273588
21
52.3722221
0
LINE
8
DEFAULT_255_1_234
10
5.5273588
20
52.3722221
11
5.9321584
21
52.8219995
0
LINE
8
DEFAULT_255_1_234
10
5.6534571
20
53.0902595
11
5.50487
21
53.0902595
0
LINE
8
DEFAULT_255_1_234
10
6.0197044
20
52.7264218
11
5.7064666
21
52.3866792
0
LINE
8
DEFAULT_255_1_234
10
5.7064666
20
52.3866792
11
6.2935867
21
52.3866792
0
ARC
8
DEFAULT_255_1_234
10
4.5831418
20
54.0149527
40
1.8008286
50
318.5132453
51
320.7828378
0
ARC
8
DEFAULT_255_1_234
10
5.1118392
20
53.5846426
40
1.1191493
50
320.7372736
51
323.9737074
0
ARC
8
DEFAULT_255_1_234
10
5.5038249
20
53.3006361
40
0.6350923
50
323.8961724
51
328.6421089
0
ARC
8
DEFAULT_255_1_234
10
5.7084844
20
53.1744031
40
0.3946393
50
328.8299013
51
331.789948
0
ARC
8
DEFAULT_255_1_234
10
5.8082023
20
53.1229509
40
0.2824501
50
331.4255242
51
352.9364833
0
ARC
8
DEFAULT_255_1_234
10
5.8218523
20
53.1198976
40
0.2685315
50
353.2248685
51
0.0169286
0
ARC
8
DEFAULT_255_1_234
10
5.84284
20
53.122195
40
0.2475536
50
359.4866256
51
15.9339782
0
ARC
8
DEFAULT_255_1_234
10
5.8935385
20
53.1358286
40
0.1950618
50
16.1714718
51
43.5284424
0
ARC
8
DEFAULT_255_1_234
10
5.9012694
20
53.1435573
40
0.184134
50
43.4415429
51
83.1661404
0
ARC
8
DEFAULT_255_1_234
10
5.8878612
20
53.0698771
40
0.258926
50
82.160215
51
90.1505798
0
ARC
8
DEFAULT_255_1_234
10
5.8847039
20
53.0161865
40
0.3126255
50
89.5460705
51
102.5418777
0
ARC
8
DEFAULT_255_1_234
10
5.8604126
20
53.1192665
40
0.2067346
50
102.1739365
51
129.2061916
0
ARC
8
DEFAULT_255_1_234
10
5.8525197
20
53.1317094
40
0.1921118
50
129.7279328
51
135.7542026
0
ARC
8
DEFAULT_255_1_234
10
5.8646725
20
53.1220045
40
0.2075944
50
136.175737
51
166.3674722
0
ARC
8
DEFAULT_255_1_234
10
5.9653644
20
53.0950182
40
0.3118201
50
165.9092917
51
178.8683903
0
ARC
8
DEFAULT_255_1_234
10
6.0518505
20
53.0903179
40
0.3983935
50
178.438168
51
180.0083905
0
ARC
8
DEFAULT_255_1_234
10
5.9117108
20
53.0942231
40
0.4068601
50
163.2878735
51
180.5581814
0
ARC
8
DEFAULT_255_1_234
10
5.8315369
20
53.116284
40
0.3237344
50
133.454115
51
162.9470031
0
ARC
8
DEFAULT_255_1_234
10
5.849391
20
53.0973
40
0.349795
50
100.7869394
51
133.4384016
0
ARC
8
DEFAULT_255_1_234
10
5.8841682
20
52.9424319
40
0.5084616
50
89.6605301
51
101.3704185
0
ARC
8
DEFAULT_255_1_234
10
5.8908021
20
52.9485496
40
0.502348
50
78.2171172
51
90.4130393
0
ARC
8
DEFAULT_255_1_234
10
5.9263099
20
53.1109637
40
0.3361092
50
55.9268222
51
78.4888551
0
ARC
8
DEFAULT_255_1_234
10
5.9459539
20
53.1448324
40
0.2970617
50
47.9292255
51
55.4054003
0
ARC
8
DEFAULT_255_1_234
10
5.95611
20
53.1551502
40
0.2825983
50
4.3347696
51
48.0560701
0
ARC
8
DEFAULT_255_1_234
10
5.8465493
20
53.1381601
40
0.393225
50
359.925209
51
5.5967654
0
ARC
8
DEFAULT_255_1_234
10
5.8894385
20
53.1437816
40
0.3503892
50
337.8914096
51
358.9967724
0
ARC
8
DEFAULT_255_1_234
10
5.6180797
20
53.2484706
40
0.6412172
50
326.9135351
51
338.3505194
0
ARC
8
DEFAULT_255_1_234
10
5.2195101
20
53.5039284
40
1.1146189
50
319.6472867
51
327.095818
0
ARC
8
DEFAULT_255_1_234
10
4.8362104
20
53.8201
40
1.6114559
50
317.2586784
51
319.9046139
0
LINE
8
DEFAULT_255_1_234
10
4.1217364
20
61.3723211
11
4.3209235
21
61.3723211
0
LINE
8
DEFAULT_255_1_234
10
4.3209235
20
61.3723211
11
4.7032342
21
60.4181506
0
LINE
8
DEFAULT_255_1_234
10
4.7032342
20
60.4181506
11
5.085545
21
61.3723211
0
LINE
8
DEFAULT_255_1_234
10
5.085545
20
61.3723211
11
5.2855353
21
61.3723211
0
LINE
8
DEFAULT_255_1_234
10
5.2855353
20
61.3723211
11
5.2855353
21
60.2029
0
LINE
8
DEFAULT_255_1_234
10
5.2855353
20
60.2029
11
5.1313259
21
60.2029
0
LINE
8
DEFAULT_255_1_234
10
5.1313259
20
60.2029
11
5.1313259
21
60.6582996
0
LINE
8
DEFAULT_255_1_234
10
5.1313259
20
60.6582996
11
5.145783
21
61.1498419
0
LINE
8
DEFAULT_255_1_234
10
5.145783
20
61.1498419
11
4.7618659
21
60.2029
0
LINE
8
DEFAULT_255_1_234
10
4.7618659
20
60.2029
11
4.6437994
21
60.2029
0
LINE
8
DEFAULT_255_1_234
10
4.6437994
20
60.2029
11
4.2606854
21
61.1474324
0
LINE
8
DEFAULT_255_1_234
10
4.2606854
20
61.1474324
11
4.2759458
21
60.6582996
0
LINE
8
DEFAULT_255_1_234
10
4.2759458
20
60.6582996
11
4.2759458
21
60.2029
0
LINE
8
DEFAULT_255_1_234
10
4.2759458
20
60.2029
11
4.1217364
21
60.2029
0
LINE
8
DEFAULT_255_1_234
10
4.1217364
20
60.2029
11
4.1217364
21
61.3723211
0
LINE
8
DEFAULT_255_1_234
10
6.0075885
20
61.3779433
11
6.0075885
21
60.2029
0
LINE
8
DEFAULT_255_1_234
10
6.0075885
20
60.2029
11
5.8581982
21
60.2029
0
LINE
8
DEFAULT_255_1_234
10
5.8581982
20
60.2029
11
5.8581982
21
61.1932133
0
LINE
8
DEFAULT_255_1_234
10
5.8581982
20
61.1932133
11
5.5586144
21
61.0831785
0
LINE
8
DEFAULT_255_1_234
10
5.5586144
20
61.0831785
11
5.5586144
21
61.2181117
0
LINE
8
DEFAULT_255_1_234
10
5.5586144
20
61.2181117
11
5.9842965
21
61.3779433
0
LINE
8
DEFAULT_255_1_234
10
5.9842965
20
61.3779433
11
6.0075885
21
61.3779433
0
LINE
8
DEFAULT_255_1_234
10
4.1298364
20
69.3098211
11
4.3290235
21
69.3098211
0
LINE
8
DEFAULT_255_1_234
10
4.3290235
20
69.3098211
11
4.7113342
21
68.3556506
0
LINE
8
DEFAULT_255_1_234
10
4.7113342
20
68.3556506
11
5.093645
21
69.3098211
0
LINE
8
DEFAULT_255_1_234
10
5.093645
20
69.3098211
11
5.2936353
21
69.3098211
0
LINE
8
DEFAULT_255_1_234
10
5.2936353
20
69.3098211
11
5.2936353
21
68.1404
0
LINE
8
DEFAULT_255_1_234
10
5.2936353
20
68.1404
11
5.1394259
21
68.1404
0
LINE
8
DEFAULT_255_1_234
10
5.1394259
20
68.1404
11
5.1394259
21
68.5957996
0
LINE
8
DEFAULT_255_1_234
10
5.1394259
20
68.5957996
11
5.153883
21
69.0873419
0
LINE
8
DEFAULT_255_1_234
10
5.153883
20
69.0873419
11
4.7699659
21
68.1404
0
LINE
8
DEFAULT_255_1_234
10
4.7699659
20
68.1404
11
4.6518994
21
68.1404
0
LINE
8
DEFAULT_255_1_234
10
4.6518994
20
68.1404
11
4.2687854
21
69.0849324
0
LINE
8
DEFAULT_255_1_234
10
4.2687854
20
69.0849324
11
4.2840458
21
68.5957996
0
LINE
8
DEFAULT_255_1_234
10
4.2840458
20
68.5957996
11
4.2840458
21
68.1404
0
LINE
8
DEFAULT_255_1_234
10
4.2840458
20
68.1404
11
4.1298364
21
68.1404
0
LINE
8
DEFAULT_255_1_234
10
4.1298364
20
68.1404
11
4.1298364
21
69.3098211
0
LINE
8
DEFAULT_255_1_234
10
6.2606565
20
68.8319327
11
6.2606565
21
68.6391709
0
LINE
8
DEFAULT_255_1_234
10
5.5225398
20
68.6190916
11
5.5225398
21
68.8174755
0
LINE
8
DEFAULT_255_1_234
10
6.1120694
20
68.5990123
11
6.1120694
21
68.8423739
0
LINE
8
DEFAULT_255_1_234
10
5.671127
20
68.8536184
11
5.671127
21
68.6158789
0
ARC
8
DEFAULT_255_1_234
10
5.0359455
20
68.6342805
40
1.2247208
50
353.8441951
51
0.2287902
0
ARC
8
DEFAULT_255_1_234
10
5.4998959
20
68.5824806
40
0.7578929
50
344.4934747
51
353.9765454
0
ARC
8
DEFAULT_255_1_234
10
5.7991549
20
68.4973981
40
0.4467846
50
329.2803592
51
344.7472793
0
ARC
8
DEFAULT_255_1_234
10
5.8984374
20
68.4429018
40
0.3336173
50
324.9352394
51
328.6160465
0
ARC
8
DEFAULT_255_1_234
10
5.9361482
20
68.4165427
40
0.2876076
50
280.580143
51
324.9173126
0
ARC
8
DEFAULT_255_1_234
10
5.8960275
20
68.5836099
40
0.4592847
50
269.5977311
51
281.6734359
0
ARC
8
DEFAULT_255_1_234
10
5.8888181
20
68.5716173
40
0.4472986
50
256.6228859
51
270.51044
0
ARC
8
DEFAULT_255_1_234
10
5.8486159
20
68.4167877
40
0.2873874
50
215.8618325
51
257.2788573
0
ARC
8
DEFAULT_255_1_234
10
5.950719
20
68.4852977
40
0.4102928
50
197.9693508
51
215.2623606
0
ARC
8
DEFAULT_255_1_234
10
6.1992306
20
68.5691709
40
0.6725652
50
187.8816417
51
198.2346507
0
ARC
8
DEFAULT_255_1_234
10
6.5950514
20
68.6263079
40
1.0724845
50
180.8976217
51
188.0055519
0
ARC
8
DEFAULT_255_1_234
10
6.8750702
20
68.6366777
40
1.3526448
50
180.7449369
51
181.1510016
0
ARC
8
DEFAULT_255_1_234
10
6.7173431
20
68.8223042
40
1.1948131
50
173.7675579
51
180.231553
0
ARC
8
DEFAULT_255_1_234
10
6.2655578
20
68.8733666
40
0.7401564
50
164.3058563
51
173.9002247
0
ARC
8
DEFAULT_255_1_234
10
5.9743647
20
68.9572656
40
0.4371288
50
148.7922025
51
164.568378
0
ARC
8
DEFAULT_255_1_234
10
5.8792099
20
69.0103929
40
0.3282386
50
144.5883898
51
148.1176286
0
ARC
8
DEFAULT_255_1_234
10
5.8448997
20
69.0343315
40
0.2864044
50
101.6440918
51
144.514236
0
ARC
8
DEFAULT_255_1_234
10
5.8874064
20
68.8654069
40
0.4604934
50
89.5284041
51
102.5819763
0
ARC
8
DEFAULT_255_1_234
10
5.8953151
20
68.8615018
40
0.464401
50
77.0437873
51
90.5081339
0
ARC
8
DEFAULT_255_1_234
10
5.9355153
20
69.0257615
40
0.2953195
50
48.2778575
51
77.4994676
0
ARC
8
DEFAULT_255_1_234
10
5.9427784
20
69.0386746
40
0.2808655
50
36.3142134
51
47.6305865
0
ARC
8
DEFAULT_255_1_234
10
5.8559091
20
68.9801515
40
0.3855453
50
18.2931786
51
35.6769206
0
ARC
8
DEFAULT_255_1_234
10
5.601585
20
68.8928593
40
0.654423
50
8.024666
51
18.5605216
0
ARC
8
DEFAULT_255_1_234
10
5.185277
20
68.8313792
40
1.0752407
50
1.1274072
51
8.1718305
0
ARC
8
DEFAULT_255_1_234
10
4.8616961
20
68.8186885
40
1.3990231
50
0.5424119
51
1.3863029
0
ARC
8
DEFAULT_255_1_234
10
5.0438338
20
68.8459342
40
1.0682415
50
359.8090433
51
4.9407866
0
ARC
8
DEFAULT_255_1_234
10
5.4648352
20
68.8835113
40
0.6455691
50
4.8362157
51
12.2904523
0
ARC
8
DEFAULT_255_1_234
10
5.7403467
20
68.9448965
40
0.3633074
50
12.0805627
51
23.8173984
0
ARC
8
DEFAULT_255_1_234
10
5.8577173
20
68.9945919
40
0.2358723
50
24.2871213
51
31.3935614
0
ARC
8
DEFAULT_255_1_234
10
5.910187
20
69.0289233
40
0.1732111
50
30.7407893
51
82.4657128
0
ARC
8
DEFAULT_255_1_234
10
5.8922004
20
68.9405691
40
0.263235
50
81.1060089
51
90.2184952
0
ARC
8
DEFAULT_255_1_234
10
5.8886303
20
68.9663924
40
0.2374236
50
89.3806855
51
105.6762551
0
ARC
8
DEFAULT_255_1_234
10
5.8702934
20
69.0330567
40
0.1682847
50
105.7981136
51
149.7388061
0
ARC
8
DEFAULT_255_1_234
10
5.9767012
20
68.969095
40
0.2924306
50
149.4208916
51
163.6286378
0
ARC
8
DEFAULT_255_1_234
10
6.18579
20
68.905325
40
0.5110213
50
163.3763315
51
172.1410975
0
ARC
8
DEFAULT_255_1_234
10
6.5158619
20
68.8580518
40
0.8444586
50
172.0259487
51
178.0703232
0
ARC
8
DEFAULT_255_1_234
10
6.8188709
20
68.8436906
40
1.1477868
50
177.8631668
51
179.5044149
0
ARC
8
DEFAULT_255_1_234
10
6.7116113
20
68.6122389
40
1.0404907
50
179.7995573
51
185.2460446
0
ARC
8
DEFAULT_255_1_234
10
6.3073152
20
68.5739513
40
0.6343885
50
185.1411642
51
193.0079639
0
ARC
8
DEFAULT_255_1_234
10
6.0429625
20
68.5114641
40
0.3627568
50
192.7897626
51
205.2507664
0
ARC
8
DEFAULT_255_1_234
10
5.9383172
20
68.4647415
40
0.2481908
50
205.8005384
51
211.2537509
0
ARC
8
DEFAULT_255_1_234
10
5.8859612
20
68.429658
40
0.1852521
50
210.3789793
51
238.4008143
0
ARC
8
DEFAULT_255_1_234
10
5.8840134
20
68.4343376
40
0.1882621
50
239.6520629
51
265.9793761
0
ARC
8
DEFAULT_255_1_234
10
5.8925334
20
68.5015427
40
0.2559272
50
265.1315437
51
270.060332
0
ARC
8
DEFAULT_255_1_234
10
5.8954113
20
68.4691534
40
0.2235528
50
269.3314664
51
287.2178029
0
ARC
8
DEFAULT_255_1_234
10
5.9091965
20
68.4188279
40
0.1714108
50
287.7958004
51
329.080874
0
ARC
8
DEFAULT_255_1_234
10
5.8134422
20
68.478593
40
0.2842745
50
328.6634704
51
343.3325132
0
ARC
8
DEFAULT_255_1_234
10
5.5961442
20
68.5462863
40
0.5118644
50
343.0499468
51
351.9393422
0
ARC
8
DEFAULT_255_1_234
10
5.2494742
20
68.5973949
40
0.8622784
50
351.8069023
51
357.7959224
0
ARC
8
DEFAULT_255_1_234
10
4.9259298
20
68.6141721
40
1.1862365
50
357.5871873
51
359.2677531
0
LINE
8
DEFAULT_255_1_234
10
4.5024154
20
76.0779
11
4.1787364
21
76.0779
0
LINE
8
DEFAULT_255_1_234
10
4.1787364
20
76.0779
11
4.1787364
21
77.2473211
0
LINE
8
DEFAULT_255_1_234
10
4.1787364
20
77.2473211
11
4.5088408
21
77.2473211
0
LINE
8
DEFAULT_255_1_234
10
5.0244784
20
76.7019661
11
5.0244784
21
76.6272709
0
LINE
8
DEFAULT_255_1_234
10
4.5128567
20
77.1204196
11
4.3329458
21
77.1204196
0
LINE
8
DEFAULT_255_1_234
10
4.3329458
20
77.1204196
11
4.3329458
21
76.2039983
0
LINE
8
DEFAULT_255_1_234
10
4.3329458
20
76.2039983
11
4.4951869
21
76.2039983
0
LINE
8
DEFAULT_255_1_234
10
4.8718754
20
76.6304836
11
4.8718754
21
76.6987534
0
ARC
8
DEFAULT_255_1_234
10
4.5127351
20
76.6607894
40
0.5865446
50
75.4101064
51
90.3804066
0
ARC
8
DEFAULT_255_1_234
10
4.5356864
20
76.7564492
40
0.4881916
50
60.145586
51
75.1888407
0
ARC
8
DEFAULT_255_1_234
10
4.551564
20
76.7841199
40
0.4562893
50
26.5253612
51
60.1450928
0
ARC
8
DEFAULT_255_1_234
10
4.4395389
20
76.7247158
40
0.5830602
50
7.4030428
51
26.8320788
0
ARC
8
DEFAULT_255_1_234
10
4.2801146
20
76.6998804
40
0.7443669
50
0.1605367
51
7.7176192
0
ARC
8
DEFAULT_255_1_234
10
4.296505
20
76.6234434
40
0.7279835
50
348.7289388
51
0.3012466
0
ARC
8
DEFAULT_255_1_234
10
4.4621481
20
76.5905386
40
0.559104
50
333.0706509
51
348.7181832
0
ARC
8
DEFAULT_255_1_234
10
4.5588238
20
76.5380319
40
0.4491417
50
299.2531685
51
333.4571258
0
ARC
8
DEFAULT_255_1_234
10
4.5227378
20
76.6065828
40
0.5265881
50
278.107187
51
299.0339503
0
ARC
8
DEFAULT_255_1_234
10
4.4971457
20
76.7573216
40
0.679442
50
270.4443897
51
278.4511052
0
ARC
8
DEFAULT_255_1_234
10
4.4992287
20
76.6644213
40
0.4604407
50
269.4970433
51
284.0205042
0
ARC
8
DEFAULT_255_1_234
10
4.5347588
20
76.5278978
40
0.3193797
50
283.7700273
51
318.1555492
0
ARC
8
DEFAULT_255_1_234
10
4.5010346
20
76.5531367
40
0.3613588
50
318.7415601
51
343.6873628
0
ARC
8
DEFAULT_255_1_234
10
4.3206369
20
76.6094832
40
0.5503313
50
343.3325091
51
355.8548958
0
ARC
8
DEFAULT_255_1_234
10
4.1108054
20
76.6294319
40
0.7610708
50
355.4988528
51
0.0791727
0
ARC
8
DEFAULT_255_1_234
10
4.1890676
20
76.702978
40
0.6828208
50
359.6455037
51
9.8607896
0
ARC
8
DEFAULT_255_1_234
10
4.4251374
20
76.7456099
40
0.4429406
50
9.6571907
51
26.1932807
0
ARC
8
DEFAULT_255_1_234
10
4.5179363
20
76.7887118
40
0.3406537
50
26.5777228
51
40.1532208
0
ARC
8
DEFAULT_255_1_234
10
4.5435089
20
76.8086619
40
0.308246
50
40.3840491
51
80.1431104
0
ARC
8
DEFAULT_255_1_234
10
4.5108207
20
76.6637333
40
0.4566909
50
79.2152159
51
89.7445637
0
LINE
8
DEFAULT_255_1_234
10
6.1505281
20
76.6995565
11
6.1505281
21
76.6248614
0
LINE
8
DEFAULT_255_1_234
10
5.9457188
20
76.1413507
11
6.154544
21
75.9775033
0
LINE
8
DEFAULT_255_1_234
10
6.154544
20
75.9775033
11
6.0493282
21
75.8803192
0
LINE
8
DEFAULT_255_1_234
10
6.0493282
20
75.8803192
11
5.8027539
21
76.0762937
0
LINE
8
DEFAULT_255_1_234
10
5.2092084
20
76.6144201
11
5.2092084
21
76.6987534
0
LINE
8
DEFAULT_255_1_234
10
5.9963188
20
76.6136169
11
5.9963188
21
76.7003597
0
LINE
8
DEFAULT_255_1_234
10
5.3634178
20
76.710801
11
5.3634178
21
76.6248614
0
ARC
8
DEFAULT_255_1_234
10
5.2551533
20
76.6209707
40
0.8953833
50
351.453011
51
0.2489685
0
ARC
8
DEFAULT_255_1_234
10
5.5136333
20
76.5809933
40
0.6338333
50
338.6861641
51
351.5540711
0
ARC
8
DEFAULT_255_1_234
10
5.6070218
20
76.5479828
40
0.5348431
50
336.2887631
51
338.3442418
0
ARC
8
DEFAULT_255_1_234
10
5.6409839
20
76.5293698
40
0.4962747
50
321.1170344
51
336.6795229
0
ARC
8
DEFAULT_255_1_234
10
5.7041669
20
76.4807206
40
0.4165565
50
305.4419708
51
320.8705636
0
ARC
8
DEFAULT_255_1_234
10
5.6845139
20
76.5554707
40
0.4935497
50
271.6373023
51
283.8611969
0
ARC
8
DEFAULT_255_1_234
10
5.6807392
20
76.6210572
40
0.5592206
50
269.9930596
51
271.8318864
0
ARC
8
DEFAULT_255_1_234
10
5.6769835
20
76.5402681
40
0.4784458
50
252.5219675
51
270.4416499
0
ARC
8
DEFAULT_255_1_234
10
5.6626094
20
76.4863592
40
0.422716
50
237.5352116
51
252.1857531
0
ARC
8
DEFAULT_255_1_234
10
5.671529
20
76.4977363
40
0.4371052
50
209.063312
51
237.3492538
0
ARC
8
DEFAULT_255_1_234
10
5.7585138
20
76.5523685
40
0.5397041
50
205.1183774
51
209.6470015
0
ARC
8
DEFAULT_255_1_234
10
5.8382175
20
76.586183
40
0.6262326
50
188.7215458
51
204.8240747
0
ARC
8
DEFAULT_255_1_234
10
6.0379703
20
76.6198067
40
0.8287794
50
180.3723947
51
188.9252049
0
ARC
8
DEFAULT_255_1_234
10
6.0352454
20
76.7027402
40
0.8260467
50
169.5253763
51
180.2765336
0
ARC
8
DEFAULT_255_1_234
10
5.8449903
20
76.7377309
40
0.6326007
50
155.8315255
51
169.5089989
0
ARC
8
DEFAULT_255_1_234
10
5.7169405
20
76.7971348
40
0.4914567
50
139.6258461
51
156.0379525
0
ARC
8
DEFAULT_255_1_234
10
5.6579738
20
76.8445799
40
0.4158054
50
122.6416387
51
139.3430715
0
ARC
8
DEFAULT_255_1_234
10
5.6680358
20
76.8262451
40
0.4366739
50
93.0223692
51
122.455762
0
ARC
8
DEFAULT_255_1_234
10
5.6788354
20
76.7297709
40
0.5336137
50
89.975342
51
93.6341897
0
ARC
8
DEFAULT_255_1_234
10
5.6827241
20
76.7677375
40
0.4956606
50
73.9665422
51
90.4229648
0
ARC
8
DEFAULT_255_1_234
10
5.7010888
20
76.8392451
40
0.4218674
50
57.5178019
51
73.6813337
0
ARC
8
DEFAULT_255_1_234
10
5.696667
20
76.8356462
40
0.4272816
50
28.7261108
51
57.2767933
0
ARC
8
DEFAULT_255_1_234
10
5.6056002
20
76.7793688
40
0.534218
50
24.2448911
51
29.3248482
0
ARC
8
DEFAULT_255_1_234
10
5.5130103
20
76.7410819
40
0.6343711
50
9.064382
51
23.9639114
0
ARC
8
DEFAULT_255_1_234
10
5.2874432
20
76.7031925
40
0.8630926
50
359.7586264
51
9.1891435
0
ARC
8
DEFAULT_255_1_234
10
5.1619912
20
76.7045343
40
0.834338
50
359.7133237
51
7.96545
0
ARC
8
DEFAULT_255_1_234
10
5.4582128
20
76.7472681
40
0.5350538
50
7.8291991
51
20.0421623
0
ARC
8
DEFAULT_255_1_234
10
5.6206692
20
76.8063606
40
0.3621841
50
20.0677553
51
35.9161685
0
ARC
8
DEFAULT_255_1_234
10
5.698173
20
76.863967
40
0.2656263
50
35.6594382
51
85.1578074
0
ARC
8
DEFAULT_255_1_234
10
5.6796985
20
76.7524378
40
0.3784238
50
83.7959068
51
90.095906
0
ARC
8
DEFAULT_255_1_234
10
5.6753919
20
76.8257601
40
0.3051229
50
89.3102392
51
109.9889877
0
ARC
8
DEFAULT_255_1_234
10
5.6671402
20
76.8613433
40
0.2688988
50
110.9285147
51
143.9411762
0
ARC
8
DEFAULT_255_1_234
10
5.7602349
20
76.7901236
40
0.3860887
50
143.5289163
51
163.2980757
0
ARC
8
DEFAULT_255_1_234
10
5.951017
20
76.7301433
40
0.5860659
50
163.0418846
51
174.3140048
0
ARC
8
DEFAULT_255_1_234
10
6.1914282
20
76.7023854
40
0.8280531
50
174.0509143
51
179.4176892
0
ARC
8
DEFAULT_255_1_234
10
6.1400617
20
76.6205634
40
0.7766558
50
179.6829237
51
188.9631324
0
ARC
8
DEFAULT_255_1_234
10
5.8730178
20
76.5770752
40
0.5060992
50
188.8100743
51
202.9300012
0
ARC
8
DEFAULT_255_1_234
10
5.7513807
20
76.5275855
40
0.3747967
50
203.2069261
51
215.7876482
0
ARC
8
DEFAULT_255_1_234
10
5.6665204
20
76.4604671
40
0.2667526
50
214.7521006
51
264.2834488
0
ARC
8
DEFAULT_255_1_234
10
5.6800859
20
76.545978
40
0.3532247
50
263.4755397
51
270.0949833
0
ARC
8
DEFAULT_255_1_234
10
5.6842969
20
76.5198374
40
0.3271036
50
269.3649385
51
287.5152008
0
ARC
8
DEFAULT_255_1_234
10
5.7021127
20
76.4551238
40
0.2600406
50
288.0630309
51
323.8113348
0
ARC
8
DEFAULT_255_1_234
10
5.6149969
20
76.5201049
40
0.3687189
50
323.6547608
51
342.6590488
0
ARC
8
DEFAULT_255_1_234
10
5.4118584
20
76.5861952
40
0.5823286
50
342.4091907
51
353.6451149
0
ARC
8
DEFAULT_255_1_234
10
5.1287095
20
76.621419
40
0.8676442
50
353.4029884
51
359.4847795
0
LINE
8
DEFAULT_255_1_234
10
6.565769
20
76.6136169
11
6.565769
21
76.7348962
0
LINE
8
DEFAULT_255_1_234
10
6.565769
20
76.7348962
11
6.6774102
21
76.7348962
0
LINE
8
DEFAULT_255_1_234
10
6.487058
20
76.9405087
11
6.3384708
21
76.9405087
0
LINE
8
DEFAULT_255_1_234
10
6.3280295
20
76.3863188
11
6.4774199
21
76.3863188
0
LINE
8
DEFAULT_255_1_234
10
6.6774102
20
76.6136169
11
6.565769
21
76.6136169
0
ARC
8
DEFAULT_255_1_234
10
6.6744968
20
77.0741713
40
0.3392876
50
270.4919872
51
281.8951556
0
ARC
8
DEFAULT_255_1_234
10
6.698623
20
76.9639702
40
0.2264817
50
281.6691735
51
301.2943132
0
ARC
8
DEFAULT_255_1_234
10
6.715644
20
76.9328304
40
0.1910381
50
301.7833094
51
311.7545298
0
ARC
8
DEFAULT_255_1_234
10
6.7248016
20
76.9226748
40
0.1773635
50
311.7323931
51
354.2802411
0
ARC
8
DEFAULT_255_1_234
10
6.6521641
20
76.9351722
40
0.2509385
50
353.0937916
51
0.1181479
0
ARC
8
DEFAULT_255_1_234
10
6.6060426
20
76.9399386
40
0.2970898
50
359.1805295
51
15.0453146
0
ARC
8
DEFAULT_255_1_234
10
6.7406263
20
76.9791992
40
0.1569564
50
13.9577229
51
77.6713066
0
ARC
8
DEFAULT_255_1_234
10
6.7019792
20
76.8406949
40
0.3006298
50
76.1116566
51
90.7026153
0
ARC
8
DEFAULT_255_1_234
10
6.696063
20
76.8680545
40
0.2732568
50
89.5324876
51
103.531937
0
ARC
8
DEFAULT_255_1_234
10
6.6760074
20
76.9479884
40
0.1908508
50
103.2931773
51
133.5619022
0
ARC
8
DEFAULT_255_1_234
10
6.6715563
20
76.9539375
40
0.1834746
50
133.8349307
51
173.5344437
0
ARC
8
DEFAULT_255_1_234
10
6.7438606
20
76.9411213
40
0.2568033
50
172.5096846
51
180.1366907
0
ARC
8
DEFAULT_255_1_234
10
6.64875
20
76.9445622
40
0.3103056
50
155.3484492
51
180.7484736
0
ARC
8
DEFAULT_255_1_234
10
6.6438589
20
76.9416846
40
0.3070957
50
131.5744599
51
154.4798489
0
ARC
8
DEFAULT_255_1_234
10
6.6751736
20
76.910031
40
0.3515643
50
96.9875458
51
131.9690667
0
ARC
8
DEFAULT_255_1_234
10
6.6971216
20
76.7854636
40
0.4779224
50
89.8596053
51
97.7825159
0
ARC
8
DEFAULT_255_1_234
10
6.7019279
20
76.7592616
40
0.5041361
50
78.3655447
51
90.4131539
0
ARC
8
DEFAULT_255_1_234
10
6.7377197
20
76.9251887
40
0.3344039
50
56.6229102
51
78.638727
0
ARC
8
DEFAULT_255_1_234
10
6.7592141
20
76.9627805
40
0.2912001
50
47.0253525
51
56.0854072
0
ARC
8
DEFAULT_255_1_234
10
6.7611921
20
76.9667223
40
0.2869704
50
10.9208013
51
46.7778124
0
ARC
8
DEFAULT_255_1_234
10
6.6247987
20
76.9351857
40
0.426899
50
359.6364486
51
11.6087304
0
ARC
8
DEFAULT_255_1_234
10
6.8082831
20
76.9336752
40
0.243409
50
332.3549906
51
359.7179418
0
ARC
8
DEFAULT_255_1_234
10
6.7432433
20
76.9645142
40
0.3153459
50
325.2333722
51
332.8745602
0
ARC
8
DEFAULT_255_1_234
10
6.7585056
20
76.9538828
40
0.2967456
50
292.9802137
51
325.2392345
0
ARC
8
DEFAULT_255_1_234
10
6.731043
20
77.0072863
40
0.3566604
50
292.5402179
51
293.6924929
0
ARC
8
DEFAULT_255_1_234
10
6.7703026
20
76.3618091
40
0.3307468
50
57.6435486
51
72.8625112
0
ARC
8
DEFAULT_255_1_234
10
6.8057526
20
76.4192549
40
0.2632492
50
36.7248896
51
57.4697979
0
ARC
8
DEFAULT_255_1_234
10
6.8046159
20
76.420522
40
0.2634081
50
8.0545065
51
36.356114
0
ARC
8
DEFAULT_255_1_234
10
6.7183344
20
76.4050174
40
0.3510261
50
359.8320645
51
8.5869982
0
ARC
8
DEFAULT_255_1_234
10
6.680812
20
76.4002101
40
0.3885653
50
343.9829931
51
0.5571613
0
ARC
8
DEFAULT_255_1_234
10
6.7694317
20
76.3759438
40
0.2966924
50
311.6359546
51
343.7651759
0
ARC
8
DEFAULT_255_1_234
10
6.7315886
20
76.4186102
40
0.3537231
50
279.7829875
51
311.6255694
0
ARC
8
DEFAULT_255_1_234
10
6.7014663
20
76.562328
40
0.5004971
50
269.7286406
51
280.3856417
0
ARC
8
DEFAULT_255_1_234
10
6.6952735
20
76.5581996
40
0.4963778
50
256.6828919
51
270.4412052
0
ARC
8
DEFAULT_255_1_234
10
6.6614031
20
76.4197394
40
0.3538406
50
229.4223008
51
256.8556159
0
ARC
8
DEFAULT_255_1_234
10
6.6199424
20
76.3730736
40
0.2914296
50
181.818294
51
229.6455059
0
ARC
8
DEFAULT_255_1_234
10
6.723938
20
76.3861496
40
0.3959084
50
179.9755256
51
183.2323064
0
ARC
8
DEFAULT_255_1_234
10
6.7067126
20
76.3841037
40
0.2293034
50
179.4465117
51
196.2869258
0
ARC
8
DEFAULT_255_1_234
10
6.6579534
20
76.3707651
40
0.1787621
50
196.5661473
51
227.705904
0
ARC
8
DEFAULT_255_1_234
10
6.6743629
20
76.3891155
40
0.2033784
50
227.7652068
51
257.8762805
0
ARC
8
DEFAULT_255_1_234
10
6.6968599
20
76.4834156
40
0.3003081
50
257.4584385
51
270.426602
0
ARC
8
DEFAULT_255_1_234
10
6.7014165
20
76.5123996
40
0.329292
50
269.5962073
51
280.8789248
0
ARC
8
DEFAULT_255_1_234
10
6.7243694
20
76.3977685
40
0.2123908
50
280.6346389
51
299.8595945
0
ARC
8
DEFAULT_255_1_234
10
6.7434601
20
76.3615212
40
0.171457
50
300.3576302
51
314.5517981
0
ARC
8
DEFAULT_255_1_234
10
6.7351661
20
76.3675919
40
0.1816095
50
315.0728369
51
345.0431014
0
ARC
8
DEFAULT_255_1_234
10
6.6428475
20
76.3944841
40
0.2777492
50
344.5986631
51
357.9269593
0
ARC
8
DEFAULT_255_1_234
10
6.5532802
20
76.4006276
40
0.3674917
50
357.4748886
51
0.0231117
0
ARC
8
DEFAULT_255_1_234
10
6.6555911
20
76.4030679
40
0.2651907
50
359.5047933
51
13.4239635
0
ARC
8
DEFAULT_255_1_234
10
6.7422554
20
76.4252478
40
0.1757509
50
12.9498199
51
48.7551375
0
ARC
8
DEFAULT_255_1_234
10
6.7240288
20
76.40034
40
0.2065134
50
49.5088623
51
72.1836453
0
ARC
8
DEFAULT_255_1_234
10
6.6882441
20
76.2941291
40
0.3185836
50
71.9010081
51
84.3554254
0
ARC
8
DEFAULT_255_1_234
10
6.6721073
20
76.1580326
40
0.4556151
50
84.0193428
51
89.333121
0
LINE
8
DEFAULT_255_1_234
10
4.5024154
20
84.0154
11
4.1787364
21
84.0154
0
LINE
8
DEFAULT_255_1_234
10
4.1787364
20
84.0154
11
4.1787364
21
85.1848211
0
LINE
8
DEFAULT_255_1_234
10
4.1787364
20
85.1848211
11
4.5088408
21
85.1848211
0
LINE
8
DEFAULT_255_1_234
10
5.0244784
20
84.6394661
11
5.0244784
21
84.5647709
0
LINE
8
DEFAULT_255_1_234
10
4.5128567
20
85.0579196
11
4.3329458
21
85.0579196
0
LINE
8
DEFAULT_255_1_234
10
4.3329458
20
85.0579196
11
4.3329458
21
84.1414983
0
LINE
8
DEFAULT_255_1_234
10
4.3329458
20
84.1414983
11
4.4951869
21
84.1414983
0
LINE
8
DEFAULT_255_1_234
10
4.8718754
20
84.5679836
11
4.8718754
21
84.6362534
0
ARC
8
DEFAULT_255_1_234
10
4.5127351
20
84.5982894
40
0.5865446
50
75.4101064
51
90.3804066
0
ARC
8
DEFAULT_255_1_234
10
4.5356864
20
84.6939492
40
0.4881916
50
60.145586
51
75.1888407
0
ARC
8
DEFAULT_255_1_234
10
4.551564
20
84.7216199
40
0.4562893
50
26.5253612
51
60.1450928
0
ARC
8
DEFAULT_255_1_234
10
4.4395389
20
84.6622158
40
0.5830602
50
7.4030428
51
26.8320788
0
ARC
8
DEFAULT_255_1_234
10
4.2801146
20
84.6373804
40
0.7443669
50
0.1605367
51
7.7176192
0
ARC
8
DEFAULT_255_1_234
10
4.296505
20
84.5609434
40
0.7279835
50
348.7289388
51
0.3012466
0
ARC
8
DEFAULT_255_1_234
10
4.4621481
20
84.5280386
40
0.559104
50
333.0706509
51
348.7181832
0
ARC
8
DEFAULT_255_1_234
10
4.5588238
20
84.4755319
40
0.4491417
50
299.2531685
51
333.4571258
0
ARC
8
DEFAULT_255_1_234
10
4.5227378
20
84.5440828
40
0.5265881
50
278.107187
51
299.0339503
0
ARC
8
DEFAULT_255_1_234
10
4.4971457
20
84.6948216
40
0.679442
50
270.4443897
51
278.4511052
0
ARC
8
DEFAULT_255_1_234
10
4.4992287
20
84.6019213
40
0.4604407
50
269.4970433
51
284.0205042
0
ARC
8
DEFAULT_255_1_234
10
4.5347588
20
84.4653978
40
0.3193797
50
283.7700273
51
318.1555492
0
ARC
8
DEFAULT_255_1_234
10
4.5010346
20
84.4906367
40
0.3613588
50
318.7415601
51
343.6873628
0
ARC
8
DEFAULT_255_1_234
10
4.3206369
20
84.5469832
40
0.5503313
50
343.3325091
51
355.8548958
0
ARC
8
DEFAULT_255_1_234
10
4.1108054
20
84.5669319
40
0.7610708
50
355.4988528
51
0.0791727
0
ARC
8
DEFAULT_255_1_234
10
4.1890676
20
84.640478
40
0.6828208
50
359.6455037
51
9.8607896
0
ARC
8
DEFAULT_255_1_234
10
4.4251374
20
84.6831099
40
0.4429406
50
9.6571907
51
26.1932807
0
ARC
8
DEFAULT_255_1_234
10
4.5179363
20
84.7262118
40
0.3406537
50
26.5777228
51
40.1532208
0
ARC
8
DEFAULT_255_1_234
10
4.5435089
20
84.7461619
40
0.308246
50
40.3840491
51
80.1431104
0
ARC
8
DEFAULT_255_1_234
10
4.5108207
20
84.6012333
40
0.4566909
50
79.2152159
51
89.7445637
0
LINE
8
DEFAULT_255_1_234
10
6.1505281
20
84.6370565
11
6.1505281
21
84.5623614
0
LINE
8
DEFAULT_255_1_234
10
5.9457188
20
84.0788507
11
6.154544
21
83.9150033
0
LINE
8
DEFAULT_255_1_234
10
6.154544
20
83.9150033
11
6.0493282
21
83.8178192
0
LINE
8
DEFAULT_255_1_234
10
6.0493282
20
83.8178192
11
5.8027539
21
84.0137937
0
LINE
8
DEFAULT_255_1_234
10
5.2092084
20
84.5519201
11
5.2092084
21
84.6362534
0
LINE
8
DEFAULT_255_1_234
10
5.9963188
20
84.5511169
11
5.9963188
21
84.6378597
0
LINE
8
DEFAULT_255_1_234
10
5.3634178
20
84.648301
11
5.3634178
21
84.5623614
0
ARC
8
DEFAULT_255_1_234
10
5.2551533
20
84.5584707
40
0.8953833
50
351.453011
51
0.2489685
0
ARC
8
DEFAULT_255_1_234
10
5.5136333
20
84.5184933
40
0.6338333
50
338.6861641
51
351.5540711
0
ARC
8
DEFAULT_255_1_234
10
5.6070218
20
84.4854828
40
0.5348431
50
336.2887631
51
338.3442418
0
ARC
8
DEFAULT_255_1_234
10
5.6409839
20
84.4668698
40
0.4962747
50
321.1170344
51
336.6795229
0
ARC
8
DEFAULT_255_1_234
10
5.7041669
20
84.4182206
40
0.4165565
50
305.4419708
51
320.8705636
0
ARC
8
DEFAULT_255_1_234
10
5.6845139
20
84.4929707
40
0.4935497
50
271.6373023
51
283.8611969
0
ARC
8
DEFAULT_255_1_234
10
5.6807392
20
84.5585572
40
0.5592206
50
269.9930596
51
271.8318864
0
ARC
8
DEFAULT_255_1_234
10
5.6769835
20
84.4777681
40
0.4784458
50
252.5219675
51
270.4416499
0
ARC
8
DEFAULT_255_1_234
10
5.6626094
20
84.4238592
40
0.422716
50
237.5352116
51
252.1857531
0
ARC
8
DEFAULT_255_1_234
10
5.671529
20
84.4352363
40
0.4371052
50
209.063312
51
237.3492538
0
ARC
8
DEFAULT_255_1_234
10
5.7585138
20
84.4898685
40
0.5397041
50
205.1183774
51
209.6470015
0
ARC
8
DEFAULT_255_1_234
10
5.8382175
20
84.523683
40
0.6262326
50
188.7215458
51
204.8240747
0
ARC
8
DEFAULT_255_1_234
10
6.0379703
20
84.5573067
40
0.8287794
50
180.3723947
51
188.9252049
0
ARC
8
DEFAULT_255_1_234
10
6.0352454
20
84.6402402
40
0.8260467
50
169.5253763
51
180.2765336
0
ARC
8
DEFAULT_255_1_234
10
5.8449903
20
84.6752309
40
0.6326007
50
155.8315255
51
169.5089989
0
ARC
8
DEFAULT_255_1_234
10
5.7169405
20
84.7346348
40
0.4914567
50
139.6258461
51
156.0379525
0
ARC
8
DEFAULT_255_1_234
10
5.6579738
20
84.7820799
40
0.4158054
50
122.6416387
51
139.3430715
0
ARC
8
DEFAULT_255_1_234
10
5.6680358
20
84.7637451
40
0.4366739
50
93.0223692
51
122.455762
0
ARC
8
DEFAULT_255_1_234
10
5.6788354
20
84.6672709
40
0.5336137
50
89.975342
51
93.6341897
0
ARC
8
DEFAULT_255_1_234
10
5.6827241
20
84.7052375
40
0.4956606
50
73.9665422
51
90.4229648
0
ARC
8
DEFAULT_255_1_234
10
5.7010888
20
84.7767451
40
0.4218674
50
57.5178019
51
73.6813337
0
ARC
8
DEFAULT_255_1_234
10
5.696667
20
84.7731462
40
0.4272816
50
28.7261108
51
57.2767933
0
ARC
8
DEFAULT_255_1_234
10
5.6056002
20
84.7168688
40
0.534218
50
24.2448911
51
29.3248482
0
ARC
8
DEFAULT_255_1_234
10
5.5130103
20
84.6785819
40
0.6343711
50
9.064382
51
23.9639114
0
ARC
8
DEFAULT_255_1_234
10
5.2874432
20
84.6406925
40
0.8630926
50
359.7586264
51
9.1891435
0
ARC
8
DEFAULT_255_1_234
10
5.1619912
20
84.6420343
40
0.834338
50
359.7133237
51
7.96545
0
ARC
8
DEFAULT_255_1_234
10
5.4582128
20
84.6847681
40
0.5350538
50
7.8291991
51
20.0421623
0
ARC
8
DEFAULT_255_1_234
10
5.6206692
20
84.7438606
40
0.3621841
50
20.0677553
51
35.9161685
0
ARC
8
DEFAULT_255_1_234
10
5.698173
20
84.801467
40
0.2656263
50
35.6594382
51
85.1578074
0
ARC
8
DEFAULT_255_1_234
10
5.6796985
20
84.6899378
40
0.3784238
50
83.7959068
51
90.095906
0
ARC
8
DEFAULT_255_1_234
10
5.6753919
20
84.7632601
40
0.3051229
50
89.3102392
51
109.9889877
0
ARC
8
DEFAULT_255_1_234
10
5.6671402
20
84.7988433
40
0.2688988
50
110.9285147
51
143.9411762
0
ARC
8
DEFAULT_255_1_234
10
5.7602349
20
84.7276236
40
0.3860887
50
143.5289163
51
163.2980757
0
ARC
8
DEFAULT_255_1_234
10
5.951017
20
84.6676433
40
0.5860659
50
163.0418846
51
174.3140048
0
ARC
8
DEFAULT_255_1_234
10
6.1914282
20
84.6398854
40
0.8280531
50
174.0509143
51
179.4176892
0
ARC
8
DEFAULT_255_1_234
10
6.1400617
20
84.5580634
40
0.7766558
50
179.6829237
51
188.9631324
0
ARC
8
DEFAULT_255_1_234
10
5.8730178
20
84.5145752
40
0.5060992
50
188.8100743
51
202.9300012
0
ARC
8
DEFAULT_255_1_234
10
5.7513807
20
84.4650855
40
0.3747967
50
203.2069261
51
215.7876482
0
ARC
8
DEFAULT_255_1_234
10
5.6665204
20
84.3979671
40
0.2667526
50
214.7521006
51
264.2834488
0
ARC
8
DEFAULT_255_1_234
10
5.6800859
20
84.483478
40
0.3532247
50
263.4755397
51
270.0949833
0
ARC
8
DEFAULT_255_1_234
10
5.6842969
20
84.4573374
40
0.3271036
50
269.3649385
51
287.5152008
0
ARC
8
DEFAULT_255_1_234
10
5.7021127
20
84.3926238
40
0.2600406
50
288.0630309
51
323.8113348
0
ARC
8
DEFAULT_255_1_234
10
5.6149969
20
84.4576049
40
0.3687189
50
323.6547608
51
342.6590488
0
ARC
8
DEFAULT_255_1_234
10
5.4118584
20
84.5236952
40
0.5823286
50
342.4091907
51
353.6451149
0
ARC
8
DEFAULT_255_1_234
10
5.1287095
20
84.558919
40
0.8676442
50
353.4029884
51
359.4847795
0
LINE
8
DEFAULT_255_1_234
10
7.1159431
20
84.1366792
11
7.1159431
21
84.0154
0
LINE
8
DEFAULT_255_1_234
10
7.1159431
20
84.0154
11
6.3497152
21
84.0154
0
LINE
8
DEFAULT_255_1_234
10
6.3497152
20
84.0154
11
6.3497152
21
84.1222221
0
LINE
8
DEFAULT_255_1_234
10
6.3497152
20
84.1222221
11
6.7545148
21
84.5719995
0
LINE
8
DEFAULT_255_1_234
10
6.4758135
20
84.8402595
11
6.3272264
21
84.8402595
0
LINE
8
DEFAULT_255_1_234
10
6.8420608
20
84.4764218
11
6.528823
21
84.1366792
0
LINE
8
DEFAULT_255_1_234
10
6.528823
20
84.1366792
11
7.1159431
21
84.1366792
0
ARC
8
DEFAULT_255_1_234
10
5.4054982
20
85.7649527
40
1.8008286
50
318.5132453
51
320.7828378
0
ARC
8
DEFAULT_255_1_234
10
5.9341956
20
85.3346426
40
1.1191493
50
320.7372736
51
323.9737074
0
ARC
8
DEFAULT_255_1_234
10
6.3261813
20
85.0506361
40
0.6350923
50
323.8961724
51
328.6421089
0
ARC
8
DEFAULT_255_1_234
10
6.5308408
20
84.9244031
40
0.3946393
50
328.8299013
51
331.789948
0
ARC
8
DEFAULT_255_1_234
10
6.6305586
20
84.8729509
40
0.2824501
50
331.4255242
51
352.9364833
0
ARC
8
DEFAULT_255_1_234
10
6.6442087
20
84.8698976
40
0.2685315
50
353.2248685
51
0.0169286
0
ARC
8
DEFAULT_255_1_234
10
6.6651964
20
84.872195
40
0.2475536
50
359.4866256
51
15.9339782
0
ARC
8
DEFAULT_255_1_234
10
6.7158949
20
84.8858286
40
0.1950618
50
16.1714718
51
43.5284424
0
ARC
8
DEFAULT_255_1_234
10
6.7236258
20
84.8935573
40
0.184134
50
43.4415429
51
83.1661404
0
ARC
8
DEFAULT_255_1_234
10
6.7102176
20
84.8198771
40
0.258926
50
82.160215
51
90.1505798
0
ARC
8
DEFAULT_255_1_234
10
6.7070603
20
84.7661865
40
0.3126255
50
89.5460705
51
102.5418777
0
ARC
8
DEFAULT_255_1_234
10
6.6827689
20
84.8692665
40
0.2067346
50
102.1739365
51
129.2061916
0
ARC
8
DEFAULT_255_1_234
10
6.6748761
20
84.8817094
40
0.1921118
50
129.7279328
51
135.7542026
0
ARC
8
DEFAULT_255_1_234
10
6.6870289
20
84.8720045
40
0.2075944
50
136.175737
51
166.3674722
0
ARC
8
DEFAULT_255_1_234
10
6.7877208
20
84.8450182
40
0.3118201
50
165.9092917
51
178.8683903
0
ARC
8
DEFAULT_255_1_234
10
6.8742069
20
84.8403179
40
0.3983935
50
178.438168
51
180.0083905
0
ARC
8
DEFAULT_255_1_234
10
6.7340671
20
84.8442231
40
0.4068601
50
163.2878735
51
180.5581814
0
ARC
8
DEFAULT_255_1_234
10
6.6538933
20
84.866284
40
0.3237344
50
133.454115
51
162.9470031
0
ARC
8
DEFAULT_255_1_234
10
6.6717474
20
84.8473
40
0.349795
50
100.7869394
51
133.4384016
0
ARC
8
DEFAULT_255_1_234
10
6.7065246
20
84.6924319
40
0.5084616
50
89.6605301
51
101.3704185
0
ARC
8
DEFAULT_255_1_234
10
6.7131585
20
84.6985496
40
0.502348
50
78.2171172
51
90.4130393
0
ARC
8
DEFAULT_255_1_234
10
6.7486663
20
84.8609637
40
0.3361092
50
55.9268222
51
78.4888551
0
ARC
8
DEFAULT_255_1_234
10
6.7683103
20
84.8948324
40
0.2970617
50
47.9292255
51
55.4054003
0
ARC
8
DEFAULT_255_1_234
10
6.7784664
20
84.9051502
40
0.2825983
50
4.3347696
51
48.0560701
0
ARC
8
DEFAULT_255_1_234
10
6.6689057
20
84.8881601
40
0.393225
50
359.925209
51
5.5967654
0
ARC
8
DEFAULT_255_1_234
10
6.7117949
20
84.8937816
40
0.3503892
50
337.8914096
51
358.9967724
0
ARC
8
DEFAULT_255_1_234
10
6.4404361
20
84.9984706
40
0.6412172
50
326.9135351
51
338.3505194
0
ARC
8
DEFAULT_255_1_234
10
6.0418665
20
85.2539284
40
1.1146189
50
319.6472867
51
327.095818
0
ARC
8
DEFAULT_255_1_234
10
5.6585668
20
85.5701
40
1.6114559
50
317.2586784
51
319.9046139
0
LINE
8
DEFAULT_255_1_234
10
4.4937154
20
91.9529
11
4.1700364
21
91.9529
0
LINE
8
DEFAULT_255_1_234
10
4.1700364
20
91.9529
11
4.1700364
21
93.1223211
0
LINE
8
DEFAULT_255_1_234
10
4.1700364
20
93.1223211
11
4.5001408
21
93.1223211
0
LINE
8
DEFAULT_255_1_234
10
5.0157784
20
92.5769661
11
5.0157784
21
92.5022709
0
LINE
8
DEFAULT_255_1_234
10
4.5041567
20
92.9954196
11
4.3242458
21
92.9954196
0
LINE
8
DEFAULT_255_1_234
10
4.3242458
20
92.9954196
11
4.3242458
21
92.0789983
0
LINE
8
DEFAULT_255_1_234
10
4.3242458
20
92.0789983
11
4.4864869
21
92.0789983
0
LINE
8
DEFAULT_255_1_234
10
4.8631754
20
92.5054836
11
4.8631754
21
92.5737534
0
ARC
8
DEFAULT_255_1_234
10
4.5040351
20
92.5357894
40
0.5865446
50
75.4101064
51
90.3804066
0
ARC
8
DEFAULT_255_1_234
10
4.5269864
20
92.6314492
40
0.4881916
50
60.145586
51
75.1888407
0
ARC
8
DEFAULT_255_1_234
10
4.542864
20
92.6591199
40
0.4562893
50
26.5253612
51
60.1450928
0
ARC
8
DEFAULT_255_1_234
10
4.4308389
20
92.5997158
40
0.5830602
50
7.4030428
51
26.8320788
0
ARC
8
DEFAULT_255_1_234
10
4.2714146
20
92.5748804
40
0.7443669
50
0.1605367
51
7.7176192
0
ARC
8
DEFAULT_255_1_234
10
4.287805
20
92.4984434
40
0.7279835
50
348.7289388
51
0.3012466
0
ARC
8
DEFAULT_255_1_234
10
4.4534481
20
92.4655386
40
0.559104
50
333.0706509
51
348.7181832
0
ARC
8
DEFAULT_255_1_234
10
4.5501238
20
92.4130319
40
0.4491417
50
299.2531685
51
333.4571258
0
ARC
8
DEFAULT_255_1_234
10
4.5140378
20
92.4815828
40
0.5265881
50
278.107187
51
299.0339503
0
ARC
8
DEFAULT_255_1_234
10
4.4884457
20
92.6323216
40
0.679442
50
270.4443897
51
278.4511052
0
ARC
8
DEFAULT_255_1_234
10
4.4905287
20
92.5394213
40
0.4604407
50
269.4970433
51
284.0205042
0
ARC
8
DEFAULT_255_1_234
10
4.5260588
20
92.4028978
40
0.3193797
50
283.7700273
51
318.1555492
0
ARC
8
DEFAULT_255_1_234
10
4.4923346
20
92.4281367
40
0.3613588
50
318.7415601
51
343.6873628
0
ARC
8
DEFAULT_255_1_234
10
4.3119369
20
92.4844832
40
0.5503313
50
343.3325091
51
355.8548958
0
ARC
8
DEFAULT_255_1_234
10
4.1021054
20
92.5044319
40
0.7610708
50
355.4988528
51
0.0791727
0
ARC
8
DEFAULT_255_1_234
10
4.1803676
20
92.577978
40
0.6828208
50
359.6455037
51
9.8607896
0
ARC
8
DEFAULT_255_1_234
10
4.4164374
20
92.6206099
40
0.4429406
50
9.6571907
51
26.1932807
0
ARC
8
DEFAULT_255_1_234
10
4.5092363
20
92.6637118
40
0.3406537
50
26.5777228
51
40.1532208
0
ARC
8
DEFAULT_255_1_234
10
4.5348089
20
92.6836619
40
0.308246
50
40.3840491
51
80.1431104
0
ARC
8
DEFAULT_255_1_234
10
4.5021207
20
92.5387333
40
0.4566909
50
79.2152159
51
89.7445637
0
LINE
8
DEFAULT_255_1_234
10
6.1418281
20
92.5745565
11
6.1418281
21
92.4998614
0
LINE
8
DEFAULT_255_1_234
10
5.9370188
20
92.0163507
11
6.145844
21
91.8525033
0
LINE
8
DEFAULT_255_1_234
10
6.145844
20
91.8525033
11
6.0406282
21
91.7553192
0
LINE
8
DEFAULT_255_1_234
10
6.0406282
20
91.7553192
11
5.7940539
21
91.9512937
0
LINE
8
DEFAULT_255_1_234
10
5.2005084
20
92.4894201
11
5.2005084
21
92.5737534
0
LINE
8
DEFAULT_255_1_234
10
5.9876187
20
92.4886169
11
5.9876187
21
92.5753597
0
LINE
8
DEFAULT_255_1_234
10
5.3547178
20
92.585801
11
5.3547178
21
92.4998614
0
ARC
8
DEFAULT_255_1_234
10
5.2464533
20
92.4959707
40
0.8953833
50
351.453011
51
0.2489685
0
ARC
8
DEFAULT_255_1_234
10
5.5049333
20
92.4559933
40
0.6338333
50
338.6861641
51
351.5540711
0
ARC
8
DEFAULT_255_1_234
10
5.5983218
20
92.4229828
40
0.5348431
50
336.2887631
51
338.3442418
0
ARC
8
DEFAULT_255_1_234
10
5.6322839
20
92.4043698
40
0.4962747
50
321.1170344
51
336.6795229
0
ARC
8
DEFAULT_255_1_234
10
5.6954669
20
92.3557206
40
0.4165565
50
305.4419708
51
320.8705636
0
ARC
8
DEFAULT_255_1_234
10
5.6758139
20
92.4304707
40
0.4935497
50
271.6373023
51
283.8611969
0
ARC
8
DEFAULT_255_1_234
10
5.6720392
20
92.4960572
40
0.5592206
50
269.9930596
51
271.8318864
0
ARC
8
DEFAULT_255_1_234
10
5.6682835
20
92.4152681
40
0.4784458
50
252.5219675
51
270.4416499
0
ARC
8
DEFAULT_255_1_234
10
5.6539094
20
92.3613592
40
0.422716
50
237.5352116
51
252.1857531
0
ARC
8
DEFAULT_255_1_234
10
5.662829
20
92.3727363
40
0.4371052
50
209.063312
51
237.3492538
0
ARC
8
DEFAULT_255_1_234
10
5.7498138
20
92.4273685
40
0.5397041
50
205.1183774
51
209.6470015
0
ARC
8
DEFAULT_255_1_234
10
5.8295175
20
92.461183
40
0.6262326
50
188.7215458
51
204.8240747
0
ARC
8
DEFAULT_255_1_234
10
6.0292703
20
92.4948067
40
0.8287794
50
180.3723947
51
188.9252049
0
ARC
8
DEFAULT_255_1_234
10
6.0265454
20
92.5777402
40
0.8260467
50
169.5253763
51
180.2765336
0
ARC
8
DEFAULT_255_1_234
10
5.8362903
20
92.6127309
40
0.6326007
50
155.8315255
51
169.5089989
0
ARC
8
DEFAULT_255_1_234
10
5.7082405
20
92.6721348
40
0.4914567
50
139.6258461
51
156.0379525
0
ARC
8
DEFAULT_255_1_234
10
5.6492738
20
92.7195799
40
0.4158054
50
122.6416387
51
139.3430715
0
ARC
8
DEFAULT_255_1_234
10
5.6593358
20
92.7012451
40
0.4366739
50
93.0223692
51
122.455762
0
ARC
8
DEFAULT_255_1_234
10
5.6701354
20
92.6047709
40
0.5336137
50
89.975342
51
93.6341897
0
ARC
8
DEFAULT_255_1_234
10
5.6740241
20
92.6427375
40
0.4956606
50
73.9665422
51
90.4229648
0
ARC
8
DEFAULT_255_1_234
10
5.6923888
20
92.7142451
40
0.4218674
50
57.5178019
51
73.6813337
0
ARC
8
DEFAULT_255_1_234
10
5.687967
20
92.7106462
40
0.4272816
50
28.7261108
51
57.2767933
0
ARC
8
DEFAULT_255_1_234
10
5.5969002
20
92.6543688
40
0.534218
50
24.2448911
51
29.3248482
0
ARC
8
DEFAULT_255_1_234
10
5.5043103
20
92.6160819
40
0.6343711
50
9.064382
51
23.9639114
0
ARC
8
DEFAULT_255_1_234
10
5.2787432
20
92.5781925
40
0.8630926
50
359.7586264
51
9.1891435
0
ARC
8
DEFAULT_255_1_234
10
5.1532912
20
92.5795343
40
0.834338
50
359.7133237
51
7.96545
0
ARC
8
DEFAULT_255_1_234
10
5.4495128
20
92.6222681
40
0.5350538
50
7.8291991
51
20.0421623
0
ARC
8
DEFAULT_255_1_234
10
5.6119692
20
92.6813606
40
0.3621841
50
20.0677553
51
35.9161685
0
ARC
8
DEFAULT_255_1_234
10
5.689473
20
92.738967
40
0.2656263
50
35.6594382
51
85.1578074
0
ARC
8
DEFAULT_255_1_234
10
5.6709985
20
92.6274378
40
0.3784238
50
83.7959068
51
90.095906
0
ARC
8
DEFAULT_255_1_234
10
5.6666919
20
92.7007601
40
0.3051229
50
89.3102392
51
109.9889877
0
ARC
8
DEFAULT_255_1_234
10
5.6584402
20
92.7363433
40
0.2688988
50
110.9285147
51
143.9411762
0
ARC
8
DEFAULT_255_1_234
10
5.7515349
20
92.6651236
40
0.3860887
50
143.5289163
51
163.2980757
0
ARC
8
DEFAULT_255_1_234
10
5.942317
20
92.6051433
40
0.5860659
50
163.0418846
51
174.3140048
0
ARC
8
DEFAULT_255_1_234
10
6.1827282
20
92.5773854
40
0.8280531
50
174.0509143
51
179.4176892
0
ARC
8
DEFAULT_255_1_234
10
6.1313617
20
92.4955634
40
0.7766558
50
179.6829237
51
188.9631324
0
ARC
8
DEFAULT_255_1_234
10
5.8643178
20
92.4520752
40
0.5060992
50
188.8100743
51
202.9300012
0
ARC
8
DEFAULT_255_1_234
10
5.7426807
20
92.4025855
40
0.3747967
50
203.2069261
51
215.7876482
0
ARC
8
DEFAULT_255_1_234
10
5.6578204
20
92.3354671
40
0.2667526
50
214.7521006
51
264.2834488
0
ARC
8
DEFAULT_255_1_234
10
5.6713859
20
92.420978
40
0.3532247
50
263.4755397
51
270.0949833
0
ARC
8
DEFAULT_255_1_234
10
5.6755969
20
92.3948374
40
0.3271036
50
269.3649385
51
287.5152008
0
ARC
8
DEFAULT_255_1_234
10
5.6934127
20
92.3301238
40
0.2600406
50
288.0630309
51
323.8113348
0
ARC
8
DEFAULT_255_1_234
10
5.6062969
20
92.3951049
40
0.3687189
50
323.6547608
51
342.6590488
0
ARC
8
DEFAULT_255_1_234
10
5.4031584
20
92.4611952
40
0.5823286
50
342.4091907
51
353.6451149
0
ARC
8
DEFAULT_255_1_234
10
5.1200095
20
92.496419
40
0.8676442
50
353.4029884
51
359.4847795
0
LINE
8
DEFAULT_255_1_234
10
6.8293449
20
93.1279433
11
6.8293449
21
91.9529
0
LINE
8
DEFAULT_255_1_234
10
6.8293449
20
91.9529
11
6.6799546
21
91.9529
0
LINE
8
DEFAULT_255_1_234
10
6.6799546
20
91.9529
11
6.6799546
21
92.9432133
0
LINE
8
DEFAULT_255_1_234
10
6.6799546
20
92.9432133
11
6.3803708
21
92.8331785
0
LINE
8
DEFAULT_255_1_234
10
6.3803708
20
92.8331785
11
6.3803708
21
92.9681117
0
LINE
8
DEFAULT_255_1_234
10
6.3803708
20
92.9681117
11
6.8060529
21
93.1279433
0
LINE
8
DEFAULT_255_1_234
10
6.8060529
20
93.1279433
11
6.8293449
21
93.1279433
0
LINE
8
DEFAULT_255_1_234
10
4.5024154
20
99.8904
11
4.1787364
21
99.8904
0
LINE
8
DEFAULT_255_1_234
10
4.1787364
20
99.8904
11
4.1787364
21
101.0598211
0
LINE
8
DEFAULT_255_1_234
10
4.1787364
20
101.0598211
11
4.5088408
21
101.0598211
0
LINE
8
DEFAULT_255_1_234
10
5.0244784
20
100.5144661
11
5.0244784
21
100.4397709
0
LINE
8
DEFAULT_255_1_234
10
4.5128567
20
100.9329196
11
4.3329458
21
100.9329196
0
LINE
8
DEFAULT_255_1_234
10
4.3329458
20
100.9329196
11
4.3329458
21
100.0164983
0
LINE
8
DEFAULT_255_1_234
10
4.3329458
20
100.0164983
11
4.4951869
21
100.0164983
0
LINE
8
DEFAULT_255_1_234
10
4.8718754
20
100.4429836
11
4.8718754
21
100.5112534
0
ARC
8
DEFAULT_255_1_234
10
4.5127351
20
100.4732894
40
0.5865446
50
75.4101064
51
90.3804066
0
ARC
8
DEFAULT_255_1_234
10
4.5356864
20
100.5689492
40
0.4881916
50
60.145586
51
75.1888407
0
ARC
8
DEFAULT_255_1_234
10
4.551564
20
100.5966199
40
0.4562893
50
26.5253612
51
60.1450928
0
ARC
8
DEFAULT_255_1_234
10
4.4395389
20
100.5372158
40
0.5830602
50
7.4030428
51
26.8320788
0
ARC
8
DEFAULT_255_1_234
10
4.2801146
20
100.5123804
40
0.7443669
50
0.1605367
51
7.7176192
0
ARC
8
DEFAULT_255_1_234
10
4.296505
20
100.4359434
40
0.7279835
50
348.7289388
51
0.3012466
0
ARC
8
DEFAULT_255_1_234
10
4.4621481
20
100.4030386
40
0.559104
50
333.0706509
51
348.7181832
0
ARC
8
DEFAULT_255_1_234
10
4.5588238
20
100.3505319
40
0.4491417
50
299.2531685
51
333.4571258
0
ARC
8
DEFAULT_255_1_234
10
4.5227378
20
100.4190828
40
0.5265881
50
278.107187
51
299.0339503
0
ARC
8
DEFAULT_255_1_234
10
4.4971457
20
100.5698216
40
0.679442
50
270.4443897
51
278.4511052
0
ARC
8
DEFAULT_255_1_234
10
4.4992287
20
100.4769213
40
0.4604407
50
269.4970433
51
284.0205042
0
ARC
8
DEFAULT_255_1_234
10
4.5347588
20
100.3403978
40
0.3193797
50
283.7700273
51
318.1555492
0
ARC
8
DEFAULT_255_1_234
10
4.5010346
20
100.3656367
40
0.3613588
50
318.7415601
51
343.6873628
0
ARC
8
DEFAULT_255_1_234
10
4.3206369
20
100.4219832
40
0.5503313
50
343.3325091
51
355.8548958
0
ARC
8
DEFAULT_255_1_234
10
4.1108054
20
100.4419319
40
0.7610708
50
355.4988528
51
0.0791727
0
ARC
8
DEFAULT_255_1_234
10
4.1890676
20
100.515478
40
0.6828208
50
359.6455037
51
9.8607896
0
ARC
8
DEFAULT_255_1_234
10
4.4251374
20
100.5581099
40
0.4429406
50
9.6571907
51
26.1932807
0
ARC
8
DEFAULT_255_1_234
10
4.5179363
20
100.6012118
40
0.3406537
50
26.5777228
51
40.1532208
0
ARC
8
DEFAULT_255_1_234
10
4.5435089
20
100.6211619
40
0.308246
50
40.3840491
51
80.1431104
0
ARC
8
DEFAULT_255_1_234
10
4.5108207
20
100.4762333
40
0.4566909
50
79.2152159
51
89.7445637
0
LINE
8
DEFAULT_255_1_234
10
6.1505281
20
100.5120565
11
6.1505281
21
100.4373614
0
LINE
8
DEFAULT_255_1_234
10
5.9457188
20
99.9538507
11
6.154544
21
99.7900033
0
LINE
8
DEFAULT_255_1_234
10
6.154544
20
99.7900033
11
6.0493282
21
99.6928192
0
LINE
8
DEFAULT_255_1_234
10
6.0493282
20
99.6928192
11
5.8027539
21
99.8887937
0
LINE
8
DEFAULT_255_1_234
10
5.2092084
20
100.4269201
11
5.2092084
21
100.5112534
0
LINE
8
DEFAULT_255_1_234
10
5.9963188
20
100.4261169
11
5.9963188
21
100.5128597
0
LINE
8
DEFAULT_255_1_234
10
5.3634178
20
100.523301
11
5.3634178
21
100.4373614
0
ARC
8
DEFAULT_255_1_234
10
5.2551533
20
100.4334707
40
0.8953833
50
351.453011
51
0.2489685
0
ARC
8
DEFAULT_255_1_234
10
5.5136333
20
100.3934933
40
0.6338333
50
338.6861641
51
351.5540711
0
ARC
8
DEFAULT_255_1_234
10
5.6070218
20
100.3604828
40
0.5348431
50
336.2887631
51
338.3442418
0
ARC
8
DEFAULT_255_1_234
10
5.6409839
20
100.3418698
40
0.4962747
50
321.1170344
51
336.6795229
0
ARC
8
DEFAULT_255_1_234
10
5.7041669
20
100.2932206
40
0.4165565
50
305.4419708
51
320.8705636
0
ARC
8
DEFAULT_255_1_234
10
5.6845139
20
100.3679707
40
0.4935497
50
271.6373023
51
283.8611969
0
ARC
8
DEFAULT_255_1_234
10
5.6807392
20
100.4335572
40
0.5592206
50
269.9930596
51
271.8318864
0
ARC
8
DEFAULT_255_1_234
10
5.6769835
20
100.3527681
40
0.4784458
50
252.5219675
51
270.4416499
0
ARC
8
DEFAULT_255_1_234
10
5.6626094
20
100.2988592
40
0.422716
50
237.5352116
51
252.1857531
0
ARC
8
DEFAULT_255_1_234
10
5.671529
20
100.3102363
40
0.4371052
50
209.063312
51
237.3492538
0
ARC
8
DEFAULT_255_1_234
10
5.7585138
20
100.3648685
40
0.5397041
50
205.1183774
51
209.6470015
0
ARC
8
DEFAULT_255_1_234
10
5.8382175
20
100.398683
40
0.6262326
50
188.7215458
51
204.8240747
0
ARC
8
DEFAULT_255_1_234
10
6.0379703
20
100.4323067
40
0.8287794
50
180.3723947
51
188.9252049
0
ARC
8
DEFAULT_255_1_234
10
6.0352454
20
100.5152402
40
0.8260467
50
169.5253763
51
180.2765336
0
ARC
8
DEFAULT_255_1_234
10
5.8449903
20
100.5502309
40
0.6326007
50
155.8315255
51
169.5089989
0
ARC
8
DEFAULT_255_1_234
10
5.7169405
20
100.6096348
40
0.4914567
50
139.6258461
51
156.0379525
0
ARC
8
DEFAULT_255_1_234
10
5.6579738
20
100.6570799
40
0.4158054
50
122.6416387
51
139.3430715
0
ARC
8
DEFAULT_255_1_234
10
5.6680358
20
100.6387451
40
0.4366739
50
93.0223692
51
122.455762
0
ARC
8
DEFAULT_255_1_234
10
5.6788354
20
100.5422709
40
0.5336137
50
89.975342
51
93.6341897
0
ARC
8
DEFAULT_255_1_234
10
5.6827241
20
100.5802375
40
0.4956606
50
73.9665422
51
90.4229648
0
ARC
8
DEFAULT_255_1_234
10
5.7010888
20
100.6517451
40
0.4218674
50
57.5178019
51
73.6813337
0
ARC
8
DEFAULT_255_1_234
10
5.696667
20
100.6481462
40
0.4272816
50
28.7261108
51
57.2767933
0
ARC
8
DEFAULT_255_1_234
10
5.6056002
20
100.5918688
40
0.534218
50
24.2448911
51
29.3248482
0
ARC
8
DEFAULT_255_1_234
10
5.5130103
20
100.5535819
40
0.6343711
50
9.064382
51
23.9639114
0
ARC
8
DEFAULT_255_1_234
10
5.2874432
20
100.5156925
40
0.8630926
50
359.7586264
51
9.1891435
0
ARC
8
DEFAULT_255_1_234
10
5.1619912
20
100.5170343
40
0.834338
50
359.7133237
51
7.96545
0
ARC
8
DEFAULT_255_1_234
10
5.4582128
20
100.5597681
40
0.5350538
50
7.8291991
51
20.0421623
0
ARC
8
DEFAULT_255_1_234
10
5.6206692
20
100.6188606
40
0.3621841
50
20.0677553
51
35.9161685
0
ARC
8
DEFAULT_255_1_234
10
5.698173
20
100.676467
40
0.2656263
50
35.6594382
51
85.1578074
0
ARC
8
DEFAULT_255_1_234
10
5.6796985
20
100.5649378
40
0.3784238
50
83.7959068
51
90.095906
0
ARC
8
DEFAULT_255_1_234
10
5.6753919
20
100.6382601
40
0.3051229
50
89.3102392
51
109.9889877
0
ARC
8
DEFAULT_255_1_234
10
5.6671402
20
100.6738433
40
0.2688988
50
110.9285147
51
143.9411762
0
ARC
8
DEFAULT_255_1_234
10
5.7602349
20
100.6026236
40
0.3860887
50
143.5289163
51
163.2980757
0
ARC
8
DEFAULT_255_1_234
10
5.951017
20
100.5426433
40
0.5860659
50
163.0418846
51
174.3140048
0
ARC
8
DEFAULT_255_1_234
10
6.1914282
20
100.5148854
40
0.8280531
50
174.0509143
51
179.4176892
0
ARC
8
DEFAULT_255_1_234
10
6.1400617
20
100.4330634
40
0.7766558
50
179.6829237
51
188.9631324
0
ARC
8
DEFAULT_255_1_234
10
5.8730178
20
100.3895752
40
0.5060992
50
188.8100743
51
202.9300012
0
ARC
8
DEFAULT_255_1_234
10
5.7513807
20
100.3400855
40
0.3747967
50
203.2069261
51
215.7876482
0
ARC
8
DEFAULT_255_1_234
10
5.6665204
20
100.2729671
40
0.2667526
50
214.7521006
51
264.2834488
0
ARC
8
DEFAULT_255_1_234
10
5.6800859
20
100.358478
40
0.3532247
50
263.4755397
51
270.0949833
0
ARC
8
DEFAULT_255_1_234
10
5.6842969
20
100.3323374
40
0.3271036
50
269.3649385
51
287.5152008
0
ARC
8
DEFAULT_255_1_234
10
5.7021127
20
100.2676238
40
0.2600406
50
288.0630309
51
323.8113348
0
ARC
8
DEFAULT_255_1_234
10
5.6149969
20
100.3326049
40
0.3687189
50
323.6547608
51
342.6590488
0
ARC
8
DEFAULT_255_1_234
10
5.4118584
20
100.3986952
40
0.5823286
50
342.4091907
51
353.6451149
0
ARC
8
DEFAULT_255_1_234
10
5.1287095
20
100.433919
40
0.8676442
50
353.4029884
51
359.4847795
0
LINE
8
DEFAULT_255_1_234
10
7.0830129
20
100.5819327
11
7.0830129
21
100.3891709
0
LINE
8
DEFAULT_255_1_234
10
6.3448962
20
100.3690916
11
6.3448962
21
100.5674755
0
LINE
8
DEFAULT_255_1_234
10
6.9344258
20
100.3490123
11
6.9344258
21
100.5923739
0
LINE
8
DEFAULT_255_1_234
10
6.4934833
20
100.6036184
11
6.4934833
21
100.3658789
0
ARC
8
DEFAULT_255_1_234
10
5.8583019
20
100.3842805
40
1.2247208
50
353.8441951
51
0.2287902
0
ARC
8
DEFAULT_255_1_234
10
6.3222523
20
100.3324806
40
0.7578929
50
344.4934747
51
353.9765454
0
ARC
8
DEFAULT_255_1_234
10
6.6215113
20
100.2473981
40
0.4467846
50
329.2803592
51
344.7472793
0
ARC
8
DEFAULT_255_1_234
10
6.7207938
20
100.1929018
40
0.3336173
50
324.9352394
51
328.6160465
0
ARC
8
DEFAULT_255_1_234
10
6.7585046
20
100.1665427
40
0.2876076
50
280.580143
51
324.9173126
0
ARC
8
DEFAULT_255_1_234
10
6.7183839
20
100.3336099
40
0.4592847
50
269.5977311
51
281.6734359
0
ARC
8
DEFAULT_255_1_234
10
6.7111745
20
100.3216173
40
0.4472986
50
256.6228859
51
270.51044
0
ARC
8
DEFAULT_255_1_234
10
6.6709722
20
100.1667877
40
0.2873874
50
215.8618325
51
257.2788573
0
ARC
8
DEFAULT_255_1_234
10
6.7730754
20
100.2352977
40
0.4102928
50
197.9693508
51
215.2623606
0
ARC
8
DEFAULT_255_1_234
10
7.021587
20
100.3191709
40
0.6725652
50
187.8816417
51
198.2346507
0
ARC
8
DEFAULT_255_1_234
10
7.4174078
20
100.3763079
40
1.0724845
50
180.8976217
51
188.0055519
0
ARC
8
DEFAULT_255_1_234
10
7.6974266
20
100.3866777
40
1.3526448
50
180.7449369
51
181.1510016
0
ARC
8
DEFAULT_255_1_234
10
7.5396995
20
100.5723042
40
1.1948131
50
173.7675579
51
180.231553
0
ARC
8
DEFAULT_255_1_234
10
7.0879142
20
100.6233666
40
0.7401564
50
164.3058563
51
173.9002247
0
ARC
8
DEFAULT_255_1_234
10
6.7967211
20
100.7072656
40
0.4371288
50
148.7922025
51
164.568378
0
ARC
8
DEFAULT_255_1_234
10
6.7015663
20
100.7603929
40
0.3282386
50
144.5883898
51
148.1176286
0
ARC
8
DEFAULT_255_1_234
10
6.6672561
20
100.7843315
40
0.2864044
50
101.6440918
51
144.514236
0
ARC
8
DEFAULT_255_1_234
10
6.7097627
20
100.6154069
40
0.4604934
50
89.5284041
51
102.5819763
0
ARC
8
DEFAULT_255_1_234
10
6.7176715
20
100.6115018
40
0.464401
50
77.0437873
51
90.5081339
0
ARC
8
DEFAULT_255_1_234
10
6.7578717
20
100.7757615
40
0.2953195
50
48.2778575
51
77.4994676
0
ARC
8
DEFAULT_255_1_234
10
6.7651348
20
100.7886746
40
0.2808655
50
36.3142134
51
47.6305865
0
ARC
8
DEFAULT_255_1_234
10
6.6782655
20
100.7301515
40
0.3855453
50
18.2931786
51
35.6769206
0
ARC
8
DEFAULT_255_1_234
10
6.4239414
20
100.6428593
40
0.654423
50
8.024666
51
18.5605216
0
ARC
8
DEFAULT_255_1_234
10
6.0076334
20
100.5813792
40
1.0752407
50
1.1274072
51
8.1718305
0
ARC
8
DEFAULT_255_1_234
10
5.6840525
20
100.5686885
40
1.3990231
50
0.5424119
51
1.3863029
0
ARC
8
DEFAULT_255_1_234
10
5.8661902
20
100.5959342
40
1.0682415
50
359.8090433
51
4.9407866
0
ARC
8
DEFAULT_255_1_234
10
6.2871916
20
100.6335113
40
0.6455691
50
4.8362157
51
12.2904523
0
ARC
8
DEFAULT_255_1_234
10
6.5627031
20
100.6948965
40
0.3633074
50
12.0805627
51
23.8173984
0
ARC
8
DEFAULT_255_1_234
10
6.6800737
20
100.7445919
40
0.2358723
50
24.2871213
51
31.3935614
0
ARC
8
DEFAULT_255_1_234
10
6.7325434
20
100.7789233
40
0.1732111
50
30.7407893
51
82.4657128
0
ARC
8
DEFAULT_255_1_234
10
6.7145568
20
100.6905691
40
0.263235
50
81.1060089
51
90.2184952
0
ARC
8
DEFAULT_255_1_234
10
6.7109867
20
100.7163924
40
0.2374236
50
89.3806855
51
105.6762551
0
ARC
8
DEFAULT_255_1_234
10
6.6926498
20
100.7830567
40
0.1682847
50
105.7981136
51
149.7388061
0
ARC
8
DEFAULT_255_1_234
10
6.7990576
20
100.719095
40
0.2924306
50
149.4208916
51
163.6286378
0
ARC
8
DEFAULT_255_1_234
10
7.0081464
20
100.655325
40
0.5110213
50
163.3763315
51
172.1410975
0
ARC
8
DEFAULT_255_1_234
10
7.3382183
20
100.6080518
40
0.8444586
50
172.0259487
51
178.0703232
0
ARC
8
DEFAULT_255_1_234
10
7.6412272
20
100.5936906
40
1.1477868
50
177.8631668
51
179.5044149
0
ARC
8
DEFAULT_255_1_234
10
7.5339677
20
100.3622389
40
1.0404907
50
179.7995573
51
185.2460446
0
ARC
8
DEFAULT_255_1_234
10
7.1296716
20
100.3239513
40
0.6343885
50
185.1411642
51
193.0079639
0
ARC
8
DEFAULT_255_1_234
10
6.8653189
20
100.2614641
40
0.3627568
50
192.7897626
51
205.2507664
0
ARC
8
DEFAULT_255_1_234
10
6.7606736
20
100.2147415
40
0.2481908
50
205.8005384
51
211.2537509
0
ARC
8
DEFAULT_255_1_234
10
6.7083176
20
100.179658
40
0.1852521
50
210.3789793
51
238.4008143
0
ARC
8
DEFAULT_255_1_234
10
6.7063698
20
100.1843376
40
0.1882621
50
239.6520629
51
265.9793761
0
ARC
8
DEFAULT_255_1_234
10
6.7148898
20
100.2515427
40
0.2559272
50
265.1315437
51
270.060332
0
ARC
8
DEFAULT_255_1_234
10
6.7177677
20
100.2191534
40
0.2235528
50
269.3314664
51
287.2178029
0
ARC
8
DEFAULT_255_1_234
10
6.7315529
20
100.1688279
40
0.1714108
50
287.7958004
51
329.080874
0
ARC
8
DEFAULT_255_1_234
10
6.6357986
20
100.228593
40
0.2842745
50
328.6634704
51
343.3325132
0
ARC
8
DEFAULT_255_1_234
10
6.4185006
20
100.2962863
40
0.5118644
50
343.0499468
51
351.9393422
0
ARC
8
DEFAULT_255_1_234
10
6.0718306
20
100.3473949
40
0.8622784
50
351.8069023
51
357.7959224
0
ARC
8
DEFAULT_255_1_234
10
5.7482862
20
100.3641721
40
1.1862365
50
357.5871873
51
359.2677531
0
LINE
8
DEFAULT_255_1_234
10
23.0455364
20
108.9973211
11
23.2447235
21
108.9973211
0
LINE
8
DEFAULT_255_1_234
10
23.2447235
20
108.9973211
11
23.6270342
21
108.0431506
0
LINE
8
DEFAULT_255_1_234
10
23.6270342
20
108.0431506
11
24.009345
21
108.9973211
0
LINE
8
DEFAULT_255_1_234
10
24.009345
20
108.9973211
11
24.2093353
21
108.9973211
0
LINE
8
DEFAULT_255_1_234
10
24.2093353
20
108.9973211
11
24.2093353
21
107.8279
0
LINE
8
DEFAULT_255_1_234
10
24.2093353
20
107.8279
11
24.0551259
21
107.8279
0
LINE
8
DEFAULT_255_1_234
10
24.0551259
20
107.8279
11
24.0551259
21
108.2832996
0
LINE
8
DEFAULT_255_1_234
10
24.0551259
20
108.2832996
11
24.069583
21
108.7748419
0
LINE
8
DEFAULT_255_1_234
10
24.069583
20
108.7748419
11
23.6856659
21
107.8279
0
LINE
8
DEFAULT_255_1_234
10
23.6856659
20
107.8279
11
23.5675994
21
107.8279
0
LINE
8
DEFAULT_255_1_234
10
23.5675994
20
107.8279
11
23.1844854
21
108.7724324
0
LINE
8
DEFAULT_255_1_234
10
23.1844854
20
108.7724324
11
23.1997458
21
108.2832996
0
LINE
8
DEFAULT_255_1_234
10
23.1997458
20
108.2832996
11
23.1997458
21
107.8279
0
LINE
8
DEFAULT_255_1_234
10
23.1997458
20
107.8279
11
23.0455364
21
107.8279
0
LINE
8
DEFAULT_255_1_234
10
23.0455364
20
107.8279
11
23.0455364
21
108.9973211
0
ENDSEC
0
EOF