0
SECTION
2
HEADER
9
$MEASUREMENT
70
1
0
ENDSEC
0
SECTION
2
TABLES
0
TABLE
2
LTYPE
0
LTYPE
72
65
70
64
2
CONTINUOUS
3
______
73
0
40
0
0
ENDTAB
0
TABLE
2
LAYER
0
LAYER
2
DEFAULT_255_2_778
70
0
62
255
6
CONTINUOUS
0
LAYER
2
DEFAULT_255_1_234
70
0
62
255
6
CONTINUOUS
0
ENDTAB
0
ENDSEC
0
SECTION
2
ENTITIES
0
ARC
8
DEFAULT_255_2_778
10
3.5695693
20
139.3052021
40
0.7914215
50
129.1312896
51
180.1450914
0
ARC
8
DEFAULT_255_2_778
10
3.5698345
20
139.3056893
40
0.7912112
50
89.854026
51
129.1684493
0
ARC
8
DEFAULT_255_2_778
10
25.7988937
20
139.3053758
40
0.7915249
50
39.4792447
51
90.147911
0
ARC
8
DEFAULT_255_2_778
10
25.7994935
20
139.3052224
40
0.7911595
50
359.8533901
51
39.5154338
0
ARC
8
DEFAULT_255_2_778
10
25.7991693
20
-1.9863501
40
0.7914836
50
309.4761667
51
0.1482649
0
ARC
8
DEFAULT_255_2_778
10
25.798898
20
-1.9867812
40
0.7913235
50
269.8517415
51
309.511178
0
ARC
8
DEFAULT_255_2_778
10
3.569842
20
-1.986723
40
0.7913815
50
219.1282118
51
270.1454017
0
ARC
8
DEFAULT_255_2_778
10
3.5695247
20
-1.9863406
40
0.7913769
50
179.8524075
51
219.1641908
0
LINE
8
DEFAULT_255_2_778
10
3.5718503
20
140.096898
11
25.7968503
21
140.096898
0
LINE
8
DEFAULT_255_2_778
10
26.5906503
20
139.303198
11
26.5906503
21
-1.984302
0
LINE
8
DEFAULT_255_2_778
10
25.7968503
20
-2.778102
11
3.5718503
21
-2.778102
0
LINE
8
DEFAULT_255_2_778
10
2.7781503
20
-1.984302
11
2.7781503
21
139.303198
0
LINE
8
DEFAULT_255_1_234
10
6.7446835
20
0.5189243
11
6.7711882
21
0.5189243
0
LINE
8
DEFAULT_255_1_234
10
6.7711882
20
0.5189243
11
6.7711882
21
0.392826
0
LINE
8
DEFAULT_255_1_234
10
6.7711882
20
0.392826
11
6.7438803
21
0.392826
0
LINE
8
DEFAULT_255_1_234
10
6.1969189
20
-0.2063417
11
6.1969189
21
-0.1493164
0
LINE
8
DEFAULT_255_1_234
10
6.3463093
20
-0.1685925
11
6.3463093
21
-0.2232083
0
ARC
8
DEFAULT_255_1_234
10
6.7491151
20
-0.1069545
40
0.4998079
50
90.6001036
51
104.514704
0
ARC
8
DEFAULT_255_1_234
10
6.7102667
20
0.0375131
40
0.3502176
50
104.2855254
51
133.862935
0
ARC
8
DEFAULT_255_1_234
10
6.7266424
20
0.026683
40
0.3693984
50
134.5302688
51
161.6210873
0
ARC
8
DEFAULT_255_1_234
10
6.8919613
20
-0.0316105
40
0.5446739
50
161.2849839
51
174.2076652
0
ARC
8
DEFAULT_255_1_234
10
7.032655
20
-0.0510213
40
0.6866274
50
173.7810589
51
174.9254635
0
ARC
8
DEFAULT_255_1_234
10
6.5776382
20
-0.1893161
40
0.3033419
50
95.8330959
51
138.9954921
0
ARC
8
DEFAULT_255_1_234
10
6.5999738
20
-0.3171625
40
0.4328947
50
89.8753725
51
97.0544009
0
ARC
8
DEFAULT_255_1_234
10
6.6047204
20
-0.2336252
40
0.3493769
50
71.6407809
51
90.6240094
0
ARC
8
DEFAULT_255_1_234
10
6.6197777
20
-0.1781918
40
0.2920396
50
39.6367836
51
71.019018
0
ARC
8
DEFAULT_255_1_234
10
6.556125
20
-0.2332002
40
0.3761538
50
10.658731
51
39.9043955
0
ARC
8
DEFAULT_255_1_234
10
6.4013333
20
-0.2668314
40
0.5345136
50
359.682601
51
11.132623
0
ARC
8
DEFAULT_255_1_234
10
6.3973464
20
-0.273899
40
0.5385081
50
347.2486944
51
0.4369317
0
ARC
8
DEFAULT_255_1_234
10
6.5640941
20
-0.3140193
40
0.3670249
50
318.1409698
51
347.6118597
0
ARC
8
DEFAULT_255_1_234
10
6.5965934
20
-0.3407298
40
0.3250007
50
275.6342139
51
317.8248465
0
ARC
8
DEFAULT_255_1_234
10
6.5745045
20
-0.2107781
40
0.4565864
50
269.8874292
51
276.7917694
0
ARC
8
DEFAULT_255_1_234
10
6.5690116
20
-0.3133257
40
0.3540676
50
246.9140195
51
270.7437342
0
ARC
8
DEFAULT_255_1_234
10
6.5696506
20
-0.3275616
40
0.3412781
50
218.1665114
51
245.878116
0
ARC
8
DEFAULT_255_1_234
10
6.6575967
20
-0.2539721
40
0.455911
50
191.4115814
51
218.6077802
0
ARC
8
DEFAULT_255_1_234
10
6.8514056
20
-0.2105167
40
0.6545001
50
179.6345085
51
191.7836486
0
ARC
8
DEFAULT_255_1_234
10
7.4096393
20
-0.1426303
40
1.2127388
50
171.4525249
51
180.3158839
0
ARC
8
DEFAULT_255_1_234
10
6.9701269
20
-0.0742392
40
0.7679464
50
157.9802646
51
171.6246686
0
ARC
8
DEFAULT_255_1_234
10
6.748729
20
0.0140421
40
0.5296008
50
141.4298019
51
157.854097
0
ARC
8
DEFAULT_255_1_234
10
6.684561
20
0.0594381
40
0.4511509
50
102.8715806
51
140.8564722
0
ARC
8
DEFAULT_255_1_234
10
6.7493226
20
-0.1845448
40
0.7034845
50
90.3778349
51
103.5869322
0
ARC
8
DEFAULT_255_1_234
10
6.5755002
20
-0.245027
40
0.2370698
50
89.8751008
51
126.2071704
0
ARC
8
DEFAULT_255_1_234
10
6.5800792
20
-0.2604697
40
0.2522934
50
124.9745049
51
144.895901
0
ARC
8
DEFAULT_255_1_234
10
6.5624982
20
-0.246144
40
0.2296779
50
145.2974905
51
160.2660252
0
ARC
8
DEFAULT_255_1_234
10
6.8697521
20
-0.2263929
40
0.5234525
50
179.6514266
51
190.2855912
0
ARC
8
DEFAULT_255_1_234
10
6.7003658
20
-0.2583214
40
0.3510893
50
190.0945431
51
207.5098196
0
ARC
8
DEFAULT_255_1_234
10
6.6437928
20
-0.2852377
40
0.288489
50
207.9583163
51
216.3251085
0
ARC
8
DEFAULT_255_1_234
10
6.6098036
20
-0.3131895
40
0.2445587
50
215.7661442
51
232.5456785
0
ARC
8
DEFAULT_255_1_234
10
6.5715019
20
-0.3618518
40
0.1826382
50
232.8005391
51
270.6605633
0
ARC
8
DEFAULT_255_1_234
10
6.576072
20
-0.3254388
40
0.2190529
50
269.35537
51
288.4744281
0
ARC
8
DEFAULT_255_1_234
10
6.5853617
20
-0.3603882
40
0.1829749
50
289.1833337
51
322.9683818
0
ARC
8
DEFAULT_255_1_234
10
6.5242139
20
-0.3121609
40
0.2608399
50
322.6007884
51
346.5182367
0
ARC
8
DEFAULT_255_1_234
10
6.4084735
20
-0.2826384
40
0.3802777
50
346.2582162
51
358.7741648
0
ARC
8
DEFAULT_255_1_234
10
6.3066404
20
-0.2771035
40
0.4822176
50
358.3755224
51
0.0098023
0
ARC
8
DEFAULT_255_1_234
10
6.3822591
20
-0.2743343
40
0.4066078
50
359.6214041
51
11.2839074
0
ARC
8
DEFAULT_255_1_234
10
6.5099738
20
-0.2476934
40
0.2761514
50
11.0482309
51
31.8146458
0
ARC
8
DEFAULT_255_1_234
10
6.5408781
20
-0.2309416
40
0.2410679
50
32.3035391
51
38.082671
0
ARC
8
DEFAULT_255_1_234
10
6.5829441
20
-0.1928338
40
0.1844966
50
36.825067
51
85.7415724
0
ARC
8
DEFAULT_255_1_234
10
6.5762274
20
-0.2428699
40
0.2349122
50
85.0140713
51
90.0513278
0
LINE
8
DEFAULT_255_1_234
10
7.8112983
20
0.0153343
11
7.8112983
21
-0.110764
0
LINE
8
DEFAULT_255_1_234
10
7.8112983
20
-0.110764
11
7.3044957
21
-0.110764
0
LINE
8
DEFAULT_255_1_234
10
7.3044957
20
-0.110764
11
7.3044957
21
-0.5252017
0
LINE
8
DEFAULT_255_1_234
10
7.3044957
20
-0.5252017
11
7.8932221
21
-0.5252017
0
LINE
8
DEFAULT_255_1_234
10
7.8932221
20
-0.5252017
11
7.8932221
21
-0.6513
0
LINE
8
DEFAULT_255_1_234
10
7.8932221
20
-0.6513
11
7.1502863
21
-0.6513
0
LINE
8
DEFAULT_255_1_234
10
7.1502863
20
-0.6513
11
7.1502863
21
0.5181211
0
LINE
8
DEFAULT_255_1_234
10
7.1502863
20
0.5181211
11
7.8851903
21
0.5181211
0
LINE
8
DEFAULT_255_1_234
10
7.8851903
20
0.5181211
11
7.8851903
21
0.3912196
0
LINE
8
DEFAULT_255_1_234
10
7.8851903
20
0.3912196
11
7.3044957
21
0.3912196
0
LINE
8
DEFAULT_255_1_234
10
7.3044957
20
0.3912196
11
7.3044957
21
0.0153343
0
LINE
8
DEFAULT_255_1_234
10
7.3044957
20
0.0153343
11
7.8112983
21
0.0153343
0
LINE
8
DEFAULT_255_1_234
10
8.8610465
20
0.1799849
11
8.706034
21
0.1799849
0
LINE
8
DEFAULT_255_1_234
10
8.0136981
20
-0.3123606
11
8.1687107
21
-0.3123606
0
ARC
8
DEFAULT_255_1_234
10
8.7719153
20
1.0746768
40
1.252368
50
248.9199003
51
254.1439814
0
ARC
8
DEFAULT_255_1_234
10
8.6038648
20
0.6420234
40
0.788226
50
241.633709
51
249.0064503
0
ARC
8
DEFAULT_255_1_234
10
8.4510042
20
0.3619317
40
0.4691427
50
230.498225
51
241.8087113
0
ARC
8
DEFAULT_255_1_234
10
8.3725616
20
0.2619906
40
0.3421437
50
227.4064532
51
229.9881192
0
ARC
8
DEFAULT_255_1_234
10
8.3238137
20
0.2144088
40
0.2741476
50
200.6781896
51
228.1763934
0
ARC
8
DEFAULT_255_1_234
10
8.3310447
20
0.2129077
40
0.2804109
50
179.5061581
51
199.8694617
0
ARC
8
DEFAULT_255_1_234
10
8.3301199
20
0.220321
40
0.2795204
50
132.4834203
51
181.0242172
0
ARC
8
DEFAULT_255_1_234
10
8.3896782
20
0.1640704
40
0.3612768
50
129.2532479
51
133.4242687
0
ARC
8
DEFAULT_255_1_234
10
8.4043231
20
0.1420965
40
0.3875675
50
101.98776
51
128.8742646
0
ARC
8
DEFAULT_255_1_234
10
8.4441842
20
-0.0300259
40
0.5642249
50
89.5906553
51
102.3169264
0
ARC
8
DEFAULT_255_1_234
10
8.4512334
20
0.0018148
40
0.5323783
50
77.2360837
51
90.3248275
0
ARC
8
DEFAULT_255_1_234
10
8.4719413
20
0.09854
40
0.4334697
50
63.837784
51
77.0809408
0
ARC
8
DEFAULT_255_1_234
10
8.4997175
20
0.1502911
40
0.3747796
50
45.9864267
51
64.1607727
0
ARC
8
DEFAULT_255_1_234
10
8.5258056
20
0.1800866
40
0.3352302
50
32.2747395
51
45.6547121
0
ARC
8
DEFAULT_255_1_234
10
8.5324497
20
0.181988
40
0.328603
50
359.6507365
51
32.6130309
0
ARC
8
DEFAULT_255_1_234
10
8.4381592
20
0.182466
40
0.2678863
50
359.469343
51
14.9832209
0
ARC
8
DEFAULT_255_1_234
10
8.5086654
20
0.2013539
40
0.1948938
50
14.9781179
51
48.2004265
0
ARC
8
DEFAULT_255_1_234
10
8.4922299
20
0.1806983
40
0.2212521
50
48.5927837
51
74.1241538
0
ARC
8
DEFAULT_255_1_234
10
8.4588788
20
0.0706248
40
0.3362561
50
73.7888341
51
86.6652678
0
ARC
8
DEFAULT_255_1_234
10
8.4486354
20
-0.0501119
40
0.4573953
50
86.2640471
51
90.0526343
0
ARC
8
DEFAULT_255_1_234
10
8.4458066
20
-0.0105808
40
0.4178709
50
89.6697524
51
99.2309573
0
ARC
8
DEFAULT_255_1_234
10
8.4215517
20
0.1338964
40
0.2713749
50
99.069534
51
113.7658566
0
ARC
8
DEFAULT_255_1_234
10
8.3941708
20
0.1984677
40
0.2012469
50
114.0401004
51
127.9850673
0
ARC
8
DEFAULT_255_1_234
10
8.3701272
20
0.228073
40
0.1631167
50
127.7287463
51
176.7105154
0
ARC
8
DEFAULT_255_1_234
10
8.437999
20
0.2179693
40
0.2315392
50
175.1779447
51
180.0581938
0
ARC
8
DEFAULT_255_1_234
10
8.3536836
20
0.2167428
40
0.1472271
50
179.6142195
51
228.1246017
0
ARC
8
DEFAULT_255_1_234
10
8.3978505
20
0.2576308
40
0.2072299
50
226.5779593
51
230.8800004
0
ARC
8
DEFAULT_255_1_234
10
8.4449584
20
0.3201636
40
0.2854818
50
231.4635071
51
241.9260842
0
ARC
8
DEFAULT_255_1_234
10
8.5646762
20
0.54048
40
0.53622
50
241.7178533
51
248.3259551
0
ARC
8
DEFAULT_255_1_234
10
8.7032134
20
0.8837064
40
0.9063478
50
248.2007737
51
252.4528373
0
ARC
8
DEFAULT_255_1_234
10
8.8235858
20
1.2558441
40
1.2974635
50
252.3391078
51
254.3469452
0
ARC
8
DEFAULT_255_1_234
10
8.0693561
20
-1.4418852
40
1.5037162
50
71.0197183
51
74.4087047
0
ARC
8
DEFAULT_255_1_234
10
8.2388246
20
-0.9526889
40
0.9859993
50
66.1847285
51
71.086374
0
ARC
8
DEFAULT_255_1_234
10
8.3944559
20
-0.60228
40
0.6025855
50
59.3536294
51
66.2691831
0
ARC
8
DEFAULT_255_1_234
10
8.4833211
20
-0.4519391
40
0.4279449
50
49.1020879
51
59.3293958
0
ARC
8
DEFAULT_255_1_234
10
8.5651951
20
-0.3586166
40
0.3038015
50
32.7919921
51
49.2505539
0
ARC
8
DEFAULT_255_1_234
10
8.5973041
20
-0.3357809
40
0.264448
50
31.1181161
51
32.4005348
0
ARC
8
DEFAULT_255_1_234
10
8.5884579
20
-0.3393221
40
0.2738556
50
8.1116974
51
30.7958831
0
ARC
8
DEFAULT_255_1_234
10
8.5074247
20
-0.3531247
40
0.3560327
50
359.8389159
51
8.4706516
0
ARC
8
DEFAULT_255_1_234
10
8.5700038
20
-0.3579863
40
0.2934776
50
337.4731098
51
0.7537279
0
ARC
8
DEFAULT_255_1_234
10
8.5878733
20
-0.3599613
40
0.2762607
50
307.5917067
51
336.4315538
0
ARC
8
DEFAULT_255_1_234
10
8.5418561
20
-0.3086898
40
0.3449979
50
307.6551545
51
308.4529766
0
ARC
8
DEFAULT_255_1_234
10
8.518828
20
-0.273175
40
0.3871988
50
284.3734338
51
307.1424381
0
ARC
8
DEFAULT_255_1_234
10
8.469311
20
-0.0910068
40
0.5759636
50
272.4382747
51
284.646547
0
ARC
8
DEFAULT_255_1_234
10
8.4566319
20
0.0889893
40
0.7563528
50
269.9708387
51
272.8178037
0
ARC
8
DEFAULT_255_1_234
10
8.4523358
20
-0.1148284
40
0.5525489
50
248.2707594
51
270.4055579
0
ARC
8
DEFAULT_255_1_234
10
8.44691
20
-0.1338808
40
0.5328452
50
246.1383403
51
248.0542782
0
ARC
8
DEFAULT_255_1_234
10
8.4050478
20
-0.2218157
40
0.4355005
50
233.1670131
51
246.4950969
0
ARC
8
DEFAULT_255_1_234
10
8.3496383
20
-0.2966188
40
0.3424126
50
215.3403242
51
233.0843104
0
ARC
8
DEFAULT_255_1_234
10
8.3223815
20
-0.3164451
40
0.3087104
50
179.2419209
51
215.2648451
0
ARC
8
DEFAULT_255_1_234
10
8.3991409
20
-0.3150334
40
0.2304457
50
179.335461
51
199.1045811
0
ARC
8
DEFAULT_255_1_234
10
8.3659085
20
-0.3237234
40
0.1962176
50
199.8828939
51
232.7063202
0
ARC
8
DEFAULT_255_1_234
10
8.4131353
20
-0.2643212
40
0.2720938
50
232.3738199
51
255.5136649
0
ARC
8
DEFAULT_255_1_234
10
8.447222
20
-0.1399165
40
0.4010747
50
255.2446292
51
267.5320849
0
ARC
8
DEFAULT_255_1_234
10
8.4559843
20
-0.0166298
40
0.5246356
50
267.1557994
51
270.0286766
0
ARC
8
DEFAULT_255_1_234
10
8.4587616
20
-0.061005
40
0.4802668
50
269.7000017
51
278.1660162
0
ARC
8
DEFAULT_255_1_234
10
8.484362
20
-0.2340485
40
0.3053425
50
278.0231263
51
290.625471
0
ARC
8
DEFAULT_255_1_234
10
8.5191308
20
-0.3267975
40
0.206291
50
290.6619762
51
307.0370976
0
ARC
8
DEFAULT_255_1_234
10
8.5491697
20
-0.3636496
40
0.1587906
50
306.3943566
51
355.3030547
0
ARC
8
DEFAULT_255_1_234
10
8.4979628
20
-0.3559887
40
0.2104809
50
354.3660432
51
0.0698737
0
ARC
8
DEFAULT_255_1_234
10
8.5121973
20
-0.3537383
40
0.1962563
50
359.417946
51
16.1971788
0
ARC
8
DEFAULT_255_1_234
10
8.5577284
20
-0.3412582
40
0.149053
50
16.4723299
51
52.6262157
0
ARC
8
DEFAULT_255_1_234
10
8.4756338
20
-0.4496567
40
0.2850296
50
52.7386432
51
62.4979148
0
ARC
8
DEFAULT_255_1_234
10
8.3371415
20
-0.7102717
40
0.5801521
50
62.2515216
51
68.1220564
0
ARC
8
DEFAULT_255_1_234
10
8.1651325
20
-1.1330128
40
1.0365451
50
68.0062803
51
71.8053402
0
ARC
8
DEFAULT_255_1_234
10
7.9855697
20
-1.6715242
40
1.6042013
50
71.7183119
51
73.9258742
0
LINE
8
DEFAULT_255_1_234
10
9.7774679
20
0.5181211
11
9.7774679
21
0.434591
0
LINE
8
DEFAULT_255_1_234
10
9.7774679
20
0.434591
11
9.2931541
21
-0.6513
0
LINE
8
DEFAULT_255_1_234
10
9.2931541
20
-0.6513
11
9.1373383
21
-0.6513
0
LINE
8
DEFAULT_255_1_234
10
9.1373383
20
-0.6513
11
9.6200458
21
0.3960387
0
LINE
8
DEFAULT_255_1_234
10
9.6200458
20
0.3960387
11
8.9871448
21
0.3960387
0
LINE
8
DEFAULT_255_1_234
10
8.9871448
20
0.3960387
11
8.9871448
21
0.5181211
0
LINE
8
DEFAULT_255_1_234
10
8.9871448
20
0.5181211
11
9.7774679
21
0.5181211
0
LINE
8
DEFAULT_255_1_234
10
10.4344641
20
0.5237433
11
10.4344641
21
-0.6513
0
LINE
8
DEFAULT_255_1_234
10
10.4344641
20
-0.6513
11
10.2850737
21
-0.6513
0
LINE
8
DEFAULT_255_1_234
10
10.2850737
20
-0.6513
11
10.2850737
21
0.3390133
0
LINE
8
DEFAULT_255_1_234
10
10.2850737
20
0.3390133
11
9.9854899
21
0.2289785
0
LINE
8
DEFAULT_255_1_234
10
9.9854899
20
0.2289785
11
9.9854899
21
0.3639117
0
LINE
8
DEFAULT_255_1_234
10
9.9854899
20
0.3639117
11
10.411172
21
0.5237433
0
LINE
8
DEFAULT_255_1_234
10
10.411172
20
0.5237433
11
10.4344641
21
0.5237433
0
LINE
8
DEFAULT_255_1_234
10
11.085838
20
-0.1155831
11
11.085838
21
0.0056962
0
LINE
8
DEFAULT_255_1_234
10
11.085838
20
0.0056962
11
11.1974792
21
0.0056962
0
LINE
8
DEFAULT_255_1_234
10
11.007127
20
0.2113087
11
10.8585398
21
0.2113087
0
LINE
8
DEFAULT_255_1_234
10
10.8480986
20
-0.3428812
11
10.9974889
21
-0.3428812
0
LINE
8
DEFAULT_255_1_234
10
11.1974792
20
-0.1155831
11
11.085838
21
-0.1155831
0
ARC
8
DEFAULT_255_1_234
10
11.1945658
20
0.3449713
40
0.3392876
50
270.4919872
51
281.8951556
0
ARC
8
DEFAULT_255_1_234
10
11.218692
20
0.2347702
40
0.2264817
50
281.6691735
51
301.2943132
0
ARC
8
DEFAULT_255_1_234
10
11.235713
20
0.2036304
40
0.1910381
50
301.7833094
51
311.7545298
0
ARC
8
DEFAULT_255_1_234
10
11.2448706
20
0.1934748
40
0.1773635
50
311.7323931
51
354.2802411
0
ARC
8
DEFAULT_255_1_234
10
11.1722331
20
0.2059722
40
0.2509385
50
353.0937916
51
0.1181479
0
ARC
8
DEFAULT_255_1_234
10
11.1261116
20
0.2107386
40
0.2970898
50
359.1805295
51
15.0453146
0
ARC
8
DEFAULT_255_1_234
10
11.2606953
20
0.2499992
40
0.1569564
50
13.9577229
51
77.6713066
0
ARC
8
DEFAULT_255_1_234
10
11.2220482
20
0.1114949
40
0.3006298
50
76.1116566
51
90.7026153
0
ARC
8
DEFAULT_255_1_234
10
11.2161321
20
0.1388545
40
0.2732568
50
89.5324876
51
103.531937
0
ARC
8
DEFAULT_255_1_234
10
11.1960765
20
0.2187884
40
0.1908508
50
103.2931773
51
133.5619022
0
ARC
8
DEFAULT_255_1_234
10
11.1916253
20
0.2247375
40
0.1834746
50
133.8349307
51
173.5344437
0
ARC
8
DEFAULT_255_1_234
10
11.2639296
20
0.2119213
40
0.2568033
50
172.5096846
51
180.1366907
0
ARC
8
DEFAULT_255_1_234
10
11.168819
20
0.2153622
40
0.3103056
50
155.3484492
51
180.7484736
0
ARC
8
DEFAULT_255_1_234
10
11.1639279
20
0.2124846
40
0.3070957
50
131.5744599
51
154.4798489
0
ARC
8
DEFAULT_255_1_234
10
11.1952427
20
0.180831
40
0.3515643
50
96.9875458
51
131.9690667
0
ARC
8
DEFAULT_255_1_234
10
11.2171906
20
0.0562636
40
0.4779224
50
89.8596053
51
97.7825159
0
ARC
8
DEFAULT_255_1_234
10
11.221997
20
0.0300616
40
0.5041361
50
78.3655447
51
90.4131539
0
ARC
8
DEFAULT_255_1_234
10
11.2577887
20
0.1959887
40
0.3344039
50
56.6229102
51
78.638727
0
ARC
8
DEFAULT_255_1_234
10
11.2792831
20
0.2335805
40
0.2912001
50
47.0253525
51
56.0854072
0
ARC
8
DEFAULT_255_1_234
10
11.2812611
20
0.2375223
40
0.2869704
50
10.9208013
51
46.7778124
0
ARC
8
DEFAULT_255_1_234
10
11.1448678
20
0.2059857
40
0.426899
50
359.6364486
51
11.6087304
0
ARC
8
DEFAULT_255_1_234
10
11.3283522
20
0.2044752
40
0.243409
50
332.3549906
51
359.7179418
0
ARC
8
DEFAULT_255_1_234
10
11.2633123
20
0.2353142
40
0.3153459
50
325.2333722
51
332.8745602
0
ARC
8
DEFAULT_255_1_234
10
11.2785747
20
0.2246828
40
0.2967456
50
292.9802137
51
325.2392345
0
ARC
8
DEFAULT_255_1_234
10
11.2511121
20
0.2780863
40
0.3566604
50
292.5402179
51
293.6924929
0
ARC
8
DEFAULT_255_1_234
10
11.2903717
20
-0.3673909
40
0.3307468
50
57.6435486
51
72.8625112
0
ARC
8
DEFAULT_255_1_234
10
11.3258216
20
-0.3099451
40
0.2632492
50
36.7248896
51
57.4697979
0
ARC
8
DEFAULT_255_1_234
10
11.3246849
20
-0.308678
40
0.2634081
50
8.0545065
51
36.356114
0
ARC
8
DEFAULT_255_1_234
10
11.2384034
20
-0.3241826
40
0.3510261
50
359.8320645
51
8.5869982
0
ARC
8
DEFAULT_255_1_234
10
11.2008811
20
-0.3289899
40
0.3885653
50
343.9829931
51
0.5571613
0
ARC
8
DEFAULT_255_1_234
10
11.2895008
20
-0.3532562
40
0.2966924
50
311.6359546
51
343.7651759
0
ARC
8
DEFAULT_255_1_234
10
11.2516577
20
-0.3105898
40
0.3537231
50
279.7829875
51
311.6255694
0
ARC
8
DEFAULT_255_1_234
10
11.2215353
20
-0.166872
40
0.5004971
50
269.7286406
51
280.3856417
0
ARC
8
DEFAULT_255_1_234
10
11.2153426
20
-0.1710004
40
0.4963778
50
256.6828919
51
270.4412052
0
ARC
8
DEFAULT_255_1_234
10
11.1814722
20
-0.3094606
40
0.3538406
50
229.4223008
51
256.8556159
0
ARC
8
DEFAULT_255_1_234
10
11.1400114
20
-0.3561264
40
0.2914296
50
181.818294
51
229.6455059
0
ARC
8
DEFAULT_255_1_234
10
11.2440071
20
-0.3430504
40
0.3959084
50
179.9755256
51
183.2323064
0
ARC
8
DEFAULT_255_1_234
10
11.2267816
20
-0.3450963
40
0.2293034
50
179.4465117
51
196.2869258
0
ARC
8
DEFAULT_255_1_234
10
11.1780224
20
-0.3584349
40
0.1787621
50
196.5661473
51
227.705904
0
ARC
8
DEFAULT_255_1_234
10
11.1944319
20
-0.3400845
40
0.2033784
50
227.7652068
51
257.8762805
0
ARC
8
DEFAULT_255_1_234
10
11.2169289
20
-0.2457844
40
0.3003081
50
257.4584385
51
270.426602
0
ARC
8
DEFAULT_255_1_234
10
11.2214856
20
-0.2168004
40
0.329292
50
269.5962073
51
280.8789248
0
ARC
8
DEFAULT_255_1_234
10
11.2444384
20
-0.3314315
40
0.2123908
50
280.6346389
51
299.8595945
0
ARC
8
DEFAULT_255_1_234
10
11.2635291
20
-0.3676788
40
0.171457
50
300.3576302
51
314.5517981
0
ARC
8
DEFAULT_255_1_234
10
11.2552351
20
-0.3616081
40
0.1816095
50
315.0728369
51
345.0431014
0
ARC
8
DEFAULT_255_1_234
10
11.1629166
20
-0.3347159
40
0.2777492
50
344.5986631
51
357.9269593
0
ARC
8
DEFAULT_255_1_234
10
11.0733492
20
-0.3285724
40
0.3674917
50
357.4748886
51
0.0231117
0
ARC
8
DEFAULT_255_1_234
10
11.1756601
20
-0.3261321
40
0.2651907
50
359.5047933
51
13.4239635
0
ARC
8
DEFAULT_255_1_234
10
11.2623245
20
-0.3039522
40
0.1757509
50
12.9498199
51
48.7551375
0
ARC
8
DEFAULT_255_1_234
10
11.2440979
20
-0.32886
40
0.2065134
50
49.5088623
51
72.1836453
0
ARC
8
DEFAULT_255_1_234
10
11.2083131
20
-0.4350709
40
0.3185836
50
71.9010081
51
84.3554254
0
ARC
8
DEFAULT_255_1_234
10
11.1921763
20
-0.5711674
40
0.4556151
50
84.0193428
51
89.333121
0
LINE
8
DEFAULT_255_1_234
10
12.2817639
20
0.5237433
11
12.2817639
21
-0.6513
0
LINE
8
DEFAULT_255_1_234
10
12.2817639
20
-0.6513
11
12.1323735
21
-0.6513
0
LINE
8
DEFAULT_255_1_234
10
12.1323735
20
-0.6513
11
12.1323735
21
0.3390133
0
LINE
8
DEFAULT_255_1_234
10
12.1323735
20
0.3390133
11
11.8327897
21
0.2289785
0
LINE
8
DEFAULT_255_1_234
10
11.8327897
20
0.2289785
11
11.8327897
21
0.3639117
0
LINE
8
DEFAULT_255_1_234
10
11.8327897
20
0.3639117
11
12.2584718
21
0.5237433
0
LINE
8
DEFAULT_255_1_234
10
12.2584718
20
0.5237433
11
12.2817639
21
0.5237433
0
LINE
8
DEFAULT_255_1_234
10
13.0415663
20
-0.0938974
11
13.0415663
21
-0.2151766
0
LINE
8
DEFAULT_255_1_234
10
13.0415663
20
-0.2151766
11
12.6496175
21
-0.2151766
0
LINE
8
DEFAULT_255_1_234
10
12.6496175
20
-0.2151766
11
12.6496175
21
-0.0938974
0
LINE
8
DEFAULT_255_1_234
10
12.6496175
20
-0.0938974
11
13.0415663
21
-0.0938974
0
LINE
8
DEFAULT_255_1_234
10
13.7274768
20
0.5189243
11
13.7539815
21
0.5189243
0
LINE
8
DEFAULT_255_1_234
10
13.7539815
20
0.5189243
11
13.7539815
21
0.392826
0
LINE
8
DEFAULT_255_1_234
10
13.7539815
20
0.392826
11
13.7266736
21
0.392826
0
LINE
8
DEFAULT_255_1_234
10
13.1797122
20
-0.2063417
11
13.1797122
21
-0.1493164
0
LINE
8
DEFAULT_255_1_234
10
13.3291025
20
-0.1685925
11
13.3291025
21
-0.2232083
0
ARC
8
DEFAULT_255_1_234
10
13.7319084
20
-0.1069545
40
0.4998079
50
90.6001036
51
104.514704
0
ARC
8
DEFAULT_255_1_234
10
13.6930599
20
0.0375131
40
0.3502176
50
104.2855254
51
133.862935
0
ARC
8
DEFAULT_255_1_234
10
13.7094357
20
0.026683
40
0.3693984
50
134.5302688
51
161.6210873
0
ARC
8
DEFAULT_255_1_234
10
13.8747545
20
-0.0316105
40
0.5446739
50
161.2849839
51
174.2076652
0
ARC
8
DEFAULT_255_1_234
10
14.0154482
20
-0.0510213
40
0.6866274
50
173.7810589
51
174.9254635
0
ARC
8
DEFAULT_255_1_234
10
13.5604314
20
-0.1893161
40
0.3033419
50
95.8330959
51
138.9954921
0
ARC
8
DEFAULT_255_1_234
10
13.582767
20
-0.3171625
40
0.4328947
50
89.8753725
51
97.0544009
0
ARC
8
DEFAULT_255_1_234
10
13.5875136
20
-0.2336252
40
0.3493769
50
71.6407809
51
90.6240094
0
ARC
8
DEFAULT_255_1_234
10
13.602571
20
-0.1781918
40
0.2920396
50
39.6367836
51
71.019018
0
ARC
8
DEFAULT_255_1_234
10
13.5389183
20
-0.2332002
40
0.3761538
50
10.658731
51
39.9043955
0
ARC
8
DEFAULT_255_1_234
10
13.3841266
20
-0.2668314
40
0.5345136
50
359.682601
51
11.132623
0
ARC
8
DEFAULT_255_1_234
10
13.3801397
20
-0.273899
40
0.5385081
50
347.2486944
51
0.4369317
0
ARC
8
DEFAULT_255_1_234
10
13.5468874
20
-0.3140193
40
0.3670249
50
318.1409698
51
347.6118597
0
ARC
8
DEFAULT_255_1_234
10
13.5793867
20
-0.3407298
40
0.3250007
50
275.6342139
51
317.8248465
0
ARC
8
DEFAULT_255_1_234
10
13.5572978
20
-0.2107781
40
0.4565864
50
269.8874292
51
276.7917694
0
ARC
8
DEFAULT_255_1_234
10
13.5518048
20
-0.3133257
40
0.3540676
50
246.9140195
51
270.7437342
0
ARC
8
DEFAULT_255_1_234
10
13.5524439
20
-0.3275616
40
0.3412781
50
218.1665114
51
245.878116
0
ARC
8
DEFAULT_255_1_234
10
13.64039
20
-0.2539721
40
0.455911
50
191.4115814
51
218.6077802
0
ARC
8
DEFAULT_255_1_234
10
13.8341989
20
-0.2105167
40
0.6545001
50
179.6345085
51
191.7836486
0
ARC
8
DEFAULT_255_1_234
10
14.3924326
20
-0.1426303
40
1.2127388
50
171.4525249
51
180.3158839
0
ARC
8
DEFAULT_255_1_234
10
13.9529201
20
-0.0742392
40
0.7679464
50
157.9802646
51
171.6246686
0
ARC
8
DEFAULT_255_1_234
10
13.7315222
20
0.0140421
40
0.5296008
50
141.4298019
51
157.854097
0
ARC
8
DEFAULT_255_1_234
10
13.6673543
20
0.0594381
40
0.4511509
50
102.8715806
51
140.8564722
0
ARC
8
DEFAULT_255_1_234
10
13.7321158
20
-0.1845448
40
0.7034845
50
90.3778349
51
103.5869322
0
ARC
8
DEFAULT_255_1_234
10
13.5582935
20
-0.245027
40
0.2370698
50
89.8751008
51
126.2071704
0
ARC
8
DEFAULT_255_1_234
10
13.5628724
20
-0.2604697
40
0.2522934
50
124.9745049
51
144.895901
0
ARC
8
DEFAULT_255_1_234
10
13.5452915
20
-0.246144
40
0.2296779
50
145.2974905
51
160.2660252
0
ARC
8
DEFAULT_255_1_234
10
13.8525454
20
-0.2263929
40
0.5234525
50
179.6514266
51
190.2855912
0
ARC
8
DEFAULT_255_1_234
10
13.6831591
20
-0.2583214
40
0.3510893
50
190.0945431
51
207.5098196
0
ARC
8
DEFAULT_255_1_234
10
13.6265861
20
-0.2852377
40
0.288489
50
207.9583163
51
216.3251085
0
ARC
8
DEFAULT_255_1_234
10
13.5925969
20
-0.3131895
40
0.2445587
50
215.7661442
51
232.5456785
0
ARC
8
DEFAULT_255_1_234
10
13.5542951
20
-0.3618518
40
0.1826382
50
232.8005391
51
270.6605633
0
ARC
8
DEFAULT_255_1_234
10
13.5588652
20
-0.3254388
40
0.2190529
50
269.35537
51
288.4744281
0
ARC
8
DEFAULT_255_1_234
10
13.5681549
20
-0.3603882
40
0.1829749
50
289.1833337
51
322.9683818
0
ARC
8
DEFAULT_255_1_234
10
13.5070072
20
-0.3121609
40
0.2608399
50
322.6007884
51
346.5182367
0
ARC
8
DEFAULT_255_1_234
10
13.3912668
20
-0.2826384
40
0.3802777
50
346.2582162
51
358.7741648
0
ARC
8
DEFAULT_255_1_234
10
13.2894337
20
-0.2771035
40
0.4822176
50
358.3755224
51
0.0098023
0
ARC
8
DEFAULT_255_1_234
10
13.3650524
20
-0.2743343
40
0.4066078
50
359.6214041
51
11.2839074
0
ARC
8
DEFAULT_255_1_234
10
13.4927671
20
-0.2476934
40
0.2761514
50
11.0482309
51
31.8146458
0
ARC
8
DEFAULT_255_1_234
10
13.5236714
20
-0.2309416
40
0.2410679
50
32.3035391
51
38.082671
0
ARC
8
DEFAULT_255_1_234
10
13.5657373
20
-0.1928338
40
0.1844966
50
36.825067
51
85.7415724
0
ARC
8
DEFAULT_255_1_234
10
13.5590207
20
-0.2428699
40
0.2349122
50
85.0140713
51
90.0513278
0
LINE
8
DEFAULT_255_1_234
10
14.5386823
20
-0.6513
11
14.1330795
21
-0.6513
0
LINE
8
DEFAULT_255_1_234
10
14.1330795
20
-0.6513
11
14.1330795
21
0.5181211
0
LINE
8
DEFAULT_255_1_234
10
14.1330795
20
0.5181211
11
14.5153903
21
0.5181211
0
LINE
8
DEFAULT_255_1_234
10
14.5443045
20
-0.1043386
11
14.2872889
21
-0.1043386
0
LINE
8
DEFAULT_255_1_234
10
14.2872889
20
-0.1043386
11
14.2872889
21
-0.5252017
0
LINE
8
DEFAULT_255_1_234
10
14.2872889
20
-0.5252017
11
14.541895
21
-0.5252017
0
LINE
8
DEFAULT_255_1_234
10
14.2872889
20
0.3912196
11
14.2872889
21
0.0193501
0
LINE
8
DEFAULT_255_1_234
10
14.2872889
20
0.0193501
11
14.5202093
21
0.0193501
0
LINE
8
DEFAULT_255_1_234
10
14.5153903
20
0.3912196
11
14.2872889
21
0.3912196
0
ARC
8
DEFAULT_255_1_234
10
14.5191612
20
-0.2186099
40
0.7367406
50
82.1257326
51
90.2932599
0
ARC
8
DEFAULT_255_1_234
10
14.5580566
20
0.0532013
40
0.4621653
50
69.9044149
51
82.2857423
0
ARC
8
DEFAULT_255_1_234
10
14.6151244
20
0.2074637
40
0.2976871
50
51.1838526
51
70.0181538
0
ARC
8
DEFAULT_255_1_234
10
14.640621
20
0.244524
40
0.2528517
50
12.1017251
51
50.4214761
0
ARC
8
DEFAULT_255_1_234
10
14.5022084
20
0.2097676
40
0.3955061
50
359.5251267
51
12.8211707
0
ARC
8
DEFAULT_255_1_234
10
14.6602011
20
0.2028344
40
0.2375281
50
323.4908128
51
0.8817314
0
ARC
8
DEFAULT_255_1_234
10
14.6183698
20
0.235155
40
0.2903817
50
298.6825083
51
323.2756573
0
ARC
8
DEFAULT_255_1_234
10
14.5822061
20
0.2952649
40
0.3604842
50
293.1999386
51
299.1396394
0
ARC
8
DEFAULT_255_1_234
10
14.6495033
20
-0.3132874
40
0.2871098
50
54.0011765
51
74.9167975
0
ARC
8
DEFAULT_255_1_234
10
14.6611393
20
-0.2935668
40
0.2643248
50
36.3580696
51
53.5291921
0
ARC
8
DEFAULT_255_1_234
10
14.6484635
20
-0.3026002
40
0.2798884
50
4.8189881
51
36.3089977
0
ARC
8
DEFAULT_255_1_234
10
14.570547
20
-0.313573
40
0.358478
50
359.9370252
51
5.5204067
0
ARC
8
DEFAULT_255_1_234
10
14.5380991
20
-0.3176333
40
0.3909429
50
344.7478609
51
0.5373281
0
ARC
8
DEFAULT_255_1_234
10
14.6371963
20
-0.3443456
40
0.2883093
50
311.1786488
51
344.6886812
0
ARC
8
DEFAULT_255_1_234
10
14.608001
20
-0.3080013
40
0.3348923
50
286.0418249
51
310.8441291
0
ARC
8
DEFAULT_255_1_234
10
14.5572842
20
-0.1433193
40
0.5071869
50
274.1042341
51
286.4071509
0
ARC
8
DEFAULT_255_1_234
10
14.5396098
20
0.0450229
40
0.6963234
50
269.9236873
51
274.445647
0
ARC
8
DEFAULT_255_1_234
10
14.5442098
20
-0.1889463
40
0.3362634
50
269.6055768
51
281.3740047
0
ARC
8
DEFAULT_255_1_234
10
14.5672736
20
-0.2982647
40
0.224546
50
281.1055983
51
302.5132223
0
ARC
8
DEFAULT_255_1_234
10
14.5819636
20
-0.3246177
40
0.1944357
50
303.0368945
51
311.8811219
0
ARC
8
DEFAULT_255_1_234
10
14.5891042
20
-0.333111
40
0.1833454
50
311.9916004
51
351.7143462
0
ARC
8
DEFAULT_255_1_234
10
14.5074272
20
-0.316607
40
0.2665871
50
350.7339597
51
0.2221581
0
ARC
8
DEFAULT_255_1_234
10
14.4966718
20
-0.3109533
40
0.2773789
50
359.0456241
51
17.2296242
0
ARC
8
DEFAULT_255_1_234
10
14.6005836
20
-0.2800837
40
0.1689915
50
17.6685481
51
78.9940892
0
ARC
8
DEFAULT_255_1_234
10
14.5488999
20
-0.4655776
40
0.3612658
50
76.5635957
51
90.6980921
0
LINE
8
DEFAULT_255_1_234
10
14.5444984
20
-0.1043387
11
14.5443045
21
-0.1043386
0
ARC
8
DEFAULT_255_1_234
10
14.522466
20
0.3479036
40
0.3285612
50
269.6064736
51
281.4533503
0
ARC
8
DEFAULT_255_1_234
10
14.5447479
20
0.2427688
40
0.2210975
50
281.2041486
51
302.5148063
0
ARC
8
DEFAULT_255_1_234
10
14.5584329
20
0.2181241
40
0.1929674
50
303.021671
51
309.8369575
0
ARC
8
DEFAULT_255_1_234
10
14.5767791
20
0.1975488
40
0.1654181
50
309.5228395
51
356.9509836
0
ARC
8
DEFAULT_255_1_234
10
14.5104373
20
0.2070932
40
0.2322512
50
355.4701227
51
0.0492546
0
ARC
8
DEFAULT_255_1_234
10
14.4825465
20
0.2093094
40
0.2601498
50
359.5558597
51
11.2096359
0
ARC
8
DEFAULT_255_1_234
10
14.5782754
20
0.229123
40
0.1623975
50
10.9182341
51
31.3230275
0
ARC
8
DEFAULT_255_1_234
10
14.6068488
20
0.2450214
40
0.1297302
50
31.8852677
51
52.1412565
0
ARC
8
DEFAULT_255_1_234
10
14.5794221
20
0.206275
40
0.1771663
50
52.8285564
51
71.9850297
0
ARC
8
DEFAULT_255_1_234
10
14.5418397
20
0.0956664
40
0.2939794
50
71.6863486
51
82.8455995
0
ARC
8
DEFAULT_255_1_234
10
14.5178933
20
-0.0852851
40
0.476506
50
82.6984714
51
90.1729175
0
ARC
8
DEFAULT_255_1_234
10
14.5156568
20
0.0370623
40
0.3541573
50
89.8708275
51
90.0431131
0
LINE
8
DEFAULT_255_1_234
10
15.8020748
20
-0.0087609
11
15.8020748
21
-0.1348592
0
LINE
8
DEFAULT_255_1_234
10
15.8020748
20
-0.1348592
11
15.3113355
21
-0.1348592
0
LINE
8
DEFAULT_255_1_234
10
15.3113355
20
-0.1348592
11
15.3113355
21
-0.6513
0
LINE
8
DEFAULT_255_1_234
10
15.3113355
20
-0.6513
11
15.1571262
21
-0.6513
0
LINE
8
DEFAULT_255_1_234
10
15.1571262
20
-0.6513
11
15.1571262
21
0.5181211
0
LINE
8
DEFAULT_255_1_234
10
15.1571262
20
0.5181211
11
15.881589
21
0.5181211
0
LINE
8
DEFAULT_255_1_234
10
15.881589
20
0.5181211
11
15.881589
21
0.3912196
0
LINE
8
DEFAULT_255_1_234
10
15.881589
20
0.3912196
11
15.3113355
21
0.3912196
0
LINE
8
DEFAULT_255_1_234
10
15.3113355
20
0.3912196
11
15.3113355
21
-0.0087609
0
LINE
8
DEFAULT_255_1_234
10
15.3113355
20
-0.0087609
11
15.8020748
21
-0.0087609
0
LINE
8
DEFAULT_255_1_234
10
16.7610643
20
0.0402327
11
16.7610643
21
-0.1525291
0
LINE
8
DEFAULT_255_1_234
10
16.0229476
20
-0.1726084
11
16.0229476
21
0.0257755
0
LINE
8
DEFAULT_255_1_234
10
16.6124771
20
-0.1926877
11
16.6124771
21
0.0506739
0
LINE
8
DEFAULT_255_1_234
10
16.1715347
20
0.0619184
11
16.1715347
21
-0.1758211
0
ARC
8
DEFAULT_255_1_234
10
15.5363533
20
-0.1574195
40
1.2247208
50
353.8441951
51
0.2287902
0
ARC
8
DEFAULT_255_1_234
10
16.0003036
20
-0.2092194
40
0.7578929
50
344.4934747
51
353.9765454
0
ARC
8
DEFAULT_255_1_234
10
16.2995626
20
-0.2943019
40
0.4467846
50
329.2803592
51
344.7472793
0
ARC
8
DEFAULT_255_1_234
10
16.3988451
20
-0.3487982
40
0.3336173
50
324.9352394
51
328.6160465
0
ARC
8
DEFAULT_255_1_234
10
16.436556
20
-0.3751573
40
0.2876076
50
280.580143
51
324.9173126
0
ARC
8
DEFAULT_255_1_234
10
16.3964353
20
-0.2080901
40
0.4592847
50
269.5977311
51
281.6734359
0
ARC
8
DEFAULT_255_1_234
10
16.3892258
20
-0.2200827
40
0.4472986
50
256.6228859
51
270.51044
0
ARC
8
DEFAULT_255_1_234
10
16.3490236
20
-0.3749123
40
0.2873874
50
215.8618325
51
257.2788573
0
ARC
8
DEFAULT_255_1_234
10
16.4511268
20
-0.3064023
40
0.4102928
50
197.9693508
51
215.2623606
0
ARC
8
DEFAULT_255_1_234
10
16.6996383
20
-0.2225291
40
0.6725652
50
187.8816417
51
198.2346507
0
ARC
8
DEFAULT_255_1_234
10
17.0954592
20
-0.1653921
40
1.0724845
50
180.8976217
51
188.0055519
0
ARC
8
DEFAULT_255_1_234
10
17.375478
20
-0.1550223
40
1.3526448
50
180.7449369
51
181.1510016
0
ARC
8
DEFAULT_255_1_234
10
17.2177509
20
0.0306042
40
1.1948131
50
173.7675579
51
180.231553
0
ARC
8
DEFAULT_255_1_234
10
16.7659655
20
0.0816666
40
0.7401564
50
164.3058563
51
173.9002247
0
ARC
8
DEFAULT_255_1_234
10
16.4747724
20
0.1655656
40
0.4371288
50
148.7922025
51
164.568378
0
ARC
8
DEFAULT_255_1_234
10
16.3796176
20
0.2186929
40
0.3282386
50
144.5883898
51
148.1176286
0
ARC
8
DEFAULT_255_1_234
10
16.3453074
20
0.2426315
40
0.2864044
50
101.6440918
51
144.514236
0
ARC
8
DEFAULT_255_1_234
10
16.3878141
20
0.0737069
40
0.4604934
50
89.5284041
51
102.5819763
0
ARC
8
DEFAULT_255_1_234
10
16.3957229
20
0.0698018
40
0.464401
50
77.0437873
51
90.5081339
0
ARC
8
DEFAULT_255_1_234
10
16.4359231
20
0.2340615
40
0.2953195
50
48.2778575
51
77.4994676
0
ARC
8
DEFAULT_255_1_234
10
16.4431862
20
0.2469746
40
0.2808655
50
36.3142134
51
47.6305865
0
ARC
8
DEFAULT_255_1_234
10
16.3563169
20
0.1884515
40
0.3855453
50
18.2931786
51
35.6769206
0
ARC
8
DEFAULT_255_1_234
10
16.1019928
20
0.1011593
40
0.654423
50
8.024666
51
18.5605216
0
ARC
8
DEFAULT_255_1_234
10
15.6856848
20
0.0396792
40
1.0752407
50
1.1274072
51
8.1718305
0
ARC
8
DEFAULT_255_1_234
10
15.3621038
20
0.0269885
40
1.3990231
50
0.5424119
51
1.3863029
0
ARC
8
DEFAULT_255_1_234
10
15.5442416
20
0.0542342
40
1.0682415
50
359.8090433
51
4.9407866
0
ARC
8
DEFAULT_255_1_234
10
15.965243
20
0.0918113
40
0.6455691
50
4.8362157
51
12.2904523
0
ARC
8
DEFAULT_255_1_234
10
16.2407545
20
0.1531965
40
0.3633074
50
12.0805627
51
23.8173984
0
ARC
8
DEFAULT_255_1_234
10
16.358125
20
0.2028919
40
0.2358723
50
24.2871213
51
31.3935614
0
ARC
8
DEFAULT_255_1_234
10
16.4105947
20
0.2372233
40
0.1732111
50
30.7407893
51
82.4657128
0
ARC
8
DEFAULT_255_1_234
10
16.3926082
20
0.1488691
40
0.263235
50
81.1060089
51
90.2184952
0
ARC
8
DEFAULT_255_1_234
10
16.3890381
20
0.1746924
40
0.2374236
50
89.3806855
51
105.6762551
0
ARC
8
DEFAULT_255_1_234
10
16.3707011
20
0.2413567
40
0.1682847
50
105.7981136
51
149.7388061
0
ARC
8
DEFAULT_255_1_234
10
16.477109
20
0.177395
40
0.2924306
50
149.4208916
51
163.6286378
0
ARC
8
DEFAULT_255_1_234
10
16.6861978
20
0.113625
40
0.5110213
50
163.3763315
51
172.1410975
0
ARC
8
DEFAULT_255_1_234
10
17.0162697
20
0.0663518
40
0.8444586
50
172.0259487
51
178.0703232
0
ARC
8
DEFAULT_255_1_234
10
17.3192786
20
0.0519906
40
1.1477868
50
177.8631668
51
179.5044149
0
ARC
8
DEFAULT_255_1_234
10
17.2120191
20
-0.1794611
40
1.0404907
50
179.7995573
51
185.2460446
0
ARC
8
DEFAULT_255_1_234
10
16.807723
20
-0.2177487
40
0.6343885
50
185.1411642
51
193.0079639
0
ARC
8
DEFAULT_255_1_234
10
16.5433702
20
-0.2802359
40
0.3627568
50
192.7897626
51
205.2507664
0
ARC
8
DEFAULT_255_1_234
10
16.4387249
20
-0.3269585
40
0.2481908
50
205.8005384
51
211.2537509
0
ARC
8
DEFAULT_255_1_234
10
16.386369
20
-0.362042
40
0.1852521
50
210.3789793
51
238.4008143
0
ARC
8
DEFAULT_255_1_234
10
16.3844212
20
-0.3573624
40
0.1882621
50
239.6520629
51
265.9793761
0
ARC
8
DEFAULT_255_1_234
10
16.3929412
20
-0.2901573
40
0.2559272
50
265.1315437
51
270.060332
0
ARC
8
DEFAULT_255_1_234
10
16.3958191
20
-0.3225466
40
0.2235528
50
269.3314664
51
287.2178029
0
ARC
8
DEFAULT_255_1_234
10
16.4096043
20
-0.3728721
40
0.1714108
50
287.7958004
51
329.080874
0
ARC
8
DEFAULT_255_1_234
10
16.3138499
20
-0.313107
40
0.2842745
50
328.6634704
51
343.3325132
0
ARC
8
DEFAULT_255_1_234
10
16.096552
20
-0.2454137
40
0.5118644
50
343.0499468
51
351.9393422
0
ARC
8
DEFAULT_255_1_234
10
15.749882
20
-0.1943051
40
0.8622784
50
351.8069023
51
357.7959224
0
ARC
8
DEFAULT_255_1_234
10
15.4263376
20
-0.1775279
40
1.1862365
50
357.5871873
51
359.2677531
0
LINE
8
DEFAULT_255_1_234
10
17.4397462
20
0.5237433
11
17.4397462
21
-0.6513
0
LINE
8
DEFAULT_255_1_234
10
17.4397462
20
-0.6513
11
17.2903559
21
-0.6513
0
LINE
8
DEFAULT_255_1_234
10
17.2903559
20
-0.6513
11
17.2903559
21
0.3390133
0
LINE
8
DEFAULT_255_1_234
10
17.2903559
20
0.3390133
11
16.990772
21
0.2289785
0
LINE
8
DEFAULT_255_1_234
10
16.990772
20
0.2289785
11
16.990772
21
0.3639117
0
LINE
8
DEFAULT_255_1_234
10
16.990772
20
0.3639117
11
17.4164542
21
0.5237433
0
LINE
8
DEFAULT_255_1_234
10
17.4164542
20
0.5237433
11
17.4397462
21
0.5237433
0
LINE
8
DEFAULT_255_1_234
10
18.1995486
20
-0.0938974
11
18.1995486
21
-0.2151766
0
LINE
8
DEFAULT_255_1_234
10
18.1995486
20
-0.2151766
11
17.8075998
21
-0.2151766
0
LINE
8
DEFAULT_255_1_234
10
17.8075998
20
-0.2151766
11
17.8075998
21
-0.0938974
0
LINE
8
DEFAULT_255_1_234
10
17.8075998
20
-0.0938974
11
18.1995486
21
-0.0938974
0
LINE
8
DEFAULT_255_1_234
10
19.0621573
20
0.0402327
11
19.0621573
21
-0.1525291
0
LINE
8
DEFAULT_255_1_234
10
18.3240406
20
-0.1726084
11
18.3240406
21
0.0257755
0
LINE
8
DEFAULT_255_1_234
10
18.9135702
20
-0.1926877
11
18.9135702
21
0.0506739
0
LINE
8
DEFAULT_255_1_234
10
18.4726277
20
0.0619184
11
18.4726277
21
-0.1758211
0
ARC
8
DEFAULT_255_1_234
10
17.8374463
20
-0.1574195
40
1.2247208
50
353.8441951
51
0.2287902
0
ARC
8
DEFAULT_255_1_234
10
18.3013966
20
-0.2092194
40
0.7578929
50
344.4934747
51
353.9765454
0
ARC
8
DEFAULT_255_1_234
10
18.6006557
20
-0.2943019
40
0.4467846
50
329.2803592
51
344.7472793
0
ARC
8
DEFAULT_255_1_234
10
18.6999382
20
-0.3487982
40
0.3336173
50
324.9352394
51
328.6160465
0
ARC
8
DEFAULT_255_1_234
10
18.737649
20
-0.3751573
40
0.2876076
50
280.580143
51
324.9173126
0
ARC
8
DEFAULT_255_1_234
10
18.6975283
20
-0.2080901
40
0.4592847
50
269.5977311
51
281.6734359
0
ARC
8
DEFAULT_255_1_234
10
18.6903188
20
-0.2200827
40
0.4472986
50
256.6228859
51
270.51044
0
ARC
8
DEFAULT_255_1_234
10
18.6501166
20
-0.3749123
40
0.2873874
50
215.8618325
51
257.2788573
0
ARC
8
DEFAULT_255_1_234
10
18.7522198
20
-0.3064023
40
0.4102928
50
197.9693508
51
215.2623606
0
ARC
8
DEFAULT_255_1_234
10
19.0007313
20
-0.2225291
40
0.6725652
50
187.8816417
51
198.2346507
0
ARC
8
DEFAULT_255_1_234
10
19.3965522
20
-0.1653921
40
1.0724845
50
180.8976217
51
188.0055519
0
ARC
8
DEFAULT_255_1_234
10
19.676571
20
-0.1550223
40
1.3526448
50
180.7449369
51
181.1510016
0
ARC
8
DEFAULT_255_1_234
10
19.5188439
20
0.0306042
40
1.1948131
50
173.7675579
51
180.231553
0
ARC
8
DEFAULT_255_1_234
10
19.0670586
20
0.0816666
40
0.7401564
50
164.3058563
51
173.9002247
0
ARC
8
DEFAULT_255_1_234
10
18.7758654
20
0.1655656
40
0.4371288
50
148.7922025
51
164.568378
0
ARC
8
DEFAULT_255_1_234
10
18.6807107
20
0.2186929
40
0.3282386
50
144.5883898
51
148.1176286
0
ARC
8
DEFAULT_255_1_234
10
18.6464004
20
0.2426315
40
0.2864044
50
101.6440918
51
144.514236
0
ARC
8
DEFAULT_255_1_234
10
18.6889071
20
0.0737069
40
0.4604934
50
89.5284041
51
102.5819763
0
ARC
8
DEFAULT_255_1_234
10
18.6968159
20
0.0698018
40
0.464401
50
77.0437873
51
90.5081339
0
ARC
8
DEFAULT_255_1_234
10
18.7370161
20
0.2340615
40
0.2953195
50
48.2778575
51
77.4994676
0
ARC
8
DEFAULT_255_1_234
10
18.7442792
20
0.2469746
40
0.2808655
50
36.3142134
51
47.6305865
0
ARC
8
DEFAULT_255_1_234
10
18.6574099
20
0.1884515
40
0.3855453
50
18.2931786
51
35.6769206
0
ARC
8
DEFAULT_255_1_234
10
18.4030858
20
0.1011593
40
0.654423
50
8.024666
51
18.5605216
0
ARC
8
DEFAULT_255_1_234
10
17.9867778
20
0.0396792
40
1.0752407
50
1.1274072
51
8.1718305
0
ARC
8
DEFAULT_255_1_234
10
17.6631968
20
0.0269885
40
1.3990231
50
0.5424119
51
1.3863029
0
ARC
8
DEFAULT_255_1_234
10
17.8453346
20
0.0542342
40
1.0682415
50
359.8090433
51
4.9407866
0
ARC
8
DEFAULT_255_1_234
10
18.266336
20
0.0918113
40
0.6455691
50
4.8362157
51
12.2904523
0
ARC
8
DEFAULT_255_1_234
10
18.5418475
20
0.1531965
40
0.3633074
50
12.0805627
51
23.8173984
0
ARC
8
DEFAULT_255_1_234
10
18.659218
20
0.2028919
40
0.2358723
50
24.2871213
51
31.3935614
0
ARC
8
DEFAULT_255_1_234
10
18.7116878
20
0.2372233
40
0.1732111
50
30.7407893
51
82.4657128
0
ARC
8
DEFAULT_255_1_234
10
18.6937012
20
0.1488691
40
0.263235
50
81.1060089
51
90.2184952
0
ARC
8
DEFAULT_255_1_234
10
18.6901311
20
0.1746924
40
0.2374236
50
89.3806855
51
105.6762551
0
ARC
8
DEFAULT_255_1_234
10
18.6717941
20
0.2413567
40
0.1682847
50
105.7981136
51
149.7388061
0
ARC
8
DEFAULT_255_1_234
10
18.778202
20
0.177395
40
0.2924306
50
149.4208916
51
163.6286378
0
ARC
8
DEFAULT_255_1_234
10
18.9872908
20
0.113625
40
0.5110213
50
163.3763315
51
172.1410975
0
ARC
8
DEFAULT_255_1_234
10
19.3173627
20
0.0663518
40
0.8444586
50
172.0259487
51
178.0703232
0
ARC
8
DEFAULT_255_1_234
10
19.6203716
20
0.0519906
40
1.1477868
50
177.8631668
51
179.5044149
0
ARC
8
DEFAULT_255_1_234
10
19.5131121
20
-0.1794611
40
1.0404907
50
179.7995573
51
185.2460446
0
ARC
8
DEFAULT_255_1_234
10
19.108816
20
-0.2177487
40
0.6343885
50
185.1411642
51
193.0079639
0
ARC
8
DEFAULT_255_1_234
10
18.8444633
20
-0.2802359
40
0.3627568
50
192.7897626
51
205.2507664
0
ARC
8
DEFAULT_255_1_234
10
18.739818
20
-0.3269585
40
0.2481908
50
205.8005384
51
211.2537509
0
ARC
8
DEFAULT_255_1_234
10
18.687462
20
-0.362042
40
0.1852521
50
210.3789793
51
238.4008143
0
ARC
8
DEFAULT_255_1_234
10
18.6855142
20
-0.3573624
40
0.1882621
50
239.6520629
51
265.9793761
0
ARC
8
DEFAULT_255_1_234
10
18.6940342
20
-0.2901573
40
0.2559272
50
265.1315437
51
270.060332
0
ARC
8
DEFAULT_255_1_234
10
18.6969121
20
-0.3225466
40
0.2235528
50
269.3314664
51
287.2178029
0
ARC
8
DEFAULT_255_1_234
10
18.7106973
20
-0.3728721
40
0.1714108
50
287.7958004
51
329.080874
0
ARC
8
DEFAULT_255_1_234
10
18.614943
20
-0.313107
40
0.2842745
50
328.6634704
51
343.3325132
0
ARC
8
DEFAULT_255_1_234
10
18.397645
20
-0.2454137
40
0.5118644
50
343.0499468
51
351.9393422
0
ARC
8
DEFAULT_255_1_234
10
18.050975
20
-0.1943051
40
0.8622784
50
351.8069023
51
357.7959224
0
ARC
8
DEFAULT_255_1_234
10
17.7274306
20
-0.1775279
40
1.1862365
50
357.5871873
51
359.2677531
0
LINE
8
DEFAULT_255_1_234
10
20.0484548
20
-0.6513
11
19.9368136
21
-0.3460939
0
LINE
8
DEFAULT_255_1_234
10
19.9368136
20
-0.3460939
11
19.4468776
21
-0.3460939
0
LINE
8
DEFAULT_255_1_234
10
19.4468776
20
-0.3460939
11
19.3368428
21
-0.6513
0
LINE
8
DEFAULT_255_1_234
10
19.3368428
20
-0.6513
11
19.1778144
21
-0.6513
0
LINE
8
DEFAULT_255_1_234
10
19.1778144
20
-0.6513
11
19.624379
21
0.5181211
0
LINE
8
DEFAULT_255_1_234
10
19.624379
20
0.5181211
11
19.7593122
21
0.5181211
0
LINE
8
DEFAULT_255_1_234
10
19.7593122
20
0.5181211
11
20.20668
21
-0.6513
0
LINE
8
DEFAULT_255_1_234
10
20.20668
20
-0.6513
11
20.0484548
21
-0.6513
0
LINE
8
DEFAULT_255_1_234
10
19.6918456
20
0.3277689
11
19.4934617
21
-0.2191925
0
LINE
8
DEFAULT_255_1_234
10
19.4934617
20
-0.2191925
11
19.8910327
21
-0.2191925
0
LINE
8
DEFAULT_255_1_234
10
19.8910327
20
-0.2191925
11
19.6918456
21
0.3277689
0
LINE
8
DEFAULT_255_1_234
10
21.121495
20
-0.6513
11
21.0098539
21
-0.3460939
0
LINE
8
DEFAULT_255_1_234
10
21.0098539
20
-0.3460939
11
20.5199178
21
-0.3460939
0
LINE
8
DEFAULT_255_1_234
10
20.5199178
20
-0.3460939
11
20.409883
21
-0.6513
0
LINE
8
DEFAULT_255_1_234
10
20.409883
20
-0.6513
11
20.2508546
21
-0.6513
0
LINE
8
DEFAULT_255_1_234
10
20.2508546
20
-0.6513
11
20.6974192
21
0.5181211
0
LINE
8
DEFAULT_255_1_234
10
20.6974192
20
0.5181211
11
20.8323524
21
0.5181211
0
LINE
8
DEFAULT_255_1_234
10
20.8323524
20
0.5181211
11
21.2797203
21
-0.6513
0
LINE
8
DEFAULT_255_1_234
10
21.2797203
20
-0.6513
11
21.121495
21
-0.6513
0
LINE
8
DEFAULT_255_1_234
10
20.7648858
20
0.3277689
11
20.5665019
21
-0.2191925
0
LINE
8
DEFAULT_255_1_234
10
20.5665019
20
-0.2191925
11
20.9640729
21
-0.2191925
0
LINE
8
DEFAULT_255_1_234
10
20.9640729
20
-0.2191925
11
20.7648858
21
0.3277689
0
LINE
8
DEFAULT_255_1_234
10
22.1318877
20
0.0402327
11
22.1318877
21
-0.1525291
0
LINE
8
DEFAULT_255_1_234
10
21.3937709
20
-0.1726084
11
21.3937709
21
0.0257755
0
LINE
8
DEFAULT_255_1_234
10
21.9833005
20
-0.1926877
11
21.9833005
21
0.0506739
0
LINE
8
DEFAULT_255_1_234
10
21.5423581
20
0.0619184
11
21.5423581
21
-0.1758211
0
ARC
8
DEFAULT_255_1_234
10
20.9071767
20
-0.1574195
40
1.2247208
50
353.8441951
51
0.2287902
0
ARC
8
DEFAULT_255_1_234
10
21.371127
20
-0.2092194
40
0.7578929
50
344.4934747
51
353.9765454
0
ARC
8
DEFAULT_255_1_234
10
21.670386
20
-0.2943019
40
0.4467846
50
329.2803592
51
344.7472793
0
ARC
8
DEFAULT_255_1_234
10
21.7696685
20
-0.3487982
40
0.3336173
50
324.9352394
51
328.6160465
0
ARC
8
DEFAULT_255_1_234
10
21.8073794
20
-0.3751573
40
0.2876076
50
280.580143
51
324.9173126
0
ARC
8
DEFAULT_255_1_234
10
21.7672587
20
-0.2080901
40
0.4592847
50
269.5977311
51
281.6734359
0
ARC
8
DEFAULT_255_1_234
10
21.7600492
20
-0.2200827
40
0.4472986
50
256.6228859
51
270.51044
0
ARC
8
DEFAULT_255_1_234
10
21.719847
20
-0.3749123
40
0.2873874
50
215.8618325
51
257.2788573
0
ARC
8
DEFAULT_255_1_234
10
21.8219502
20
-0.3064023
40
0.4102928
50
197.9693508
51
215.2623606
0
ARC
8
DEFAULT_255_1_234
10
22.0704617
20
-0.2225291
40
0.6725652
50
187.8816417
51
198.2346507
0
ARC
8
DEFAULT_255_1_234
10
22.4662825
20
-0.1653921
40
1.0724845
50
180.8976217
51
188.0055519
0
ARC
8
DEFAULT_255_1_234
10
22.7463014
20
-0.1550223
40
1.3526448
50
180.7449369
51
181.1510016
0
ARC
8
DEFAULT_255_1_234
10
22.5885743
20
0.0306042
40
1.1948131
50
173.7675579
51
180.231553
0
ARC
8
DEFAULT_255_1_234
10
22.1367889
20
0.0816666
40
0.7401564
50
164.3058563
51
173.9002247
0
ARC
8
DEFAULT_255_1_234
10
21.8455958
20
0.1655656
40
0.4371288
50
148.7922025
51
164.568378
0
ARC
8
DEFAULT_255_1_234
10
21.750441
20
0.2186929
40
0.3282386
50
144.5883898
51
148.1176286
0
ARC
8
DEFAULT_255_1_234
10
21.7161308
20
0.2426315
40
0.2864044
50
101.6440918
51
144.514236
0
ARC
8
DEFAULT_255_1_234
10
21.7586375
20
0.0737069
40
0.4604934
50
89.5284041
51
102.5819763
0
ARC
8
DEFAULT_255_1_234
10
21.7665463
20
0.0698018
40
0.464401
50
77.0437873
51
90.5081339
0
ARC
8
DEFAULT_255_1_234
10
21.8067464
20
0.2340615
40
0.2953195
50
48.2778575
51
77.4994676
0
ARC
8
DEFAULT_255_1_234
10
21.8140096
20
0.2469746
40
0.2808655
50
36.3142134
51
47.6305865
0
ARC
8
DEFAULT_255_1_234
10
21.7271403
20
0.1884515
40
0.3855453
50
18.2931786
51
35.6769206
0
ARC
8
DEFAULT_255_1_234
10
21.4728162
20
0.1011593
40
0.654423
50
8.024666
51
18.5605216
0
ARC
8
DEFAULT_255_1_234
10
21.0565082
20
0.0396792
40
1.0752407
50
1.1274072
51
8.1718305
0
ARC
8
DEFAULT_255_1_234
10
20.7329272
20
0.0269885
40
1.3990231
50
0.5424119
51
1.3863029
0
ARC
8
DEFAULT_255_1_234
10
20.915065
20
0.0542342
40
1.0682415
50
359.8090433
51
4.9407866
0
ARC
8
DEFAULT_255_1_234
10
21.3360664
20
0.0918113
40
0.6455691
50
4.8362157
51
12.2904523
0
ARC
8
DEFAULT_255_1_234
10
21.6115779
20
0.1531965
40
0.3633074
50
12.0805627
51
23.8173984
0
ARC
8
DEFAULT_255_1_234
10
21.7289484
20
0.2028919
40
0.2358723
50
24.2871213
51
31.3935614
0
ARC
8
DEFAULT_255_1_234
10
21.7814181
20
0.2372233
40
0.1732111
50
30.7407893
51
82.4657128
0
ARC
8
DEFAULT_255_1_234
10
21.7634316
20
0.1488691
40
0.263235
50
81.1060089
51
90.2184952
0
ARC
8
DEFAULT_255_1_234
10
21.7598615
20
0.1746924
40
0.2374236
50
89.3806855
51
105.6762551
0
ARC
8
DEFAULT_255_1_234
10
21.7415245
20
0.2413567
40
0.1682847
50
105.7981136
51
149.7388061
0
ARC
8
DEFAULT_255_1_234
10
21.8479323
20
0.177395
40
0.2924306
50
149.4208916
51
163.6286378
0
ARC
8
DEFAULT_255_1_234
10
22.0570212
20
0.113625
40
0.5110213
50
163.3763315
51
172.1410975
0
ARC
8
DEFAULT_255_1_234
10
22.387093
20
0.0663518
40
0.8444586
50
172.0259487
51
178.0703232
0
ARC
8
DEFAULT_255_1_234
10
22.690102
20
0.0519906
40
1.1477868
50
177.8631668
51
179.5044149
0
ARC
8
DEFAULT_255_1_234
10
22.5828424
20
-0.1794611
40
1.0404907
50
179.7995573
51
185.2460446
0
ARC
8
DEFAULT_255_1_234
10
22.1785464
20
-0.2177487
40
0.6343885
50
185.1411642
51
193.0079639
0
ARC
8
DEFAULT_255_1_234
10
21.9141936
20
-0.2802359
40
0.3627568
50
192.7897626
51
205.2507664
0
ARC
8
DEFAULT_255_1_234
10
21.8095483
20
-0.3269585
40
0.2481908
50
205.8005384
51
211.2537509
0
ARC
8
DEFAULT_255_1_234
10
21.7571924
20
-0.362042
40
0.1852521
50
210.3789793
51
238.4008143
0
ARC
8
DEFAULT_255_1_234
10
21.7552446
20
-0.3573624
40
0.1882621
50
239.6520629
51
265.9793761
0
ARC
8
DEFAULT_255_1_234
10
21.7637646
20
-0.2901573
40
0.2559272
50
265.1315437
51
270.060332
0
ARC
8
DEFAULT_255_1_234
10
21.7666425
20
-0.3225466
40
0.2235528
50
269.3314664
51
287.2178029
0
ARC
8
DEFAULT_255_1_234
10
21.7804277
20
-0.3728721
40
0.1714108
50
287.7958004
51
329.080874
0
ARC
8
DEFAULT_255_1_234
10
21.6846733
20
-0.313107
40
0.2842745
50
328.6634704
51
343.3325132
0
ARC
8
DEFAULT_255_1_234
10
21.4673753
20
-0.2454137
40
0.5118644
50
343.0499468
51
351.9393422
0
ARC
8
DEFAULT_255_1_234
10
21.1207053
20
-0.1943051
40
0.8622784
50
351.8069023
51
357.7959224
0
ARC
8
DEFAULT_255_1_234
10
20.7971609
20
-0.1775279
40
1.1862365
50
357.5871873
51
359.2677531
0
ARC
8
DEFAULT_255_2_778
10
7.7537338
20
139.6512992
40
3.0484709
50
251.6854144
51
258.6071955
0
ARC
8
DEFAULT_255_2_778
10
7.539521
20
138.5696738
40
1.9458471
50
258.4992492
51
268.3986479
0
ARC
8
DEFAULT_255_2_778
10
7.5172314
20
138.1394206
40
1.5151737
50
268.7865272
51
269.9950384
0
ARC
8
DEFAULT_255_2_778
10
7.5277432
20
137.6882355
40
1.0640417
50
269.426895
51
279.6711067
0
ARC
8
DEFAULT_255_2_778
10
7.6417753
20
137.0586746
40
0.4243233
50
278.7731084
51
300.3324923
0
ARC
8
DEFAULT_255_2_778
10
7.760746
20
136.8560552
40
0.1893587
50
300.2240287
51
1.9041213
0
ARC
8
DEFAULT_255_2_778
10
7.7452705
20
136.8652089
40
0.2047497
50
359.1991369
51
359.99965
0
ARC
8
DEFAULT_255_2_778
10
7.7523233
20
136.8660378
40
0.1976988
50
359.7594145
51
47.1793976
0
ARC
8
DEFAULT_255_2_778
10
7.6187277
20
136.717431
40
0.3975169
50
47.6144502
51
60.8366176
0
ARC
8
DEFAULT_255_2_778
10
7.0190958
20
135.7014865
40
1.5771337
50
59.799464
51
64.8885807
0
ARC
8
DEFAULT_255_2_778
10
6.0948833
20
133.7724682
40
3.7160912
50
64.6076081
51
66.8386974
0
ARC
8
DEFAULT_255_2_778
10
9.6419609
20
142.1355052
40
5.368109
50
244.3032309
51
247.1393781
0
ARC
8
DEFAULT_255_2_778
10
8.5507088
20
139.875518
40
2.8584574
50
240.2323579
51
244.3709759
0
ARC
8
DEFAULT_255_2_778
10
7.7800475
20
138.5386591
40
1.315392
50
233.2209971
51
240.4606284
0
ARC
8
DEFAULT_255_2_778
10
7.3561477
20
137.9675187
40
0.6041399
50
225.6990744
51
232.9899679
0
ARC
8
DEFAULT_255_2_778
10
7.3965073
20
137.9919214
40
0.6499005
50
178.2783416
51
224.6550883
0
ARC
8
DEFAULT_255_2_778
10
7.5059624
20
138.0252974
40
0.7591885
50
157.033673
51
181.0453383
0
ARC
8
DEFAULT_255_2_778
10
7.378439
20
138.0661396
40
0.6259551
50
124.9113017
51
155.9211516
0
ARC
8
DEFAULT_255_2_778
10
7.5960466
20
137.7575681
40
1.0035357
50
100.4079723
51
125.0168617
0
ARC
8
DEFAULT_255_2_778
10
7.6991199
20
137.2635046
40
1.5081396
50
89.6483922
51
100.8684975
0
ARC
8
DEFAULT_255_2_778
10
7.7083242
20
136.9112988
40
1.8603169
50
89.5079487
51
89.9984402
0
ARC
8
DEFAULT_255_2_778
10
7.7099573
20
136.8460694
40
1.9255311
50
83.9170631
51
89.5732113
0
ARC
8
DEFAULT_255_2_778
10
7.5071517
20
134.8384957
40
3.9433074
50
80.7325723
51
84.0779772
0
ARC
8
DEFAULT_255_2_778
10
7.0208457
20
131.815582
40
7.0050837
50
78.5086351
51
80.7886813
0
ARC
8
DEFAULT_255_2_778
10
7.6620177
20
136.4150544
40
1.9415426
50
67.135818
51
78.0934208
0
ARC
8
DEFAULT_255_2_778
10
7.7851814
20
136.9854809
40
1.3579807
50
78.2126325
51
89.7333975
0
ARC
8
DEFAULT_255_2_778
10
7.7793853
20
137.4006211
40
0.9429038
50
89.2638155
51
100.5666868
0
ARC
8
DEFAULT_255_2_778
10
7.6660949
20
137.9704419
40
0.362036
50
99.4784875
51
124.329414
0
ARC
8
DEFAULT_255_2_778
10
7.5705593
20
138.118551
40
0.1859067
50
125.7571195
51
182.2824883
0
ARC
8
DEFAULT_255_2_778
10
7.5493239
20
138.1118629
40
0.1645253
50
180.2492993
51
239.8144161
0
ARC
8
DEFAULT_255_2_778
10
7.932718
20
138.7119128
40
0.876484
50
237.8725734
51
242.8068846
0
ARC
8
DEFAULT_255_2_778
10
9.4175857
20
141.5284958
40
4.0604642
50
242.3328458
51
244.031083
0
ARC
8
DEFAULT_255_2_778
10
12.3804066
20
147.5769314
40
10.7955807
50
243.950624
51
244.8024316
0
ARC
8
DEFAULT_255_2_778
10
15.4009918
20
153.9609175
40
17.8580926
50
244.7535425
51
244.9563234
0
ARC
8
DEFAULT_255_2_778
10
5.8652927
20
133.4593264
40
4.7527588
50
62.2505456
51
65.4301556
0
ARC
8
DEFAULT_255_2_778
10
6.9275435
20
135.4674172
40
2.4810291
50
57.2951304
51
62.3684211
0
ARC
8
DEFAULT_255_2_778
10
7.6807233
20
136.6307235
40
1.0952081
50
48.7345704
51
57.5685367
0
ARC
8
DEFAULT_255_2_778
10
8.0117486
20
137.0182722
40
0.5856147
50
44.3236031
51
48.0704418
0
ARC
8
DEFAULT_255_2_778
10
7.9783002
20
136.9982468
40
0.6236013
50
1.3523843
51
43.4925744
0
ARC
8
DEFAULT_255_2_778
10
7.7103531
20
136.9653151
40
0.8926473
50
359.9763756
51
3.0599076
0
ARC
8
DEFAULT_255_2_778
10
7.8645343
20
136.9502407
40
0.7386124
50
333.0361889
51
1.1408766
0
ARC
8
DEFAULT_255_2_778
10
7.8947908
20
136.9571919
40
0.7150741
50
300.8430083
51
331.4403095
0
ARC
8
DEFAULT_255_2_778
10
7.694568
20
137.2707162
40
1.0869673
50
281.4258583
51
301.4316118
0
ARC
8
DEFAULT_255_2_778
10
7.5632666
20
137.8789414
40
1.7091691
50
270.2273513
51
281.7010805
0
ARC
8
DEFAULT_255_2_778
10
7.5453797
20
138.3556043
40
2.1859577
50
269.9983113
51
270.6466065
0
LINE
8
DEFAULT_255_2_778
10
7.5453153
20
136.1696465
11
7.5438002
21
136.169647
0
ARC
8
DEFAULT_255_2_778
10
7.5509161
20
139.3525969
40
3.1829579
50
256.2431122
51
269.871909
0
ARC
8
DEFAULT_255_2_778
10
21.7538511
20
139.5771629
40
2.9720345
50
251.5709223
51
258.7508181
0
ARC
8
DEFAULT_255_2_778
10
21.5538128
20
138.5539385
40
1.9294488
50
258.6495077
51
268.8281511
0
ARC
8
DEFAULT_255_2_778
10
21.5355488
20
138.1591193
40
1.5343723
50
269.2085037
51
269.9981866
0
ARC
8
DEFAULT_255_2_778
10
21.5473849
20
137.6907184
40
1.0660376
50
269.3612297
51
279.5899087
0
ARC
8
DEFAULT_255_2_778
10
21.6608439
20
137.0592324
40
0.424527
50
278.6895227
51
300.2363944
0
ARC
8
DEFAULT_255_2_778
10
21.7799083
20
136.8557793
40
0.188796
50
300.1108484
51
1.9024905
0
ARC
8
DEFAULT_255_2_778
10
21.7439577
20
136.8664221
40
0.2246851
50
358.8842611
51
0.0019649
0
ARC
8
DEFAULT_255_2_778
10
21.7769791
20
136.8703385
40
0.1917038
50
358.831716
51
47.0900458
0
ARC
8
DEFAULT_255_2_778
10
21.6364654
20
136.710984
40
0.4041259
50
47.8812665
51
61.174665
0
ARC
8
DEFAULT_255_2_778
10
21.0418848
20
135.6910117
40
1.5846568
50
60.1210877
51
65.1917015
0
ARC
8
DEFAULT_255_2_778
10
20.1415278
20
133.7854122
40
3.6922188
50
64.9168629
51
67.1565628
0
ARC
8
DEFAULT_255_2_778
10
23.6275467
20
142.0569888
40
5.2839333
50
244.2656926
51
247.1407051
0
ARC
8
DEFAULT_255_2_778
10
22.5594997
20
139.848765
40
2.8309849
50
240.1545061
51
244.3326325
0
ARC
8
DEFAULT_255_2_778
10
21.7856548
20
138.5127346
40
1.2870531
50
232.697515
51
240.4357497
0
ARC
8
DEFAULT_255_2_778
10
21.3705506
20
137.9617218
40
0.5972006
50
225.5850892
51
232.3393736
0
ARC
8
DEFAULT_255_2_778
10
21.4133941
20
137.9912933
40
0.6483829
50
178.7795739
51
224.7095916
0
ARC
8
DEFAULT_255_2_778
10
21.6669319
20
138.0153135
40
0.9018316
50
179.997867
51
180.6487041
0
ARC
8
DEFAULT_255_2_778
10
21.5167738
20
138.0291249
40
0.7517998
50
156.9195758
51
181.050088
0
ARC
8
DEFAULT_255_2_778
10
21.3928482
20
138.0685712
40
0.6224513
50
124.7111133
51
155.7879672
0
ARC
8
DEFAULT_255_2_778
10
21.6055459
20
137.7766942
40
0.9835402
50
101.7934503
51
125.2143527
0
ARC
8
DEFAULT_255_2_778
10
21.729848
20
137.2241326
40
1.5498677
50
89.5248728
51
102.1166783
0
ARC
8
DEFAULT_255_2_778
10
21.7283109
20
136.6705834
40
2.1034129
50
83.2889725
51
89.6080411
0
ARC
8
DEFAULT_255_2_778
10
21.529975
20
134.9027668
40
3.8823067
50
79.4764054
51
83.4308492
0
ARC
8
DEFAULT_255_2_778
10
21.2186357
20
133.1495673
40
5.6628977
50
78.2224868
51
79.6190915
0
ARC
8
DEFAULT_255_2_778
10
21.6838473
20
136.4270715
40
1.9311543
50
67.1323814
51
78.3148813
0
ARC
8
DEFAULT_255_2_778
10
21.801359
20
136.9785614
40
1.3672981
50
78.4565774
51
89.7552271
0
ARC
8
DEFAULT_255_2_778
10
21.7951366
20
137.409447
40
0.9364778
50
89.2619009
51
100.5950934
0
ARC
8
DEFAULT_255_2_778
10
21.6824182
20
137.9749169
40
0.3599879
50
99.5087086
51
124.406715
0
ARC
8
DEFAULT_255_2_778
10
21.5878565
20
138.121343
40
0.1858061
50
125.8630185
51
182.2986975
0
ARC
8
DEFAULT_255_2_778
10
21.5497296
20
138.1138047
40
0.1475296
50
179.9666559
51
180.100057
0
ARC
8
DEFAULT_255_2_778
10
21.566185
20
138.113793
40
0.163985
50
180.0859454
51
239.8819968
0
ARC
8
DEFAULT_255_2_778
10
21.9379018
20
138.7005619
40
0.8584853
50
238.072871
51
243.0442008
0
ARC
8
DEFAULT_255_2_778
10
23.4872034
20
141.6655845
40
4.2038426
50
242.5409111
51
244.1884903
0
ARC
8
DEFAULT_255_2_778
10
26.6463384
20
148.160196
40
11.4260319
50
244.1076525
51
244.9219574
0
ARC
8
DEFAULT_255_2_778
10
29.9038827
20
155.083855
40
19.0777309
50
244.8743531
51
245.066969
0
ARC
8
DEFAULT_255_2_778
10
19.8865272
20
133.4916274
40
4.7250654
50
62.0340028
51
65.293009
0
ARC
8
DEFAULT_255_2_778
10
20.9507744
20
135.4865758
40
2.464003
50
57.1127289
51
62.13736
0
ARC
8
DEFAULT_255_2_778
10
21.7037139
20
136.6402906
40
1.0863604
50
48.3695509
51
57.4197129
0
ARC
8
DEFAULT_255_2_778
10
22.0286268
20
137.0170419
40
0.5889589
50
44.472493
51
47.6467012
0
ARC
8
DEFAULT_255_2_778
10
21.9979457
20
136.9999032
40
0.6229283
50
1.2061613
51
43.6203607
0
ARC
8
DEFAULT_255_2_778
10
21.7312413
20
136.9674903
40
0.890659
50
359.9779196
51
2.9299178
0
ARC
8
DEFAULT_255_2_778
10
21.8802547
20
136.9523837
40
0.7417924
50
333.172934
51
1.140392
0
ARC
8
DEFAULT_255_2_778
10
21.9146167
20
136.9570736
40
0.7135172
50
300.9808035
51
331.5913995
0
ARC
8
DEFAULT_255_2_778
10
21.7182603
20
137.2669862
40
1.0803281
50
281.9040909
51
301.4483918
0
ARC
8
DEFAULT_255_2_778
10
21.5848425
20
137.8655518
40
1.6935565
50
270.5796874
51
282.1436175
0
ARC
8
DEFAULT_255_2_778
10
21.5636722
20
138.3604735
40
2.1887267
50
269.9959074
51
271.0027751
0
LINE
8
DEFAULT_255_2_778
10
21.5635158
20
136.1717468
11
21.5625002
21
136.171747
0
ARC
8
DEFAULT_255_2_778
10
21.5700221
20
139.3605174
40
3.1887792
50
256.2556596
51
269.8648469
0
LINE
8
DEFAULT_255_2_778
10
6.7958002
20
136.262547
11
6.7958002
21
136.757247
0
LINE
8
DEFAULT_255_2_778
10
8.4164002
20
138.680247
11
8.4164002
21
138.204047
0
LINE
8
DEFAULT_255_2_778
10
6.7940002
20
136.260947
11
6.7958002
21
136.262547
0
LINE
8
DEFAULT_255_2_778
10
8.9866002
20
138.729747
11
9.6629002
21
138.729747
0
LINE
8
DEFAULT_255_2_778
10
9.6629002
20
138.729747
11
9.6629002
21
136.222347
0
LINE
8
DEFAULT_255_2_778
10
9.6629002
20
136.222347
11
8.9866002
21
136.222347
0
LINE
8
DEFAULT_255_2_778
10
8.9866002
20
136.222347
11
8.9866002
21
138.729747
0
LINE
8
DEFAULT_255_2_778
10
10.2809002
20
136.222347
11
10.2809002
21
138.729747
0
LINE
8
DEFAULT_255_2_778
10
10.2809002
20
138.729747
11
12.0132002
21
138.729747
0
LINE
8
DEFAULT_255_2_778
10
12.0132002
20
138.729747
11
12.0132002
21
138.276047
0
LINE
8
DEFAULT_255_2_778
10
12.0132002
20
138.276047
11
10.9321002
21
138.276047
0
LINE
8
DEFAULT_255_2_778
10
10.9321002
20
138.276047
11
10.9321002
21
137.709747
0
LINE
8
DEFAULT_255_2_778
10
10.9321002
20
137.709747
11
11.8735002
21
137.709747
0
LINE
8
DEFAULT_255_2_778
10
11.8735002
20
137.709747
11
11.8735002
21
137.296247
0
LINE
8
DEFAULT_255_2_778
10
11.8735002
20
137.296247
11
10.9321002
21
137.296247
0
LINE
8
DEFAULT_255_2_778
10
10.9321002
20
137.296247
11
10.9321002
21
136.700947
0
LINE
8
DEFAULT_255_2_778
10
10.9321002
20
136.700947
11
12.0412002
21
136.700947
0
LINE
8
DEFAULT_255_2_778
10
12.0412002
20
136.700947
11
12.0412002
21
136.220747
0
LINE
8
DEFAULT_255_2_778
10
12.0412002
20
136.220747
11
10.2809002
21
136.222347
0
LINE
8
DEFAULT_255_2_778
10
12.4817002
20
136.222347
11
12.4817002
21
138.729747
0
LINE
8
DEFAULT_255_2_778
10
12.4817002
20
138.729747
11
13.3575002
21
138.729747
0
LINE
8
DEFAULT_255_2_778
10
13.3575002
20
138.729747
11
13.9671002
21
137.127447
0
LINE
8
DEFAULT_255_2_778
10
13.9671002
20
137.127447
11
14.5897002
21
138.729747
0
LINE
8
DEFAULT_255_2_778
10
14.5897002
20
138.729747
11
15.4215002
21
138.729747
0
LINE
8
DEFAULT_255_2_778
10
15.4215002
20
138.729747
11
15.4215002
21
136.222347
0
LINE
8
DEFAULT_255_2_778
10
15.4215002
20
136.222347
11
14.7812002
21
136.222347
0
LINE
8
DEFAULT_255_2_778
10
14.7812002
20
136.222347
11
14.7812002
21
137.998147
0
LINE
8
DEFAULT_255_2_778
10
14.7812002
20
137.998147
11
14.0724002
21
136.197947
0
LINE
8
DEFAULT_255_2_778
10
14.0724002
20
136.197947
11
13.6515002
21
136.197947
0
LINE
8
DEFAULT_255_2_778
10
13.6515002
20
136.197947
11
12.9559002
21
137.998147
0
LINE
8
DEFAULT_255_2_778
10
12.9559002
20
137.998147
11
12.9559002
21
136.222047
0
LINE
8
DEFAULT_255_2_778
10
12.9559002
20
136.222047
11
12.4817002
21
136.222347
0
LINE
8
DEFAULT_255_2_778
10
16.0409002
20
136.222347
11
16.0409002
21
138.729747
0
LINE
8
DEFAULT_255_2_778
10
16.0409002
20
138.729747
11
17.7731002
21
138.729747
0
LINE
8
DEFAULT_255_2_778
10
17.7731002
20
138.729747
11
17.7731002
21
138.276047
0
LINE
8
DEFAULT_255_2_778
10
17.7731002
20
138.276047
11
16.6921002
21
138.276047
0
LINE
8
DEFAULT_255_2_778
10
16.6921002
20
138.276047
11
16.6921002
21
137.709747
0
LINE
8
DEFAULT_255_2_778
10
16.6921002
20
137.709747
11
17.6334002
21
137.709747
0
LINE
8
DEFAULT_255_2_778
10
17.6334002
20
137.709747
11
17.6334002
21
137.296247
0
LINE
8
DEFAULT_255_2_778
10
17.6334002
20
137.296247
11
16.6921002
21
137.296247
0
LINE
8
DEFAULT_255_2_778
10
16.6921002
20
137.296247
11
16.6921002
21
136.700947
0
LINE
8
DEFAULT_255_2_778
10
16.6921002
20
136.700947
11
17.8030002
21
136.700947
0
LINE
8
DEFAULT_255_2_778
10
17.8030002
20
136.700947
11
17.8030002
21
136.220747
0
LINE
8
DEFAULT_255_2_778
10
17.8030002
20
136.220747
11
16.0409002
21
136.222347
0
LINE
8
DEFAULT_255_2_778
10
18.2454002
20
136.222347
11
18.2454002
21
138.729747
0
LINE
8
DEFAULT_255_2_778
10
18.2454002
20
138.729747
11
19.0283002
21
138.729747
0
LINE
8
DEFAULT_255_2_778
10
19.0283002
20
138.729747
11
19.8586002
21
137.050947
0
LINE
8
DEFAULT_255_2_778
10
19.8586002
20
137.050947
11
19.8586002
21
138.729747
0
LINE
8
DEFAULT_255_2_778
10
19.8586002
20
138.729747
11
20.3343002
21
138.729747
0
LINE
8
DEFAULT_255_2_778
10
20.3343002
20
138.729747
11
20.3343002
21
136.222347
0
LINE
8
DEFAULT_255_2_778
10
20.3343002
20
136.222347
11
19.5739002
21
136.222347
0
LINE
8
DEFAULT_255_2_778
10
19.5739002
20
136.222347
11
18.7214002
21
137.923547
0
LINE
8
DEFAULT_255_2_778
10
18.7214002
20
137.923547
11
18.7214002
21
136.222347
0
LINE
8
DEFAULT_255_2_778
10
18.7214002
20
136.222347
11
18.2454002
21
136.222347
0
LINE
8
DEFAULT_255_2_778
10
20.8143002
20
136.262747
11
20.8143002
21
136.757547
0
LINE
8
DEFAULT_255_2_778
10
22.3745002
20
138.693247
11
22.4343002
21
138.682647
0
LINE
8
DEFAULT_255_2_778
10
22.4343002
20
138.682647
11
22.4343002
21
138.206447
0
LINE
8
DEFAULT_255_2_778
10
20.8124002
20
136.263047
11
20.8143002
21
136.262747
0
LINE
8
DEFAULT_255_1_234
10
8.2014023
20
134.4559849
11
8.0463897
21
134.4559849
0
LINE
8
DEFAULT_255_1_234
10
7.3540539
20
133.9636394
11
7.5090665
21
133.9636394
0
ARC
8
DEFAULT_255_1_234
10
8.112271
20
135.3506768
40
1.252368
50
248.9199003
51
254.1439814
0
ARC
8
DEFAULT_255_1_234
10
7.9442205
20
134.9180234
40
0.788226
50
241.633709
51
249.0064503
0
ARC
8
DEFAULT_255_1_234
10
7.79136
20
134.6379317
40
0.4691427
50
230.498225
51
241.8087113
0
ARC
8
DEFAULT_255_1_234
10
7.7129174
20
134.5379906
40
0.3421437
50
227.4064532
51
229.9881192
0
ARC
8
DEFAULT_255_1_234
10
7.6641694
20
134.4904088
40
0.2741476
50
200.6781896
51
228.1763934
0
ARC
8
DEFAULT_255_1_234
10
7.6714005
20
134.4889077
40
0.2804109
50
179.5061581
51
199.8694617
0
ARC
8
DEFAULT_255_1_234
10
7.6704757
20
134.496321
40
0.2795204
50
132.4834203
51
181.0242172
0
ARC
8
DEFAULT_255_1_234
10
7.7300339
20
134.4400704
40
0.3612768
50
129.2532479
51
133.4242687
0
ARC
8
DEFAULT_255_1_234
10
7.7446789
20
134.4180965
40
0.3875675
50
101.98776
51
128.8742646
0
ARC
8
DEFAULT_255_1_234
10
7.7845399
20
134.2459741
40
0.5642249
50
89.5906553
51
102.3169264
0
ARC
8
DEFAULT_255_1_234
10
7.7915891
20
134.2778148
40
0.5323783
50
77.2360837
51
90.3248275
0
ARC
8
DEFAULT_255_1_234
10
7.8122971
20
134.37454
40
0.4334697
50
63.837784
51
77.0809408
0
ARC
8
DEFAULT_255_1_234
10
7.8400732
20
134.4262911
40
0.3747796
50
45.9864267
51
64.1607727
0
ARC
8
DEFAULT_255_1_234
10
7.8661614
20
134.4560866
40
0.3352302
50
32.2747395
51
45.6547121
0
ARC
8
DEFAULT_255_1_234
10
7.8728054
20
134.457988
40
0.328603
50
359.6507365
51
32.6130309
0
ARC
8
DEFAULT_255_1_234
10
7.778515
20
134.458466
40
0.2678863
50
359.469343
51
14.9832209
0
ARC
8
DEFAULT_255_1_234
10
7.8490212
20
134.4773539
40
0.1948938
50
14.9781179
51
48.2004265
0
ARC
8
DEFAULT_255_1_234
10
7.8325856
20
134.4566983
40
0.2212521
50
48.5927837
51
74.1241538
0
ARC
8
DEFAULT_255_1_234
10
7.7992346
20
134.3466248
40
0.3362561
50
73.7888341
51
86.6652678
0
ARC
8
DEFAULT_255_1_234
10
7.7889911
20
134.2258881
40
0.4573953
50
86.2640471
51
90.0526343
0
ARC
8
DEFAULT_255_1_234
10
7.7861624
20
134.2654192
40
0.4178709
50
89.6697524
51
99.2309573
0
ARC
8
DEFAULT_255_1_234
10
7.7619075
20
134.4098964
40
0.2713749
50
99.069534
51
113.7658566
0
ARC
8
DEFAULT_255_1_234
10
7.7345266
20
134.4744677
40
0.2012469
50
114.0401004
51
127.9850673
0
ARC
8
DEFAULT_255_1_234
10
7.710483
20
134.504073
40
0.1631167
50
127.7287463
51
176.7105154
0
ARC
8
DEFAULT_255_1_234
10
7.7783547
20
134.4939693
40
0.2315392
50
175.1779447
51
180.0581938
0
ARC
8
DEFAULT_255_1_234
10
7.6940394
20
134.4927428
40
0.1472271
50
179.6142195
51
228.1246017
0
ARC
8
DEFAULT_255_1_234
10
7.7382063
20
134.5336308
40
0.2072299
50
226.5779593
51
230.8800004
0
ARC
8
DEFAULT_255_1_234
10
7.7853141
20
134.5961636
40
0.2854818
50
231.4635071
51
241.9260842
0
ARC
8
DEFAULT_255_1_234
10
7.9050319
20
134.81648
40
0.53622
50
241.7178533
51
248.3259551
0
ARC
8
DEFAULT_255_1_234
10
8.0435691
20
135.1597064
40
0.9063478
50
248.2007737
51
252.4528373
0
ARC
8
DEFAULT_255_1_234
10
8.1639416
20
135.5318441
40
1.2974635
50
252.3391078
51
254.3469452
0
ARC
8
DEFAULT_255_1_234
10
7.4097119
20
132.8341148
40
1.5037162
50
71.0197183
51
74.4087047
0
ARC
8
DEFAULT_255_1_234
10
7.5791804
20
133.3233111
40
0.9859993
50
66.1847285
51
71.086374
0
ARC
8
DEFAULT_255_1_234
10
7.7348116
20
133.67372
40
0.6025855
50
59.3536294
51
66.2691831
0
ARC
8
DEFAULT_255_1_234
10
7.8236769
20
133.8240609
40
0.4279449
50
49.1020879
51
59.3293958
0
ARC
8
DEFAULT_255_1_234
10
7.9055509
20
133.9173834
40
0.3038015
50
32.7919921
51
49.2505539
0
ARC
8
DEFAULT_255_1_234
10
7.9376599
20
133.9402191
40
0.264448
50
31.1181161
51
32.4005348
0
ARC
8
DEFAULT_255_1_234
10
7.9288136
20
133.9366779
40
0.2738556
50
8.1116974
51
30.7958831
0
ARC
8
DEFAULT_255_1_234
10
7.8477804
20
133.9228753
40
0.3560327
50
359.8389159
51
8.4706516
0
ARC
8
DEFAULT_255_1_234
10
7.9103596
20
133.9180137
40
0.2934776
50
337.4731098
51
0.7537279
0
ARC
8
DEFAULT_255_1_234
10
7.9282291
20
133.9160387
40
0.2762607
50
307.5917067
51
336.4315538
0
ARC
8
DEFAULT_255_1_234
10
7.8822119
20
133.9673102
40
0.3449979
50
307.6551545
51
308.4529766
0
ARC
8
DEFAULT_255_1_234
10
7.8591838
20
134.002825
40
0.3871988
50
284.3734338
51
307.1424381
0
ARC
8
DEFAULT_255_1_234
10
7.8096668
20
134.1849932
40
0.5759636
50
272.4382747
51
284.646547
0
ARC
8
DEFAULT_255_1_234
10
7.7969876
20
134.3649893
40
0.7563528
50
269.9708387
51
272.8178037
0
ARC
8
DEFAULT_255_1_234
10
7.7926916
20
134.1611716
40
0.5525489
50
248.2707594
51
270.4055579
0
ARC
8
DEFAULT_255_1_234
10
7.7872657
20
134.1421192
40
0.5328452
50
246.1383403
51
248.0542782
0
ARC
8
DEFAULT_255_1_234
10
7.7454036
20
134.0541843
40
0.4355005
50
233.1670131
51
246.4950969
0
ARC
8
DEFAULT_255_1_234
10
7.6899941
20
133.9793812
40
0.3424126
50
215.3403242
51
233.0843104
0
ARC
8
DEFAULT_255_1_234
10
7.6627372
20
133.9595549
40
0.3087104
50
179.2419209
51
215.2648451
0
ARC
8
DEFAULT_255_1_234
10
7.7394966
20
133.9609666
40
0.2304457
50
179.335461
51
199.1045811
0
ARC
8
DEFAULT_255_1_234
10
7.7062643
20
133.9522766
40
0.1962176
50
199.8828939
51
232.7063202
0
ARC
8
DEFAULT_255_1_234
10
7.7534911
20
134.0116788
40
0.2720938
50
232.3738199
51
255.5136649
0
ARC
8
DEFAULT_255_1_234
10
7.7875778
20
134.1360835
40
0.4010747
50
255.2446292
51
267.5320849
0
ARC
8
DEFAULT_255_1_234
10
7.7963401
20
134.2593702
40
0.5246356
50
267.1557994
51
270.0286766
0
ARC
8
DEFAULT_255_1_234
10
7.7991173
20
134.214995
40
0.4802668
50
269.7000017
51
278.1660162
0
ARC
8
DEFAULT_255_1_234
10
7.8247178
20
134.0419515
40
0.3053425
50
278.0231263
51
290.625471
0
ARC
8
DEFAULT_255_1_234
10
7.8594865
20
133.9492025
40
0.206291
50
290.6619762
51
307.0370976
0
ARC
8
DEFAULT_255_1_234
10
7.8895254
20
133.9123504
40
0.1587906
50
306.3943566
51
355.3030547
0
ARC
8
DEFAULT_255_1_234
10
7.8383186
20
133.9200113
40
0.2104809
50
354.3660432
51
0.0698737
0
ARC
8
DEFAULT_255_1_234
10
7.8525531
20
133.9222617
40
0.1962563
50
359.417946
51
16.1971788
0
ARC
8
DEFAULT_255_1_234
10
7.8980841
20
133.9347418
40
0.149053
50
16.4723299
51
52.6262157
0
ARC
8
DEFAULT_255_1_234
10
7.8159895
20
133.8263433
40
0.2850296
50
52.7386432
51
62.4979148
0
ARC
8
DEFAULT_255_1_234
10
7.6774972
20
133.5657283
40
0.5801521
50
62.2515216
51
68.1220564
0
ARC
8
DEFAULT_255_1_234
10
7.5054883
20
133.1429872
40
1.0365451
50
68.0062803
51
71.8053402
0
ARC
8
DEFAULT_255_1_234
10
7.3259255
20
132.6044758
40
1.6042013
50
71.7183119
51
73.9258742
0
LINE
8
DEFAULT_255_1_234
10
8.5668464
20
134.7941211
11
8.5668464
21
133.6247
0
LINE
8
DEFAULT_255_1_234
10
8.5668464
20
133.6247
11
8.412637
21
133.6247
0
LINE
8
DEFAULT_255_1_234
10
8.412637
20
133.6247
11
8.412637
21
134.7941211
0
LINE
8
DEFAULT_255_1_234
10
8.412637
20
134.7941211
11
8.5668464
21
134.7941211
0
LINE
8
DEFAULT_255_1_234
10
8.8487604
20
134.7941211
11
9.0479475
21
134.7941211
0
LINE
8
DEFAULT_255_1_234
10
9.0479475
20
134.7941211
11
9.4302583
21
133.8399506
0
LINE
8
DEFAULT_255_1_234
10
9.4302583
20
133.8399506
11
9.812569
21
134.7941211
0
LINE
8
DEFAULT_255_1_234
10
9.812569
20
134.7941211
11
10.0125593
21
134.7941211
0
LINE
8
DEFAULT_255_1_234
10
10.0125593
20
134.7941211
11
10.0125593
21
133.6247
0
LINE
8
DEFAULT_255_1_234
10
10.0125593
20
133.6247
11
9.8583499
21
133.6247
0
LINE
8
DEFAULT_255_1_234
10
9.8583499
20
133.6247
11
9.8583499
21
134.0800996
0
LINE
8
DEFAULT_255_1_234
10
9.8583499
20
134.0800996
11
9.872807
21
134.5716419
0
LINE
8
DEFAULT_255_1_234
10
9.872807
20
134.5716419
11
9.4888899
21
133.6247
0
LINE
8
DEFAULT_255_1_234
10
9.4888899
20
133.6247
11
9.3708234
21
133.6247
0
LINE
8
DEFAULT_255_1_234
10
9.3708234
20
133.6247
11
8.9877095
21
134.5692324
0
LINE
8
DEFAULT_255_1_234
10
8.9877095
20
134.5692324
11
9.0029698
21
134.0800996
0
LINE
8
DEFAULT_255_1_234
10
9.0029698
20
134.0800996
11
9.0029698
21
133.6247
0
LINE
8
DEFAULT_255_1_234
10
9.0029698
20
133.6247
11
8.8487604
21
133.6247
0
LINE
8
DEFAULT_255_1_234
10
8.8487604
20
133.6247
11
8.8487604
21
134.7941211
0
LINE
8
DEFAULT_255_1_234
10
11.0566853
20
133.6247
11
10.9450441
21
133.9299061
0
LINE
8
DEFAULT_255_1_234
10
10.9450441
20
133.9299061
11
10.4551081
21
133.9299061
0
LINE
8
DEFAULT_255_1_234
10
10.4551081
20
133.9299061
11
10.3450732
21
133.6247
0
LINE
8
DEFAULT_255_1_234
10
10.3450732
20
133.6247
11
10.1860448
21
133.6247
0
LINE
8
DEFAULT_255_1_234
10
10.1860448
20
133.6247
11
10.6326095
21
134.7941211
0
LINE
8
DEFAULT_255_1_234
10
10.6326095
20
134.7941211
11
10.7675427
21
134.7941211
0
LINE
8
DEFAULT_255_1_234
10
10.7675427
20
134.7941211
11
11.2149105
21
133.6247
0
LINE
8
DEFAULT_255_1_234
10
11.2149105
20
133.6247
11
11.0566853
21
133.6247
0
LINE
8
DEFAULT_255_1_234
10
10.7000761
20
134.6037689
11
10.5016921
21
134.0568075
0
LINE
8
DEFAULT_255_1_234
10
10.5016921
20
134.0568075
11
10.8992632
21
134.0568075
0
LINE
8
DEFAULT_255_1_234
10
10.8992632
20
134.0568075
11
10.7000761
21
134.6037689
0
LINE
8
DEFAULT_255_1_234
10
12.076716
20
134.7941211
11
12.076716
21
134.6672196
0
LINE
8
DEFAULT_255_1_234
10
12.076716
20
134.6672196
11
11.7008307
21
134.6672196
0
LINE
8
DEFAULT_255_1_234
10
11.7008307
20
134.6672196
11
11.7008307
21
133.6247
0
LINE
8
DEFAULT_255_1_234
10
11.7008307
20
133.6247
11
11.5474245
21
133.6247
0
LINE
8
DEFAULT_255_1_234
10
11.5474245
20
133.6247
11
11.5474245
21
134.6672196
0
LINE
8
DEFAULT_255_1_234
10
11.5474245
20
134.6672196
11
11.1723423
21
134.6672196
0
LINE
8
DEFAULT_255_1_234
10
11.1723423
20
134.6672196
11
11.1723423
21
134.7941211
0
LINE
8
DEFAULT_255_1_234
10
11.1723423
20
134.7941211
11
12.076716
21
134.7941211
0
LINE
8
DEFAULT_255_1_234
10
12.4156554
20
134.7941211
11
12.4156554
21
133.6247
0
LINE
8
DEFAULT_255_1_234
10
12.4156554
20
133.6247
11
12.261446
21
133.6247
0
LINE
8
DEFAULT_255_1_234
10
12.261446
20
133.6247
11
12.261446
21
134.7941211
0
LINE
8
DEFAULT_255_1_234
10
12.261446
20
134.7941211
11
12.4156554
21
134.7941211
0
LINE
8
DEFAULT_255_1_234
10
13.402756
20
133.9957663
11
13.5577686
21
133.9957663
0
LINE
8
DEFAULT_255_1_234
10
12.6574107
20
134.1547947
11
12.6574107
21
134.2672391
0
LINE
8
DEFAULT_255_1_234
10
13.5577686
20
134.4182357
11
13.402756
21
134.4182357
0
LINE
8
DEFAULT_255_1_234
10
12.8124232
20
134.2632232
11
12.8124232
21
134.1499757
0
ARC
8
DEFAULT_255_1_234
10
13.0097072
20
134.0554846
40
0.5513052
50
340.1774281
51
353.7814284
0
ARC
8
DEFAULT_255_1_234
10
13.1668425
20
133.9969582
40
0.3836379
50
311.4558989
51
340.4421614
0
ARC
8
DEFAULT_255_1_234
10
13.1635093
20
134.0080528
40
0.3941894
50
282.4333181
51
310.7513653
0
ARC
8
DEFAULT_255_1_234
10
13.1195832
20
134.1895679
40
0.5809175
50
269.9358511
51
282.809604
0
ARC
8
DEFAULT_255_1_234
10
13.1143899
20
134.3353212
40
0.7266847
50
270.0021091
51
270.3581957
0
ARC
8
DEFAULT_255_1_234
10
13.1091315
20
134.0752585
40
0.4666519
50
250.7884749
51
270.6489167
0
ARC
8
DEFAULT_255_1_234
10
13.092315
20
134.0115319
40
0.4009729
50
219.3627325
51
250.0611886
0
ARC
8
DEFAULT_255_1_234
10
13.1752361
20
134.0820042
40
0.5097822
50
193.5479632
51
219.5756669
0
ARC
8
DEFAULT_255_1_234
10
13.4123982
20
134.1435919
40
0.7547848
50
181.1218675
51
193.87563
0
ARC
8
DEFAULT_255_1_234
10
13.6194163
20
134.154658
40
0.9620055
50
179.9918545
51
181.5394234
0
ARC
8
DEFAULT_255_1_234
10
13.4343265
20
134.2709788
40
0.7769248
50
169.5837241
51
180.2757934
0
ARC
8
DEFAULT_255_1_234
10
13.2506203
20
134.3049229
40
0.590109
50
155.0365899
51
169.6003176
0
ARC
8
DEFAULT_255_1_234
10
13.1370667
20
134.3596677
40
0.4640625
50
136.783148
51
155.2472683
0
ARC
8
DEFAULT_255_1_234
10
13.0981144
20
134.3927562
40
0.4130255
50
121.7633186
51
136.428115
0
ARC
8
DEFAULT_255_1_234
10
13.1116106
20
134.3678227
40
0.4413323
50
95.6459699
51
121.5490577
0
ARC
8
DEFAULT_255_1_234
10
13.1273388
20
134.2569949
40
0.55319
50
89.924208
51
96.1377933
0
ARC
8
DEFAULT_255_1_234
10
13.1323821
20
134.2688542
40
0.5413475
50
76.6779277
51
90.4563316
0
ARC
8
DEFAULT_255_1_234
10
13.1717444
20
134.4279114
40
0.3775041
50
47.485847
51
76.9287264
0
ARC
8
DEFAULT_255_1_234
10
13.1570417
20
134.4179159
40
0.3948286
50
16.5424086
51
46.8933463
0
ARC
8
DEFAULT_255_1_234
10
12.9962574
20
134.3650861
40
0.564021
50
5.4072051
51
17.0365086
0
ARC
8
DEFAULT_255_1_234
10
12.8523591
20
134.3419679
40
0.5556559
50
7.8891745
51
15.9239216
0
ARC
8
DEFAULT_255_1_234
10
13.0510605
20
134.3996631
40
0.3487515
50
15.7653144
51
27.9410532
0
ARC
8
DEFAULT_255_1_234
10
13.1614822
20
134.458779
40
0.2235026
50
27.8166557
51
46.4008329
0
ARC
8
DEFAULT_255_1_234
10
13.1664465
20
134.4582082
40
0.2205286
50
47.4371857
51
75.0698205
0
ARC
8
DEFAULT_255_1_234
10
13.135586
20
134.3507765
40
0.3322915
50
74.7008593
51
87.8124495
0
ARC
8
DEFAULT_255_1_234
10
13.1282547
20
134.2451844
40
0.4380987
50
87.3814673
51
90.0240855
0
ARC
8
DEFAULT_255_1_234
10
13.1244091
20
134.3629291
40
0.3203749
50
89.3451631
51
108.5745436
0
ARC
8
DEFAULT_255_1_234
10
13.1107196
20
134.4142908
40
0.2673494
50
109.2998449
51
143.3037509
0
ARC
8
DEFAULT_255_1_234
10
13.1869268
20
134.3556881
40
0.3634757
50
143.0753173
51
163.1916937
0
ARC
8
DEFAULT_255_1_234
10
13.3820996
20
134.2940967
40
0.5681262
50
162.9373603
51
174.6208611
0
ARC
8
DEFAULT_255_1_234
10
13.6447038
20
134.265301
40
0.8322832
50
174.3419979
51
180.1430411
0
ARC
8
DEFAULT_255_1_234
10
13.5516194
20
134.1458698
40
0.7392076
50
179.6817502
51
189.150529
0
ARC
8
DEFAULT_255_1_234
10
13.3015443
20
134.104219
40
0.4856932
50
188.9910863
51
203.5773039
0
ARC
8
DEFAULT_255_1_234
10
13.1935775
20
134.0594211
40
0.3688271
50
203.9077269
51
215.1312379
0
ARC
8
DEFAULT_255_1_234
10
13.1012869
20
133.9878941
40
0.2522457
50
213.9071664
51
263.8849284
0
ARC
8
DEFAULT_255_1_234
10
13.1138198
20
134.0663518
40
0.3316174
50
263.1758525
51
270.1031083
0
ARC
8
DEFAULT_255_1_234
10
13.117029
20
134.1910365
40
0.4563091
50
269.6719807
51
279.0609165
0
ARC
8
DEFAULT_255_1_234
10
13.1437058
20
134.0297907
40
0.2928759
50
278.8750225
51
293.6346586
0
ARC
8
DEFAULT_255_1_234
10
13.1757266
20
133.95459
40
0.2111472
50
293.8553404
51
310.0518804
0
ARC
8
DEFAULT_255_1_234
10
13.176212
20
133.9483516
40
0.2060917
50
311.0646779
51
332.0108348
0
ARC
8
DEFAULT_255_1_234
10
13.0569847
20
134.0140978
40
0.3422352
50
331.6588543
51
343.2878891
0
ARC
8
DEFAULT_255_1_234
10
12.8507362
20
134.0774798
40
0.5580003
50
343.1446044
51
351.010618
0
ARC
8
DEFAULT_255_1_234
10
12.6966008
20
134.1055871
40
0.7146438
50
350.7157277
51
351.1602153
0
LINE
8
DEFAULT_255_1_234
10
14.8364213
20
134.2913343
11
14.8364213
21
134.165236
0
LINE
8
DEFAULT_255_1_234
10
14.8364213
20
134.165236
11
14.3296186
21
134.165236
0
LINE
8
DEFAULT_255_1_234
10
14.3296186
20
134.165236
11
14.3296186
21
133.7507983
0
LINE
8
DEFAULT_255_1_234
10
14.3296186
20
133.7507983
11
14.918345
21
133.7507983
0
LINE
8
DEFAULT_255_1_234
10
14.918345
20
133.7507983
11
14.918345
21
133.6247
0
LINE
8
DEFAULT_255_1_234
10
14.918345
20
133.6247
11
14.1754092
21
133.6247
0
LINE
8
DEFAULT_255_1_234
10
14.1754092
20
133.6247
11
14.1754092
21
134.7941211
0
LINE
8
DEFAULT_255_1_234
10
14.1754092
20
134.7941211
11
14.9103133
21
134.7941211
0
LINE
8
DEFAULT_255_1_234
10
14.9103133
20
134.7941211
11
14.9103133
21
134.6672196
0
LINE
8
DEFAULT_255_1_234
10
14.9103133
20
134.6672196
11
14.3296186
21
134.6672196
0
LINE
8
DEFAULT_255_1_234
10
14.3296186
20
134.6672196
11
14.3296186
21
134.2913343
0
LINE
8
DEFAULT_255_1_234
10
14.3296186
20
134.2913343
11
14.8364213
21
134.2913343
0
LINE
8
DEFAULT_255_1_234
10
15.9343599
20
134.7941211
11
15.9343599
21
134.6672196
0
LINE
8
DEFAULT_255_1_234
10
15.9343599
20
134.6672196
11
15.5584746
21
134.6672196
0
LINE
8
DEFAULT_255_1_234
10
15.5584746
20
134.6672196
11
15.5584746
21
133.6247
0
LINE
8
DEFAULT_255_1_234
10
15.5584746
20
133.6247
11
15.4050684
21
133.6247
0
LINE
8
DEFAULT_255_1_234
10
15.4050684
20
133.6247
11
15.4050684
21
134.6672196
0
LINE
8
DEFAULT_255_1_234
10
15.4050684
20
134.6672196
11
15.0299862
21
134.6672196
0
LINE
8
DEFAULT_255_1_234
10
15.0299862
20
134.6672196
11
15.0299862
21
134.7941211
0
LINE
8
DEFAULT_255_1_234
10
15.0299862
20
134.7941211
11
15.9343599
21
134.7941211
0
LINE
8
DEFAULT_255_1_234
10
16.207439
20
134.1821026
11
16.207439
21
134.0608234
0
LINE
8
DEFAULT_255_1_234
10
16.207439
20
134.0608234
11
15.8154902
21
134.0608234
0
LINE
8
DEFAULT_255_1_234
10
15.8154902
20
134.0608234
11
15.8154902
21
134.1821026
0
LINE
8
DEFAULT_255_1_234
10
15.8154902
20
134.1821026
11
16.207439
21
134.1821026
0
LINE
8
DEFAULT_255_1_234
10
17.1029778
20
133.7459792
11
17.1029778
21
133.6247
0
LINE
8
DEFAULT_255_1_234
10
17.1029778
20
133.6247
11
16.33675
21
133.6247
0
LINE
8
DEFAULT_255_1_234
10
16.33675
20
133.6247
11
16.33675
21
133.7315221
0
LINE
8
DEFAULT_255_1_234
10
16.33675
20
133.7315221
11
16.7415496
21
134.1812995
0
LINE
8
DEFAULT_255_1_234
10
16.4628483
20
134.4495595
11
16.3142611
21
134.4495595
0
LINE
8
DEFAULT_255_1_234
10
16.8290956
20
134.0857218
11
16.5158578
21
133.7459792
0
LINE
8
DEFAULT_255_1_234
10
16.5158578
20
133.7459792
11
17.1029778
21
133.7459792
0
ARC
8
DEFAULT_255_1_234
10
15.3925329
20
135.3742527
40
1.8008286
50
318.5132453
51
320.7828378
0
ARC
8
DEFAULT_255_1_234
10
15.9212304
20
134.9439426
40
1.1191493
50
320.7372736
51
323.9737074
0
ARC
8
DEFAULT_255_1_234
10
16.313216
20
134.6599361
40
0.6350923
50
323.8961724
51
328.6421089
0
ARC
8
DEFAULT_255_1_234
10
16.5178756
20
134.5337031
40
0.3946393
50
328.8299013
51
331.789948
0
ARC
8
DEFAULT_255_1_234
10
16.6175934
20
134.4822509
40
0.2824501
50
331.4255242
51
352.9364833
0
ARC
8
DEFAULT_255_1_234
10
16.6312435
20
134.4791976
40
0.2685315
50
353.2248685
51
0.0169286
0
ARC
8
DEFAULT_255_1_234
10
16.6522311
20
134.481495
40
0.2475536
50
359.4866256
51
15.9339782
0
ARC
8
DEFAULT_255_1_234
10
16.7029297
20
134.4951286
40
0.1950618
50
16.1714718
51
43.5284424
0
ARC
8
DEFAULT_255_1_234
10
16.7106605
20
134.5028573
40
0.184134
50
43.4415429
51
83.1661404
0
ARC
8
DEFAULT_255_1_234
10
16.6972524
20
134.4291771
40
0.258926
50
82.160215
51
90.1505798
0
ARC
8
DEFAULT_255_1_234
10
16.6940951
20
134.3754865
40
0.3126255
50
89.5460705
51
102.5418777
0
ARC
8
DEFAULT_255_1_234
10
16.6698037
20
134.4785665
40
0.2067346
50
102.1739365
51
129.2061916
0
ARC
8
DEFAULT_255_1_234
10
16.6619109
20
134.4910094
40
0.1921118
50
129.7279328
51
135.7542026
0
ARC
8
DEFAULT_255_1_234
10
16.6740636
20
134.4813045
40
0.2075944
50
136.175737
51
166.3674722
0
ARC
8
DEFAULT_255_1_234
10
16.7747556
20
134.4543182
40
0.3118201
50
165.9092917
51
178.8683903
0
ARC
8
DEFAULT_255_1_234
10
16.8612417
20
134.4496179
40
0.3983935
50
178.438168
51
180.0083905
0
ARC
8
DEFAULT_255_1_234
10
16.7211019
20
134.4535231
40
0.4068601
50
163.2878735
51
180.5581814
0
ARC
8
DEFAULT_255_1_234
10
16.640928
20
134.475584
40
0.3237344
50
133.454115
51
162.9470031
0
ARC
8
DEFAULT_255_1_234
10
16.6587822
20
134.4566
40
0.349795
50
100.7869394
51
133.4384016
0
ARC
8
DEFAULT_255_1_234
10
16.6935593
20
134.3017319
40
0.5084616
50
89.6605301
51
101.3704185
0
ARC
8
DEFAULT_255_1_234
10
16.7001932
20
134.3078496
40
0.502348
50
78.2171172
51
90.4130393
0
ARC
8
DEFAULT_255_1_234
10
16.735701
20
134.4702637
40
0.3361092
50
55.9268222
51
78.4888551
0
ARC
8
DEFAULT_255_1_234
10
16.7553451
20
134.5041324
40
0.2970617
50
47.9292255
51
55.4054003
0
ARC
8
DEFAULT_255_1_234
10
16.7655011
20
134.5144502
40
0.2825983
50
4.3347696
51
48.0560701
0
ARC
8
DEFAULT_255_1_234
10
16.6559405
20
134.4974601
40
0.393225
50
359.925209
51
5.5967654
0
ARC
8
DEFAULT_255_1_234
10
16.6988297
20
134.5030816
40
0.3503892
50
337.8914096
51
358.9967724
0
ARC
8
DEFAULT_255_1_234
10
16.4274709
20
134.6077706
40
0.6412172
50
326.9135351
51
338.3505194
0
ARC
8
DEFAULT_255_1_234
10
16.0289012
20
134.8632284
40
1.1146189
50
319.6472867
51
327.095818
0
ARC
8
DEFAULT_255_1_234
10
15.6456016
20
135.1794
40
1.6114559
50
317.2586784
51
319.9046139
0
LINE
8
DEFAULT_255_1_234
10
17.9936976
20
134.3162327
11
17.9936976
21
134.1234709
0
LINE
8
DEFAULT_255_1_234
10
17.2555809
20
134.1033916
11
17.2555809
21
134.3017755
0
LINE
8
DEFAULT_255_1_234
10
17.8451104
20
134.0833123
11
17.8451104
21
134.3266739
0
LINE
8
DEFAULT_255_1_234
10
17.404168
20
134.3379184
11
17.404168
21
134.1001789
0
ARC
8
DEFAULT_255_1_234
10
16.7689866
20
134.1185805
40
1.2247208
50
353.8441951
51
0.2287902
0
ARC
8
DEFAULT_255_1_234
10
17.2329369
20
134.0667806
40
0.7578929
50
344.4934747
51
353.9765454
0
ARC
8
DEFAULT_255_1_234
10
17.5321959
20
133.9816981
40
0.4467846
50
329.2803592
51
344.7472793
0
ARC
8
DEFAULT_255_1_234
10
17.6314784
20
133.9272018
40
0.3336173
50
324.9352394
51
328.6160465
0
ARC
8
DEFAULT_255_1_234
10
17.6691893
20
133.9008427
40
0.2876076
50
280.580143
51
324.9173126
0
ARC
8
DEFAULT_255_1_234
10
17.6290686
20
134.0679099
40
0.4592847
50
269.5977311
51
281.6734359
0
ARC
8
DEFAULT_255_1_234
10
17.6218591
20
134.0559173
40
0.4472986
50
256.6228859
51
270.51044
0
ARC
8
DEFAULT_255_1_234
10
17.5816569
20
133.9010877
40
0.2873874
50
215.8618325
51
257.2788573
0
ARC
8
DEFAULT_255_1_234
10
17.6837601
20
133.9695977
40
0.4102928
50
197.9693508
51
215.2623606
0
ARC
8
DEFAULT_255_1_234
10
17.9322716
20
134.0534709
40
0.6725652
50
187.8816417
51
198.2346507
0
ARC
8
DEFAULT_255_1_234
10
18.3280925
20
134.1106079
40
1.0724845
50
180.8976217
51
188.0055519
0
ARC
8
DEFAULT_255_1_234
10
18.6081113
20
134.1209777
40
1.3526448
50
180.7449369
51
181.1510016
0
ARC
8
DEFAULT_255_1_234
10
18.4503842
20
134.3066042
40
1.1948131
50
173.7675579
51
180.231553
0
ARC
8
DEFAULT_255_1_234
10
17.9985988
20
134.3576666
40
0.7401564
50
164.3058563
51
173.9002247
0
ARC
8
DEFAULT_255_1_234
10
17.7074057
20
134.4415656
40
0.4371288
50
148.7922025
51
164.568378
0
ARC
8
DEFAULT_255_1_234
10
17.6122509
20
134.4946929
40
0.3282386
50
144.5883898
51
148.1176286
0
ARC
8
DEFAULT_255_1_234
10
17.5779407
20
134.5186315
40
0.2864044
50
101.6440918
51
144.514236
0
ARC
8
DEFAULT_255_1_234
10
17.6204474
20
134.3497069
40
0.4604934
50
89.5284041
51
102.5819763
0
ARC
8
DEFAULT_255_1_234
10
17.6283562
20
134.3458018
40
0.464401
50
77.0437873
51
90.5081339
0
ARC
8
DEFAULT_255_1_234
10
17.6685564
20
134.5100615
40
0.2953195
50
48.2778575
51
77.4994676
0
ARC
8
DEFAULT_255_1_234
10
17.6758195
20
134.5229746
40
0.2808655
50
36.3142134
51
47.6305865
0
ARC
8
DEFAULT_255_1_234
10
17.5889502
20
134.4644515
40
0.3855453
50
18.2931786
51
35.6769206
0
ARC
8
DEFAULT_255_1_234
10
17.3346261
20
134.3771593
40
0.654423
50
8.024666
51
18.5605216
0
ARC
8
DEFAULT_255_1_234
10
16.9183181
20
134.3156792
40
1.0752407
50
1.1274072
51
8.1718305
0
ARC
8
DEFAULT_255_1_234
10
16.5947371
20
134.3029885
40
1.3990231
50
0.5424119
51
1.3863029
0
ARC
8
DEFAULT_255_1_234
10
16.7768749
20
134.3302342
40
1.0682415
50
359.8090433
51
4.9407866
0
ARC
8
DEFAULT_255_1_234
10
17.1978763
20
134.3678113
40
0.6455691
50
4.8362157
51
12.2904523
0
ARC
8
DEFAULT_255_1_234
10
17.4733878
20
134.4291965
40
0.3633074
50
12.0805627
51
23.8173984
0
ARC
8
DEFAULT_255_1_234
10
17.5907583
20
134.4788919
40
0.2358723
50
24.2871213
51
31.3935614
0
ARC
8
DEFAULT_255_1_234
10
17.643228
20
134.5132233
40
0.1732111
50
30.7407893
51
82.4657128
0
ARC
8
DEFAULT_255_1_234
10
17.6252415
20
134.4248691
40
0.263235
50
81.1060089
51
90.2184952
0
ARC
8
DEFAULT_255_1_234
10
17.6216714
20
134.4506924
40
0.2374236
50
89.3806855
51
105.6762551
0
ARC
8
DEFAULT_255_1_234
10
17.6033344
20
134.5173567
40
0.1682847
50
105.7981136
51
149.7388061
0
ARC
8
DEFAULT_255_1_234
10
17.7097423
20
134.453395
40
0.2924306
50
149.4208916
51
163.6286378
0
ARC
8
DEFAULT_255_1_234
10
17.9188311
20
134.389625
40
0.5110213
50
163.3763315
51
172.1410975
0
ARC
8
DEFAULT_255_1_234
10
18.248903
20
134.3423518
40
0.8444586
50
172.0259487
51
178.0703232
0
ARC
8
DEFAULT_255_1_234
10
18.5519119
20
134.3279906
40
1.1477868
50
177.8631668
51
179.5044149
0
ARC
8
DEFAULT_255_1_234
10
18.4446524
20
134.0965389
40
1.0404907
50
179.7995573
51
185.2460446
0
ARC
8
DEFAULT_255_1_234
10
18.0403563
20
134.0582513
40
0.6343885
50
185.1411642
51
193.0079639
0
ARC
8
DEFAULT_255_1_234
10
17.7760035
20
133.9957641
40
0.3627568
50
192.7897626
51
205.2507664
0
ARC
8
DEFAULT_255_1_234
10
17.6713582
20
133.9490415
40
0.2481908
50
205.8005384
51
211.2537509
0
ARC
8
DEFAULT_255_1_234
10
17.6190023
20
133.913958
40
0.1852521
50
210.3789793
51
238.4008143
0
ARC
8
DEFAULT_255_1_234
10
17.6170545
20
133.9186376
40
0.1882621
50
239.6520629
51
265.9793761
0
ARC
8
DEFAULT_255_1_234
10
17.6255745
20
133.9858427
40
0.2559272
50
265.1315437
51
270.060332
0
ARC
8
DEFAULT_255_1_234
10
17.6284524
20
133.9534534
40
0.2235528
50
269.3314664
51
287.2178029
0
ARC
8
DEFAULT_255_1_234
10
17.6422376
20
133.9031279
40
0.1714108
50
287.7958004
51
329.080874
0
ARC
8
DEFAULT_255_1_234
10
17.5464832
20
133.962893
40
0.2842745
50
328.6634704
51
343.3325132
0
ARC
8
DEFAULT_255_1_234
10
17.3291853
20
134.0305863
40
0.5118644
50
343.0499468
51
351.9393422
0
ARC
8
DEFAULT_255_1_234
10
16.9825153
20
134.0816949
40
0.8622784
50
351.8069023
51
357.7959224
0
ARC
8
DEFAULT_255_1_234
10
16.6589709
20
134.0984721
40
1.1862365
50
357.5871873
51
359.2677531
0
LINE
8
DEFAULT_255_1_234
10
18.9173475
20
134.3162327
11
18.9173475
21
134.1234709
0
LINE
8
DEFAULT_255_1_234
10
18.1792308
20
134.1033916
11
18.1792308
21
134.3017755
0
LINE
8
DEFAULT_255_1_234
10
18.7687604
20
134.0833123
11
18.7687604
21
134.3266739
0
LINE
8
DEFAULT_255_1_234
10
18.3278179
20
134.3379184
11
18.3278179
21
134.1001789
0
ARC
8
DEFAULT_255_1_234
10
17.6926365
20
134.1185805
40
1.2247208
50
353.8441951
51
0.2287902
0
ARC
8
DEFAULT_255_1_234
10
18.1565868
20
134.0667806
40
0.7578929
50
344.4934747
51
353.9765454
0
ARC
8
DEFAULT_255_1_234
10
18.4558459
20
133.9816981
40
0.4467846
50
329.2803592
51
344.7472793
0
ARC
8
DEFAULT_255_1_234
10
18.5551283
20
133.9272018
40
0.3336173
50
324.9352394
51
328.6160465
0
ARC
8
DEFAULT_255_1_234
10
18.5928392
20
133.9008427
40
0.2876076
50
280.580143
51
324.9173126
0
ARC
8
DEFAULT_255_1_234
10
18.5527185
20
134.0679099
40
0.4592847
50
269.5977311
51
281.6734359
0
ARC
8
DEFAULT_255_1_234
10
18.545509
20
134.0559173
40
0.4472986
50
256.6228859
51
270.51044
0
ARC
8
DEFAULT_255_1_234
10
18.5053068
20
133.9010877
40
0.2873874
50
215.8618325
51
257.2788573
0
ARC
8
DEFAULT_255_1_234
10
18.60741
20
133.9695977
40
0.4102928
50
197.9693508
51
215.2623606
0
ARC
8
DEFAULT_255_1_234
10
18.8559215
20
134.0534709
40
0.6725652
50
187.8816417
51
198.2346507
0
ARC
8
DEFAULT_255_1_234
10
19.2517424
20
134.1106079
40
1.0724845
50
180.8976217
51
188.0055519
0
ARC
8
DEFAULT_255_1_234
10
19.5317612
20
134.1209777
40
1.3526448
50
180.7449369
51
181.1510016
0
ARC
8
DEFAULT_255_1_234
10
19.3740341
20
134.3066042
40
1.1948131
50
173.7675579
51
180.231553
0
ARC
8
DEFAULT_255_1_234
10
18.9222487
20
134.3576666
40
0.7401564
50
164.3058563
51
173.9002247
0
ARC
8
DEFAULT_255_1_234
10
18.6310556
20
134.4415656
40
0.4371288
50
148.7922025
51
164.568378
0
ARC
8
DEFAULT_255_1_234
10
18.5359008
20
134.4946929
40
0.3282386
50
144.5883898
51
148.1176286
0
ARC
8
DEFAULT_255_1_234
10
18.5015906
20
134.5186315
40
0.2864044
50
101.6440918
51
144.514236
0
ARC
8
DEFAULT_255_1_234
10
18.5440973
20
134.3497069
40
0.4604934
50
89.5284041
51
102.5819763
0
ARC
8
DEFAULT_255_1_234
10
18.5520061
20
134.3458018
40
0.464401
50
77.0437873
51
90.5081339
0
ARC
8
DEFAULT_255_1_234
10
18.5922063
20
134.5100615
40
0.2953195
50
48.2778575
51
77.4994676
0
ARC
8
DEFAULT_255_1_234
10
18.5994694
20
134.5229746
40
0.2808655
50
36.3142134
51
47.6305865
0
ARC
8
DEFAULT_255_1_234
10
18.5126001
20
134.4644515
40
0.3855453
50
18.2931786
51
35.6769206
0
ARC
8
DEFAULT_255_1_234
10
18.258276
20
134.3771593
40
0.654423
50
8.024666
51
18.5605216
0
ARC
8
DEFAULT_255_1_234
10
17.841968
20
134.3156792
40
1.0752407
50
1.1274072
51
8.1718305
0
ARC
8
DEFAULT_255_1_234
10
17.518387
20
134.3029885
40
1.3990231
50
0.5424119
51
1.3863029
0
ARC
8
DEFAULT_255_1_234
10
17.7005248
20
134.3302342
40
1.0682415
50
359.8090433
51
4.9407866
0
ARC
8
DEFAULT_255_1_234
10
18.1215262
20
134.3678113
40
0.6455691
50
4.8362157
51
12.2904523
0
ARC
8
DEFAULT_255_1_234
10
18.3970377
20
134.4291965
40
0.3633074
50
12.0805627
51
23.8173984
0
ARC
8
DEFAULT_255_1_234
10
18.5144082
20
134.4788919
40
0.2358723
50
24.2871213
51
31.3935614
0
ARC
8
DEFAULT_255_1_234
10
18.5668779
20
134.5132233
40
0.1732111
50
30.7407893
51
82.4657128
0
ARC
8
DEFAULT_255_1_234
10
18.5488914
20
134.4248691
40
0.263235
50
81.1060089
51
90.2184952
0
ARC
8
DEFAULT_255_1_234
10
18.5453213
20
134.4506924
40
0.2374236
50
89.3806855
51
105.6762551
0
ARC
8
DEFAULT_255_1_234
10
18.5269843
20
134.5173567
40
0.1682847
50
105.7981136
51
149.7388061
0
ARC
8
DEFAULT_255_1_234
10
18.6333922
20
134.453395
40
0.2924306
50
149.4208916
51
163.6286378
0
ARC
8
DEFAULT_255_1_234
10
18.842481
20
134.389625
40
0.5110213
50
163.3763315
51
172.1410975
0
ARC
8
DEFAULT_255_1_234
10
19.1725529
20
134.3423518
40
0.8444586
50
172.0259487
51
178.0703232
0
ARC
8
DEFAULT_255_1_234
10
19.4755618
20
134.3279906
40
1.1477868
50
177.8631668
51
179.5044149
0
ARC
8
DEFAULT_255_1_234
10
19.3683023
20
134.0965389
40
1.0404907
50
179.7995573
51
185.2460446
0
ARC
8
DEFAULT_255_1_234
10
18.9640062
20
134.0582513
40
0.6343885
50
185.1411642
51
193.0079639
0
ARC
8
DEFAULT_255_1_234
10
18.6996534
20
133.9957641
40
0.3627568
50
192.7897626
51
205.2507664
0
ARC
8
DEFAULT_255_1_234
10
18.5950081
20
133.9490415
40
0.2481908
50
205.8005384
51
211.2537509
0
ARC
8
DEFAULT_255_1_234
10
18.5426522
20
133.913958
40
0.1852521
50
210.3789793
51
238.4008143
0
ARC
8
DEFAULT_255_1_234
10
18.5407044
20
133.9186376
40
0.1882621
50
239.6520629
51
265.9793761
0
ARC
8
DEFAULT_255_1_234
10
18.5492244
20
133.9858427
40
0.2559272
50
265.1315437
51
270.060332
0
ARC
8
DEFAULT_255_1_234
10
18.5521023
20
133.9534534
40
0.2235528
50
269.3314664
51
287.2178029
0
ARC
8
DEFAULT_255_1_234
10
18.5658875
20
133.9031279
40
0.1714108
50
287.7958004
51
329.080874
0
ARC
8
DEFAULT_255_1_234
10
18.4701332
20
133.962893
40
0.2842745
50
328.6634704
51
343.3325132
0
ARC
8
DEFAULT_255_1_234
10
18.2528352
20
134.0305863
40
0.5118644
50
343.0499468
51
351.9393422
0
ARC
8
DEFAULT_255_1_234
10
17.9061652
20
134.0816949
40
0.8622784
50
351.8069023
51
357.7959224
0
ARC
8
DEFAULT_255_1_234
10
17.5826208
20
134.0984721
40
1.1862365
50
357.5871873
51
359.2677531
0
LINE
8
DEFAULT_255_1_234
10
19.922118
20
134.4559849
11
19.7671054
21
134.4559849
0
LINE
8
DEFAULT_255_1_234
10
19.0747696
20
133.9636394
11
19.2297821
21
133.9636394
0
ARC
8
DEFAULT_255_1_234
10
19.8329867
20
135.3506768
40
1.252368
50
248.9199003
51
254.1439814
0
ARC
8
DEFAULT_255_1_234
10
19.6649362
20
134.9180234
40
0.788226
50
241.633709
51
249.0064503
0
ARC
8
DEFAULT_255_1_234
10
19.5120756
20
134.6379317
40
0.4691427
50
230.498225
51
241.8087113
0
ARC
8
DEFAULT_255_1_234
10
19.4336331
20
134.5379906
40
0.3421437
50
227.4064532
51
229.9881192
0
ARC
8
DEFAULT_255_1_234
10
19.3848851
20
134.4904088
40
0.2741476
50
200.6781896
51
228.1763934
0
ARC
8
DEFAULT_255_1_234
10
19.3921162
20
134.4889077
40
0.2804109
50
179.5061581
51
199.8694617
0
ARC
8
DEFAULT_255_1_234
10
19.3911913
20
134.496321
40
0.2795204
50
132.4834203
51
181.0242172
0
ARC
8
DEFAULT_255_1_234
10
19.4507496
20
134.4400704
40
0.3612768
50
129.2532479
51
133.4242687
0
ARC
8
DEFAULT_255_1_234
10
19.4653945
20
134.4180965
40
0.3875675
50
101.98776
51
128.8742646
0
ARC
8
DEFAULT_255_1_234
10
19.5052556
20
134.2459741
40
0.5642249
50
89.5906553
51
102.3169264
0
ARC
8
DEFAULT_255_1_234
10
19.5123048
20
134.2778148
40
0.5323783
50
77.2360837
51
90.3248275
0
ARC
8
DEFAULT_255_1_234
10
19.5330127
20
134.37454
40
0.4334697
50
63.837784
51
77.0809408
0
ARC
8
DEFAULT_255_1_234
10
19.5607889
20
134.4262911
40
0.3747796
50
45.9864267
51
64.1607727
0
ARC
8
DEFAULT_255_1_234
10
19.586877
20
134.4560866
40
0.3352302
50
32.2747395
51
45.6547121
0
ARC
8
DEFAULT_255_1_234
10
19.5935211
20
134.457988
40
0.328603
50
359.6507365
51
32.6130309
0
ARC
8
DEFAULT_255_1_234
10
19.4992306
20
134.458466
40
0.2678863
50
359.469343
51
14.9832209
0
ARC
8
DEFAULT_255_1_234
10
19.5697369
20
134.4773539
40
0.1948938
50
14.9781179
51
48.2004265
0
ARC
8
DEFAULT_255_1_234
10
19.5533013
20
134.4566983
40
0.2212521
50
48.5927837
51
74.1241538
0
ARC
8
DEFAULT_255_1_234
10
19.5199502
20
134.3466248
40
0.3362561
50
73.7888341
51
86.6652678
0
ARC
8
DEFAULT_255_1_234
10
19.5097068
20
134.2258881
40
0.4573953
50
86.2640471
51
90.0526343
0
ARC
8
DEFAULT_255_1_234
10
19.5068781
20
134.2654192
40
0.4178709
50
89.6697524
51
99.2309573
0
ARC
8
DEFAULT_255_1_234
10
19.4826232
20
134.4098964
40
0.2713749
50
99.069534
51
113.7658566
0
ARC
8
DEFAULT_255_1_234
10
19.4552423
20
134.4744677
40
0.2012469
50
114.0401004
51
127.9850673
0
ARC
8
DEFAULT_255_1_234
10
19.4311987
20
134.504073
40
0.1631167
50
127.7287463
51
176.7105154
0
ARC
8
DEFAULT_255_1_234
10
19.4990704
20
134.4939693
40
0.2315392
50
175.1779447
51
180.0581938
0
ARC
8
DEFAULT_255_1_234
10
19.4147551
20
134.4927428
40
0.1472271
50
179.6142195
51
228.1246017
0
ARC
8
DEFAULT_255_1_234
10
19.458922
20
134.5336308
40
0.2072299
50
226.5779593
51
230.8800004
0
ARC
8
DEFAULT_255_1_234
10
19.5060298
20
134.5961636
40
0.2854818
50
231.4635071
51
241.9260842
0
ARC
8
DEFAULT_255_1_234
10
19.6257476
20
134.81648
40
0.53622
50
241.7178533
51
248.3259551
0
ARC
8
DEFAULT_255_1_234
10
19.7642848
20
135.1597064
40
0.9063478
50
248.2007737
51
252.4528373
0
ARC
8
DEFAULT_255_1_234
10
19.8846573
20
135.5318441
40
1.2974635
50
252.3391078
51
254.3469452
0
ARC
8
DEFAULT_255_1_234
10
19.1304275
20
132.8341148
40
1.5037162
50
71.0197183
51
74.4087047
0
ARC
8
DEFAULT_255_1_234
10
19.2998961
20
133.3233111
40
0.9859993
50
66.1847285
51
71.086374
0
ARC
8
DEFAULT_255_1_234
10
19.4555273
20
133.67372
40
0.6025855
50
59.3536294
51
66.2691831
0
ARC
8
DEFAULT_255_1_234
10
19.5443925
20
133.8240609
40
0.4279449
50
49.1020879
51
59.3293958
0
ARC
8
DEFAULT_255_1_234
10
19.6262665
20
133.9173834
40
0.3038015
50
32.7919921
51
49.2505539
0
ARC
8
DEFAULT_255_1_234
10
19.6583755
20
133.9402191
40
0.264448
50
31.1181161
51
32.4005348
0
ARC
8
DEFAULT_255_1_234
10
19.6495293
20
133.9366779
40
0.2738556
50
8.1116974
51
30.7958831
0
ARC
8
DEFAULT_255_1_234
10
19.5684961
20
133.9228753
40
0.3560327
50
359.8389159
51
8.4706516
0
ARC
8
DEFAULT_255_1_234
10
19.6310753
20
133.9180137
40
0.2934776
50
337.4731098
51
0.7537279
0
ARC
8
DEFAULT_255_1_234
10
19.6489447
20
133.9160387
40
0.2762607
50
307.5917067
51
336.4315538
0
ARC
8
DEFAULT_255_1_234
10
19.6029275
20
133.9673102
40
0.3449979
50
307.6551545
51
308.4529766
0
ARC
8
DEFAULT_255_1_234
10
19.5798994
20
134.002825
40
0.3871988
50
284.3734338
51
307.1424381
0
ARC
8
DEFAULT_255_1_234
10
19.5303824
20
134.1849932
40
0.5759636
50
272.4382747
51
284.646547
0
ARC
8
DEFAULT_255_1_234
10
19.5177033
20
134.3649893
40
0.7563528
50
269.9708387
51
272.8178037
0
ARC
8
DEFAULT_255_1_234
10
19.5134073
20
134.1611716
40
0.5525489
50
248.2707594
51
270.4055579
0
ARC
8
DEFAULT_255_1_234
10
19.5079814
20
134.1421192
40
0.5328452
50
246.1383403
51
248.0542782
0
ARC
8
DEFAULT_255_1_234
10
19.4661193
20
134.0541843
40
0.4355005
50
233.1670131
51
246.4950969
0
ARC
8
DEFAULT_255_1_234
10
19.4107098
20
133.9793812
40
0.3424126
50
215.3403242
51
233.0843104
0
ARC
8
DEFAULT_255_1_234
10
19.3834529
20
133.9595549
40
0.3087104
50
179.2419209
51
215.2648451
0
ARC
8
DEFAULT_255_1_234
10
19.4602123
20
133.9609666
40
0.2304457
50
179.335461
51
199.1045811
0
ARC
8
DEFAULT_255_1_234
10
19.42698
20
133.9522766
40
0.1962176
50
199.8828939
51
232.7063202
0
ARC
8
DEFAULT_255_1_234
10
19.4742068
20
134.0116788
40
0.2720938
50
232.3738199
51
255.5136649
0
ARC
8
DEFAULT_255_1_234
10
19.5082935
20
134.1360835
40
0.4010747
50
255.2446292
51
267.5320849
0
ARC
8
DEFAULT_255_1_234
10
19.5170558
20
134.2593702
40
0.5246356
50
267.1557994
51
270.0286766
0
ARC
8
DEFAULT_255_1_234
10
19.519833
20
134.214995
40
0.4802668
50
269.7000017
51
278.1660162
0
ARC
8
DEFAULT_255_1_234
10
19.5454335
20
134.0419515
40
0.3053425
50
278.0231263
51
290.625471
0
ARC
8
DEFAULT_255_1_234
10
19.5802022
20
133.9492025
40
0.206291
50
290.6619762
51
307.0370976
0
ARC
8
DEFAULT_255_1_234
10
19.6102411
20
133.9123504
40
0.1587906
50
306.3943566
51
355.3030547
0
ARC
8
DEFAULT_255_1_234
10
19.5590343
20
133.9200113
40
0.2104809
50
354.3660432
51
0.0698737
0
ARC
8
DEFAULT_255_1_234
10
19.5732688
20
133.9222617
40
0.1962563
50
359.417946
51
16.1971788
0
ARC
8
DEFAULT_255_1_234
10
19.6187998
20
133.9347418
40
0.149053
50
16.4723299
51
52.6262157
0
ARC
8
DEFAULT_255_1_234
10
19.5367052
20
133.8263433
40
0.2850296
50
52.7386432
51
62.4979148
0
ARC
8
DEFAULT_255_1_234
10
19.3982129
20
133.5657283
40
0.5801521
50
62.2515216
51
68.1220564
0
ARC
8
DEFAULT_255_1_234
10
19.226204
20
133.1429872
40
1.0365451
50
68.0062803
51
71.8053402
0
ARC
8
DEFAULT_255_1_234
10
19.0466412
20
132.6044758
40
1.6042013
50
71.7183119
51
73.9258742
0
LINE
8
DEFAULT_255_1_234
10
20.5518062
20
134.0825091
11
20.2763176
21
134.0825091
0
LINE
8
DEFAULT_255_1_234
10
20.2763176
20
134.0825091
11
20.2763176
21
133.6247
0
LINE
8
DEFAULT_255_1_234
10
20.2763176
20
133.6247
11
20.1221083
21
133.6247
0
LINE
8
DEFAULT_255_1_234
10
20.1221083
20
133.6247
11
20.1221083
21
134.7941211
0
LINE
8
DEFAULT_255_1_234
10
20.1221083
20
134.7941211
11
20.5534126
21
134.7941211
0
LINE
8
DEFAULT_255_1_234
10
20.2763176
20
134.6672196
11
20.2763176
21
134.2086074
0
LINE
8
DEFAULT_255_1_234
10
20.2763176
20
134.2086074
11
20.5534126
21
134.2086074
0
LINE
8
DEFAULT_255_1_234
10
20.5622475
20
134.6672196
11
20.2763176
21
134.6672196
0
ARC
8
DEFAULT_255_1_234
10
20.5576253
20
134.1882195
40
0.6059162
50
78.8378113
51
90.3983573
0
ARC
8
DEFAULT_255_1_234
10
20.5992266
20
134.3902879
40
0.3996205
50
58.9632738
51
79.0810598
0
ARC
8
DEFAULT_255_1_234
10
20.6293809
20
134.4462721
40
0.3361177
50
48.0197965
51
58.447194
0
ARC
8
DEFAULT_255_1_234
10
20.638267
20
134.4548225
40
0.3238191
50
3.3375044
51
48.1766626
0
ARC
8
DEFAULT_255_1_234
10
20.5152509
20
134.4371171
40
0.4477806
50
359.9477528
51
4.6829065
0
ARC
8
DEFAULT_255_1_234
10
20.5275826
20
134.4328628
40
0.4354656
50
346.1877825
51
0.5060252
0
ARC
8
DEFAULT_255_1_234
10
20.6634694
20
134.3975731
40
0.295089
50
310.8831995
51
346.5426355
0
ARC
8
DEFAULT_255_1_234
10
20.6326114
20
134.4392695
40
0.3468331
50
286.6925341
51
310.2288297
0
ARC
8
DEFAULT_255_1_234
10
20.5756944
20
134.6182882
40
0.5346654
50
274.6850312
51
287.0245141
0
ARC
8
DEFAULT_255_1_234
10
20.5531667
20
134.8391932
40
0.7566852
50
269.8969846
51
275.018904
0
ARC
8
DEFAULT_255_1_234
10
20.5559259
20
134.6312707
40
0.4226708
50
269.6593078
51
279.4153575
0
ARC
8
DEFAULT_255_1_234
10
20.5816534
20
134.4822133
40
0.2714146
50
279.2049762
51
294.9900808
0
ARC
8
DEFAULT_255_1_234
10
20.610686
20
134.4174508
40
0.2004525
50
295.2888114
51
311.2911209
0
ARC
8
DEFAULT_255_1_234
10
20.6177754
20
134.406922
40
0.1878703
50
311.7854996
51
347.2861051
0
ARC
8
DEFAULT_255_1_234
10
20.5193912
20
134.4322092
40
0.2894234
50
346.6893224
51
0.1059443
0
ARC
8
DEFAULT_255_1_234
10
20.4438808
20
134.4350685
40
0.3649409
50
359.6350983
51
0.0053152
0
ARC
8
DEFAULT_255_1_234
10
20.5409136
20
134.4375937
40
0.2679199
50
359.4672059
51
15.5933957
0
ARC
8
DEFAULT_255_1_234
10
20.6034025
20
134.4544779
40
0.2031932
50
15.7442113
51
46.6203375
0
ARC
8
DEFAULT_255_1_234
10
20.5886245
20
134.4374484
40
0.2257226
50
46.8628658
51
75.6676503
0
ARC
8
DEFAULT_255_1_234
10
20.5592066
20
134.3315718
40
0.3355939
50
75.276167
51
88.2915297
0
ARC
8
DEFAULT_255_1_234
10
20.5533772
20
134.2437524
40
0.4235602
50
87.8575022
51
88.8000139
0
LINE
8
DEFAULT_255_2_778
10
9.3926834
20
67.3364333
11
12.0384834
21
67.3364333
0
LINE
8
DEFAULT_255_2_778
10
12.0384834
20
67.3364333
11
12.0384834
21
62.0447333
0
LINE
8
DEFAULT_255_2_778
10
12.0384834
20
62.0447333
11
9.3926834
21
62.0447333
0
LINE
8
DEFAULT_255_2_778
10
9.3926834
20
62.0447333
11
9.3926834
21
67.3364333
0
LINE
8
DEFAULT_255_2_778
10
10.7156
20
62.5739666
11
10.7156
21
66.8072666
0
LINE
8
DEFAULT_255_2_778
10
10.4510167
20
66.013575
11
10.7156167
21
66.807275
0
LINE
8
DEFAULT_255_2_778
10
10.7156167
20
66.807275
11
10.9802167
21
66.013575
0
LINE
8
DEFAULT_255_2_778
10
10.9802167
20
66.013575
11
10.4510167
21
66.013575
0
LINE
8
DEFAULT_255_2_778
10
9.3927417
20
124.2218483
11
10.7156417
21
124.2218483
0
LINE
8
DEFAULT_255_2_778
10
10.7156417
20
124.2218483
11
10.7156417
21
67.3364483
0
LINE
8
DEFAULT_255_2_778
10
10.7156417
20
62.0447483
11
10.7156417
21
5.1593483
0
LINE
8
DEFAULT_255_2_778
10
10.7156417
20
5.1593483
11
9.3927417
21
5.1593483
0
LINE
8
DEFAULT_255_1_234
10
4.2454489
20
132.8098211
11
4.2454489
21
131.7664983
0
LINE
8
DEFAULT_255_1_234
10
4.2454489
20
131.7664983
11
4.7996389
21
131.7664983
0
LINE
8
DEFAULT_255_1_234
10
4.7996389
20
131.7664983
11
4.7996389
21
131.6404
0
LINE
8
DEFAULT_255_1_234
10
4.7996389
20
131.6404
11
4.0904364
21
131.6404
0
LINE
8
DEFAULT_255_1_234
10
4.0904364
20
131.6404
11
4.0904364
21
132.8098211
0
LINE
8
DEFAULT_255_1_234
10
4.0904364
20
132.8098211
11
4.2454489
21
132.8098211
0
LINE
8
DEFAULT_255_1_234
10
5.377924
20
132.6090276
11
5.377924
21
132.2676788
0
LINE
8
DEFAULT_255_1_234
10
5.377924
20
132.2676788
11
5.7040126
21
132.2676788
0
LINE
8
DEFAULT_255_1_234
10
5.7040126
20
132.2676788
11
5.7040126
21
132.1271233
0
LINE
8
DEFAULT_255_1_234
10
5.7040126
20
132.1271233
11
5.377924
21
132.1271233
0
LINE
8
DEFAULT_255_1_234
10
5.377924
20
132.1271233
11
5.377924
21
131.7576634
0
LINE
8
DEFAULT_255_1_234
10
5.377924
20
131.7576634
11
5.2285337
21
131.7576634
0
LINE
8
DEFAULT_255_1_234
10
5.2285337
20
131.7576634
11
5.2285337
21
132.1271233
0
LINE
8
DEFAULT_255_1_234
10
5.2285337
20
132.1271233
11
4.9024451
21
132.1271233
0
LINE
8
DEFAULT_255_1_234
10
4.9024451
20
132.1271233
11
4.9024451
21
132.2676788
0
LINE
8
DEFAULT_255_1_234
10
4.9024451
20
132.2676788
11
5.2285337
21
132.2676788
0
LINE
8
DEFAULT_255_1_234
10
5.2285337
20
132.2676788
11
5.2285337
21
132.6090276
0
LINE
8
DEFAULT_255_1_234
10
5.2285337
20
132.6090276
11
5.377924
21
132.6090276
0
LINE
8
DEFAULT_255_1_234
10
4.3073489
20
5.8098211
11
4.3073489
21
4.7664983
0
LINE
8
DEFAULT_255_1_234
10
4.3073489
20
4.7664983
11
4.8615389
21
4.7664983
0
LINE
8
DEFAULT_255_1_234
10
4.8615389
20
4.7664983
11
4.8615389
21
4.6404
0
LINE
8
DEFAULT_255_1_234
10
4.8615389
20
4.6404
11
4.1523364
21
4.6404
0
LINE
8
DEFAULT_255_1_234
10
4.1523364
20
4.6404
11
4.1523364
21
5.8098211
0
LINE
8
DEFAULT_255_1_234
10
4.1523364
20
5.8098211
11
4.3073489
21
5.8098211
0
LINE
8
DEFAULT_255_1_234
10
5.439824
20
5.6090276
11
5.439824
21
5.2676788
0
LINE
8
DEFAULT_255_1_234
10
5.439824
20
5.2676788
11
5.7659126
21
5.2676788
0
LINE
8
DEFAULT_255_1_234
10
5.7659126
20
5.2676788
11
5.7659126
21
5.1271233
0
LINE
8
DEFAULT_255_1_234
10
5.7659126
20
5.1271233
11
5.439824
21
5.1271233
0
LINE
8
DEFAULT_255_1_234
10
5.439824
20
5.1271233
11
5.439824
21
4.7576634
0
LINE
8
DEFAULT_255_1_234
10
5.439824
20
4.7576634
11
5.2904337
21
4.7576634
0
LINE
8
DEFAULT_255_1_234
10
5.2904337
20
4.7576634
11
5.2904337
21
5.1271233
0
LINE
8
DEFAULT_255_1_234
10
5.2904337
20
5.1271233
11
4.9643451
21
5.1271233
0
LINE
8
DEFAULT_255_1_234
10
4.9643451
20
5.1271233
11
4.9643451
21
5.2676788
0
LINE
8
DEFAULT_255_1_234
10
4.9643451
20
5.2676788
11
5.2904337
21
5.2676788
0
LINE
8
DEFAULT_255_1_234
10
5.2904337
20
5.2676788
11
5.2904337
21
5.6090276
0
LINE
8
DEFAULT_255_1_234
10
5.2904337
20
5.6090276
11
5.439824
21
5.6090276
0
LINE
8
DEFAULT_255_1_234
10
6.6863498
20
5.8098211
11
6.6863498
21
5.726291
0
LINE
8
DEFAULT_255_1_234
10
6.6863498
20
5.726291
11
6.202036
21
4.6404
0
LINE
8
DEFAULT_255_1_234
10
6.202036
20
4.6404
11
6.0462203
21
4.6404
0
LINE
8
DEFAULT_255_1_234
10
6.0462203
20
4.6404
11
6.5289277
21
5.6877387
0
LINE
8
DEFAULT_255_1_234
10
6.5289277
20
5.6877387
11
5.8960268
21
5.6877387
0
LINE
8
DEFAULT_255_1_234
10
5.8960268
20
5.6877387
11
5.8960268
21
5.8098211
0
LINE
8
DEFAULT_255_1_234
10
5.8960268
20
5.8098211
11
6.6863498
21
5.8098211
0
LINE
8
DEFAULT_255_1_234
10
4.3073489
20
13.7473211
11
4.3073489
21
12.7039983
0
LINE
8
DEFAULT_255_1_234
10
4.3073489
20
12.7039983
11
4.8615389
21
12.7039983
0
LINE
8
DEFAULT_255_1_234
10
4.8615389
20
12.7039983
11
4.8615389
21
12.5779
0
LINE
8
DEFAULT_255_1_234
10
4.8615389
20
12.5779
11
4.1523364
21
12.5779
0
LINE
8
DEFAULT_255_1_234
10
4.1523364
20
12.5779
11
4.1523364
21
13.7473211
0
LINE
8
DEFAULT_255_1_234
10
4.1523364
20
13.7473211
11
4.3073489
21
13.7473211
0
LINE
8
DEFAULT_255_1_234
10
5.439824
20
13.5465276
11
5.439824
21
13.2051788
0
LINE
8
DEFAULT_255_1_234
10
5.439824
20
13.2051788
11
5.7659126
21
13.2051788
0
LINE
8
DEFAULT_255_1_234
10
5.7659126
20
13.2051788
11
5.7659126
21
13.0646233
0
LINE
8
DEFAULT_255_1_234
10
5.7659126
20
13.0646233
11
5.439824
21
13.0646233
0
LINE
8
DEFAULT_255_1_234
10
5.439824
20
13.0646233
11
5.439824
21
12.6951634
0
LINE
8
DEFAULT_255_1_234
10
5.439824
20
12.6951634
11
5.2904337
21
12.6951634
0
LINE
8
DEFAULT_255_1_234
10
5.2904337
20
12.6951634
11
5.2904337
21
13.0646233
0
LINE
8
DEFAULT_255_1_234
10
5.2904337
20
13.0646233
11
4.9643451
21
13.0646233
0
LINE
8
DEFAULT_255_1_234
10
4.9643451
20
13.0646233
11
4.9643451
21
13.2051788
0
LINE
8
DEFAULT_255_1_234
10
4.9643451
20
13.2051788
11
5.2904337
21
13.2051788
0
LINE
8
DEFAULT_255_1_234
10
5.2904337
20
13.2051788
11
5.2904337
21
13.5465276
0
LINE
8
DEFAULT_255_1_234
10
5.2904337
20
13.5465276
11
5.439824
21
13.5465276
0
LINE
8
DEFAULT_255_1_234
10
6.4879659
20
13.7481243
11
6.5144706
21
13.7481243
0
LINE
8
DEFAULT_255_1_234
10
6.5144706
20
13.7481243
11
6.5144706
21
13.622026
0
LINE
8
DEFAULT_255_1_234
10
6.5144706
20
13.622026
11
6.4871627
21
13.622026
0
LINE
8
DEFAULT_255_1_234
10
5.9402013
20
13.0228583
11
5.9402013
21
13.0798836
0
LINE
8
DEFAULT_255_1_234
10
6.0895917
20
13.0606075
11
6.0895917
21
13.0059917
0
ARC
8
DEFAULT_255_1_234
10
6.4923975
20
13.1222455
40
0.4998079
50
90.6001036
51
104.514704
0
ARC
8
DEFAULT_255_1_234
10
6.453549
20
13.2667131
40
0.3502176
50
104.2855254
51
133.862935
0
ARC
8
DEFAULT_255_1_234
10
6.4699248
20
13.255883
40
0.3693984
50
134.5302688
51
161.6210873
0
ARC
8
DEFAULT_255_1_234
10
6.6352436
20
13.1975895
40
0.5446739
50
161.2849839
51
174.2076652
0
ARC
8
DEFAULT_255_1_234
10
6.7759373
20
13.1781787
40
0.6866274
50
173.7810589
51
174.9254635
0
ARC
8
DEFAULT_255_1_234
10
6.3209205
20
13.0398839
40
0.3033419
50
95.8330959
51
138.9954921
0
ARC
8
DEFAULT_255_1_234
10
6.3432561
20
12.9120375
40
0.4328947
50
89.8753725
51
97.0544009
0
ARC
8
DEFAULT_255_1_234
10
6.3480027
20
12.9955748
40
0.3493769
50
71.6407809
51
90.6240094
0
ARC
8
DEFAULT_255_1_234
10
6.3630601
20
13.0510082
40
0.2920396
50
39.6367836
51
71.019018
0
ARC
8
DEFAULT_255_1_234
10
6.2994074
20
12.9959998
40
0.3761538
50
10.658731
51
39.9043955
0
ARC
8
DEFAULT_255_1_234
10
6.1446157
20
12.9623686
40
0.5345136
50
359.682601
51
11.132623
0
ARC
8
DEFAULT_255_1_234
10
6.1406288
20
12.955301
40
0.5385081
50
347.2486944
51
0.4369317
0
ARC
8
DEFAULT_255_1_234
10
6.3073765
20
12.9151807
40
0.3670249
50
318.1409698
51
347.6118597
0
ARC
8
DEFAULT_255_1_234
10
6.3398758
20
12.8884702
40
0.3250007
50
275.6342139
51
317.8248465
0
ARC
8
DEFAULT_255_1_234
10
6.3177869
20
13.0184219
40
0.4565864
50
269.8874292
51
276.7917694
0
ARC
8
DEFAULT_255_1_234
10
6.312294
20
12.9158743
40
0.3540676
50
246.9140195
51
270.7437342
0
ARC
8
DEFAULT_255_1_234
10
6.312933
20
12.9016384
40
0.3412781
50
218.1665114
51
245.878116
0
ARC
8
DEFAULT_255_1_234
10
6.4008791
20
12.9752279
40
0.455911
50
191.4115814
51
218.6077802
0
ARC
8
DEFAULT_255_1_234
10
6.594688
20
13.0186833
40
0.6545001
50
179.6345085
51
191.7836486
0
ARC
8
DEFAULT_255_1_234
10
7.1529217
20
13.0865697
40
1.2127388
50
171.4525249
51
180.3158839
0
ARC
8
DEFAULT_255_1_234
10
6.7134092
20
13.1549608
40
0.7679464
50
157.9802646
51
171.6246686
0
ARC
8
DEFAULT_255_1_234
10
6.4920113
20
13.2432421
40
0.5296008
50
141.4298019
51
157.854097
0
ARC
8
DEFAULT_255_1_234
10
6.4278434
20
13.2886381
40
0.4511509
50
102.8715806
51
140.8564722
0
ARC
8
DEFAULT_255_1_234
10
6.4926049
20
13.0446552
40
0.7034845
50
90.3778349
51
103.5869322
0
ARC
8
DEFAULT_255_1_234
10
6.3187826
20
12.984173
40
0.2370698
50
89.8751008
51
126.2071704
0
ARC
8
DEFAULT_255_1_234
10
6.3233615
20
12.9687303
40
0.2522934
50
124.9745049
51
144.895901
0
ARC
8
DEFAULT_255_1_234
10
6.3057806
20
12.983056
40
0.2296779
50
145.2974905
51
160.2660252
0
ARC
8
DEFAULT_255_1_234
10
6.6130345
20
13.0028071
40
0.5234525
50
179.6514266
51
190.2855912
0
ARC
8
DEFAULT_255_1_234
10
6.4436482
20
12.9708786
40
0.3510893
50
190.0945431
51
207.5098196
0
ARC
8
DEFAULT_255_1_234
10
6.3870752
20
12.9439623
40
0.288489
50
207.9583163
51
216.3251085
0
ARC
8
DEFAULT_255_1_234
10
6.353086
20
12.9160105
40
0.2445587
50
215.7661442
51
232.5456785
0
ARC
8
DEFAULT_255_1_234
10
6.3147843
20
12.8673482
40
0.1826382
50
232.8005391
51
270.6605633
0
ARC
8
DEFAULT_255_1_234
10
6.3193543
20
12.9037612
40
0.2190529
50
269.35537
51
288.4744281
0
ARC
8
DEFAULT_255_1_234
10
6.3286441
20
12.8688118
40
0.1829749
50
289.1833337
51
322.9683818
0
ARC
8
DEFAULT_255_1_234
10
6.2674963
20
12.9170391
40
0.2608399
50
322.6007884
51
346.5182367
0
ARC
8
DEFAULT_255_1_234
10
6.1517559
20
12.9465616
40
0.3802777
50
346.2582162
51
358.7741648
0
ARC
8
DEFAULT_255_1_234
10
6.0499228
20
12.9520965
40
0.4822176
50
358.3755224
51
0.0098023
0
ARC
8
DEFAULT_255_1_234
10
6.1255415
20
12.9548657
40
0.4066078
50
359.6214041
51
11.2839074
0
ARC
8
DEFAULT_255_1_234
10
6.2532562
20
12.9815066
40
0.2761514
50
11.0482309
51
31.8146458
0
ARC
8
DEFAULT_255_1_234
10
6.2841605
20
12.9982584
40
0.2410679
50
32.3035391
51
38.082671
0
ARC
8
DEFAULT_255_1_234
10
6.3262265
20
13.0363662
40
0.1844966
50
36.825067
51
85.7415724
0
ARC
8
DEFAULT_255_1_234
10
6.3195098
20
12.9863301
40
0.2349122
50
85.0140713
51
90.0513278
0
LINE
8
DEFAULT_255_1_234
10
4.3073489
20
21.6848211
11
4.3073489
21
20.6414983
0
LINE
8
DEFAULT_255_1_234
10
4.3073489
20
20.6414983
11
4.8615389
21
20.6414983
0
LINE
8
DEFAULT_255_1_234
10
4.8615389
20
20.6414983
11
4.8615389
21
20.5154
0
LINE
8
DEFAULT_255_1_234
10
4.8615389
20
20.5154
11
4.1523364
21
20.5154
0
LINE
8
DEFAULT_255_1_234
10
4.1523364
20
20.5154
11
4.1523364
21
21.6848211
0
LINE
8
DEFAULT_255_1_234
10
4.1523364
20
21.6848211
11
4.3073489
21
21.6848211
0
LINE
8
DEFAULT_255_1_234
10
5.439824
20
21.4840276
11
5.439824
21
21.1426788
0
LINE
8
DEFAULT_255_1_234
10
5.439824
20
21.1426788
11
5.7659126
21
21.1426788
0
LINE
8
DEFAULT_255_1_234
10
5.7659126
20
21.1426788
11
5.7659126
21
21.0021233
0
LINE
8
DEFAULT_255_1_234
10
5.7659126
20
21.0021233
11
5.439824
21
21.0021233
0
LINE
8
DEFAULT_255_1_234
10
5.439824
20
21.0021233
11
5.439824
21
20.6326634
0
LINE
8
DEFAULT_255_1_234
10
5.439824
20
20.6326634
11
5.2904337
21
20.6326634
0
LINE
8
DEFAULT_255_1_234
10
5.2904337
20
20.6326634
11
5.2904337
21
21.0021233
0
LINE
8
DEFAULT_255_1_234
10
5.2904337
20
21.0021233
11
4.9643451
21
21.0021233
0
LINE
8
DEFAULT_255_1_234
10
4.9643451
20
21.0021233
11
4.9643451
21
21.1426788
0
LINE
8
DEFAULT_255_1_234
10
4.9643451
20
21.1426788
11
5.2904337
21
21.1426788
0
LINE
8
DEFAULT_255_1_234
10
5.2904337
20
21.1426788
11
5.2904337
21
21.4840276
0
LINE
8
DEFAULT_255_1_234
10
5.2904337
20
21.4840276
11
5.439824
21
21.4840276
0
LINE
8
DEFAULT_255_1_234
10
6.1185059
20
21.0711963
11
5.9996362
21
21.1017169
0
LINE
8
DEFAULT_255_1_234
10
5.9996362
20
21.1017169
11
6.059071
21
21.6848211
0
LINE
8
DEFAULT_255_1_234
10
6.059071
20
21.6848211
11
6.6582387
21
21.6848211
0
LINE
8
DEFAULT_255_1_234
10
6.6582387
20
21.6848211
11
6.6582387
21
21.5474784
0
LINE
8
DEFAULT_255_1_234
10
6.6582387
20
21.5474784
11
6.1851693
21
21.5474784
0
LINE
8
DEFAULT_255_1_234
10
6.1851693
20
21.5474784
11
6.1498297
21
21.2286184
0
LINE
8
DEFAULT_255_1_234
10
5.9578711
20
20.8230156
11
6.0984266
21
20.8230156
0
LINE
8
DEFAULT_255_1_234
10
6.1578614
20
21.1033232
11
6.1185059
21
21.0711963
0
ARC
8
DEFAULT_255_1_234
10
6.3353081
20
20.910623
40
0.3681349
50
93.7182161
51
120.2538958
0
ARC
8
DEFAULT_255_1_234
10
6.3447344
20
20.8298394
40
0.449379
50
89.9660152
51
94.2496022
0
ARC
8
DEFAULT_255_1_234
10
6.3488078
20
20.8887549
40
0.390482
50
73.8043271
51
90.5585896
0
ARC
8
DEFAULT_255_1_234
10
6.3722975
20
20.9745602
40
0.3015334
50
41.3071453
51
73.5430202
0
ARC
8
DEFAULT_255_1_234
10
6.3306802
20
20.9387324
40
0.3564457
50
13.5075983
51
41.2174222
0
ARC
8
DEFAULT_255_1_234
10
6.1665006
20
20.8957486
40
0.5261351
50
1.1331335
51
13.8829381
0
ARC
8
DEFAULT_255_1_234
10
6.0253375
20
20.8881665
40
0.6674378
50
359.9919444
51
1.544251
0
ARC
8
DEFAULT_255_1_234
10
6.1530201
20
20.884028
40
0.5397702
50
347.8572367
51
0.4293338
0
ARC
8
DEFAULT_255_1_234
10
6.3280519
20
20.8443736
40
0.3603188
50
323.673004
51
348.1672506
0
ARC
8
DEFAULT_255_1_234
10
6.3575027
20
20.8264168
40
0.3259678
50
316.8171152
51
323.1492751
0
ARC
8
DEFAULT_255_1_234
10
6.3636216
20
20.822746
40
0.3189975
50
281.8396411
51
316.5457803
0
ARC
8
DEFAULT_255_1_234
10
6.3260479
20
20.9782762
40
0.4789527
50
269.5770101
51
282.4214771
0
ARC
8
DEFAULT_255_1_234
10
6.3189291
20
20.9569125
40
0.45759
50
256.2427136
51
270.4486331
0
ARC
8
DEFAULT_255_1_234
10
6.2890193
20
20.8369229
40
0.3339303
50
228.9023911
51
256.3314342
0
ARC
8
DEFAULT_255_1_234
10
6.2816426
20
20.8252746
40
0.32031
50
193.753695
51
228.5271154
0
ARC
8
DEFAULT_255_1_234
10
6.405438
20
20.86158
40
0.4492253
50
184.924711
51
194.497588
0
ARC
8
DEFAULT_255_1_234
10
6.4246947
20
20.8651591
40
0.3289787
50
187.3600538
51
198.6732863
0
ARC
8
DEFAULT_255_1_234
10
6.3197241
20
20.8287674
40
0.217884
50
198.4451669
51
217.794479
0
ARC
8
DEFAULT_255_1_234
10
6.2901416
20
20.8078085
40
0.1816698
50
218.2887171
51
228.5612368
0
ARC
8
DEFAULT_255_1_234
10
6.2999203
20
20.8209963
40
0.1980329
50
228.9654866
51
258.1234728
0
ARC
8
DEFAULT_255_1_234
10
6.3204913
20
20.9090833
40
0.2884748
50
257.7258293
51
270.401361
0
ARC
8
DEFAULT_255_1_234
10
6.3249799
20
20.8645821
40
0.2439788
50
269.4204404
51
286.4209037
0
ARC
8
DEFAULT_255_1_234
10
6.3398287
20
20.8106657
40
0.1880666
50
286.7251356
51
320.600362
0
ARC
8
DEFAULT_255_1_234
10
6.3015112
20
20.8417595
40
0.2374121
50
320.6712579
51
344.5441685
0
ARC
8
DEFAULT_255_1_234
10
6.1858438
20
20.8757045
40
0.3579479
50
344.2412205
51
356.7357071
0
ARC
8
DEFAULT_255_1_234
10
6.0609586
20
20.8860444
40
0.4832297
50
356.3548756
51
0.0500261
0
ARC
8
DEFAULT_255_1_234
10
6.1946096
20
20.889165
40
0.3495889
50
359.5576869
51
12.953486
0
ARC
8
DEFAULT_255_1_234
10
6.3000993
20
20.9147434
40
0.2410532
50
12.6490276
51
41.6081334
0
ARC
8
DEFAULT_255_1_234
10
6.3231364
20
20.9343321
40
0.2108218
50
41.7850273
51
85.9892764
0
ARC
8
DEFAULT_255_1_234
10
6.3108101
20
20.8530462
40
0.2928454
50
84.6957577
51
90.0676183
0
ARC
8
DEFAULT_255_1_234
10
6.3084585
20
20.7861716
40
0.3597255
50
89.6804936
51
99.1614436
0
ARC
8
DEFAULT_255_1_234
10
6.2879216
20
20.9089131
40
0.235281
50
98.9830931
51
113.8908934
0
ARC
8
DEFAULT_255_1_234
10
6.2649626
20
20.9630587
40
0.176479
50
114.1950727
51
127.3641004
0
LINE
8
DEFAULT_255_1_234
10
4.4132489
20
29.6223211
11
4.4132489
21
28.5789983
0
LINE
8
DEFAULT_255_1_234
10
4.4132489
20
28.5789983
11
4.9674389
21
28.5789983
0
LINE
8
DEFAULT_255_1_234
10
4.9674389
20
28.5789983
11
4.9674389
21
28.4529
0
LINE
8
DEFAULT_255_1_234
10
4.9674389
20
28.4529
11
4.2582364
21
28.4529
0
LINE
8
DEFAULT_255_1_234
10
4.2582364
20
28.4529
11
4.2582364
21
29.6223211
0
LINE
8
DEFAULT_255_1_234
10
4.2582364
20
29.6223211
11
4.4132489
21
29.6223211
0
LINE
8
DEFAULT_255_1_234
10
5.545724
20
29.4215276
11
5.545724
21
29.0801788
0
LINE
8
DEFAULT_255_1_234
10
5.545724
20
29.0801788
11
5.8718126
21
29.0801788
0
LINE
8
DEFAULT_255_1_234
10
5.8718126
20
29.0801788
11
5.8718126
21
28.9396233
0
LINE
8
DEFAULT_255_1_234
10
5.8718126
20
28.9396233
11
5.545724
21
28.9396233
0
LINE
8
DEFAULT_255_1_234
10
5.545724
20
28.9396233
11
5.545724
21
28.5701634
0
LINE
8
DEFAULT_255_1_234
10
5.545724
20
28.5701634
11
5.3963337
21
28.5701634
0
LINE
8
DEFAULT_255_1_234
10
5.3963337
20
28.5701634
11
5.3963337
21
28.9396233
0
LINE
8
DEFAULT_255_1_234
10
5.3963337
20
28.9396233
11
5.0702451
21
28.9396233
0
LINE
8
DEFAULT_255_1_234
10
5.0702451
20
28.9396233
11
5.0702451
21
29.0801788
0
LINE
8
DEFAULT_255_1_234
10
5.0702451
20
29.0801788
11
5.3963337
21
29.0801788
0
LINE
8
DEFAULT_255_1_234
10
5.3963337
20
29.0801788
11
5.3963337
21
29.4215276
0
LINE
8
DEFAULT_255_1_234
10
5.3963337
20
29.4215276
11
5.545724
21
29.4215276
0
LINE
8
DEFAULT_255_1_234
10
6.6645452
20
29.6223211
11
6.6645452
21
28.845652
0
LINE
8
DEFAULT_255_1_234
10
6.6645452
20
28.845652
11
6.8267863
21
28.845652
0
LINE
8
DEFAULT_255_1_234
10
6.8267863
20
28.845652
11
6.8267863
21
28.7243728
0
LINE
8
DEFAULT_255_1_234
10
6.8267863
20
28.7243728
11
6.6645452
21
28.7243728
0
LINE
8
DEFAULT_255_1_234
10
6.6645452
20
28.7243728
11
6.6645452
21
28.4529
0
LINE
8
DEFAULT_255_1_234
10
6.6645452
20
28.4529
11
6.5151548
21
28.4529
0
LINE
8
DEFAULT_255_1_234
10
6.5151548
20
28.4529
11
6.5151548
21
28.7243728
0
LINE
8
DEFAULT_255_1_234
10
6.5151548
20
28.7243728
11
5.9826506
21
28.7243728
0
LINE
8
DEFAULT_255_1_234
10
5.9826506
20
28.7243728
11
5.9826506
21
28.8119187
0
LINE
8
DEFAULT_255_1_234
10
5.9826506
20
28.8119187
11
6.5063199
21
29.6223211
0
LINE
8
DEFAULT_255_1_234
10
6.5063199
20
29.6223211
11
6.6645452
21
29.6223211
0
LINE
8
DEFAULT_255_1_234
10
6.497485
20
29.3869912
11
6.1513171
21
28.845652
0
LINE
8
DEFAULT_255_1_234
10
6.1513171
20
28.845652
11
6.5151548
21
28.845652
0
LINE
8
DEFAULT_255_1_234
10
6.5151548
20
28.845652
11
6.5151548
21
29.4191181
0
LINE
8
DEFAULT_255_1_234
10
6.5151548
20
29.4191181
11
6.497485
21
29.3869912
0
LINE
8
DEFAULT_255_1_234
10
4.3073489
20
37.5598211
11
4.3073489
21
36.5164983
0
LINE
8
DEFAULT_255_1_234
10
4.3073489
20
36.5164983
11
4.8615389
21
36.5164983
0
LINE
8
DEFAULT_255_1_234
10
4.8615389
20
36.5164983
11
4.8615389
21
36.3904
0
LINE
8
DEFAULT_255_1_234
10
4.8615389
20
36.3904
11
4.1523364
21
36.3904
0
LINE
8
DEFAULT_255_1_234
10
4.1523364
20
36.3904
11
4.1523364
21
37.5598211
0
LINE
8
DEFAULT_255_1_234
10
4.1523364
20
37.5598211
11
4.3073489
21
37.5598211
0
LINE
8
DEFAULT_255_1_234
10
5.439824
20
37.3590276
11
5.439824
21
37.0176788
0
LINE
8
DEFAULT_255_1_234
10
5.439824
20
37.0176788
11
5.7659126
21
37.0176788
0
LINE
8
DEFAULT_255_1_234
10
5.7659126
20
37.0176788
11
5.7659126
21
36.8771233
0
LINE
8
DEFAULT_255_1_234
10
5.7659126
20
36.8771233
11
5.439824
21
36.8771233
0
LINE
8
DEFAULT_255_1_234
10
5.439824
20
36.8771233
11
5.439824
21
36.5076634
0
LINE
8
DEFAULT_255_1_234
10
5.439824
20
36.5076634
11
5.2904337
21
36.5076634
0
LINE
8
DEFAULT_255_1_234
10
5.2904337
20
36.5076634
11
5.2904337
21
36.8771233
0
LINE
8
DEFAULT_255_1_234
10
5.2904337
20
36.8771233
11
4.9643451
21
36.8771233
0
LINE
8
DEFAULT_255_1_234
10
4.9643451
20
36.8771233
11
4.9643451
21
37.0176788
0
LINE
8
DEFAULT_255_1_234
10
4.9643451
20
37.0176788
11
5.2904337
21
37.0176788
0
LINE
8
DEFAULT_255_1_234
10
5.2904337
20
37.0176788
11
5.2904337
21
37.3590276
0
LINE
8
DEFAULT_255_1_234
10
5.2904337
20
37.3590276
11
5.439824
21
37.3590276
0
LINE
8
DEFAULT_255_1_234
10
6.1474202
20
36.9261169
11
6.1474202
21
37.0473962
0
LINE
8
DEFAULT_255_1_234
10
6.1474202
20
37.0473962
11
6.2590613
21
37.0473962
0
LINE
8
DEFAULT_255_1_234
10
6.0687091
20
37.2530087
11
5.920122
21
37.2530087
0
LINE
8
DEFAULT_255_1_234
10
5.9096807
20
36.6988188
11
6.059071
21
36.6988188
0
LINE
8
DEFAULT_255_1_234
10
6.2590613
20
36.9261169
11
6.1474202
21
36.9261169
0
ARC
8
DEFAULT_255_1_234
10
6.256148
20
37.3866713
40
0.3392876
50
270.4919872
51
281.8951556
0
ARC
8
DEFAULT_255_1_234
10
6.2802741
20
37.2764702
40
0.2264817
50
281.6691735
51
301.2943132
0
ARC
8
DEFAULT_255_1_234
10
6.2972952
20
37.2453304
40
0.1910381
50
301.7833094
51
311.7545298
0
ARC
8
DEFAULT_255_1_234
10
6.3064527
20
37.2351748
40
0.1773635
50
311.7323931
51
354.2802411
0
ARC
8
DEFAULT_255_1_234
10
6.2338153
20
37.2476722
40
0.2509385
50
353.0937916
51
0.1181479
0
ARC
8
DEFAULT_255_1_234
10
6.1876937
20
37.2524386
40
0.2970898
50
359.1805295
51
15.0453146
0
ARC
8
DEFAULT_255_1_234
10
6.3222774
20
37.2916992
40
0.1569564
50
13.9577229
51
77.6713066
0
ARC
8
DEFAULT_255_1_234
10
6.2836304
20
37.1531949
40
0.3006298
50
76.1116566
51
90.7026153
0
ARC
8
DEFAULT_255_1_234
10
6.2777142
20
37.1805545
40
0.2732568
50
89.5324876
51
103.531937
0
ARC
8
DEFAULT_255_1_234
10
6.2576586
20
37.2604884
40
0.1908508
50
103.2931773
51
133.5619022
0
ARC
8
DEFAULT_255_1_234
10
6.2532074
20
37.2664375
40
0.1834746
50
133.8349307
51
173.5344437
0
ARC
8
DEFAULT_255_1_234
10
6.3255118
20
37.2536213
40
0.2568033
50
172.5096846
51
180.1366907
0
ARC
8
DEFAULT_255_1_234
10
6.2304011
20
37.2570622
40
0.3103056
50
155.3484492
51
180.7484736
0
ARC
8
DEFAULT_255_1_234
10
6.22551
20
37.2541846
40
0.3070957
50
131.5744599
51
154.4798489
0
ARC
8
DEFAULT_255_1_234
10
6.2568248
20
37.222531
40
0.3515643
50
96.9875458
51
131.9690667
0
ARC
8
DEFAULT_255_1_234
10
6.2787728
20
37.0979636
40
0.4779224
50
89.8596053
51
97.7825159
0
ARC
8
DEFAULT_255_1_234
10
6.2835791
20
37.0717616
40
0.5041361
50
78.3655447
51
90.4131539
0
ARC
8
DEFAULT_255_1_234
10
6.3193709
20
37.2376887
40
0.3344039
50
56.6229102
51
78.638727
0
ARC
8
DEFAULT_255_1_234
10
6.3408652
20
37.2752805
40
0.2912001
50
47.0253525
51
56.0854072
0
ARC
8
DEFAULT_255_1_234
10
6.3428432
20
37.2792223
40
0.2869704
50
10.9208013
51
46.7778124
0
ARC
8
DEFAULT_255_1_234
10
6.2064499
20
37.2476857
40
0.426899
50
359.6364486
51
11.6087304
0
ARC
8
DEFAULT_255_1_234
10
6.3899343
20
37.2461752
40
0.243409
50
332.3549906
51
359.7179418
0
ARC
8
DEFAULT_255_1_234
10
6.3248944
20
37.2770142
40
0.3153459
50
325.2333722
51
332.8745602
0
ARC
8
DEFAULT_255_1_234
10
6.3401568
20
37.2663828
40
0.2967456
50
292.9802137
51
325.2392345
0
ARC
8
DEFAULT_255_1_234
10
6.3126942
20
37.3197863
40
0.3566604
50
292.5402179
51
293.6924929
0
ARC
8
DEFAULT_255_1_234
10
6.3519538
20
36.6743091
40
0.3307468
50
57.6435486
51
72.8625112
0
ARC
8
DEFAULT_255_1_234
10
6.3874038
20
36.7317549
40
0.2632492
50
36.7248896
51
57.4697979
0
ARC
8
DEFAULT_255_1_234
10
6.386267
20
36.733022
40
0.2634081
50
8.0545065
51
36.356114
0
ARC
8
DEFAULT_255_1_234
10
6.2999856
20
36.7175174
40
0.3510261
50
359.8320645
51
8.5869982
0
ARC
8
DEFAULT_255_1_234
10
6.2624632
20
36.7127101
40
0.3885653
50
343.9829931
51
0.5571613
0
ARC
8
DEFAULT_255_1_234
10
6.3510829
20
36.6884438
40
0.2966924
50
311.6359546
51
343.7651759
0
ARC
8
DEFAULT_255_1_234
10
6.3132398
20
36.7311102
40
0.3537231
50
279.7829875
51
311.6255694
0
ARC
8
DEFAULT_255_1_234
10
6.2831174
20
36.874828
40
0.5004971
50
269.7286406
51
280.3856417
0
ARC
8
DEFAULT_255_1_234
10
6.2769247
20
36.8706996
40
0.4963778
50
256.6828919
51
270.4412052
0
ARC
8
DEFAULT_255_1_234
10
6.2430543
20
36.7322394
40
0.3538406
50
229.4223008
51
256.8556159
0
ARC
8
DEFAULT_255_1_234
10
6.2015936
20
36.6855736
40
0.2914296
50
181.818294
51
229.6455059
0
ARC
8
DEFAULT_255_1_234
10
6.3055892
20
36.6986496
40
0.3959084
50
179.9755256
51
183.2323064
0
ARC
8
DEFAULT_255_1_234
10
6.2883638
20
36.6966037
40
0.2293034
50
179.4465117
51
196.2869258
0
ARC
8
DEFAULT_255_1_234
10
6.2396046
20
36.6832651
40
0.1787621
50
196.5661473
51
227.705904
0
ARC
8
DEFAULT_255_1_234
10
6.256014
20
36.7016155
40
0.2033784
50
227.7652068
51
257.8762805
0
ARC
8
DEFAULT_255_1_234
10
6.2785111
20
36.7959156
40
0.3003081
50
257.4584385
51
270.426602
0
ARC
8
DEFAULT_255_1_234
10
6.2830677
20
36.8248996
40
0.329292
50
269.5962073
51
280.8789248
0
ARC
8
DEFAULT_255_1_234
10
6.3060206
20
36.7102685
40
0.2123908
50
280.6346389
51
299.8595945
0
ARC
8
DEFAULT_255_1_234
10
6.3251112
20
36.6740212
40
0.171457
50
300.3576302
51
314.5517981
0
ARC
8
DEFAULT_255_1_234
10
6.3168172
20
36.6800919
40
0.1816095
50
315.0728369
51
345.0431014
0
ARC
8
DEFAULT_255_1_234
10
6.2244987
20
36.7069841
40
0.2777492
50
344.5986631
51
357.9269593
0
ARC
8
DEFAULT_255_1_234
10
6.1349313
20
36.7131276
40
0.3674917
50
357.4748886
51
0.0231117
0
ARC
8
DEFAULT_255_1_234
10
6.2372422
20
36.7155679
40
0.2651907
50
359.5047933
51
13.4239635
0
ARC
8
DEFAULT_255_1_234
10
6.3239066
20
36.7377478
40
0.1757509
50
12.9498199
51
48.7551375
0
ARC
8
DEFAULT_255_1_234
10
6.30568
20
36.71284
40
0.2065134
50
49.5088623
51
72.1836453
0
ARC
8
DEFAULT_255_1_234
10
6.2698952
20
36.6066291
40
0.3185836
50
71.9010081
51
84.3554254
0
ARC
8
DEFAULT_255_1_234
10
6.2537584
20
36.4705326
40
0.4556151
50
84.0193428
51
89.333121
0
LINE
8
DEFAULT_255_1_234
10
4.3073489
20
45.4973211
11
4.3073489
21
44.4539983
0
LINE
8
DEFAULT_255_1_234
10
4.3073489
20
44.4539983
11
4.8615389
21
44.4539983
0
LINE
8
DEFAULT_255_1_234
10
4.8615389
20
44.4539983
11
4.8615389
21
44.3279
0
LINE
8
DEFAULT_255_1_234
10
4.8615389
20
44.3279
11
4.1523364
21
44.3279
0
LINE
8
DEFAULT_255_1_234
10
4.1523364
20
44.3279
11
4.1523364
21
45.4973211
0
LINE
8
DEFAULT_255_1_234
10
4.1523364
20
45.4973211
11
4.3073489
21
45.4973211
0
LINE
8
DEFAULT_255_1_234
10
5.439824
20
45.2965276
11
5.439824
21
44.9551788
0
LINE
8
DEFAULT_255_1_234
10
5.439824
20
44.9551788
11
5.7659126
21
44.9551788
0
LINE
8
DEFAULT_255_1_234
10
5.7659126
20
44.9551788
11
5.7659126
21
44.8146233
0
LINE
8
DEFAULT_255_1_234
10
5.7659126
20
44.8146233
11
5.439824
21
44.8146233
0
LINE
8
DEFAULT_255_1_234
10
5.439824
20
44.8146233
11
5.439824
21
44.4451634
0
LINE
8
DEFAULT_255_1_234
10
5.439824
20
44.4451634
11
5.2904337
21
44.4451634
0
LINE
8
DEFAULT_255_1_234
10
5.2904337
20
44.4451634
11
5.2904337
21
44.8146233
0
LINE
8
DEFAULT_255_1_234
10
5.2904337
20
44.8146233
11
4.9643451
21
44.8146233
0
LINE
8
DEFAULT_255_1_234
10
4.9643451
20
44.8146233
11
4.9643451
21
44.9551788
0
LINE
8
DEFAULT_255_1_234
10
4.9643451
20
44.9551788
11
5.2904337
21
44.9551788
0
LINE
8
DEFAULT_255_1_234
10
5.2904337
20
44.9551788
11
5.2904337
21
45.2965276
0
LINE
8
DEFAULT_255_1_234
10
5.2904337
20
45.2965276
11
5.439824
21
45.2965276
0
LINE
8
DEFAULT_255_1_234
10
6.6975942
20
44.4491792
11
6.6975942
21
44.3279
0
LINE
8
DEFAULT_255_1_234
10
6.6975942
20
44.3279
11
5.9313664
21
44.3279
0
LINE
8
DEFAULT_255_1_234
10
5.9313664
20
44.3279
11
5.9313664
21
44.4347221
0
LINE
8
DEFAULT_255_1_234
10
5.9313664
20
44.4347221
11
6.336166
21
44.8844995
0
LINE
8
DEFAULT_255_1_234
10
6.0574647
20
45.1527595
11
5.9088775
21
45.1527595
0
LINE
8
DEFAULT_255_1_234
10
6.423712
20
44.7889218
11
6.1104742
21
44.4491792
0
LINE
8
DEFAULT_255_1_234
10
6.1104742
20
44.4491792
11
6.6975942
21
44.4491792
0
ARC
8
DEFAULT_255_1_234
10
4.9871493
20
46.0774527
40
1.8008286
50
318.5132453
51
320.7828378
0
ARC
8
DEFAULT_255_1_234
10
5.5158468
20
45.6471426
40
1.1191493
50
320.7372736
51
323.9737074
0
ARC
8
DEFAULT_255_1_234
10
5.9078324
20
45.3631361
40
0.6350923
50
323.8961724
51
328.6421089
0
ARC
8
DEFAULT_255_1_234
10
6.112492
20
45.2369031
40
0.3946393
50
328.8299013
51
331.789948
0
ARC
8
DEFAULT_255_1_234
10
6.2122098
20
45.1854509
40
0.2824501
50
331.4255242
51
352.9364833
0
ARC
8
DEFAULT_255_1_234
10
6.2258599
20
45.1823976
40
0.2685315
50
353.2248685
51
0.0169286
0
ARC
8
DEFAULT_255_1_234
10
6.2468476
20
45.184695
40
0.2475536
50
359.4866256
51
15.9339782
0
ARC
8
DEFAULT_255_1_234
10
6.2975461
20
45.1983286
40
0.1950618
50
16.1714718
51
43.5284424
0
ARC
8
DEFAULT_255_1_234
10
6.3052769
20
45.2060573
40
0.184134
50
43.4415429
51
83.1661404
0
ARC
8
DEFAULT_255_1_234
10
6.2918688
20
45.1323771
40
0.258926
50
82.160215
51
90.1505798
0
ARC
8
DEFAULT_255_1_234
10
6.2887115
20
45.0786865
40
0.3126255
50
89.5460705
51
102.5418777
0
ARC
8
DEFAULT_255_1_234
10
6.2644201
20
45.1817665
40
0.2067346
50
102.1739365
51
129.2061916
0
ARC
8
DEFAULT_255_1_234
10
6.2565273
20
45.1942094
40
0.1921118
50
129.7279328
51
135.7542026
0
ARC
8
DEFAULT_255_1_234
10
6.26868
20
45.1845045
40
0.2075944
50
136.175737
51
166.3674722
0
ARC
8
DEFAULT_255_1_234
10
6.369372
20
45.1575182
40
0.3118201
50
165.9092917
51
178.8683903
0
ARC
8
DEFAULT_255_1_234
10
6.4558581
20
45.1528179
40
0.3983935
50
178.438168
51
180.0083905
0
ARC
8
DEFAULT_255_1_234
10
6.3157183
20
45.1567231
40
0.4068601
50
163.2878735
51
180.5581814
0
ARC
8
DEFAULT_255_1_234
10
6.2355444
20
45.178784
40
0.3237344
50
133.454115
51
162.9470031
0
ARC
8
DEFAULT_255_1_234
10
6.2533986
20
45.1598
40
0.349795
50
100.7869394
51
133.4384016
0
ARC
8
DEFAULT_255_1_234
10
6.2881757
20
45.0049319
40
0.5084616
50
89.6605301
51
101.3704185
0
ARC
8
DEFAULT_255_1_234
10
6.2948096
20
45.0110496
40
0.502348
50
78.2171172
51
90.4130393
0
ARC
8
DEFAULT_255_1_234
10
6.3303174
20
45.1734637
40
0.3361092
50
55.9268222
51
78.4888551
0
ARC
8
DEFAULT_255_1_234
10
6.3499615
20
45.2073324
40
0.2970617
50
47.9292255
51
55.4054003
0
ARC
8
DEFAULT_255_1_234
10
6.3601175
20
45.2176502
40
0.2825983
50
4.3347696
51
48.0560701
0
ARC
8
DEFAULT_255_1_234
10
6.2505569
20
45.2006601
40
0.393225
50
359.925209
51
5.5967654
0
ARC
8
DEFAULT_255_1_234
10
6.2934461
20
45.2062816
40
0.3503892
50
337.8914096
51
358.9967724
0
ARC
8
DEFAULT_255_1_234
10
6.0220873
20
45.3109706
40
0.6412172
50
326.9135351
51
338.3505194
0
ARC
8
DEFAULT_255_1_234
10
5.6235177
20
45.5664284
40
1.1146189
50
319.6472867
51
327.095818
0
ARC
8
DEFAULT_255_1_234
10
5.240218
20
45.8826
40
1.6114559
50
317.2586784
51
319.9046139
0
LINE
8
DEFAULT_255_1_234
10
4.2994489
20
53.4348211
11
4.2994489
21
52.3914983
0
LINE
8
DEFAULT_255_1_234
10
4.2994489
20
52.3914983
11
4.8536389
21
52.3914983
0
LINE
8
DEFAULT_255_1_234
10
4.8536389
20
52.3914983
11
4.8536389
21
52.2654
0
LINE
8
DEFAULT_255_1_234
10
4.8536389
20
52.2654
11
4.1444364
21
52.2654
0
LINE
8
DEFAULT_255_1_234
10
4.1444364
20
52.2654
11
4.1444364
21
53.4348211
0
LINE
8
DEFAULT_255_1_234
10
4.1444364
20
53.4348211
11
4.2994489
21
53.4348211
0
LINE
8
DEFAULT_255_1_234
10
5.431924
20
53.2340276
11
5.431924
21
52.8926788
0
LINE
8
DEFAULT_255_1_234
10
5.431924
20
52.8926788
11
5.7580126
21
52.8926788
0
LINE
8
DEFAULT_255_1_234
10
5.7580126
20
52.8926788
11
5.7580126
21
52.7521233
0
LINE
8
DEFAULT_255_1_234
10
5.7580126
20
52.7521233
11
5.431924
21
52.7521233
0
LINE
8
DEFAULT_255_1_234
10
5.431924
20
52.7521233
11
5.431924
21
52.3826634
0
LINE
8
DEFAULT_255_1_234
10
5.431924
20
52.3826634
11
5.2825337
21
52.3826634
0
LINE
8
DEFAULT_255_1_234
10
5.2825337
20
52.3826634
11
5.2825337
21
52.7521233
0
LINE
8
DEFAULT_255_1_234
10
5.2825337
20
52.7521233
11
4.9564451
21
52.7521233
0
LINE
8
DEFAULT_255_1_234
10
4.9564451
20
52.7521233
11
4.9564451
21
52.8926788
0
LINE
8
DEFAULT_255_1_234
10
4.9564451
20
52.8926788
11
5.2825337
21
52.8926788
0
LINE
8
DEFAULT_255_1_234
10
5.2825337
20
52.8926788
11
5.2825337
21
53.2340276
0
LINE
8
DEFAULT_255_1_234
10
5.2825337
20
53.2340276
11
5.431924
21
53.2340276
0
LINE
8
DEFAULT_255_1_234
10
6.4117961
20
53.4404433
11
6.4117961
21
52.2654
0
LINE
8
DEFAULT_255_1_234
10
6.4117961
20
52.2654
11
6.2624058
21
52.2654
0
LINE
8
DEFAULT_255_1_234
10
6.2624058
20
52.2654
11
6.2624058
21
53.2557133
0
LINE
8
DEFAULT_255_1_234
10
6.2624058
20
53.2557133
11
5.9628219
21
53.1456785
0
LINE
8
DEFAULT_255_1_234
10
5.9628219
20
53.1456785
11
5.9628219
21
53.2806117
0
LINE
8
DEFAULT_255_1_234
10
5.9628219
20
53.2806117
11
6.3885041
21
53.4404433
0
LINE
8
DEFAULT_255_1_234
10
6.3885041
20
53.4404433
11
6.4117961
21
53.4404433
0
LINE
8
DEFAULT_255_1_234
10
4.3073489
20
61.3723211
11
4.3073489
21
60.3289983
0
LINE
8
DEFAULT_255_1_234
10
4.3073489
20
60.3289983
11
4.8615389
21
60.3289983
0
LINE
8
DEFAULT_255_1_234
10
4.8615389
20
60.3289983
11
4.8615389
21
60.2029
0
LINE
8
DEFAULT_255_1_234
10
4.8615389
20
60.2029
11
4.1523364
21
60.2029
0
LINE
8
DEFAULT_255_1_234
10
4.1523364
20
60.2029
11
4.1523364
21
61.3723211
0
LINE
8
DEFAULT_255_1_234
10
4.1523364
20
61.3723211
11
4.3073489
21
61.3723211
0
LINE
8
DEFAULT_255_1_234
10
5.439824
20
61.1715276
11
5.439824
21
60.8301788
0
LINE
8
DEFAULT_255_1_234
10
5.439824
20
60.8301788
11
5.7659126
21
60.8301788
0
LINE
8
DEFAULT_255_1_234
10
5.7659126
20
60.8301788
11
5.7659126
21
60.6896233
0
LINE
8
DEFAULT_255_1_234
10
5.7659126
20
60.6896233
11
5.439824
21
60.6896233
0
LINE
8
DEFAULT_255_1_234
10
5.439824
20
60.6896233
11
5.439824
21
60.3201634
0
LINE
8
DEFAULT_255_1_234
10
5.439824
20
60.3201634
11
5.2904337
21
60.3201634
0
LINE
8
DEFAULT_255_1_234
10
5.2904337
20
60.3201634
11
5.2904337
21
60.6896233
0
LINE
8
DEFAULT_255_1_234
10
5.2904337
20
60.6896233
11
4.9643451
21
60.6896233
0
LINE
8
DEFAULT_255_1_234
10
4.9643451
20
60.6896233
11
4.9643451
21
60.8301788
0
LINE
8
DEFAULT_255_1_234
10
4.9643451
20
60.8301788
11
5.2904337
21
60.8301788
0
LINE
8
DEFAULT_255_1_234
10
5.2904337
20
60.8301788
11
5.2904337
21
61.1715276
0
LINE
8
DEFAULT_255_1_234
10
5.2904337
20
61.1715276
11
5.439824
21
61.1715276
0
LINE
8
DEFAULT_255_1_234
10
6.6646641
20
60.8944327
11
6.6646641
21
60.7016709
0
LINE
8
DEFAULT_255_1_234
10
5.9265474
20
60.6815916
11
5.9265474
21
60.8799755
0
LINE
8
DEFAULT_255_1_234
10
6.516077
20
60.6615123
11
6.516077
21
60.9048739
0
LINE
8
DEFAULT_255_1_234
10
6.0751345
20
60.9161184
11
6.0751345
21
60.6783789
0
ARC
8
DEFAULT_255_1_234
10
5.4399531
20
60.6967805
40
1.2247208
50
353.8441951
51
0.2287902
0
ARC
8
DEFAULT_255_1_234
10
5.9039034
20
60.6449806
40
0.7578929
50
344.4934747
51
353.9765454
0
ARC
8
DEFAULT_255_1_234
10
6.2031625
20
60.5598981
40
0.4467846
50
329.2803592
51
344.7472793
0
ARC
8
DEFAULT_255_1_234
10
6.3024449
20
60.5054018
40
0.3336173
50
324.9352394
51
328.6160465
0
ARC
8
DEFAULT_255_1_234
10
6.3401558
20
60.4790427
40
0.2876076
50
280.580143
51
324.9173126
0
ARC
8
DEFAULT_255_1_234
10
6.3000351
20
60.6461099
40
0.4592847
50
269.5977311
51
281.6734359
0
ARC
8
DEFAULT_255_1_234
10
6.2928256
20
60.6341173
40
0.4472986
50
256.6228859
51
270.51044
0
ARC
8
DEFAULT_255_1_234
10
6.2526234
20
60.4792877
40
0.2873874
50
215.8618325
51
257.2788573
0
ARC
8
DEFAULT_255_1_234
10
6.3547266
20
60.5477977
40
0.4102928
50
197.9693508
51
215.2623606
0
ARC
8
DEFAULT_255_1_234
10
6.6032381
20
60.6316709
40
0.6725652
50
187.8816417
51
198.2346507
0
ARC
8
DEFAULT_255_1_234
10
6.999059
20
60.6888079
40
1.0724845
50
180.8976217
51
188.0055519
0
ARC
8
DEFAULT_255_1_234
10
7.2790778
20
60.6991777
40
1.3526448
50
180.7449369
51
181.1510016
0
ARC
8
DEFAULT_255_1_234
10
7.1213507
20
60.8848042
40
1.1948131
50
173.7675579
51
180.231553
0
ARC
8
DEFAULT_255_1_234
10
6.6695653
20
60.9358666
40
0.7401564
50
164.3058563
51
173.9002247
0
ARC
8
DEFAULT_255_1_234
10
6.3783722
20
61.0197656
40
0.4371288
50
148.7922025
51
164.568378
0
ARC
8
DEFAULT_255_1_234
10
6.2832174
20
61.0728929
40
0.3282386
50
144.5883898
51
148.1176286
0
ARC
8
DEFAULT_255_1_234
10
6.2489072
20
61.0968315
40
0.2864044
50
101.6440918
51
144.514236
0
ARC
8
DEFAULT_255_1_234
10
6.2914139
20
60.9279069
40
0.4604934
50
89.5284041
51
102.5819763
0
ARC
8
DEFAULT_255_1_234
10
6.2993227
20
60.9240018
40
0.464401
50
77.0437873
51
90.5081339
0
ARC
8
DEFAULT_255_1_234
10
6.3395229
20
61.0882615
40
0.2953195
50
48.2778575
51
77.4994676
0
ARC
8
DEFAULT_255_1_234
10
6.346786
20
61.1011746
40
0.2808655
50
36.3142134
51
47.6305865
0
ARC
8
DEFAULT_255_1_234
10
6.2599167
20
61.0426515
40
0.3855453
50
18.2931786
51
35.6769206
0
ARC
8
DEFAULT_255_1_234
10
6.0055926
20
60.9553593
40
0.654423
50
8.024666
51
18.5605216
0
ARC
8
DEFAULT_255_1_234
10
5.5892846
20
60.8938792
40
1.0752407
50
1.1274072
51
8.1718305
0
ARC
8
DEFAULT_255_1_234
10
5.2657036
20
60.8811885
40
1.3990231
50
0.5424119
51
1.3863029
0
ARC
8
DEFAULT_255_1_234
10
5.4478414
20
60.9084342
40
1.0682415
50
359.8090433
51
4.9407866
0
ARC
8
DEFAULT_255_1_234
10
5.8688428
20
60.9460113
40
0.6455691
50
4.8362157
51
12.2904523
0
ARC
8
DEFAULT_255_1_234
10
6.1443543
20
61.0073965
40
0.3633074
50
12.0805627
51
23.8173984
0
ARC
8
DEFAULT_255_1_234
10
6.2617248
20
61.0570919
40
0.2358723
50
24.2871213
51
31.3935614
0
ARC
8
DEFAULT_255_1_234
10
6.3141945
20
61.0914233
40
0.1732111
50
30.7407893
51
82.4657128
0
ARC
8
DEFAULT_255_1_234
10
6.296208
20
61.0030691
40
0.263235
50
81.1060089
51
90.2184952
0
ARC
8
DEFAULT_255_1_234
10
6.2926379
20
61.0288924
40
0.2374236
50
89.3806855
51
105.6762551
0
ARC
8
DEFAULT_255_1_234
10
6.2743009
20
61.0955567
40
0.1682847
50
105.7981136
51
149.7388061
0
ARC
8
DEFAULT_255_1_234
10
6.3807088
20
61.031595
40
0.2924306
50
149.4208916
51
163.6286378
0
ARC
8
DEFAULT_255_1_234
10
6.5897976
20
60.967825
40
0.5110213
50
163.3763315
51
172.1410975
0
ARC
8
DEFAULT_255_1_234
10
6.9198695
20
60.9205518
40
0.8444586
50
172.0259487
51
178.0703232
0
ARC
8
DEFAULT_255_1_234
10
7.2228784
20
60.9061906
40
1.1477868
50
177.8631668
51
179.5044149
0
ARC
8
DEFAULT_255_1_234
10
7.1156189
20
60.6747389
40
1.0404907
50
179.7995573
51
185.2460446
0
ARC
8
DEFAULT_255_1_234
10
6.7113228
20
60.6364513
40
0.6343885
50
185.1411642
51
193.0079639
0
ARC
8
DEFAULT_255_1_234
10
6.44697
20
60.5739641
40
0.3627568
50
192.7897626
51
205.2507664
0
ARC
8
DEFAULT_255_1_234
10
6.3423247
20
60.5272415
40
0.2481908
50
205.8005384
51
211.2537509
0
ARC
8
DEFAULT_255_1_234
10
6.2899688
20
60.492158
40
0.1852521
50
210.3789793
51
238.4008143
0
ARC
8
DEFAULT_255_1_234
10
6.288021
20
60.4968376
40
0.1882621
50
239.6520629
51
265.9793761
0
ARC
8
DEFAULT_255_1_234
10
6.296541
20
60.5640427
40
0.2559272
50
265.1315437
51
270.060332
0
ARC
8
DEFAULT_255_1_234
10
6.2994189
20
60.5316534
40
0.2235528
50
269.3314664
51
287.2178029
0
ARC
8
DEFAULT_255_1_234
10
6.3132041
20
60.4813279
40
0.1714108
50
287.7958004
51
329.080874
0
ARC
8
DEFAULT_255_1_234
10
6.2174498
20
60.541093
40
0.2842745
50
328.6634704
51
343.3325132
0
ARC
8
DEFAULT_255_1_234
10
6.0001518
20
60.6087863
40
0.5118644
50
343.0499468
51
351.9393422
0
ARC
8
DEFAULT_255_1_234
10
5.6534818
20
60.6598949
40
0.8622784
50
351.8069023
51
357.7959224
0
ARC
8
DEFAULT_255_1_234
10
5.3299374
20
60.6766721
40
1.1862365
50
357.5871873
51
359.2677531
0
LINE
8
DEFAULT_255_1_234
10
4.4580154
20
68.1404
11
4.1343364
21
68.1404
0
LINE
8
DEFAULT_255_1_234
10
4.1343364
20
68.1404
11
4.1343364
21
69.3098211
0
LINE
8
DEFAULT_255_1_234
10
4.1343364
20
69.3098211
11
4.4644408
21
69.3098211
0
LINE
8
DEFAULT_255_1_234
10
4.9800784
20
68.7644661
11
4.9800784
21
68.6897709
0
LINE
8
DEFAULT_255_1_234
10
4.4684567
20
69.1829196
11
4.2885458
21
69.1829196
0
LINE
8
DEFAULT_255_1_234
10
4.2885458
20
69.1829196
11
4.2885458
21
68.2664983
0
LINE
8
DEFAULT_255_1_234
10
4.2885458
20
68.2664983
11
4.4507869
21
68.2664983
0
LINE
8
DEFAULT_255_1_234
10
4.8274754
20
68.6929836
11
4.8274754
21
68.7612534
0
ARC
8
DEFAULT_255_1_234
10
4.4683351
20
68.7232894
40
0.5865446
50
75.4101064
51
90.3804066
0
ARC
8
DEFAULT_255_1_234
10
4.4912864
20
68.8189492
40
0.4881916
50
60.145586
51
75.1888407
0
ARC
8
DEFAULT_255_1_234
10
4.507164
20
68.8466199
40
0.4562893
50
26.5253612
51
60.1450928
0
ARC
8
DEFAULT_255_1_234
10
4.3951389
20
68.7872158
40
0.5830602
50
7.4030428
51
26.8320788
0
ARC
8
DEFAULT_255_1_234
10
4.2357146
20
68.7623804
40
0.7443669
50
0.1605367
51
7.7176192
0
ARC
8
DEFAULT_255_1_234
10
4.252105
20
68.6859434
40
0.7279835
50
348.7289388
51
0.3012466
0
ARC
8
DEFAULT_255_1_234
10
4.4177481
20
68.6530386
40
0.559104
50
333.0706509
51
348.7181832
0
ARC
8
DEFAULT_255_1_234
10
4.5144238
20
68.6005319
40
0.4491417
50
299.2531685
51
333.4571258
0
ARC
8
DEFAULT_255_1_234
10
4.4783378
20
68.6690828
40
0.5265881
50
278.107187
51
299.0339503
0
ARC
8
DEFAULT_255_1_234
10
4.4527457
20
68.8198216
40
0.679442
50
270.4443897
51
278.4511052
0
ARC
8
DEFAULT_255_1_234
10
4.4548287
20
68.7269213
40
0.4604407
50
269.4970433
51
284.0205042
0
ARC
8
DEFAULT_255_1_234
10
4.4903588
20
68.5903978
40
0.3193797
50
283.7700273
51
318.1555492
0
ARC
8
DEFAULT_255_1_234
10
4.4566346
20
68.6156367
40
0.3613588
50
318.7415601
51
343.6873628
0
ARC
8
DEFAULT_255_1_234
10
4.2762369
20
68.6719832
40
0.5503313
50
343.3325091
51
355.8548958
0
ARC
8
DEFAULT_255_1_234
10
4.0664054
20
68.6919319
40
0.7610708
50
355.4988528
51
0.0791727
0
ARC
8
DEFAULT_255_1_234
10
4.1446676
20
68.765478
40
0.6828208
50
359.6455037
51
9.8607896
0
ARC
8
DEFAULT_255_1_234
10
4.3807374
20
68.8081099
40
0.4429406
50
9.6571907
51
26.1932807
0
ARC
8
DEFAULT_255_1_234
10
4.4735363
20
68.8512118
40
0.3406537
50
26.5777228
51
40.1532208
0
ARC
8
DEFAULT_255_1_234
10
4.4991089
20
68.8711619
40
0.308246
50
40.3840491
51
80.1431104
0
ARC
8
DEFAULT_255_1_234
10
4.4664207
20
68.7262333
40
0.4566909
50
79.2152159
51
89.7445637
0
LINE
8
DEFAULT_255_1_234
10
5.3784526
20
69.3098211
11
5.3784526
21
68.1404
0
LINE
8
DEFAULT_255_1_234
10
5.3784526
20
68.1404
11
5.2242433
21
68.1404
0
LINE
8
DEFAULT_255_1_234
10
5.2242433
20
68.1404
11
5.2242433
21
69.3098211
0
LINE
8
DEFAULT_255_1_234
10
5.2242433
20
69.3098211
11
5.3784526
21
69.3098211
0
LINE
8
DEFAULT_255_1_234
10
6.3767977
20
69.3098211
11
6.3767977
21
69.226291
0
LINE
8
DEFAULT_255_1_234
10
6.3767977
20
69.226291
11
5.8924839
21
68.1404
0
LINE
8
DEFAULT_255_1_234
10
5.8924839
20
68.1404
11
5.7366682
21
68.1404
0
LINE
8
DEFAULT_255_1_234
10
5.7366682
20
68.1404
11
6.2193756
21
69.1877387
0
LINE
8
DEFAULT_255_1_234
10
6.2193756
20
69.1877387
11
5.5864747
21
69.1877387
0
LINE
8
DEFAULT_255_1_234
10
5.5864747
20
69.1877387
11
5.5864747
21
69.3098211
0
LINE
8
DEFAULT_255_1_234
10
5.5864747
20
69.3098211
11
6.3767977
21
69.3098211
0
LINE
8
DEFAULT_255_1_234
10
4.4580154
20
76.0779
11
4.1343364
21
76.0779
0
LINE
8
DEFAULT_255_1_234
10
4.1343364
20
76.0779
11
4.1343364
21
77.2473211
0
LINE
8
DEFAULT_255_1_234
10
4.1343364
20
77.2473211
11
4.4644408
21
77.2473211
0
LINE
8
DEFAULT_255_1_234
10
4.9800784
20
76.7019661
11
4.9800784
21
76.6272709
0
LINE
8
DEFAULT_255_1_234
10
4.4684567
20
77.1204196
11
4.2885458
21
77.1204196
0
LINE
8
DEFAULT_255_1_234
10
4.2885458
20
77.1204196
11
4.2885458
21
76.2039983
0
LINE
8
DEFAULT_255_1_234
10
4.2885458
20
76.2039983
11
4.4507869
21
76.2039983
0
LINE
8
DEFAULT_255_1_234
10
4.8274754
20
76.6304836
11
4.8274754
21
76.6987534
0
ARC
8
DEFAULT_255_1_234
10
4.4683351
20
76.6607894
40
0.5865446
50
75.4101064
51
90.3804066
0
ARC
8
DEFAULT_255_1_234
10
4.4912864
20
76.7564492
40
0.4881916
50
60.145586
51
75.1888407
0
ARC
8
DEFAULT_255_1_234
10
4.507164
20
76.7841199
40
0.4562893
50
26.5253612
51
60.1450928
0
ARC
8
DEFAULT_255_1_234
10
4.3951389
20
76.7247158
40
0.5830602
50
7.4030428
51
26.8320788
0
ARC
8
DEFAULT_255_1_234
10
4.2357146
20
76.6998804
40
0.7443669
50
0.1605367
51
7.7176192
0
ARC
8
DEFAULT_255_1_234
10
4.252105
20
76.6234434
40
0.7279835
50
348.7289388
51
0.3012466
0
ARC
8
DEFAULT_255_1_234
10
4.4177481
20
76.5905386
40
0.559104
50
333.0706509
51
348.7181832
0
ARC
8
DEFAULT_255_1_234
10
4.5144238
20
76.5380319
40
0.4491417
50
299.2531685
51
333.4571258
0
ARC
8
DEFAULT_255_1_234
10
4.4783378
20
76.6065828
40
0.5265881
50
278.107187
51
299.0339503
0
ARC
8
DEFAULT_255_1_234
10
4.4527457
20
76.7573216
40
0.679442
50
270.4443897
51
278.4511052
0
ARC
8
DEFAULT_255_1_234
10
4.4548287
20
76.6644213
40
0.4604407
50
269.4970433
51
284.0205042
0
ARC
8
DEFAULT_255_1_234
10
4.4903588
20
76.5278978
40
0.3193797
50
283.7700273
51
318.1555492
0
ARC
8
DEFAULT_255_1_234
10
4.4566346
20
76.5531367
40
0.3613588
50
318.7415601
51
343.6873628
0
ARC
8
DEFAULT_255_1_234
10
4.2762369
20
76.6094832
40
0.5503313
50
343.3325091
51
355.8548958
0
ARC
8
DEFAULT_255_1_234
10
4.0664054
20
76.6294319
40
0.7610708
50
355.4988528
51
0.0791727
0
ARC
8
DEFAULT_255_1_234
10
4.1446676
20
76.702978
40
0.6828208
50
359.6455037
51
9.8607896
0
ARC
8
DEFAULT_255_1_234
10
4.3807374
20
76.7456099
40
0.4429406
50
9.6571907
51
26.1932807
0
ARC
8
DEFAULT_255_1_234
10
4.4735363
20
76.7887118
40
0.3406537
50
26.5777228
51
40.1532208
0
ARC
8
DEFAULT_255_1_234
10
4.4991089
20
76.8086619
40
0.308246
50
40.3840491
51
80.1431104
0
ARC
8
DEFAULT_255_1_234
10
4.4664207
20
76.6637333
40
0.4566909
50
79.2152159
51
89.7445637
0
LINE
8
DEFAULT_255_1_234
10
5.3784526
20
77.2473211
11
5.3784526
21
76.0779
0
LINE
8
DEFAULT_255_1_234
10
5.3784526
20
76.0779
11
5.2242433
21
76.0779
0
LINE
8
DEFAULT_255_1_234
10
5.2242433
20
76.0779
11
5.2242433
21
77.2473211
0
LINE
8
DEFAULT_255_1_234
10
5.2242433
20
77.2473211
11
5.3784526
21
77.2473211
0
LINE
8
DEFAULT_255_1_234
10
6.1784138
20
77.2481243
11
6.2049185
21
77.2481243
0
LINE
8
DEFAULT_255_1_234
10
6.2049185
20
77.2481243
11
6.2049185
21
77.122026
0
LINE
8
DEFAULT_255_1_234
10
6.2049185
20
77.122026
11
6.1776106
21
77.122026
0
LINE
8
DEFAULT_255_1_234
10
5.6306492
20
76.5228583
11
5.6306492
21
76.5798836
0
LINE
8
DEFAULT_255_1_234
10
5.7800396
20
76.5606075
11
5.7800396
21
76.5059917
0
ARC
8
DEFAULT_255_1_234
10
6.1828454
20
76.6222455
40
0.4998079
50
90.6001036
51
104.514704
0
ARC
8
DEFAULT_255_1_234
10
6.1439969
20
76.7667131
40
0.3502176
50
104.2855254
51
133.862935
0
ARC
8
DEFAULT_255_1_234
10
6.1603727
20
76.755883
40
0.3693984
50
134.5302688
51
161.6210873
0
ARC
8
DEFAULT_255_1_234
10
6.3256915
20
76.6975895
40
0.5446739
50
161.2849839
51
174.2076652
0
ARC
8
DEFAULT_255_1_234
10
6.4663852
20
76.6781787
40
0.6866274
50
173.7810589
51
174.9254635
0
ARC
8
DEFAULT_255_1_234
10
6.0113684
20
76.5398839
40
0.3033419
50
95.8330959
51
138.9954921
0
ARC
8
DEFAULT_255_1_234
10
6.033704
20
76.4120375
40
0.4328947
50
89.8753725
51
97.0544009
0
ARC
8
DEFAULT_255_1_234
10
6.0384506
20
76.4955748
40
0.3493769
50
71.6407809
51
90.6240094
0
ARC
8
DEFAULT_255_1_234
10
6.053508
20
76.5510082
40
0.2920396
50
39.6367836
51
71.019018
0
ARC
8
DEFAULT_255_1_234
10
5.9898553
20
76.4959998
40
0.3761538
50
10.658731
51
39.9043955
0
ARC
8
DEFAULT_255_1_234
10
5.8350636
20
76.4623686
40
0.5345136
50
359.682601
51
11.132623
0
ARC
8
DEFAULT_255_1_234
10
5.8310767
20
76.455301
40
0.5385081
50
347.2486944
51
0.4369317
0
ARC
8
DEFAULT_255_1_234
10
5.9978244
20
76.4151807
40
0.3670249
50
318.1409698
51
347.6118597
0
ARC
8
DEFAULT_255_1_234
10
6.0303237
20
76.3884702
40
0.3250007
50
275.6342139
51
317.8248465
0
ARC
8
DEFAULT_255_1_234
10
6.0082348
20
76.5184219
40
0.4565864
50
269.8874292
51
276.7917694
0
ARC
8
DEFAULT_255_1_234
10
6.0027419
20
76.4158743
40
0.3540676
50
246.9140195
51
270.7437342
0
ARC
8
DEFAULT_255_1_234
10
6.0033809
20
76.4016384
40
0.3412781
50
218.1665114
51
245.878116
0
ARC
8
DEFAULT_255_1_234
10
6.091327
20
76.4752279
40
0.455911
50
191.4115814
51
218.6077802
0
ARC
8
DEFAULT_255_1_234
10
6.2851359
20
76.5186833
40
0.6545001
50
179.6345085
51
191.7836486
0
ARC
8
DEFAULT_255_1_234
10
6.8433696
20
76.5865697
40
1.2127388
50
171.4525249
51
180.3158839
0
ARC
8
DEFAULT_255_1_234
10
6.4038571
20
76.6549608
40
0.7679464
50
157.9802646
51
171.6246686
0
ARC
8
DEFAULT_255_1_234
10
6.1824592
20
76.7432421
40
0.5296008
50
141.4298019
51
157.854097
0
ARC
8
DEFAULT_255_1_234
10
6.1182913
20
76.7886381
40
0.4511509
50
102.8715806
51
140.8564722
0
ARC
8
DEFAULT_255_1_234
10
6.1830528
20
76.5446552
40
0.7034845
50
90.3778349
51
103.5869322
0
ARC
8
DEFAULT_255_1_234
10
6.0092305
20
76.484173
40
0.2370698
50
89.8751008
51
126.2071704
0
ARC
8
DEFAULT_255_1_234
10
6.0138094
20
76.4687303
40
0.2522934
50
124.9745049
51
144.895901
0
ARC
8
DEFAULT_255_1_234
10
5.9962285
20
76.483056
40
0.2296779
50
145.2974905
51
160.2660252
0
ARC
8
DEFAULT_255_1_234
10
6.3034824
20
76.5028071
40
0.5234525
50
179.6514266
51
190.2855912
0
ARC
8
DEFAULT_255_1_234
10
6.1340961
20
76.4708786
40
0.3510893
50
190.0945431
51
207.5098196
0
ARC
8
DEFAULT_255_1_234
10
6.0775231
20
76.4439623
40
0.288489
50
207.9583163
51
216.3251085
0
ARC
8
DEFAULT_255_1_234
10
6.0435339
20
76.4160105
40
0.2445587
50
215.7661442
51
232.5456785
0
ARC
8
DEFAULT_255_1_234
10
6.0052322
20
76.3673482
40
0.1826382
50
232.8005391
51
270.6605633
0
ARC
8
DEFAULT_255_1_234
10
6.0098022
20
76.4037612
40
0.2190529
50
269.35537
51
288.4744281
0
ARC
8
DEFAULT_255_1_234
10
6.019092
20
76.3688118
40
0.1829749
50
289.1833337
51
322.9683818
0
ARC
8
DEFAULT_255_1_234
10
5.9579442
20
76.4170391
40
0.2608399
50
322.6007884
51
346.5182367
0
ARC
8
DEFAULT_255_1_234
10
5.8422038
20
76.4465616
40
0.3802777
50
346.2582162
51
358.7741648
0
ARC
8
DEFAULT_255_1_234
10
5.7403707
20
76.4520965
40
0.4822176
50
358.3755224
51
0.0098023
0
ARC
8
DEFAULT_255_1_234
10
5.8159894
20
76.4548657
40
0.4066078
50
359.6214041
51
11.2839074
0
ARC
8
DEFAULT_255_1_234
10
5.9437041
20
76.4815066
40
0.2761514
50
11.0482309
51
31.8146458
0
ARC
8
DEFAULT_255_1_234
10
5.9746084
20
76.4982584
40
0.2410679
50
32.3035391
51
38.082671
0
ARC
8
DEFAULT_255_1_234
10
6.0166744
20
76.5363662
40
0.1844966
50
36.825067
51
85.7415724
0
ARC
8
DEFAULT_255_1_234
10
6.0099577
20
76.4863301
40
0.2349122
50
85.0140713
51
90.0513278
0
LINE
8
DEFAULT_255_1_234
10
4.4580154
20
84.0154
11
4.1343364
21
84.0154
0
LINE
8
DEFAULT_255_1_234
10
4.1343364
20
84.0154
11
4.1343364
21
85.1848211
0
LINE
8
DEFAULT_255_1_234
10
4.1343364
20
85.1848211
11
4.4644408
21
85.1848211
0
LINE
8
DEFAULT_255_1_234
10
4.9800784
20
84.6394661
11
4.9800784
21
84.5647709
0
LINE
8
DEFAULT_255_1_234
10
4.4684567
20
85.0579196
11
4.2885458
21
85.0579196
0
LINE
8
DEFAULT_255_1_234
10
4.2885458
20
85.0579196
11
4.2885458
21
84.1414983
0
LINE
8
DEFAULT_255_1_234
10
4.2885458
20
84.1414983
11
4.4507869
21
84.1414983
0
LINE
8
DEFAULT_255_1_234
10
4.8274754
20
84.5679836
11
4.8274754
21
84.6362534
0
ARC
8
DEFAULT_255_1_234
10
4.4683351
20
84.5982894
40
0.5865446
50
75.4101064
51
90.3804066
0
ARC
8
DEFAULT_255_1_234
10
4.4912864
20
84.6939492
40
0.4881916
50
60.145586
51
75.1888407
0
ARC
8
DEFAULT_255_1_234
10
4.507164
20
84.7216199
40
0.4562893
50
26.5253612
51
60.1450928
0
ARC
8
DEFAULT_255_1_234
10
4.3951389
20
84.6622158
40
0.5830602
50
7.4030428
51
26.8320788
0
ARC
8
DEFAULT_255_1_234
10
4.2357146
20
84.6373804
40
0.7443669
50
0.1605367
51
7.7176192
0
ARC
8
DEFAULT_255_1_234
10
4.252105
20
84.5609434
40
0.7279835
50
348.7289388
51
0.3012466
0
ARC
8
DEFAULT_255_1_234
10
4.4177481
20
84.5280386
40
0.559104
50
333.0706509
51
348.7181832
0
ARC
8
DEFAULT_255_1_234
10
4.5144238
20
84.4755319
40
0.4491417
50
299.2531685
51
333.4571258
0
ARC
8
DEFAULT_255_1_234
10
4.4783378
20
84.5440828
40
0.5265881
50
278.107187
51
299.0339503
0
ARC
8
DEFAULT_255_1_234
10
4.4527457
20
84.6948216
40
0.679442
50
270.4443897
51
278.4511052
0
ARC
8
DEFAULT_255_1_234
10
4.4548287
20
84.6019213
40
0.4604407
50
269.4970433
51
284.0205042
0
ARC
8
DEFAULT_255_1_234
10
4.4903588
20
84.4653978
40
0.3193797
50
283.7700273
51
318.1555492
0
ARC
8
DEFAULT_255_1_234
10
4.4566346
20
84.4906367
40
0.3613588
50
318.7415601
51
343.6873628
0
ARC
8
DEFAULT_255_1_234
10
4.2762369
20
84.5469832
40
0.5503313
50
343.3325091
51
355.8548958
0
ARC
8
DEFAULT_255_1_234
10
4.0664054
20
84.5669319
40
0.7610708
50
355.4988528
51
0.0791727
0
ARC
8
DEFAULT_255_1_234
10
4.1446676
20
84.640478
40
0.6828208
50
359.6455037
51
9.8607896
0
ARC
8
DEFAULT_255_1_234
10
4.3807374
20
84.6831099
40
0.4429406
50
9.6571907
51
26.1932807
0
ARC
8
DEFAULT_255_1_234
10
4.4735363
20
84.7262118
40
0.3406537
50
26.5777228
51
40.1532208
0
ARC
8
DEFAULT_255_1_234
10
4.4991089
20
84.7461619
40
0.308246
50
40.3840491
51
80.1431104
0
ARC
8
DEFAULT_255_1_234
10
4.4664207
20
84.6012333
40
0.4566909
50
79.2152159
51
89.7445637
0
LINE
8
DEFAULT_255_1_234
10
5.3784526
20
85.1848211
11
5.3784526
21
84.0154
0
LINE
8
DEFAULT_255_1_234
10
5.3784526
20
84.0154
11
5.2242433
21
84.0154
0
LINE
8
DEFAULT_255_1_234
10
5.2242433
20
84.0154
11
5.2242433
21
85.1848211
0
LINE
8
DEFAULT_255_1_234
10
5.2242433
20
85.1848211
11
5.3784526
21
85.1848211
0
LINE
8
DEFAULT_255_1_234
10
5.8089538
20
84.5711963
11
5.6900841
21
84.6017169
0
LINE
8
DEFAULT_255_1_234
10
5.6900841
20
84.6017169
11
5.7495189
21
85.1848211
0
LINE
8
DEFAULT_255_1_234
10
5.7495189
20
85.1848211
11
6.3486866
21
85.1848211
0
LINE
8
DEFAULT_255_1_234
10
6.3486866
20
85.1848211
11
6.3486866
21
85.0474784
0
LINE
8
DEFAULT_255_1_234
10
6.3486866
20
85.0474784
11
5.8756172
21
85.0474784
0
LINE
8
DEFAULT_255_1_234
10
5.8756172
20
85.0474784
11
5.8402776
21
84.7286184
0
LINE
8
DEFAULT_255_1_234
10
5.648319
20
84.3230156
11
5.7888745
21
84.3230156
0
LINE
8
DEFAULT_255_1_234
10
5.8483093
20
84.6033232
11
5.8089538
21
84.5711963
0
ARC
8
DEFAULT_255_1_234
10
6.025756
20
84.410623
40
0.3681349
50
93.7182161
51
120.2538958
0
ARC
8
DEFAULT_255_1_234
10
6.0351823
20
84.3298394
40
0.449379
50
89.9660152
51
94.2496022
0
ARC
8
DEFAULT_255_1_234
10
6.0392557
20
84.3887549
40
0.390482
50
73.8043271
51
90.5585896
0
ARC
8
DEFAULT_255_1_234
10
6.0627454
20
84.4745602
40
0.3015334
50
41.3071453
51
73.5430202
0
ARC
8
DEFAULT_255_1_234
10
6.0211281
20
84.4387324
40
0.3564457
50
13.5075983
51
41.2174222
0
ARC
8
DEFAULT_255_1_234
10
5.8569485
20
84.3957486
40
0.5261351
50
1.1331335
51
13.8829381
0
ARC
8
DEFAULT_255_1_234
10
5.7157854
20
84.3881665
40
0.6674378
50
359.9919444
51
1.544251
0
ARC
8
DEFAULT_255_1_234
10
5.843468
20
84.384028
40
0.5397702
50
347.8572367
51
0.4293338
0
ARC
8
DEFAULT_255_1_234
10
6.0184998
20
84.3443736
40
0.3603188
50
323.673004
51
348.1672506
0
ARC
8
DEFAULT_255_1_234
10
6.0479506
20
84.3264168
40
0.3259678
50
316.8171152
51
323.1492751
0
ARC
8
DEFAULT_255_1_234
10
6.0540695
20
84.322746
40
0.3189975
50
281.8396411
51
316.5457803
0
ARC
8
DEFAULT_255_1_234
10
6.0164958
20
84.4782762
40
0.4789527
50
269.5770101
51
282.4214771
0
ARC
8
DEFAULT_255_1_234
10
6.009377
20
84.4569125
40
0.45759
50
256.2427136
51
270.4486331
0
ARC
8
DEFAULT_255_1_234
10
5.9794672
20
84.3369229
40
0.3339303
50
228.9023911
51
256.3314342
0
ARC
8
DEFAULT_255_1_234
10
5.9720905
20
84.3252746
40
0.32031
50
193.753695
51
228.5271154
0
ARC
8
DEFAULT_255_1_234
10
6.0958859
20
84.36158
40
0.4492253
50
184.924711
51
194.497588
0
ARC
8
DEFAULT_255_1_234
10
6.1151426
20
84.3651591
40
0.3289787
50
187.3600538
51
198.6732863
0
ARC
8
DEFAULT_255_1_234
10
6.010172
20
84.3287674
40
0.217884
50
198.4451669
51
217.794479
0
ARC
8
DEFAULT_255_1_234
10
5.9805895
20
84.3078085
40
0.1816698
50
218.2887171
51
228.5612368
0
ARC
8
DEFAULT_255_1_234
10
5.9903682
20
84.3209963
40
0.1980329
50
228.9654866
51
258.1234728
0
ARC
8
DEFAULT_255_1_234
10
6.0109392
20
84.4090833
40
0.2884748
50
257.7258293
51
270.401361
0
ARC
8
DEFAULT_255_1_234
10
6.0154278
20
84.3645821
40
0.2439788
50
269.4204404
51
286.4209037
0
ARC
8
DEFAULT_255_1_234
10
6.0302766
20
84.3106657
40
0.1880666
50
286.7251356
51
320.600362
0
ARC
8
DEFAULT_255_1_234
10
5.9919591
20
84.3417595
40
0.2374121
50
320.6712579
51
344.5441685
0
ARC
8
DEFAULT_255_1_234
10
5.8762917
20
84.3757045
40
0.3579479
50
344.2412205
51
356.7357071
0
ARC
8
DEFAULT_255_1_234
10
5.7514065
20
84.3860444
40
0.4832297
50
356.3548756
51
0.0500261
0
ARC
8
DEFAULT_255_1_234
10
5.8850575
20
84.389165
40
0.3495889
50
359.5576869
51
12.953486
0
ARC
8
DEFAULT_255_1_234
10
5.9905472
20
84.4147434
40
0.2410532
50
12.6490276
51
41.6081334
0
ARC
8
DEFAULT_255_1_234
10
6.0135843
20
84.4343321
40
0.2108218
50
41.7850273
51
85.9892764
0
ARC
8
DEFAULT_255_1_234
10
6.001258
20
84.3530462
40
0.2928454
50
84.6957577
51
90.0676183
0
ARC
8
DEFAULT_255_1_234
10
5.9989064
20
84.2861716
40
0.3597255
50
89.6804936
51
99.1614436
0
ARC
8
DEFAULT_255_1_234
10
5.9783695
20
84.4089131
40
0.235281
50
98.9830931
51
113.8908934
0
ARC
8
DEFAULT_255_1_234
10
5.9554105
20
84.4630587
40
0.176479
50
114.1950727
51
127.3641004
0
LINE
8
DEFAULT_255_1_234
10
4.5638154
20
91.9529
11
4.2401364
21
91.9529
0
LINE
8
DEFAULT_255_1_234
10
4.2401364
20
91.9529
11
4.2401364
21
93.1223211
0
LINE
8
DEFAULT_255_1_234
10
4.2401364
20
93.1223211
11
4.5702408
21
93.1223211
0
LINE
8
DEFAULT_255_1_234
10
5.0858784
20
92.5769661
11
5.0858784
21
92.5022709
0
LINE
8
DEFAULT_255_1_234
10
4.5742567
20
92.9954196
11
4.3943458
21
92.9954196
0
LINE
8
DEFAULT_255_1_234
10
4.3943458
20
92.9954196
11
4.3943458
21
92.0789983
0
LINE
8
DEFAULT_255_1_234
10
4.3943458
20
92.0789983
11
4.5565869
21
92.0789983
0
LINE
8
DEFAULT_255_1_234
10
4.9332754
20
92.5054836
11
4.9332754
21
92.5737534
0
ARC
8
DEFAULT_255_1_234
10
4.5741351
20
92.5357894
40
0.5865446
50
75.4101064
51
90.3804066
0
ARC
8
DEFAULT_255_1_234
10
4.5970864
20
92.6314492
40
0.4881916
50
60.145586
51
75.1888407
0
ARC
8
DEFAULT_255_1_234
10
4.612964
20
92.6591199
40
0.4562893
50
26.5253612
51
60.1450928
0
ARC
8
DEFAULT_255_1_234
10
4.5009389
20
92.5997158
40
0.5830602
50
7.4030428
51
26.8320788
0
ARC
8
DEFAULT_255_1_234
10
4.3415146
20
92.5748804
40
0.7443669
50
0.1605367
51
7.7176192
0
ARC
8
DEFAULT_255_1_234
10
4.357905
20
92.4984434
40
0.7279835
50
348.7289388
51
0.3012466
0
ARC
8
DEFAULT_255_1_234
10
4.5235481
20
92.4655386
40
0.559104
50
333.0706509
51
348.7181832
0
ARC
8
DEFAULT_255_1_234
10
4.6202238
20
92.4130319
40
0.4491417
50
299.2531685
51
333.4571258
0
ARC
8
DEFAULT_255_1_234
10
4.5841378
20
92.4815828
40
0.5265881
50
278.107187
51
299.0339503
0
ARC
8
DEFAULT_255_1_234
10
4.5585457
20
92.6323216
40
0.679442
50
270.4443897
51
278.4511052
0
ARC
8
DEFAULT_255_1_234
10
4.5606287
20
92.5394213
40
0.4604407
50
269.4970433
51
284.0205042
0
ARC
8
DEFAULT_255_1_234
10
4.5961588
20
92.4028978
40
0.3193797
50
283.7700273
51
318.1555492
0
ARC
8
DEFAULT_255_1_234
10
4.5624346
20
92.4281367
40
0.3613588
50
318.7415601
51
343.6873628
0
ARC
8
DEFAULT_255_1_234
10
4.3820369
20
92.4844832
40
0.5503313
50
343.3325091
51
355.8548958
0
ARC
8
DEFAULT_255_1_234
10
4.1722054
20
92.5044319
40
0.7610708
50
355.4988528
51
0.0791727
0
ARC
8
DEFAULT_255_1_234
10
4.2504676
20
92.577978
40
0.6828208
50
359.6455037
51
9.8607896
0
ARC
8
DEFAULT_255_1_234
10
4.4865374
20
92.6206099
40
0.4429406
50
9.6571907
51
26.1932807
0
ARC
8
DEFAULT_255_1_234
10
4.5793363
20
92.6637118
40
0.3406537
50
26.5777228
51
40.1532208
0
ARC
8
DEFAULT_255_1_234
10
4.6049089
20
92.6836619
40
0.308246
50
40.3840491
51
80.1431104
0
ARC
8
DEFAULT_255_1_234
10
4.5722207
20
92.5387333
40
0.4566909
50
79.2152159
51
89.7445637
0
LINE
8
DEFAULT_255_1_234
10
5.4842526
20
93.1223211
11
5.4842526
21
91.9529
0
LINE
8
DEFAULT_255_1_234
10
5.4842526
20
91.9529
11
5.3300433
21
91.9529
0
LINE
8
DEFAULT_255_1_234
10
5.3300433
20
91.9529
11
5.3300433
21
93.1223211
0
LINE
8
DEFAULT_255_1_234
10
5.3300433
20
93.1223211
11
5.4842526
21
93.1223211
0
LINE
8
DEFAULT_255_1_234
10
6.3548931
20
93.1223211
11
6.3548931
21
92.345652
0
LINE
8
DEFAULT_255_1_234
10
6.3548931
20
92.345652
11
6.5171342
21
92.345652
0
LINE
8
DEFAULT_255_1_234
10
6.5171342
20
92.345652
11
6.5171342
21
92.2243728
0
LINE
8
DEFAULT_255_1_234
10
6.5171342
20
92.2243728
11
6.3548931
21
92.2243728
0
LINE
8
DEFAULT_255_1_234
10
6.3548931
20
92.2243728
11
6.3548931
21
91.9529
0
LINE
8
DEFAULT_255_1_234
10
6.3548931
20
91.9529
11
6.2055027
21
91.9529
0
LINE
8
DEFAULT_255_1_234
10
6.2055027
20
91.9529
11
6.2055027
21
92.2243728
0
LINE
8
DEFAULT_255_1_234
10
6.2055027
20
92.2243728
11
5.6729985
21
92.2243728
0
LINE
8
DEFAULT_255_1_234
10
5.6729985
20
92.2243728
11
5.6729985
21
92.3119187
0
LINE
8
DEFAULT_255_1_234
10
5.6729985
20
92.3119187
11
6.1966678
21
93.1223211
0
LINE
8
DEFAULT_255_1_234
10
6.1966678
20
93.1223211
11
6.3548931
21
93.1223211
0
LINE
8
DEFAULT_255_1_234
10
6.1878329
20
92.8869912
11
5.841665
21
92.345652
0
LINE
8
DEFAULT_255_1_234
10
5.841665
20
92.345652
11
6.2055027
21
92.345652
0
LINE
8
DEFAULT_255_1_234
10
6.2055027
20
92.345652
11
6.2055027
21
92.9191181
0
LINE
8
DEFAULT_255_1_234
10
6.2055027
20
92.9191181
11
6.1878329
21
92.8869912
0
LINE
8
DEFAULT_255_1_234
10
4.4580154
20
99.8904
11
4.1343364
21
99.8904
0
LINE
8
DEFAULT_255_1_234
10
4.1343364
20
99.8904
11
4.1343364
21
101.0598211
0
LINE
8
DEFAULT_255_1_234
10
4.1343364
20
101.0598211
11
4.4644408
21
101.0598211
0
LINE
8
DEFAULT_255_1_234
10
4.9800784
20
100.5144661
11
4.9800784
21
100.4397709
0
LINE
8
DEFAULT_255_1_234
10
4.4684567
20
100.9329196
11
4.2885458
21
100.9329196
0
LINE
8
DEFAULT_255_1_234
10
4.2885458
20
100.9329196
11
4.2885458
21
100.0164983
0
LINE
8
DEFAULT_255_1_234
10
4.2885458
20
100.0164983
11
4.4507869
21
100.0164983
0
LINE
8
DEFAULT_255_1_234
10
4.8274754
20
100.4429836
11
4.8274754
21
100.5112534
0
ARC
8
DEFAULT_255_1_234
10
4.4683351
20
100.4732894
40
0.5865446
50
75.4101064
51
90.3804066
0
ARC
8
DEFAULT_255_1_234
10
4.4912864
20
100.5689492
40
0.4881916
50
60.145586
51
75.1888407
0
ARC
8
DEFAULT_255_1_234
10
4.507164
20
100.5966199
40
0.4562893
50
26.5253612
51
60.1450928
0
ARC
8
DEFAULT_255_1_234
10
4.3951389
20
100.5372158
40
0.5830602
50
7.4030428
51
26.8320788
0
ARC
8
DEFAULT_255_1_234
10
4.2357146
20
100.5123804
40
0.7443669
50
0.1605367
51
7.7176192
0
ARC
8
DEFAULT_255_1_234
10
4.252105
20
100.4359434
40
0.7279835
50
348.7289388
51
0.3012466
0
ARC
8
DEFAULT_255_1_234
10
4.4177481
20
100.4030386
40
0.559104
50
333.0706509
51
348.7181832
0
ARC
8
DEFAULT_255_1_234
10
4.5144238
20
100.3505319
40
0.4491417
50
299.2531685
51
333.4571258
0
ARC
8
DEFAULT_255_1_234
10
4.4783378
20
100.4190828
40
0.5265881
50
278.107187
51
299.0339503
0
ARC
8
DEFAULT_255_1_234
10
4.4527457
20
100.5698216
40
0.679442
50
270.4443897
51
278.4511052
0
ARC
8
DEFAULT_255_1_234
10
4.4548287
20
100.4769213
40
0.4604407
50
269.4970433
51
284.0205042
0
ARC
8
DEFAULT_255_1_234
10
4.4903588
20
100.3403978
40
0.3193797
50
283.7700273
51
318.1555492
0
ARC
8
DEFAULT_255_1_234
10
4.4566346
20
100.3656367
40
0.3613588
50
318.7415601
51
343.6873628
0
ARC
8
DEFAULT_255_1_234
10
4.2762369
20
100.4219832
40
0.5503313
50
343.3325091
51
355.8548958
0
ARC
8
DEFAULT_255_1_234
10
4.0664054
20
100.4419319
40
0.7610708
50
355.4988528
51
0.0791727
0
ARC
8
DEFAULT_255_1_234
10
4.1446676
20
100.515478
40
0.6828208
50
359.6455037
51
9.8607896
0
ARC
8
DEFAULT_255_1_234
10
4.3807374
20
100.5581099
40
0.4429406
50
9.6571907
51
26.1932807
0
ARC
8
DEFAULT_255_1_234
10
4.4735363
20
100.6012118
40
0.3406537
50
26.5777228
51
40.1532208
0
ARC
8
DEFAULT_255_1_234
10
4.4991089
20
100.6211619
40
0.308246
50
40.3840491
51
80.1431104
0
ARC
8
DEFAULT_255_1_234
10
4.4664207
20
100.4762333
40
0.4566909
50
79.2152159
51
89.7445637
0
LINE
8
DEFAULT_255_1_234
10
5.3784526
20
101.0598211
11
5.3784526
21
99.8904
0
LINE
8
DEFAULT_255_1_234
10
5.3784526
20
99.8904
11
5.2242433
21
99.8904
0
LINE
8
DEFAULT_255_1_234
10
5.2242433
20
99.8904
11
5.2242433
21
101.0598211
0
LINE
8
DEFAULT_255_1_234
10
5.2242433
20
101.0598211
11
5.3784526
21
101.0598211
0
LINE
8
DEFAULT_255_1_234
10
5.8378681
20
100.4261169
11
5.8378681
21
100.5473962
0
LINE
8
DEFAULT_255_1_234
10
5.8378681
20
100.5473962
11
5.9495092
21
100.5473962
0
LINE
8
DEFAULT_255_1_234
10
5.759157
20
100.7530087
11
5.6105699
21
100.7530087
0
LINE
8
DEFAULT_255_1_234
10
5.6001286
20
100.1988188
11
5.7495189
21
100.1988188
0
LINE
8
DEFAULT_255_1_234
10
5.9495092
20
100.4261169
11
5.8378681
21
100.4261169
0
ARC
8
DEFAULT_255_1_234
10
5.9465959
20
100.8866713
40
0.3392876
50
270.4919872
51
281.8951556
0
ARC
8
DEFAULT_255_1_234
10
5.970722
20
100.7764702
40
0.2264817
50
281.6691735
51
301.2943132
0
ARC
8
DEFAULT_255_1_234
10
5.9877431
20
100.7453304
40
0.1910381
50
301.7833094
51
311.7545298
0
ARC
8
DEFAULT_255_1_234
10
5.9969006
20
100.7351748
40
0.1773635
50
311.7323931
51
354.2802411
0
ARC
8
DEFAULT_255_1_234
10
5.9242632
20
100.7476722
40
0.2509385
50
353.0937916
51
0.1181479
0
ARC
8
DEFAULT_255_1_234
10
5.8781416
20
100.7524386
40
0.2970898
50
359.1805295
51
15.0453146
0
ARC
8
DEFAULT_255_1_234
10
6.0127253
20
100.7916992
40
0.1569564
50
13.9577229
51
77.6713066
0
ARC
8
DEFAULT_255_1_234
10
5.9740783
20
100.6531949
40
0.3006298
50
76.1116566
51
90.7026153
0
ARC
8
DEFAULT_255_1_234
10
5.9681621
20
100.6805545
40
0.2732568
50
89.5324876
51
103.531937
0
ARC
8
DEFAULT_255_1_234
10
5.9481065
20
100.7604884
40
0.1908508
50
103.2931773
51
133.5619022
0
ARC
8
DEFAULT_255_1_234
10
5.9436553
20
100.7664375
40
0.1834746
50
133.8349307
51
173.5344437
0
ARC
8
DEFAULT_255_1_234
10
6.0159597
20
100.7536213
40
0.2568033
50
172.5096846
51
180.1366907
0
ARC
8
DEFAULT_255_1_234
10
5.920849
20
100.7570622
40
0.3103056
50
155.3484492
51
180.7484736
0
ARC
8
DEFAULT_255_1_234
10
5.9159579
20
100.7541846
40
0.3070957
50
131.5744599
51
154.4798489
0
ARC
8
DEFAULT_255_1_234
10
5.9472727
20
100.722531
40
0.3515643
50
96.9875458
51
131.9690667
0
ARC
8
DEFAULT_255_1_234
10
5.9692207
20
100.5979636
40
0.4779224
50
89.8596053
51
97.7825159
0
ARC
8
DEFAULT_255_1_234
10
5.974027
20
100.5717616
40
0.5041361
50
78.3655447
51
90.4131539
0
ARC
8
DEFAULT_255_1_234
10
6.0098188
20
100.7376887
40
0.3344039
50
56.6229102
51
78.638727
0
ARC
8
DEFAULT_255_1_234
10
6.0313131
20
100.7752805
40
0.2912001
50
47.0253525
51
56.0854072
0
ARC
8
DEFAULT_255_1_234
10
6.0332911
20
100.7792223
40
0.2869704
50
10.9208013
51
46.7778124
0
ARC
8
DEFAULT_255_1_234
10
5.8968978
20
100.7476857
40
0.426899
50
359.6364486
51
11.6087304
0
ARC
8
DEFAULT_255_1_234
10
6.0803822
20
100.7461752
40
0.243409
50
332.3549906
51
359.7179418
0
ARC
8
DEFAULT_255_1_234
10
6.0153423
20
100.7770142
40
0.3153459
50
325.2333722
51
332.8745602
0
ARC
8
DEFAULT_255_1_234
10
6.0306047
20
100.7663828
40
0.2967456
50
292.9802137
51
325.2392345
0
ARC
8
DEFAULT_255_1_234
10
6.0031421
20
100.8197863
40
0.3566604
50
292.5402179
51
293.6924929
0
ARC
8
DEFAULT_255_1_234
10
6.0424017
20
100.1743091
40
0.3307468
50
57.6435486
51
72.8625112
0
ARC
8
DEFAULT_255_1_234
10
6.0778517
20
100.2317549
40
0.2632492
50
36.7248896
51
57.4697979
0
ARC
8
DEFAULT_255_1_234
10
6.0767149
20
100.233022
40
0.2634081
50
8.0545065
51
36.356114
0
ARC
8
DEFAULT_255_1_234
10
5.9904335
20
100.2175174
40
0.3510261
50
359.8320645
51
8.5869982
0
ARC
8
DEFAULT_255_1_234
10
5.9529111
20
100.2127101
40
0.3885653
50
343.9829931
51
0.5571613
0
ARC
8
DEFAULT_255_1_234
10
6.0415308
20
100.1884438
40
0.2966924
50
311.6359546
51
343.7651759
0
ARC
8
DEFAULT_255_1_234
10
6.0036877
20
100.2311102
40
0.3537231
50
279.7829875
51
311.6255694
0
ARC
8
DEFAULT_255_1_234
10
5.9735653
20
100.374828
40
0.5004971
50
269.7286406
51
280.3856417
0
ARC
8
DEFAULT_255_1_234
10
5.9673726
20
100.3706996
40
0.4963778
50
256.6828919
51
270.4412052
0
ARC
8
DEFAULT_255_1_234
10
5.9335022
20
100.2322394
40
0.3538406
50
229.4223008
51
256.8556159
0
ARC
8
DEFAULT_255_1_234
10
5.8920415
20
100.1855736
40
0.2914296
50
181.818294
51
229.6455059
0
ARC
8
DEFAULT_255_1_234
10
5.9960371
20
100.1986496
40
0.3959084
50
179.9755256
51
183.2323064
0
ARC
8
DEFAULT_255_1_234
10
5.9788117
20
100.1966037
40
0.2293034
50
179.4465117
51
196.2869258
0
ARC
8
DEFAULT_255_1_234
10
5.9300525
20
100.1832651
40
0.1787621
50
196.5661473
51
227.705904
0
ARC
8
DEFAULT_255_1_234
10
5.9464619
20
100.2016155
40
0.2033784
50
227.7652068
51
257.8762805
0
ARC
8
DEFAULT_255_1_234
10
5.968959
20
100.2959156
40
0.3003081
50
257.4584385
51
270.426602
0
ARC
8
DEFAULT_255_1_234
10
5.9735156
20
100.3248996
40
0.329292
50
269.5962073
51
280.8789248
0
ARC
8
DEFAULT_255_1_234
10
5.9964685
20
100.2102685
40
0.2123908
50
280.6346389
51
299.8595945
0
ARC
8
DEFAULT_255_1_234
10
6.0155591
20
100.1740212
40
0.171457
50
300.3576302
51
314.5517981
0
ARC
8
DEFAULT_255_1_234
10
6.0072651
20
100.1800919
40
0.1816095
50
315.0728369
51
345.0431014
0
ARC
8
DEFAULT_255_1_234
10
5.9149466
20
100.2069841
40
0.2777492
50
344.5986631
51
357.9269593
0
ARC
8
DEFAULT_255_1_234
10
5.8253792
20
100.2131276
40
0.3674917
50
357.4748886
51
0.0231117
0
ARC
8
DEFAULT_255_1_234
10
5.9276901
20
100.2155679
40
0.2651907
50
359.5047933
51
13.4239635
0
ARC
8
DEFAULT_255_1_234
10
6.0143545
20
100.2377478
40
0.1757509
50
12.9498199
51
48.7551375
0
ARC
8
DEFAULT_255_1_234
10
5.9961279
20
100.21284
40
0.2065134
50
49.5088623
51
72.1836453
0
ARC
8
DEFAULT_255_1_234
10
5.9603431
20
100.1066291
40
0.3185836
50
71.9010081
51
84.3554254
0
ARC
8
DEFAULT_255_1_234
10
5.9442063
20
99.9705326
40
0.4556151
50
84.0193428
51
89.333121
0
LINE
8
DEFAULT_255_1_234
10
4.4580154
20
107.8279
11
4.1343364
21
107.8279
0
LINE
8
DEFAULT_255_1_234
10
4.1343364
20
107.8279
11
4.1343364
21
108.9973211
0
LINE
8
DEFAULT_255_1_234
10
4.1343364
20
108.9973211
11
4.4644408
21
108.9973211
0
LINE
8
DEFAULT_255_1_234
10
4.9800784
20
108.4519661
11
4.9800784
21
108.3772709
0
LINE
8
DEFAULT_255_1_234
10
4.4684567
20
108.8704196
11
4.2885458
21
108.8704196
0
LINE
8
DEFAULT_255_1_234
10
4.2885458
20
108.8704196
11
4.2885458
21
107.9539983
0
LINE
8
DEFAULT_255_1_234
10
4.2885458
20
107.9539983
11
4.4507869
21
107.9539983
0
LINE
8
DEFAULT_255_1_234
10
4.8274754
20
108.3804836
11
4.8274754
21
108.4487534
0
ARC
8
DEFAULT_255_1_234
10
4.4683351
20
108.4107894
40
0.5865446
50
75.4101064
51
90.3804066
0
ARC
8
DEFAULT_255_1_234
10
4.4912864
20
108.5064492
40
0.4881916
50
60.145586
51
75.1888407
0
ARC
8
DEFAULT_255_1_234
10
4.507164
20
108.5341199
40
0.4562893
50
26.5253612
51
60.1450928
0
ARC
8
DEFAULT_255_1_234
10
4.3951389
20
108.4747158
40
0.5830602
50
7.4030428
51
26.8320788
0
ARC
8
DEFAULT_255_1_234
10
4.2357146
20
108.4498804
40
0.7443669
50
0.1605367
51
7.7176192
0
ARC
8
DEFAULT_255_1_234
10
4.252105
20
108.3734434
40
0.7279835
50
348.7289388
51
0.3012466
0
ARC
8
DEFAULT_255_1_234
10
4.4177481
20
108.3405386
40
0.559104
50
333.0706509
51
348.7181832
0
ARC
8
DEFAULT_255_1_234
10
4.5144238
20
108.2880319
40
0.4491417
50
299.2531685
51
333.4571258
0
ARC
8
DEFAULT_255_1_234
10
4.4783378
20
108.3565828
40
0.5265881
50
278.107187
51
299.0339503
0
ARC
8
DEFAULT_255_1_234
10
4.4527457
20
108.5073216
40
0.679442
50
270.4443897
51
278.4511052
0
ARC
8
DEFAULT_255_1_234
10
4.4548287
20
108.4144213
40
0.4604407
50
269.4970433
51
284.0205042
0
ARC
8
DEFAULT_255_1_234
10
4.4903588
20
108.2778978
40
0.3193797
50
283.7700273
51
318.1555492
0
ARC
8
DEFAULT_255_1_234
10
4.4566346
20
108.3031367
40
0.3613588
50
318.7415601
51
343.6873628
0
ARC
8
DEFAULT_255_1_234
10
4.2762369
20
108.3594832
40
0.5503313
50
343.3325091
51
355.8548958
0
ARC
8
DEFAULT_255_1_234
10
4.0664054
20
108.3794319
40
0.7610708
50
355.4988528
51
0.0791727
0
ARC
8
DEFAULT_255_1_234
10
4.1446676
20
108.452978
40
0.6828208
50
359.6455037
51
9.8607896
0
ARC
8
DEFAULT_255_1_234
10
4.3807374
20
108.4956099
40
0.4429406
50
9.6571907
51
26.1932807
0
ARC
8
DEFAULT_255_1_234
10
4.4735363
20
108.5387118
40
0.3406537
50
26.5777228
51
40.1532208
0
ARC
8
DEFAULT_255_1_234
10
4.4991089
20
108.5586619
40
0.308246
50
40.3840491
51
80.1431104
0
ARC
8
DEFAULT_255_1_234
10
4.4664207
20
108.4137333
40
0.4566909
50
79.2152159
51
89.7445637
0
LINE
8
DEFAULT_255_1_234
10
5.3784526
20
108.9973211
11
5.3784526
21
107.8279
0
LINE
8
DEFAULT_255_1_234
10
5.3784526
20
107.8279
11
5.2242433
21
107.8279
0
LINE
8
DEFAULT_255_1_234
10
5.2242433
20
107.8279
11
5.2242433
21
108.9973211
0
LINE
8
DEFAULT_255_1_234
10
5.2242433
20
108.9973211
11
5.3784526
21
108.9973211
0
LINE
8
DEFAULT_255_1_234
10
6.3880421
20
107.9491792
11
6.3880421
21
107.8279
0
LINE
8
DEFAULT_255_1_234
10
6.3880421
20
107.8279
11
5.6218143
21
107.8279
0
LINE
8
DEFAULT_255_1_234
10
5.6218143
20
107.8279
11
5.6218143
21
107.9347221
0
LINE
8
DEFAULT_255_1_234
10
5.6218143
20
107.9347221
11
6.0266139
21
108.3844995
0
LINE
8
DEFAULT_255_1_234
10
5.7479126
20
108.6527595
11
5.5993254
21
108.6527595
0
LINE
8
DEFAULT_255_1_234
10
6.1141599
20
108.2889218
11
5.8009221
21
107.9491792
0
LINE
8
DEFAULT_255_1_234
10
5.8009221
20
107.9491792
11
6.3880421
21
107.9491792
0
ARC
8
DEFAULT_255_1_234
10
4.6775972
20
109.5774527
40
1.8008286
50
318.5132453
51
320.7828378
0
ARC
8
DEFAULT_255_1_234
10
5.2062947
20
109.1471426
40
1.1191493
50
320.7372736
51
323.9737074
0
ARC
8
DEFAULT_255_1_234
10
5.5982803
20
108.8631361
40
0.6350923
50
323.8961724
51
328.6421089
0
ARC
8
DEFAULT_255_1_234
10
5.8029399
20
108.7369031
40
0.3946393
50
328.8299013
51
331.789948
0
ARC
8
DEFAULT_255_1_234
10
5.9026577
20
108.6854509
40
0.2824501
50
331.4255242
51
352.9364833
0
ARC
8
DEFAULT_255_1_234
10
5.9163078
20
108.6823976
40
0.2685315
50
353.2248685
51
0.0169286
0
ARC
8
DEFAULT_255_1_234
10
5.9372955
20
108.684695
40
0.2475536
50
359.4866256
51
15.9339782
0
ARC
8
DEFAULT_255_1_234
10
5.987994
20
108.6983286
40
0.1950618
50
16.1714718
51
43.5284424
0
ARC
8
DEFAULT_255_1_234
10
5.9957248
20
108.7060573
40
0.184134
50
43.4415429
51
83.1661404
0
ARC
8
DEFAULT_255_1_234
10
5.9823167
20
108.6323771
40
0.258926
50
82.160215
51
90.1505798
0
ARC
8
DEFAULT_255_1_234
10
5.9791594
20
108.5786865
40
0.3126255
50
89.5460705
51
102.5418777
0
ARC
8
DEFAULT_255_1_234
10
5.954868
20
108.6817665
40
0.2067346
50
102.1739365
51
129.2061916
0
ARC
8
DEFAULT_255_1_234
10
5.9469752
20
108.6942094
40
0.1921118
50
129.7279328
51
135.7542026
0
ARC
8
DEFAULT_255_1_234
10
5.9591279
20
108.6845045
40
0.2075944
50
136.175737
51
166.3674722
0
ARC
8
DEFAULT_255_1_234
10
6.0598199
20
108.6575182
40
0.3118201
50
165.9092917
51
178.8683903
0
ARC
8
DEFAULT_255_1_234
10
6.146306
20
108.6528179
40
0.3983935
50
178.438168
51
180.0083905
0
ARC
8
DEFAULT_255_1_234
10
6.0061662
20
108.6567231
40
0.4068601
50
163.2878735
51
180.5581814
0
ARC
8
DEFAULT_255_1_234
10
5.9259923
20
108.678784
40
0.3237344
50
133.454115
51
162.9470031
0
ARC
8
DEFAULT_255_1_234
10
5.9438465
20
108.6598
40
0.349795
50
100.7869394
51
133.4384016
0
ARC
8
DEFAULT_255_1_234
10
5.9786236
20
108.5049319
40
0.5084616
50
89.6605301
51
101.3704185
0
ARC
8
DEFAULT_255_1_234
10
5.9852575
20
108.5110496
40
0.502348
50
78.2171172
51
90.4130393
0
ARC
8
DEFAULT_255_1_234
10
6.0207653
20
108.6734637
40
0.3361092
50
55.9268222
51
78.4888551
0
ARC
8
DEFAULT_255_1_234
10
6.0404094
20
108.7073324
40
0.2970617
50
47.9292255
51
55.4054003
0
ARC
8
DEFAULT_255_1_234
10
6.0505654
20
108.7176502
40
0.2825983
50
4.3347696
51
48.0560701
0
ARC
8
DEFAULT_255_1_234
10
5.9410048
20
108.7006601
40
0.393225
50
359.925209
51
5.5967654
0
ARC
8
DEFAULT_255_1_234
10
5.983894
20
108.7062816
40
0.3503892
50
337.8914096
51
358.9967724
0
ARC
8
DEFAULT_255_1_234
10
5.7125352
20
108.8109706
40
0.6412172
50
326.9135351
51
338.3505194
0
ARC
8
DEFAULT_255_1_234
10
5.3139656
20
109.0664284
40
1.1146189
50
319.6472867
51
327.095818
0
ARC
8
DEFAULT_255_1_234
10
4.9306659
20
109.3826
40
1.6114559
50
317.2586784
51
319.9046139
0
LINE
8
DEFAULT_255_1_234
10
4.4488154
20
115.7654
11
4.1251364
21
115.7654
0
LINE
8
DEFAULT_255_1_234
10
4.1251364
20
115.7654
11
4.1251364
21
116.9348211
0
LINE
8
DEFAULT_255_1_234
10
4.1251364
20
116.9348211
11
4.4552408
21
116.9348211
0
LINE
8
DEFAULT_255_1_234
10
4.9708784
20
116.3894661
11
4.9708784
21
116.3147709
0
LINE
8
DEFAULT_255_1_234
10
4.4592567
20
116.8079196
11
4.2793458
21
116.8079196
0
LINE
8
DEFAULT_255_1_234
10
4.2793458
20
116.8079196
11
4.2793458
21
115.8914983
0
LINE
8
DEFAULT_255_1_234
10
4.2793458
20
115.8914983
11
4.4415869
21
115.8914983
0
LINE
8
DEFAULT_255_1_234
10
4.8182754
20
116.3179836
11
4.8182754
21
116.3862534
0
ARC
8
DEFAULT_255_1_234
10
4.4591351
20
116.3482894
40
0.5865446
50
75.4101064
51
90.3804066
0
ARC
8
DEFAULT_255_1_234
10
4.4820864
20
116.4439492
40
0.4881916
50
60.145586
51
75.1888407
0
ARC
8
DEFAULT_255_1_234
10
4.497964
20
116.4716199
40
0.4562893
50
26.5253612
51
60.1450928
0
ARC
8
DEFAULT_255_1_234
10
4.3859389
20
116.4122158
40
0.5830602
50
7.4030428
51
26.8320788
0
ARC
8
DEFAULT_255_1_234
10
4.2265146
20
116.3873804
40
0.7443669
50
0.1605367
51
7.7176192
0
ARC
8
DEFAULT_255_1_234
10
4.242905
20
116.3109434
40
0.7279835
50
348.7289388
51
0.3012466
0
ARC
8
DEFAULT_255_1_234
10
4.4085481
20
116.2780386
40
0.559104
50
333.0706509
51
348.7181832
0
ARC
8
DEFAULT_255_1_234
10
4.5052238
20
116.2255319
40
0.4491417
50
299.2531685
51
333.4571258
0
ARC
8
DEFAULT_255_1_234
10
4.4691378
20
116.2940828
40
0.5265881
50
278.107187
51
299.0339503
0
ARC
8
DEFAULT_255_1_234
10
4.4435457
20
116.4448216
40
0.679442
50
270.4443897
51
278.4511052
0
ARC
8
DEFAULT_255_1_234
10
4.4456287
20
116.3519213
40
0.4604407
50
269.4970433
51
284.0205042
0
ARC
8
DEFAULT_255_1_234
10
4.4811588
20
116.2153978
40
0.3193797
50
283.7700273
51
318.1555492
0
ARC
8
DEFAULT_255_1_234
10
4.4474346
20
116.2406367
40
0.3613588
50
318.7415601
51
343.6873628
0
ARC
8
DEFAULT_255_1_234
10
4.2670369
20
116.2969832
40
0.5503313
50
343.3325091
51
355.8548958
0
ARC
8
DEFAULT_255_1_234
10
4.0572054
20
116.3169319
40
0.7610708
50
355.4988528
51
0.0791727
0
ARC
8
DEFAULT_255_1_234
10
4.1354676
20
116.390478
40
0.6828208
50
359.6455037
51
9.8607896
0
ARC
8
DEFAULT_255_1_234
10
4.3715374
20
116.4331099
40
0.4429406
50
9.6571907
51
26.1932807
0
ARC
8
DEFAULT_255_1_234
10
4.4643363
20
116.4762118
40
0.3406537
50
26.5777228
51
40.1532208
0
ARC
8
DEFAULT_255_1_234
10
4.4899089
20
116.4961619
40
0.308246
50
40.3840491
51
80.1431104
0
ARC
8
DEFAULT_255_1_234
10
4.4572207
20
116.3512333
40
0.4566909
50
79.2152159
51
89.7445637
0
LINE
8
DEFAULT_255_1_234
10
5.3692526
20
116.9348211
11
5.3692526
21
115.7654
0
LINE
8
DEFAULT_255_1_234
10
5.3692526
20
115.7654
11
5.2150433
21
115.7654
0
LINE
8
DEFAULT_255_1_234
10
5.2150433
20
115.7654
11
5.2150433
21
116.9348211
0
LINE
8
DEFAULT_255_1_234
10
5.2150433
20
116.9348211
11
5.3692526
21
116.9348211
0
LINE
8
DEFAULT_255_1_234
10
6.100944
20
116.9404433
11
6.100944
21
115.7654
0
LINE
8
DEFAULT_255_1_234
10
6.100944
20
115.7654
11
5.9515537
21
115.7654
0
LINE
8
DEFAULT_255_1_234
10
5.9515537
20
115.7654
11
5.9515537
21
116.7557133
0
LINE
8
DEFAULT_255_1_234
10
5.9515537
20
116.7557133
11
5.6519698
21
116.6456785
0
LINE
8
DEFAULT_255_1_234
10
5.6519698
20
116.6456785
11
5.6519698
21
116.7806117
0
LINE
8
DEFAULT_255_1_234
10
5.6519698
20
116.7806117
11
6.077652
21
116.9404433
0
LINE
8
DEFAULT_255_1_234
10
6.077652
20
116.9404433
11
6.100944
21
116.9404433
0
LINE
8
DEFAULT_255_1_234
10
4.4580154
20
123.7029
11
4.1343364
21
123.7029
0
LINE
8
DEFAULT_255_1_234
10
4.1343364
20
123.7029
11
4.1343364
21
124.8723211
0
LINE
8
DEFAULT_255_1_234
10
4.1343364
20
124.8723211
11
4.4644408
21
124.8723211
0
LINE
8
DEFAULT_255_1_234
10
4.9800784
20
124.3269661
11
4.9800784
21
124.2522709
0
LINE
8
DEFAULT_255_1_234
10
4.4684567
20
124.7454196
11
4.2885458
21
124.7454196
0
LINE
8
DEFAULT_255_1_234
10
4.2885458
20
124.7454196
11
4.2885458
21
123.8289983
0
LINE
8
DEFAULT_255_1_234
10
4.2885458
20
123.8289983
11
4.4507869
21
123.8289983
0
LINE
8
DEFAULT_255_1_234
10
4.8274754
20
124.2554836
11
4.8274754
21
124.3237534
0
ARC
8
DEFAULT_255_1_234
10
4.4683351
20
124.2857894
40
0.5865446
50
75.4101064
51
90.3804066
0
ARC
8
DEFAULT_255_1_234
10
4.4912864
20
124.3814492
40
0.4881916
50
60.145586
51
75.1888407
0
ARC
8
DEFAULT_255_1_234
10
4.507164
20
124.4091199
40
0.4562893
50
26.5253612
51
60.1450928
0
ARC
8
DEFAULT_255_1_234
10
4.3951389
20
124.3497158
40
0.5830602
50
7.4030428
51
26.8320788
0
ARC
8
DEFAULT_255_1_234
10
4.2357146
20
124.3248804
40
0.7443669
50
0.1605367
51
7.7176192
0
ARC
8
DEFAULT_255_1_234
10
4.252105
20
124.2484434
40
0.7279835
50
348.7289388
51
0.3012466
0
ARC
8
DEFAULT_255_1_234
10
4.4177481
20
124.2155386
40
0.559104
50
333.0706509
51
348.7181832
0
ARC
8
DEFAULT_255_1_234
10
4.5144238
20
124.1630319
40
0.4491417
50
299.2531685
51
333.4571258
0
ARC
8
DEFAULT_255_1_234
10
4.4783378
20
124.2315828
40
0.5265881
50
278.107187
51
299.0339503
0
ARC
8
DEFAULT_255_1_234
10
4.4527457
20
124.3823216
40
0.679442
50
270.4443897
51
278.4511052
0
ARC
8
DEFAULT_255_1_234
10
4.4548287
20
124.2894213
40
0.4604407
50
269.4970433
51
284.0205042
0
ARC
8
DEFAULT_255_1_234
10
4.4903588
20
124.1528978
40
0.3193797
50
283.7700273
51
318.1555492
0
ARC
8
DEFAULT_255_1_234
10
4.4566346
20
124.1781367
40
0.3613588
50
318.7415601
51
343.6873628
0
ARC
8
DEFAULT_255_1_234
10
4.2762369
20
124.2344832
40
0.5503313
50
343.3325091
51
355.8548958
0
ARC
8
DEFAULT_255_1_234
10
4.0664054
20
124.2544319
40
0.7610708
50
355.4988528
51
0.0791727
0
ARC
8
DEFAULT_255_1_234
10
4.1446676
20
124.327978
40
0.6828208
50
359.6455037
51
9.8607896
0
ARC
8
DEFAULT_255_1_234
10
4.3807374
20
124.3706099
40
0.4429406
50
9.6571907
51
26.1932807
0
ARC
8
DEFAULT_255_1_234
10
4.4735363
20
124.4137118
40
0.3406537
50
26.5777228
51
40.1532208
0
ARC
8
DEFAULT_255_1_234
10
4.4991089
20
124.4336619
40
0.308246
50
40.3840491
51
80.1431104
0
ARC
8
DEFAULT_255_1_234
10
4.4664207
20
124.2887333
40
0.4566909
50
79.2152159
51
89.7445637
0
LINE
8
DEFAULT_255_1_234
10
5.3784526
20
124.8723211
11
5.3784526
21
123.7029
0
LINE
8
DEFAULT_255_1_234
10
5.3784526
20
123.7029
11
5.2242433
21
123.7029
0
LINE
8
DEFAULT_255_1_234
10
5.2242433
20
123.7029
11
5.2242433
21
124.8723211
0
LINE
8
DEFAULT_255_1_234
10
5.2242433
20
124.8723211
11
5.3784526
21
124.8723211
0
LINE
8
DEFAULT_255_1_234
10
6.355112
20
124.3944327
11
6.355112
21
124.2016709
0
LINE
8
DEFAULT_255_1_234
10
5.6169953
20
124.1815916
11
5.6169953
21
124.3799755
0
LINE
8
DEFAULT_255_1_234
10
6.2065249
20
124.1615123
11
6.2065249
21
124.4048739
0
LINE
8
DEFAULT_255_1_234
10
5.7655824
20
124.4161184
11
5.7655824
21
124.1783789
0
ARC
8
DEFAULT_255_1_234
10
5.130401
20
124.1967805
40
1.2247208
50
353.8441951
51
0.2287902
0
ARC
8
DEFAULT_255_1_234
10
5.5943513
20
124.1449806
40
0.7578929
50
344.4934747
51
353.9765454
0
ARC
8
DEFAULT_255_1_234
10
5.8936104
20
124.0598981
40
0.4467846
50
329.2803592
51
344.7472793
0
ARC
8
DEFAULT_255_1_234
10
5.9928928
20
124.0054018
40
0.3336173
50
324.9352394
51
328.6160465
0
ARC
8
DEFAULT_255_1_234
10
6.0306037
20
123.9790427
40
0.2876076
50
280.580143
51
324.9173126
0
ARC
8
DEFAULT_255_1_234
10
5.990483
20
124.1461099
40
0.4592847
50
269.5977311
51
281.6734359
0
ARC
8
DEFAULT_255_1_234
10
5.9832735
20
124.1341173
40
0.4472986
50
256.6228859
51
270.51044
0
ARC
8
DEFAULT_255_1_234
10
5.9430713
20
123.9792877
40
0.2873874
50
215.8618325
51
257.2788573
0
ARC
8
DEFAULT_255_1_234
10
6.0451745
20
124.0477977
40
0.4102928
50
197.9693508
51
215.2623606
0
ARC
8
DEFAULT_255_1_234
10
6.293686
20
124.1316709
40
0.6725652
50
187.8816417
51
198.2346507
0
ARC
8
DEFAULT_255_1_234
10
6.6895069
20
124.1888079
40
1.0724845
50
180.8976217
51
188.0055519
0
ARC
8
DEFAULT_255_1_234
10
6.9695257
20
124.1991777
40
1.3526448
50
180.7449369
51
181.1510016
0
ARC
8
DEFAULT_255_1_234
10
6.8117986
20
124.3848042
40
1.1948131
50
173.7675579
51
180.231553
0
ARC
8
DEFAULT_255_1_234
10
6.3600132
20
124.4358666
40
0.7401564
50
164.3058563
51
173.9002247
0
ARC
8
DEFAULT_255_1_234
10
6.0688201
20
124.5197656
40
0.4371288
50
148.7922025
51
164.568378
0
ARC
8
DEFAULT_255_1_234
10
5.9736653
20
124.5728929
40
0.3282386
50
144.5883898
51
148.1176286
0
ARC
8
DEFAULT_255_1_234
10
5.9393551
20
124.5968315
40
0.2864044
50
101.6440918
51
144.514236
0
ARC
8
DEFAULT_255_1_234
10
5.9818618
20
124.4279069
40
0.4604934
50
89.5284041
51
102.5819763
0
ARC
8
DEFAULT_255_1_234
10
5.9897706
20
124.4240018
40
0.464401
50
77.0437873
51
90.5081339
0
ARC
8
DEFAULT_255_1_234
10
6.0299708
20
124.5882615
40
0.2953195
50
48.2778575
51
77.4994676
0
ARC
8
DEFAULT_255_1_234
10
6.0372339
20
124.6011746
40
0.2808655
50
36.3142134
51
47.6305865
0
ARC
8
DEFAULT_255_1_234
10
5.9503646
20
124.5426515
40
0.3855453
50
18.2931786
51
35.6769206
0
ARC
8
DEFAULT_255_1_234
10
5.6960405
20
124.4553593
40
0.654423
50
8.024666
51
18.5605216
0
ARC
8
DEFAULT_255_1_234
10
5.2797325
20
124.3938792
40
1.0752407
50
1.1274072
51
8.1718305
0
ARC
8
DEFAULT_255_1_234
10
4.9561515
20
124.3811885
40
1.3990231
50
0.5424119
51
1.3863029
0
ARC
8
DEFAULT_255_1_234
10
5.1382893
20
124.4084342
40
1.0682415
50
359.8090433
51
4.9407866
0
ARC
8
DEFAULT_255_1_234
10
5.5592907
20
124.4460113
40
0.6455691
50
4.8362157
51
12.2904523
0
ARC
8
DEFAULT_255_1_234
10
5.8348022
20
124.5073965
40
0.3633074
50
12.0805627
51
23.8173984
0
ARC
8
DEFAULT_255_1_234
10
5.9521727
20
124.5570919
40
0.2358723
50
24.2871213
51
31.3935614
0
ARC
8
DEFAULT_255_1_234
10
6.0046424
20
124.5914233
40
0.1732111
50
30.7407893
51
82.4657128
0
ARC
8
DEFAULT_255_1_234
10
5.9866559
20
124.5030691
40
0.263235
50
81.1060089
51
90.2184952
0
ARC
8
DEFAULT_255_1_234
10
5.9830858
20
124.5288924
40
0.2374236
50
89.3806855
51
105.6762551
0
ARC
8
DEFAULT_255_1_234
10
5.9647488
20
124.5955567
40
0.1682847
50
105.7981136
51
149.7388061
0
ARC
8
DEFAULT_255_1_234
10
6.0711567
20
124.531595
40
0.2924306
50
149.4208916
51
163.6286378
0
ARC
8
DEFAULT_255_1_234
10
6.2802455
20
124.467825
40
0.5110213
50
163.3763315
51
172.1410975
0
ARC
8
DEFAULT_255_1_234
10
6.6103174
20
124.4205518
40
0.8444586
50
172.0259487
51
178.0703232
0
ARC
8
DEFAULT_255_1_234
10
6.9133263
20
124.4061906
40
1.1477868
50
177.8631668
51
179.5044149
0
ARC
8
DEFAULT_255_1_234
10
6.8060668
20
124.1747389
40
1.0404907
50
179.7995573
51
185.2460446
0
ARC
8
DEFAULT_255_1_234
10
6.4017707
20
124.1364513
40
0.6343885
50
185.1411642
51
193.0079639
0
ARC
8
DEFAULT_255_1_234
10
6.1374179
20
124.0739641
40
0.3627568
50
192.7897626
51
205.2507664
0
ARC
8
DEFAULT_255_1_234
10
6.0327726
20
124.0272415
40
0.2481908
50
205.8005384
51
211.2537509
0
ARC
8
DEFAULT_255_1_234
10
5.9804167
20
123.992158
40
0.1852521
50
210.3789793
51
238.4008143
0
ARC
8
DEFAULT_255_1_234
10
5.9784689
20
123.9968376
40
0.1882621
50
239.6520629
51
265.9793761
0
ARC
8
DEFAULT_255_1_234
10
5.9869889
20
124.0640427
40
0.2559272
50
265.1315437
51
270.060332
0
ARC
8
DEFAULT_255_1_234
10
5.9898668
20
124.0316534
40
0.2235528
50
269.3314664
51
287.2178029
0
ARC
8
DEFAULT_255_1_234
10
6.003652
20
123.9813279
40
0.1714108
50
287.7958004
51
329.080874
0
ARC
8
DEFAULT_255_1_234
10
5.9078977
20
124.041093
40
0.2842745
50
328.6634704
51
343.3325132
0
ARC
8
DEFAULT_255_1_234
10
5.6905997
20
124.1087863
40
0.5118644
50
343.0499468
51
351.9393422
0
ARC
8
DEFAULT_255_1_234
10
5.3439297
20
124.1598949
40
0.8622784
50
351.8069023
51
357.7959224
0
ARC
8
DEFAULT_255_1_234
10
5.0203853
20
124.1766721
40
1.1862365
50
357.5871873
51
359.2677531
0
LINE
8
DEFAULT_255_1_234
10
23.0434364
20
132.8098211
11
23.2426235
21
132.8098211
0
LINE
8
DEFAULT_255_1_234
10
23.2426235
20
132.8098211
11
23.6249342
21
131.8556506
0
LINE
8
DEFAULT_255_1_234
10
23.6249342
20
131.8556506
11
24.007245
21
132.8098211
0
LINE
8
DEFAULT_255_1_234
10
24.007245
20
132.8098211
11
24.2072353
21
132.8098211
0
LINE
8
DEFAULT_255_1_234
10
24.2072353
20
132.8098211
11
24.2072353
21
131.6404
0
LINE
8
DEFAULT_255_1_234
10
24.2072353
20
131.6404
11
24.0530259
21
131.6404
0
LINE
8
DEFAULT_255_1_234
10
24.0530259
20
131.6404
11
24.0530259
21
132.0957996
0
LINE
8
DEFAULT_255_1_234
10
24.0530259
20
132.0957996
11
24.067483
21
132.5873419
0
LINE
8
DEFAULT_255_1_234
10
24.067483
20
132.5873419
11
23.6835659
21
131.6404
0
LINE
8
DEFAULT_255_1_234
10
23.6835659
20
131.6404
11
23.5654994
21
131.6404
0
LINE
8
DEFAULT_255_1_234
10
23.5654994
20
131.6404
11
23.1823854
21
132.5849324
0
LINE
8
DEFAULT_255_1_234
10
23.1823854
20
132.5849324
11
23.1976458
21
132.0957996
0
LINE
8
DEFAULT_255_1_234
10
23.1976458
20
132.0957996
11
23.1976458
21
131.6404
0
LINE
8
DEFAULT_255_1_234
10
23.1976458
20
131.6404
11
23.0434364
21
131.6404
0
LINE
8
DEFAULT_255_1_234
10
23.0434364
20
131.6404
11
23.0434364
21
132.8098211
0
ENDSEC
0
EOF