0
SECTION
2
HEADER
9
$MEASUREMENT
70
1
0
ENDSEC
0
SECTION
2
TABLES
0
TABLE
2
LTYPE
0
LTYPE
72
65
70
64
2
CONTINUOUS
3
______
73
0
40
0
0
ENDTAB
0
TABLE
2
LAYER
0
LAYER
2
DEFAULT_255_2_778
70
0
62
255
6
CONTINUOUS
0
ENDTAB
0
ENDSEC
0
SECTION
2
ENTITIES
0
LINE
8
DEFAULT_255_2_778
10
58.0400115
20
61.2326148
11
58.1400115
21
61.2363148
0
LINE
8
DEFAULT_255_2_778
10
58.1400115
20
61.2363148
11
58.1400115
21
61.2312148
0
LINE
8
DEFAULT_255_2_778
10
57.9855115
20
10.0177148
11
58.0853115
21
10.0124148
0
LINE
8
DEFAULT_255_2_778
10
58.0853115
20
10.0124148
11
57.9853115
21
10.0153148
0
LINE
8
DEFAULT_255_2_778
10
58.0403115
20
61.2270148
11
58.1403115
21
61.2289148
0
LINE
8
DEFAULT_255_2_778
10
58.1403115
20
61.2289148
11
58.0403115
21
61.2252148
0
LINE
8
DEFAULT_255_2_778
10
57.7646115
20
68.4938148
11
57.8646115
21
68.4975148
0
LINE
8
DEFAULT_255_2_778
10
57.8646115
20
68.4975148
11
57.8646115
21
68.4946148
0
LINE
8
DEFAULT_255_2_778
10
57.8646115
20
68.4946148
11
57.7646115
21
68.4909148
0
LINE
8
DEFAULT_255_2_778
10
57.9128115
20
8.0270148
11
58.0128115
21
8.0241148
0
LINE
8
DEFAULT_255_2_778
10
58.0128115
20
8.0241148
11
58.0130115
21
8.0323148
0
LINE
8
DEFAULT_255_2_778
10
58.0591115
20
9.2734148
11
58.0593115
21
9.2779148
0
LINE
8
DEFAULT_255_2_778
10
58.0593115
20
9.2779148
11
57.9593115
21
9.2808148
0
LINE
8
DEFAULT_255_2_778
10
57.9577115
20
9.2412148
11
58.0578115
21
9.2367148
0
LINE
8
DEFAULT_255_2_778
10
58.0578115
20
9.2367148
11
57.9577115
21
9.2396148
0
LINE
8
DEFAULT_255_2_778
10
58.1824115
20
59.9258148
11
58.1403115
21
61.2286148
0
LINE
8
DEFAULT_255_2_778
10
58.1268115
20
11.2118148
11
58.1271115
21
11.2171148
0
LINE
8
DEFAULT_255_2_778
10
58.1271115
20
11.2171148
11
58.1273115
21
11.2269148
0
LINE
8
DEFAULT_255_2_778
10
58.1273115
20
11.2269148
11
58.0273115
21
11.2298148
0
LINE
8
DEFAULT_255_2_778
10
58.1273508
20
11.226845
11
58.1273508
21
11.225545
0
LINE
8
DEFAULT_255_2_778
10
58.1273508
20
11.225545
11
58.1268508
21
11.212845
0
LINE
8
DEFAULT_255_2_778
10
58.1268508
20
11.212845
11
58.1265508
21
11.206745
0
LINE
8
DEFAULT_255_2_778
10
58.1265508
20
11.206745
11
58.1263508
21
11.199645
0
LINE
8
DEFAULT_255_2_778
10
58.1263508
20
11.199645
11
58.1257508
21
11.180845
0
LINE
8
DEFAULT_255_2_778
10
58.1257508
20
11.180845
11
58.1255508
21
11.169145
0
LINE
8
DEFAULT_255_2_778
10
58.1255508
20
11.169145
11
58.1249508
21
11.155945
0
LINE
8
DEFAULT_255_2_778
10
58.1249508
20
11.155945
11
58.1239508
21
11.124945
0
LINE
8
DEFAULT_255_2_778
10
58.1239508
20
11.124945
11
58.0239508
21
11.127945
0
LINE
8
DEFAULT_255_2_778
10
57.8977508
20
65.217745
11
57.9977508
21
65.221445
0
LINE
8
DEFAULT_255_2_778
10
57.9977508
20
65.221445
11
57.9964508
21
65.256845
0
LINE
8
DEFAULT_255_2_778
10
57.9964508
20
65.256845
11
57.9948508
21
65.298945
0
LINE
8
DEFAULT_255_2_778
10
57.9948508
20
65.298945
11
57.9937508
21
65.323545
0
LINE
8
DEFAULT_255_2_778
10
57.9937508
20
65.323545
11
57.9927508
21
65.350045
0
LINE
8
DEFAULT_255_2_778
10
57.9927508
20
65.350045
11
57.9916508
21
65.378345
0
LINE
8
DEFAULT_255_2_778
10
57.9916508
20
65.378345
11
57.9905508
21
65.408745
0
LINE
8
DEFAULT_255_2_778
10
57.9905508
20
65.408745
11
57.9892508
21
65.440545
0
LINE
8
DEFAULT_255_2_778
10
57.9892508
20
65.440545
11
57.9879508
21
65.473345
0
LINE
8
DEFAULT_255_2_778
10
57.9879508
20
65.473345
11
57.9866508
21
65.506945
0
LINE
8
DEFAULT_255_2_778
10
57.9866508
20
65.506945
11
57.9852508
21
65.541345
0
LINE
8
DEFAULT_255_2_778
10
57.9852508
20
65.541345
11
57.9826508
21
65.610645
0
LINE
8
DEFAULT_255_2_778
10
57.9826508
20
65.610645
11
57.9800508
21
65.679445
0
LINE
8
DEFAULT_255_2_778
10
57.9800508
20
65.679445
11
57.9786508
21
65.713545
0
LINE
8
DEFAULT_255_2_778
10
57.9786508
20
65.713545
11
57.9773508
21
65.747445
0
LINE
8
DEFAULT_255_2_778
10
57.9773508
20
65.747445
11
57.9747508
21
65.811745
0
LINE
8
DEFAULT_255_2_778
10
57.9747508
20
65.811745
11
57.9733508
21
65.841645
0
LINE
8
DEFAULT_255_2_778
10
57.9733508
20
65.841645
11
57.9723508
21
65.869145
0
LINE
8
DEFAULT_255_2_778
10
57.9723508
20
65.869145
11
57.9712508
21
65.894045
0
LINE
8
DEFAULT_255_2_778
10
57.9712508
20
65.894045
11
57.9704508
21
65.916245
0
LINE
8
DEFAULT_255_2_778
10
57.9704508
20
65.916245
11
57.9691508
21
65.951645
0
LINE
8
DEFAULT_255_2_778
10
57.9691508
20
65.951645
11
57.9686508
21
65.965145
0
LINE
8
DEFAULT_255_2_778
10
57.9686508
20
65.965145
11
57.9680508
21
65.975745
0
LINE
8
DEFAULT_255_2_778
10
57.9680508
20
65.975745
11
57.9675508
21
65.988745
0
LINE
8
DEFAULT_255_2_778
10
57.9675508
20
65.988745
11
57.9675508
21
65.991645
0
LINE
8
DEFAULT_255_2_778
10
57.9675508
20
65.991645
11
57.9675508
21
65.992445
0
LINE
8
DEFAULT_255_2_778
10
14.9867508
20
69.231445
11
17.0505508
21
70.423145
0
LINE
8
DEFAULT_255_2_778
10
17.0505508
20
70.423145
11
17.2505508
21
70.423145
0
LINE
8
DEFAULT_255_2_778
10
17.2505508
20
70.423145
11
17.3529508
21
69.252145
0
LINE
8
DEFAULT_255_2_778
10
4.9506508
20
49.973245
11
4.8506508
21
49.973245
0
LINE
8
DEFAULT_255_2_778
10
4.8506508
20
49.973245
11
4.8506508
21
66.073145
0
LINE
8
DEFAULT_255_2_778
10
4.8506508
20
66.073145
11
4.9506508
21
66.073145
0
LINE
8
DEFAULT_255_2_778
10
4.8503508
20
50.398145
11
1.4504508
21
50.398145
0
LINE
8
DEFAULT_255_2_778
10
1.4504508
20
50.398145
11
1.4504508
21
65.748245
0
LINE
8
DEFAULT_255_2_778
10
1.4504508
20
65.748245
11
4.8503508
21
65.748245
0
LINE
8
DEFAULT_255_2_778
10
58.2660508
20
19.784245
11
58.3935508
21
19.780545
0
LINE
8
DEFAULT_255_2_778
10
58.3935508
20
19.780545
11
58.4250508
21
20.880145
0
LINE
8
DEFAULT_255_2_778
10
58.4250508
20
20.880145
11
58.2895508
21
20.884145
0
LINE
8
DEFAULT_255_2_778
10
58.1578508
20
62.131645
11
58.3218508
21
62.137745
0
LINE
8
DEFAULT_255_2_778
10
58.3218508
20
62.137745
11
58.2810508
21
63.236245
0
LINE
8
DEFAULT_255_2_778
10
58.2810508
20
63.236245
11
58.1048508
21
63.229645
0
LINE
8
DEFAULT_255_2_778
10
58.3604508
20
24.783545
11
58.5369508
21
24.778545
0
LINE
8
DEFAULT_255_2_778
10
58.5369508
20
24.778545
11
58.5054508
21
23.679245
0
LINE
8
DEFAULT_255_2_778
10
58.5054508
20
23.679245
11
58.3424508
21
23.683945
0
LINE
8
DEFAULT_255_2_778
10
57.9540508
20
9.138745
11
58.0884508
21
9.134845
0
LINE
8
DEFAULT_255_2_778
10
58.0884508
20
9.134845
11
58.0569508
21
8.035445
0
LINE
8
DEFAULT_255_2_778
10
58.0569508
20
8.035445
11
57.9133508
21
8.039645
0
LINE
8
DEFAULT_255_2_778
10
58.3273508
20
22.833645
11
58.4808508
21
22.829145
0
LINE
8
DEFAULT_255_2_778
10
58.4808508
20
22.829145
11
58.4493508
21
21.729445
0
LINE
8
DEFAULT_255_2_778
10
58.4493508
20
21.729445
11
58.3064508
21
21.733745
0
LINE
8
DEFAULT_255_2_778
10
58.2467508
20
18.935245
11
58.3694508
21
18.931745
0
LINE
8
DEFAULT_255_2_778
10
58.3694508
20
18.931745
11
58.3379508
21
17.832145
0
LINE
8
DEFAULT_255_2_778
10
58.3379508
20
17.832145
11
58.2205508
21
17.835645
0
ARC
8
DEFAULT_255_2_778
10
6.4505994
20
92.2717518
40
28.2986549
50
269.9997992
51
284.7502624
0
ARC
8
DEFAULT_255_2_778
10
6.4510913
20
92.270741
40
28.2975521
50
284.7498203
51
297.8716875
0
ARC
8
DEFAULT_255_2_778
10
21.4479502
20
-320.4580279
40
391.5312249
50
84.6835718
51
89.9996268
0
ARC
8
DEFAULT_255_2_778
10
55.8997093
20
62.5725752
40
2.3009604
50
359.9986285
51
26.5511597
0
ARC
8
DEFAULT_255_2_778
10
55.8999493
20
62.5725206
40
2.3007203
50
359.4109208
51
359.9999889
0
ARC
8
DEFAULT_255_2_778
10
55.9025284
20
62.572322
40
2.2981393
50
337.4523565
51
359.4152099
0
ARC
8
DEFAULT_255_2_778
10
-691.4938269
20
36.4227121
40
749.9446403
50
0.1001718
51
1.9308704
0
ARC
8
DEFAULT_255_2_778
10
-691.615136
20
36.422468
40
750.0659497
50
1e-7
51
0.1001742
0
ARC
8
DEFAULT_255_2_778
10
-691.5784944
20
36.4227993
40
750.0293082
50
357.4808927
51
359.9999747
0
ARC
8
DEFAULT_255_2_778
10
21.4519498
20
393.2708078
40
391.4978109
50
269.9998318
51
275.3163395
0
LINE
8
DEFAULT_255_2_778
10
19.6802003
20
69.272397
11
4.9506003
21
69.143897
0
LINE
8
DEFAULT_255_2_778
10
4.9506003
20
69.143897
11
4.9506003
21
63.973097
0
LINE
8
DEFAULT_255_2_778
10
4.9506003
20
63.973097
11
6.4505003
21
63.973097
0
LINE
8
DEFAULT_255_2_778
10
19.6800003
20
67.255797
11
19.6800003
21
71.073197
0
LINE
8
DEFAULT_255_2_778
10
19.6800003
20
71.073197
11
21.4505003
21
71.073197
0
LINE
8
DEFAULT_255_2_778
10
57.7257003
20
69.388897
11
57.9580003
21
63.601097
0
LINE
8
DEFAULT_255_2_778
10
21.4508003
20
1.772997
11
4.9506003
21
1.772997
0
LINE
8
DEFAULT_255_2_778
10
4.9506003
20
1.772997
11
4.9506003
21
63.973097
0
LINE
8
DEFAULT_255_2_778
10
57.8675003
20
65.989497
11
57.9675003
21
65.993197
0
LINE
8
DEFAULT_255_2_778
10
58.0824003
20
59.920497
11
58.1824003
21
59.924197
0
LINE
8
DEFAULT_255_2_778
10
58.1824003
20
59.924197
11
58.1824003
21
59.924197
0
LINE
8
DEFAULT_255_2_778
10
58.1824003
20
59.924197
11
58.1821003
21
59.934797
0
LINE
8
DEFAULT_255_2_778
10
58.1821003
20
59.934797
11
58.0821003
21
59.931097
0
LINE
8
DEFAULT_255_2_778
10
58.2657003
20
19.771797
11
58.3657003
21
19.768897
0
LINE
8
DEFAULT_255_2_778
10
57.8310003
20
66.898897
11
57.9310003
21
66.902597
0
LINE
8
DEFAULT_255_2_778
10
57.9310003
20
66.902597
11
57.9316003
21
66.891497
0
LINE
8
DEFAULT_255_2_778
10
57.9316003
20
66.891497
11
57.9369003
21
66.761797
0
LINE
8
DEFAULT_255_2_778
10
57.9369003
20
66.761797
11
57.8368003
21
66.758097
0
LINE
8
DEFAULT_255_2_778
10
57.8315375
20
66.8856908
11
57.9315375
21
66.8893908
0
LINE
8
DEFAULT_255_2_778
10
57.9315375
20
66.8893908
11
57.9315375
21
66.8895908
0
LINE
8
DEFAULT_255_2_778
10
57.9315375
20
66.8895908
11
57.9310375
21
66.9025908
0
LINE
8
DEFAULT_255_2_778
10
58.2197375
20
17.8202908
11
58.3197375
21
17.8173908
0
LINE
8
DEFAULT_255_2_778
10
58.3197375
20
17.8173908
11
58.3197375
21
17.8181908
0
LINE
8
DEFAULT_255_2_778
10
58.3197375
20
17.8181908
11
58.3199375
21
17.8247908
0
LINE
8
DEFAULT_255_2_778
10
58.3199375
20
17.8247908
11
58.3199375
21
17.8273908
0
LINE
8
DEFAULT_255_2_778
10
58.3895375
20
20.8811908
11
58.3916375
21
20.9772908
0
LINE
8
DEFAULT_255_2_778
10
58.3916375
20
20.9772908
11
58.2916375
21
20.9801908
0
LINE
8
DEFAULT_255_2_778
10
57.9977375
20
65.2216908
11
57.9990375
21
65.1859908
0
LINE
8
DEFAULT_255_2_778
10
57.9990375
20
65.1859908
11
58.0008375
21
65.1406908
0
LINE
8
DEFAULT_255_2_778
10
58.0008375
20
65.1406908
11
58.0019375
21
65.1134908
0
LINE
8
DEFAULT_255_2_778
10
58.0019375
20
65.1134908
11
58.0030375
21
65.0840908
0
LINE
8
DEFAULT_255_2_778
10
58.0030375
20
65.0840908
11
58.0053375
21
65.0192908
0
LINE
8
DEFAULT_255_2_778
10
58.0053375
20
65.0192908
11
58.0067375
21
64.9843908
0
LINE
8
DEFAULT_255_2_778
10
58.0067375
20
64.9843908
11
58.0080375
21
64.9483908
0
LINE
8
DEFAULT_255_2_778
10
58.0080375
20
64.9483908
11
58.0109375
21
64.8742908
0
LINE
8
DEFAULT_255_2_778
10
58.0109375
20
64.8742908
11
58.0122375
21
64.8366908
0
LINE
8
DEFAULT_255_2_778
10
58.0122375
20
64.8366908
11
58.0135375
21
64.7993908
0
LINE
8
DEFAULT_255_2_778
10
58.0135375
20
64.7993908
11
58.0165375
21
64.7250908
0
LINE
8
DEFAULT_255_2_778
10
58.0165375
20
64.7250908
11
58.0194375
21
64.6512908
0
LINE
8
DEFAULT_255_2_778
10
58.0194375
20
64.6512908
11
58.0207375
21
64.6146908
0
LINE
8
DEFAULT_255_2_778
10
58.0207375
20
64.6146908
11
58.0220375
21
64.5792908
0
LINE
8
DEFAULT_255_2_778
10
58.0220375
20
64.5792908
11
58.0233375
21
64.5453908
0
LINE
8
DEFAULT_255_2_778
10
58.0233375
20
64.5453908
11
58.0247375
21
64.5133908
0
LINE
8
DEFAULT_255_2_778
10
58.0247375
20
64.5133908
11
58.0268375
21
64.4578908
0
LINE
8
DEFAULT_255_2_778
10
58.0268375
20
64.4578908
11
58.0276375
21
64.4350908
0
LINE
8
DEFAULT_255_2_778
10
58.0276375
20
64.4350908
11
58.0284375
21
64.4157908
0
LINE
8
DEFAULT_255_2_778
10
58.0284375
20
64.4157908
11
58.0289375
21
64.4001908
0
LINE
8
DEFAULT_255_2_778
10
58.0289375
20
64.4001908
11
58.0294375
21
64.3879908
0
LINE
8
DEFAULT_255_2_778
10
58.0294375
20
64.3879908
11
58.0302375
21
64.3683908
0
LINE
8
DEFAULT_255_2_778
10
58.0302375
20
64.3683908
11
58.0302375
21
64.3683908
0
LINE
8
DEFAULT_255_2_778
10
58.0302375
20
64.3683908
11
57.9302375
21
64.3646908
0
LINE
8
DEFAULT_255_2_778
10
57.9302375
20
64.3646908
11
58.0302375
21
64.3683908
0
LINE
8
DEFAULT_255_2_778
10
58.4602375
20
24.7811908
11
58.4607375
21
24.8113908
0
LINE
8
DEFAULT_255_2_778
10
58.4607375
20
24.8113908
11
58.4610375
21
24.8277908
0
LINE
8
DEFAULT_255_2_778
10
58.4610375
20
24.8277908
11
58.4610375
21
24.8420908
0
LINE
8
DEFAULT_255_2_778
10
58.4610375
20
24.8420908
11
58.4612375
21
24.8634908
0
LINE
8
DEFAULT_255_2_778
10
58.4612375
20
24.8634908
11
58.4612375
21
24.8711908
0
LINE
8
DEFAULT_255_2_778
10
58.4612375
20
24.8711908
11
58.4612375
21
24.8769908
0
LINE
8
DEFAULT_255_2_778
10
58.4612375
20
24.8769908
11
58.4612375
21
24.8832908
0
LINE
8
DEFAULT_255_2_778
10
58.4612375
20
24.8832908
11
58.4612375
21
24.8843908
0
LINE
8
DEFAULT_255_2_778
10
58.4612375
20
24.8843908
11
58.3612375
21
24.8872908
0
LINE
8
DEFAULT_255_2_778
10
58.0543375
20
9.1466908
11
58.1268375
21
9.1445908
0
LINE
8
DEFAULT_255_2_778
10
58.0577375
20
9.2368908
11
58.0591375
21
9.2699908
0
LINE
8
DEFAULT_255_2_778
10
58.0591375
20
9.2699908
11
57.9590375
21
9.2728908
0
LINE
8
DEFAULT_255_2_778
10
57.9720375
20
5.1792908
11
57.8995375
21
5.1813908
0
LINE
8
DEFAULT_255_2_778
10
58.3064375
20
21.7212908
11
58.4065375
21
21.7183908
0
LINE
8
DEFAULT_255_2_778
10
57.7659375
20
4.3854908
11
57.8659375
21
4.3825908
0
LINE
8
DEFAULT_255_2_778
10
58.3464375
20
18.9322908
11
58.3467375
21
18.9423908
0
LINE
8
DEFAULT_255_2_778
10
58.3467375
20
18.9423908
11
58.3475375
21
18.9780908
0
LINE
8
DEFAULT_255_2_778
10
58.3475375
20
18.9780908
11
58.3480375
21
19.0058908
0
LINE
8
DEFAULT_255_2_778
10
58.3480375
20
19.0058908
11
58.3482375
21
19.0166908
0
LINE
8
DEFAULT_255_2_778
10
58.3482375
20
19.0166908
11
58.3485375
21
19.0254908
0
LINE
8
DEFAULT_255_2_778
10
58.3485375
20
19.0254908
11
58.3488375
21
19.0362908
0
LINE
8
DEFAULT_255_2_778
10
58.3488375
20
19.0362908
11
58.3488375
21
19.0386908
0
LINE
8
DEFAULT_255_2_778
10
58.3488375
20
19.0386908
11
58.2488375
21
19.0415908
0
ARC
8
DEFAULT_255_2_778
10
32.9510909
20
25.8267189
40
26.0037428
50
247.6514327
51
269.9989631
0
ARC
8
DEFAULT_255_2_778
10
32.9513935
20
47.0203642
40
26.0028118
50
90.0017037
51
112.3501316
0
LINE
8
DEFAULT_255_2_778
10
57.9254203
20
5.8068761
11
57.8254203
21
5.8097761
0
LINE
8
DEFAULT_255_2_778
10
33.0617203
20
1.9452761
11
32.9506203
21
-0.1770239
0
LINE
8
DEFAULT_255_2_778
10
32.9506203
20
73.0231761
11
33.0617203
21
70.9009761
0
LINE
8
DEFAULT_255_2_778
10
58.4273203
20
22.8306761
11
58.4422203
21
23.6749761
0
LINE
8
DEFAULT_255_2_778
10
58.3914203
20
20.9769761
11
58.4064203
21
21.7267761
0
LINE
8
DEFAULT_255_2_778
10
57.9310203
20
66.9025761
11
57.8646203
21
68.4945761
0
LINE
8
DEFAULT_255_2_778
10
57.9887203
20
65.4499761
11
58.0074203
21
64.9599761
0
LINE
8
DEFAULT_255_2_778
10
58.1239203
20
11.1252761
11
58.1217203
21
11.0587761
0
LINE
8
DEFAULT_255_2_778
10
58.1217203
20
11.0587761
11
58.1204203
21
11.0217761
0
LINE
8
DEFAULT_255_2_778
10
58.1204203
20
11.0217761
11
58.1191203
21
10.9833761
0
LINE
8
DEFAULT_255_2_778
10
58.1191203
20
10.9833761
11
58.1165203
21
10.9050761
0
LINE
8
DEFAULT_255_2_778
10
58.1165203
20
10.9050761
11
58.1138203
21
10.8251761
0
LINE
8
DEFAULT_255_2_778
10
58.1138203
20
10.8251761
11
58.1125203
21
10.7852761
0
LINE
8
DEFAULT_255_2_778
10
58.1125203
20
10.7852761
11
58.1112203
21
10.7452761
0
LINE
8
DEFAULT_255_2_778
10
58.1112203
20
10.7452761
11
58.1085203
21
10.6650761
0
LINE
8
DEFAULT_255_2_778
10
58.1085203
20
10.6650761
11
58.1030203
21
10.5047761
0
LINE
8
DEFAULT_255_2_778
10
58.1030203
20
10.5047761
11
58.1016203
21
10.4648761
0
LINE
8
DEFAULT_255_2_778
10
58.1016203
20
10.4648761
11
58.1003203
21
10.4248761
0
LINE
8
DEFAULT_255_2_778
10
58.1003203
20
10.4248761
11
58.0977203
21
10.3454761
0
LINE
8
DEFAULT_255_2_778
10
58.0977203
20
10.3454761
11
58.0963203
21
10.3060761
0
LINE
8
DEFAULT_255_2_778
10
58.0963203
20
10.3060761
11
58.0950203
21
10.2668761
0
LINE
8
DEFAULT_255_2_778
10
58.0950203
20
10.2668761
11
58.0937203
21
10.2282761
0
LINE
8
DEFAULT_255_2_778
10
58.0937203
20
10.2282761
11
58.0924203
21
10.1906761
0
LINE
8
DEFAULT_255_2_778
10
58.0924203
20
10.1906761
11
58.0911203
21
10.1547761
0
LINE
8
DEFAULT_255_2_778
10
58.0911203
20
10.1547761
11
58.0900203
21
10.1208761
0
LINE
8
DEFAULT_255_2_778
10
58.0900203
20
10.1208761
11
58.0889203
21
10.0906761
0
LINE
8
DEFAULT_255_2_778
10
58.0889203
20
10.0906761
11
58.0884203
21
10.0771761
0
LINE
8
DEFAULT_255_2_778
10
58.0884203
20
10.0771761
11
58.0881203
21
10.0655761
0
LINE
8
DEFAULT_255_2_778
10
58.0881203
20
10.0655761
11
58.0874203
21
10.0454761
0
LINE
8
DEFAULT_255_2_778
10
58.0874203
20
10.0454761
11
58.0863203
21
10.0155761
0
LINE
8
DEFAULT_255_2_778
10
57.8659203
20
4.3825761
11
57.8659203
21
4.3828761
0
LINE
8
DEFAULT_255_2_778
10
57.8659203
20
4.3828761
11
57.8659203
21
4.3854761
0
LINE
8
DEFAULT_255_2_778
10
57.8659203
20
4.3854761
11
57.8664203
21
4.3992761
0
LINE
8
DEFAULT_255_2_778
10
57.8664203
20
4.3992761
11
57.8670203
21
4.4103761
0
LINE
8
DEFAULT_255_2_778
10
57.8670203
20
4.4103761
11
57.8675203
21
4.4243761
0
LINE
8
DEFAULT_255_2_778
10
57.8675203
20
4.4243761
11
57.8691203
21
4.4603761
0
LINE
8
DEFAULT_255_2_778
10
57.8691203
20
4.4603761
11
57.8701203
21
4.4820761
0
LINE
8
DEFAULT_255_2_778
10
57.8701203
20
4.4820761
11
57.8712203
21
4.5050761
0
LINE
8
DEFAULT_255_2_778
10
57.8712203
20
4.5050761
11
57.8733203
21
4.5545761
0
LINE
8
DEFAULT_255_2_778
10
57.8733203
20
4.5545761
11
57.8754203
21
4.6069761
0
LINE
8
DEFAULT_255_2_778
10
57.8754203
20
4.6069761
11
57.8799203
21
4.7154761
0
LINE
8
DEFAULT_255_2_778
10
57.8799203
20
4.7154761
11
57.8823203
21
4.7709761
0
LINE
8
DEFAULT_255_2_778
10
57.8823203
20
4.7709761
11
57.8847203
21
4.8267761
0
LINE
8
DEFAULT_255_2_778
10
57.8847203
20
4.8267761
11
57.8894203
21
4.9387761
0
LINE
8
DEFAULT_255_2_778
10
57.8894203
20
4.9387761
11
57.8942203
21
5.0508761
0
LINE
8
DEFAULT_255_2_778
10
57.8942203
20
5.0508761
11
57.8990203
21
5.1630761
0
LINE
8
DEFAULT_255_2_778
10
57.8990203
20
5.1630761
11
57.9037203
21
5.2752761
0
LINE
8
DEFAULT_255_2_778
10
57.9037203
20
5.2752761
11
57.9085203
21
5.3871761
0
LINE
8
DEFAULT_255_2_778
10
57.9085203
20
5.3871761
11
57.9109203
21
5.4430761
0
LINE
8
DEFAULT_255_2_778
10
57.9109203
20
5.4430761
11
57.9133203
21
5.4985761
0
LINE
8
DEFAULT_255_2_778
10
57.9133203
20
5.4985761
11
57.9154203
21
5.5536761
0
LINE
8
DEFAULT_255_2_778
10
57.9154203
20
5.5536761
11
57.9164203
21
5.5808761
0
LINE
8
DEFAULT_255_2_778
10
57.9164203
20
5.5808761
11
57.9175203
21
5.6078761
0
LINE
8
DEFAULT_255_2_778
10
57.9175203
20
5.6078761
11
57.9196203
21
5.6597761
0
LINE
8
DEFAULT_255_2_778
10
57.9196203
20
5.6597761
11
57.9207203
21
5.6843761
0
LINE
8
DEFAULT_255_2_778
10
57.9207203
20
5.6843761
11
57.9217203
21
5.7078761
0
LINE
8
DEFAULT_255_2_778
10
57.9217203
20
5.7078761
11
57.9233203
21
5.7493761
0
LINE
8
DEFAULT_255_2_778
10
57.9233203
20
5.7493761
11
57.9241203
21
5.7665761
0
LINE
8
DEFAULT_255_2_778
10
57.9241203
20
5.7665761
11
57.9246203
21
5.7806761
0
LINE
8
DEFAULT_255_2_778
10
57.9246203
20
5.7806761
11
57.9252203
21
5.7914761
0
LINE
8
DEFAULT_255_2_778
10
57.9252203
20
5.7914761
11
57.9257203
21
5.8065761
0
LINE
8
DEFAULT_255_2_778
10
58.4274477
20
22.8310174
11
58.4276477
21
22.8466174
0
LINE
8
DEFAULT_255_2_778
10
58.4276477
20
22.8466174
11
58.4279477
21
22.8659174
0
LINE
8
DEFAULT_255_2_778
10
58.4279477
20
22.8659174
11
58.4284477
21
22.8979174
0
LINE
8
DEFAULT_255_2_778
10
58.4284477
20
22.8979174
11
58.4287477
21
22.9103174
0
LINE
8
DEFAULT_255_2_778
10
58.4287477
20
22.9103174
11
58.4289477
21
22.9199174
0
LINE
8
DEFAULT_255_2_778
10
58.4289477
20
22.9199174
11
58.4292477
21
22.9310174
0
LINE
8
DEFAULT_255_2_778
10
58.4292477
20
22.9310174
11
58.4292477
21
22.9331174
0
LINE
8
DEFAULT_255_2_778
10
58.4292477
20
22.9331174
11
58.4292477
21
22.9334174
0
LINE
8
DEFAULT_255_2_778
10
58.4292477
20
22.9334174
11
58.3292477
21
22.9363174
0
LINE
8
DEFAULT_255_2_778
10
0.2005477
20
42.8544174
11
0.2005477
21
45.3732174
0
LINE
8
DEFAULT_255_2_778
10
0.2005477
20
45.3732174
11
4.9506477
21
45.3732174
0
LINE
8
DEFAULT_255_2_778
10
4.9506477
20
39.2920174
11
0.2005477
21
39.2920174
0
LINE
8
DEFAULT_255_2_778
10
0.2005477
20
39.2920174
11
0.2005477
21
42.8544174
0
LINE
8
DEFAULT_255_2_778
10
0.2005477
20
42.8544174
11
4.9506477
21
42.8544174
0
LINE
8
DEFAULT_255_2_778
10
0.2005654
20
39.2919527
11
0.2005654
21
36.7731527
0
LINE
8
DEFAULT_255_2_778
10
0.2005654
20
36.7731527
11
4.9506654
21
36.7731527
0
LINE
8
DEFAULT_255_2_778
10
58.3422654
20
23.6712527
11
58.4422654
21
23.6683527
0
LINE
8
DEFAULT_255_2_778
10
58.0540654
20
9.1358527
11
58.0575654
21
9.2318527
0
LINE
8
DEFAULT_255_2_778
10
58.0575654
20
9.2318527
11
57.9575654
21
9.2347527
0
LINE
8
DEFAULT_255_2_778
10
3.5507654
20
31.1081527
11
2.1505654
21
31.1081527
0
LINE
8
DEFAULT_255_2_778
10
2.1505654
20
31.1081527
11
2.1505654
21
8.0380527
0
LINE
8
DEFAULT_255_2_778
10
2.1505654
20
8.0380527
11
3.5507654
21
8.0380527
0
LINE
8
DEFAULT_255_2_778
10
4.950356
20
6.0732503
11
4.550256
21
6.0732503
0
LINE
8
DEFAULT_255_2_778
10
4.550256
20
6.0732503
11
3.550156
21
7.0731503
0
LINE
8
DEFAULT_255_2_778
10
3.550156
20
7.0731503
11
3.550156
21
32.0730503
0
LINE
8
DEFAULT_255_2_778
10
3.550156
20
32.0730503
11
4.550256
21
33.0731503
0
LINE
8
DEFAULT_255_2_778
10
4.550256
20
33.0731503
11
4.950356
21
33.0731503
0
LINE
8
DEFAULT_255_2_778
10
58.182656
20
59.9167503
11
58.082656
21
59.9119503
0
ENDSEC
0
EOF