0
SECTION
2
HEADER
9
$MEASUREMENT
70
1
0
ENDSEC
0
SECTION
2
TABLES
0
TABLE
2
LTYPE
0
LTYPE
72
65
70
64
2
CONTINUOUS
3
______
73
0
40
0
0
ENDTAB
0
TABLE
2
LAYER
0
LAYER
2
DEFAULT_255_2_778
70
0
62
255
6
CONTINUOUS
0
ENDTAB
0
ENDSEC
0
SECTION
2
ENTITIES
0
LINE
8
DEFAULT_255_2_778
10
14.3384731
20
1.7732638
11
14.3384731
21
2.0060638
0
LINE
8
DEFAULT_255_2_778
10
14.3384731
20
2.0060638
11
1.1711731
21
2.0060638
0
LINE
8
DEFAULT_255_2_778
10
1.1711731
20
2.0060638
11
1.1711731
21
1.7732638
0
LINE
8
DEFAULT_255_2_778
10
1.9553731
20
55.0229638
11
1.2552731
21
55.7230638
0
LINE
8
DEFAULT_255_2_778
10
1.2552731
20
55.7230638
11
1.2552731
21
58.9237638
0
LINE
8
DEFAULT_255_2_778
10
1.2552731
20
58.9237638
11
14.2553731
21
58.9237638
0
LINE
8
DEFAULT_255_2_778
10
14.2553731
20
58.9237638
11
14.2553731
21
55.7230638
0
LINE
8
DEFAULT_255_2_778
10
14.2553731
20
55.7230638
11
13.5552731
21
55.0229638
0
LINE
8
DEFAULT_255_2_778
10
13.5552731
20
55.0229638
11
13.5552731
21
30.3230638
0
LINE
8
DEFAULT_255_2_778
10
13.5552731
20
30.3230638
11
14.2553731
21
29.6229638
0
LINE
8
DEFAULT_255_2_778
10
14.2553731
20
29.6229638
11
14.2553731
21
26.4228638
0
LINE
8
DEFAULT_255_2_778
10
14.2553731
20
26.4228638
11
1.2552731
21
26.4228638
0
LINE
8
DEFAULT_255_2_778
10
1.2552731
20
26.4228638
11
1.2552731
21
29.6229638
0
LINE
8
DEFAULT_255_2_778
10
1.2552731
20
29.6229638
11
1.9553731
21
30.3230638
0
LINE
8
DEFAULT_255_2_778
10
1.9553731
20
30.3230638
11
1.9553731
21
55.0229638
0
LINE
8
DEFAULT_255_2_778
10
5.1531888
20
2.0060647
11
5.1531888
21
1.7732647
0
LINE
8
DEFAULT_255_2_778
10
5.1531888
20
1.7732647
11
0.2551888
21
1.7732647
0
LINE
8
DEFAULT_255_2_778
10
0.2551888
20
1.7732647
11
0.2551888
21
71.0731647
0
LINE
8
DEFAULT_255_2_778
10
0.2551888
20
71.0731647
11
5.1531888
21
71.0731647
0
LINE
8
DEFAULT_255_2_778
10
5.1531888
20
71.0731647
11
5.1531888
21
70.8403647
0
LINE
8
DEFAULT_255_2_778
10
10.3452888
20
2.0060647
11
10.3452888
21
1.7732647
0
LINE
8
DEFAULT_255_2_778
10
10.3452888
20
1.7732647
11
15.2551888
21
1.7732647
0
LINE
8
DEFAULT_255_2_778
10
15.2551888
20
1.7732647
11
15.2551888
21
71.0731647
0
LINE
8
DEFAULT_255_2_778
10
15.2551888
20
71.0731647
11
10.3452888
21
71.0731647
0
LINE
8
DEFAULT_255_2_778
10
10.3452888
20
71.0731647
11
10.3452888
21
70.8403647
0
LINE
8
DEFAULT_255_2_778
10
14.3384731
20
71.0732273
11
14.3384731
21
70.8404273
0
LINE
8
DEFAULT_255_2_778
10
14.3384731
20
70.8404273
11
1.1711731
21
70.8404273
0
LINE
8
DEFAULT_255_2_778
10
1.1711731
20
70.8404273
11
1.1711731
21
71.0732273
0
LINE
8
DEFAULT_255_2_778
10
5.2497731
20
18.9463273
11
5.2497731
21
17.8401273
0
LINE
8
DEFAULT_255_2_778
10
5.2497731
20
17.8401273
11
6.3495731
21
17.8401273
0
LINE
8
DEFAULT_255_2_778
10
6.3495731
20
17.8401273
11
6.3495731
21
18.9463273
0
LINE
8
DEFAULT_255_2_778
10
5.2497731
20
16.9963273
11
5.2497731
21
15.8914273
0
LINE
8
DEFAULT_255_2_778
10
5.2497731
20
15.8914273
11
6.3495731
21
15.8914273
0
LINE
8
DEFAULT_255_2_778
10
6.3495731
20
15.8914273
11
6.3495731
21
16.9963273
0
LINE
8
DEFAULT_255_2_778
10
5.2497731
20
15.0464273
11
5.2497731
21
13.9441273
0
LINE
8
DEFAULT_255_2_778
10
5.2497731
20
13.9441273
11
6.3495731
21
13.9441273
0
LINE
8
DEFAULT_255_2_778
10
6.3495731
20
13.9441273
11
6.3495731
21
15.0464273
0
LINE
8
DEFAULT_255_2_778
10
5.2497731
20
13.1014273
11
5.2497731
21
11.9933273
0
LINE
8
DEFAULT_255_2_778
10
5.2497731
20
11.9933273
11
6.3495731
21
11.9933273
0
LINE
8
DEFAULT_255_2_778
10
6.3495731
20
11.9933273
11
6.3495731
21
13.1017273
0
LINE
8
DEFAULT_255_2_778
10
5.2497731
20
11.1493273
11
5.2497731
21
10.0441273
0
LINE
8
DEFAULT_255_2_778
10
5.2497731
20
10.0441273
11
6.3495731
21
10.0441273
0
LINE
8
DEFAULT_255_2_778
10
6.3495731
20
10.0441273
11
6.3495731
21
11.1496273
0
LINE
8
DEFAULT_255_2_778
10
1.1991731
20
18.9463273
11
1.1991731
21
17.8401273
0
LINE
8
DEFAULT_255_2_778
10
1.1991731
20
17.8401273
11
2.2988731
21
17.8401273
0
LINE
8
DEFAULT_255_2_778
10
2.2988731
20
17.8401273
11
2.2988731
21
18.9463273
0
LINE
8
DEFAULT_255_2_778
10
1.1991731
20
16.9963273
11
1.1991731
21
15.8914273
0
LINE
8
DEFAULT_255_2_778
10
1.1991731
20
15.8914273
11
2.2988731
21
15.8914273
0
LINE
8
DEFAULT_255_2_778
10
2.2988731
20
15.8914273
11
2.2988731
21
16.9963273
0
LINE
8
DEFAULT_255_2_778
10
1.1991731
20
15.0464273
11
1.1991731
21
13.9441273
0
LINE
8
DEFAULT_255_2_778
10
1.1991731
20
13.9441273
11
2.2988731
21
13.9441273
0
LINE
8
DEFAULT_255_2_778
10
2.2988731
20
13.9441273
11
2.2988731
21
15.0464273
0
LINE
8
DEFAULT_255_2_778
10
1.1991731
20
13.1014273
11
1.1991731
21
11.9933273
0
LINE
8
DEFAULT_255_2_778
10
1.1991731
20
11.9933273
11
2.2988731
21
11.9933273
0
LINE
8
DEFAULT_255_2_778
10
2.2988731
20
11.9933273
11
2.2988731
21
13.1017273
0
LINE
8
DEFAULT_255_2_778
10
1.1991731
20
11.1493273
11
1.1991731
21
10.0441273
0
LINE
8
DEFAULT_255_2_778
10
1.1991731
20
10.0441273
11
2.2988731
21
10.0441273
0
LINE
8
DEFAULT_255_2_778
10
2.2988731
20
10.0441273
11
2.2988731
21
11.1496273
0
LINE
8
DEFAULT_255_2_778
10
5.2497731
20
24.7933273
11
5.2497731
21
23.6842273
0
LINE
8
DEFAULT_255_2_778
10
5.2497731
20
23.6842273
11
6.3495731
21
23.6842273
0
LINE
8
DEFAULT_255_2_778
10
6.3495731
20
23.6842273
11
6.3495731
21
24.7933273
0
LINE
8
DEFAULT_255_2_778
10
5.2497731
20
22.8452273
11
5.2497731
21
21.7332273
0
LINE
8
DEFAULT_255_2_778
10
5.2497731
20
21.7332273
11
6.3495731
21
21.7332273
0
LINE
8
DEFAULT_255_2_778
10
6.3495731
20
21.7332273
11
6.3495731
21
22.8452273
0
LINE
8
DEFAULT_255_2_778
10
5.2497731
20
20.8947273
11
5.2497731
21
19.7885273
0
LINE
8
DEFAULT_255_2_778
10
5.2497731
20
19.7885273
11
6.3495731
21
19.7885273
0
LINE
8
DEFAULT_255_2_778
10
6.3495731
20
19.7885273
11
6.3495731
21
20.8947273
0
LINE
8
DEFAULT_255_2_778
10
1.1991731
20
24.7933273
11
1.1991731
21
23.6842273
0
LINE
8
DEFAULT_255_2_778
10
1.1991731
20
23.6842273
11
2.2988731
21
23.6842273
0
LINE
8
DEFAULT_255_2_778
10
2.2988731
20
23.6842273
11
2.2988731
21
24.7933273
0
LINE
8
DEFAULT_255_2_778
10
1.1991731
20
22.8452273
11
1.1991731
21
21.7332273
0
LINE
8
DEFAULT_255_2_778
10
1.1991731
20
21.7332273
11
2.2988731
21
21.7332273
0
LINE
8
DEFAULT_255_2_778
10
2.2988731
20
21.7332273
11
2.2988731
21
22.8452273
0
LINE
8
DEFAULT_255_2_778
10
1.1991731
20
20.8947273
11
1.1991731
21
19.7885273
0
LINE
8
DEFAULT_255_2_778
10
1.1991731
20
19.7885273
11
2.2988731
21
19.7885273
0
LINE
8
DEFAULT_255_2_778
10
2.2988731
20
19.7885273
11
2.2988731
21
20.8947273
0
LINE
8
DEFAULT_255_2_778
10
7.361874
20
24.8677521
11
7.466674
21
24.8677521
0
LINE
8
DEFAULT_255_2_778
10
7.466674
20
24.8677521
11
7.466674
21
23.6702521
0
LINE
8
DEFAULT_255_2_778
10
7.466674
20
23.6702521
11
7.383274
21
23.6702521
0
LINE
8
DEFAULT_255_2_778
10
7.383274
20
23.6702521
11
7.383274
21
24.7611521
0
LINE
8
DEFAULT_255_2_778
10
7.383274
20
24.7611521
11
7.165274
21
24.5682521
0
LINE
8
DEFAULT_255_2_778
10
7.165274
20
24.5682521
11
7.159974
21
24.6566521
0
LINE
8
DEFAULT_255_2_778
10
7.159974
20
24.6566521
11
7.361574
21
24.8640521
0
LINE
8
DEFAULT_255_2_778
10
7.361574
20
24.8640521
11
7.361574
21
24.8674521
0
LINE
8
DEFAULT_255_2_778
10
7.361574
20
24.8674521
11
7.159974
21
24.6600521
0
LINE
8
DEFAULT_255_2_778
10
7.159974
20
24.6600521
11
7.159974
21
24.6566521
0
LINE
8
DEFAULT_255_2_778
10
7.751874
20
22.8687521
11
7.856674
21
22.8687521
0
LINE
8
DEFAULT_255_2_778
10
7.856674
20
22.8687521
11
7.856674
21
21.6712521
0
LINE
8
DEFAULT_255_2_778
10
7.856674
20
21.6712521
11
7.773274
21
21.6712521
0
LINE
8
DEFAULT_255_2_778
10
7.773274
20
21.6712521
11
7.773274
21
22.7621521
0
LINE
8
DEFAULT_255_2_778
10
7.773274
20
22.7621521
11
7.555274
21
22.5692521
0
LINE
8
DEFAULT_255_2_778
10
7.555274
20
22.5692521
11
7.549974
21
22.6576521
0
LINE
8
DEFAULT_255_2_778
10
7.549974
20
22.6576521
11
7.751574
21
22.8650521
0
LINE
8
DEFAULT_255_2_778
10
7.751574
20
22.8650521
11
7.751574
21
22.8684521
0
LINE
8
DEFAULT_255_2_778
10
7.751574
20
22.8684521
11
7.549974
21
22.6610521
0
LINE
8
DEFAULT_255_2_778
10
7.549974
20
22.6610521
11
7.549974
21
22.6576521
0
LINE
8
DEFAULT_255_2_778
10
15.2551888
20
3.4573583
11
0.2551888
21
3.4573583
0
LINE
8
DEFAULT_255_2_778
10
5.9727888
20
2.0058583
11
5.9727888
21
-0.1769417
0
LINE
8
DEFAULT_255_2_778
10
5.9727888
20
-0.1769417
11
9.5377888
21
-0.1769417
0
LINE
8
DEFAULT_255_2_778
10
9.5377888
20
-0.1769417
11
9.5377888
21
2.0058583
0
LINE
8
DEFAULT_255_2_778
10
6.7901146
20
10.6937125
11
7.2463146
21
10.6937125
0
LINE
8
DEFAULT_255_2_778
10
7.2463146
20
10.6937125
11
7.2463146
21
10.6077125
0
LINE
8
DEFAULT_255_2_778
10
7.2463146
20
10.6077125
11
6.7901146
21
10.6077125
0
LINE
8
DEFAULT_255_2_778
10
6.7901146
20
10.6077125
11
6.7901146
21
10.0233125
0
LINE
8
DEFAULT_255_2_778
10
6.7901146
20
10.0233125
11
6.7052146
21
10.0233125
0
LINE
8
DEFAULT_255_2_778
10
6.7052146
20
10.0233125
11
6.7052146
21
11.2139125
0
LINE
8
DEFAULT_255_2_778
10
6.7052146
20
11.2139125
11
7.2762146
21
11.2139125
0
LINE
8
DEFAULT_255_2_778
10
7.2762146
20
11.2139125
11
7.2762146
21
11.1263125
0
LINE
8
DEFAULT_255_2_778
10
7.2762146
20
11.1263125
11
6.7901146
21
11.1263125
0
LINE
8
DEFAULT_255_2_778
10
6.7901146
20
11.1263125
11
6.7901146
21
10.6906125
0
LINE
8
DEFAULT_255_2_778
10
6.7901146
20
10.6906125
11
7.2463146
21
10.6906125
0
LINE
8
DEFAULT_255_2_778
10
6.7901146
20
14.5621125
11
7.2463146
21
14.5621125
0
LINE
8
DEFAULT_255_2_778
10
7.2463146
20
14.5621125
11
7.2463146
21
14.4761125
0
LINE
8
DEFAULT_255_2_778
10
7.2463146
20
14.4761125
11
6.7901146
21
14.4761125
0
LINE
8
DEFAULT_255_2_778
10
6.7901146
20
14.4761125
11
6.7901146
21
13.8917125
0
LINE
8
DEFAULT_255_2_778
10
6.7901146
20
13.8917125
11
6.7052146
21
13.8917125
0
LINE
8
DEFAULT_255_2_778
10
6.7052146
20
13.8917125
11
6.7052146
21
15.0823125
0
LINE
8
DEFAULT_255_2_778
10
6.7052146
20
15.0823125
11
7.2762146
21
15.0823125
0
LINE
8
DEFAULT_255_2_778
10
7.2762146
20
15.0823125
11
7.2762146
21
14.9947125
0
LINE
8
DEFAULT_255_2_778
10
7.2762146
20
14.9947125
11
6.7901146
21
14.9947125
0
LINE
8
DEFAULT_255_2_778
10
6.7901146
20
14.9947125
11
6.7901146
21
14.5590125
0
LINE
8
DEFAULT_255_2_778
10
6.7901146
20
14.5590125
11
7.2463146
21
14.5590125
0
LINE
8
DEFAULT_255_2_778
10
2.7401146
20
10.6937125
11
3.1963146
21
10.6937125
0
LINE
8
DEFAULT_255_2_778
10
3.1963146
20
10.6937125
11
3.1963146
21
10.6077125
0
LINE
8
DEFAULT_255_2_778
10
3.1963146
20
10.6077125
11
2.7401146
21
10.6077125
0
LINE
8
DEFAULT_255_2_778
10
2.7401146
20
10.6077125
11
2.7401146
21
10.0233125
0
LINE
8
DEFAULT_255_2_778
10
2.7401146
20
10.0233125
11
2.6552146
21
10.0233125
0
LINE
8
DEFAULT_255_2_778
10
2.6552146
20
10.0233125
11
2.6552146
21
11.2139125
0
LINE
8
DEFAULT_255_2_778
10
2.6552146
20
11.2139125
11
3.2262146
21
11.2139125
0
LINE
8
DEFAULT_255_2_778
10
3.2262146
20
11.2139125
11
3.2262146
21
11.1263125
0
LINE
8
DEFAULT_255_2_778
10
3.2262146
20
11.1263125
11
2.7401146
21
11.1263125
0
LINE
8
DEFAULT_255_2_778
10
2.7401146
20
11.1263125
11
2.7401146
21
10.6906125
0
LINE
8
DEFAULT_255_2_778
10
2.7401146
20
10.6906125
11
3.1963146
21
10.6906125
0
LINE
8
DEFAULT_255_2_778
10
2.7401146
20
14.5621125
11
3.1963146
21
14.5621125
0
LINE
8
DEFAULT_255_2_778
10
3.1963146
20
14.5621125
11
3.1963146
21
14.4761125
0
LINE
8
DEFAULT_255_2_778
10
3.1963146
20
14.4761125
11
2.7401146
21
14.4761125
0
LINE
8
DEFAULT_255_2_778
10
2.7401146
20
14.4761125
11
2.7401146
21
13.8917125
0
LINE
8
DEFAULT_255_2_778
10
2.7401146
20
13.8917125
11
2.6552146
21
13.8917125
0
LINE
8
DEFAULT_255_2_778
10
2.6552146
20
13.8917125
11
2.6552146
21
15.0823125
0
LINE
8
DEFAULT_255_2_778
10
2.6552146
20
15.0823125
11
3.2262146
21
15.0823125
0
LINE
8
DEFAULT_255_2_778
10
3.2262146
20
15.0823125
11
3.2262146
21
14.9947125
0
LINE
8
DEFAULT_255_2_778
10
3.2262146
20
14.9947125
11
2.7401146
21
14.9947125
0
LINE
8
DEFAULT_255_2_778
10
2.7401146
20
14.9947125
11
2.7401146
21
14.5590125
0
LINE
8
DEFAULT_255_2_778
10
2.7401146
20
14.5590125
11
3.1963146
21
14.5590125
0
LINE
8
DEFAULT_255_2_778
10
6.7052344
20
15.9996708
11
6.7901344
21
15.9996708
0
LINE
8
DEFAULT_255_2_778
10
6.7901344
20
15.9996708
11
6.7901344
21
15.8229708
0
LINE
8
DEFAULT_255_2_778
10
6.7901344
20
15.8229708
11
6.7052344
21
15.8229708
0
LINE
8
DEFAULT_255_2_778
10
6.7052344
20
15.8229708
11
6.7052344
21
15.9996708
0
LINE
8
DEFAULT_255_2_778
10
6.7052344
20
12.1311708
11
6.7901344
21
12.1311708
0
LINE
8
DEFAULT_255_2_778
10
6.7901344
20
12.1311708
11
6.7901344
21
11.9544708
0
LINE
8
DEFAULT_255_2_778
10
6.7901344
20
11.9544708
11
6.7052344
21
11.9544708
0
LINE
8
DEFAULT_255_2_778
10
6.7052344
20
11.9544708
11
6.7052344
21
12.1311708
0
LINE
8
DEFAULT_255_2_778
10
2.6552344
20
15.9996708
11
2.7401344
21
15.9996708
0
LINE
8
DEFAULT_255_2_778
10
2.7401344
20
15.9996708
11
2.7401344
21
15.8229708
0
LINE
8
DEFAULT_255_2_778
10
2.7401344
20
15.8229708
11
2.6552344
21
15.8229708
0
LINE
8
DEFAULT_255_2_778
10
2.6552344
20
15.8229708
11
2.6552344
21
15.9996708
0
LINE
8
DEFAULT_255_2_778
10
2.6552344
20
12.1311708
11
2.7401344
21
12.1311708
0
LINE
8
DEFAULT_255_2_778
10
2.7401344
20
12.1311708
11
2.7401344
21
11.9544708
0
LINE
8
DEFAULT_255_2_778
10
2.7401344
20
11.9544708
11
2.6552344
21
11.9544708
0
LINE
8
DEFAULT_255_2_778
10
2.6552344
20
11.9544708
11
2.6552344
21
12.1311708
0
LINE
8
DEFAULT_255_2_778
10
2.2988105
20
18.940503
11
1.1992105
21
18.940503
0
LINE
8
DEFAULT_255_2_778
10
6.3496105
20
18.940503
11
5.2497105
21
18.940503
0
LINE
8
DEFAULT_255_2_778
10
2.2988105
20
16.990503
11
1.1992105
21
16.990503
0
LINE
8
DEFAULT_255_2_778
10
6.3496105
20
16.990503
11
5.2497105
21
16.990503
0
LINE
8
DEFAULT_255_2_778
10
2.2988105
20
15.040803
11
1.1992105
21
15.040803
0
LINE
8
DEFAULT_255_2_778
10
6.3496105
20
15.040803
11
5.2497105
21
15.040803
0
LINE
8
DEFAULT_255_2_778
10
2.2988105
20
13.095903
11
1.1992105
21
13.095903
0
LINE
8
DEFAULT_255_2_778
10
6.3496105
20
13.095903
11
5.2497105
21
13.095903
0
LINE
8
DEFAULT_255_2_778
10
2.2988105
20
11.143503
11
1.1992105
21
11.143503
0
LINE
8
DEFAULT_255_2_778
10
6.3496105
20
11.143503
11
5.2497105
21
11.143503
0
LINE
8
DEFAULT_255_2_778
10
6.8083146
20
18.4848781
11
7.2645146
21
18.4848781
0
LINE
8
DEFAULT_255_2_778
10
7.2645146
20
18.4848781
11
7.2645146
21
18.3980781
0
LINE
8
DEFAULT_255_2_778
10
7.2645146
20
18.3980781
11
6.8083146
21
18.3980781
0
LINE
8
DEFAULT_255_2_778
10
6.8083146
20
18.3980781
11
6.8083146
21
17.8093781
0
LINE
8
DEFAULT_255_2_778
10
6.8083146
20
17.8093781
11
6.7234146
21
17.8093781
0
LINE
8
DEFAULT_255_2_778
10
6.7234146
20
17.8093781
11
6.7234146
21
19.0087781
0
LINE
8
DEFAULT_255_2_778
10
6.7234146
20
19.0087781
11
7.2944146
21
19.0087781
0
LINE
8
DEFAULT_255_2_778
10
7.2944146
20
19.0087781
11
7.2944146
21
18.9203781
0
LINE
8
DEFAULT_255_2_778
10
7.2944146
20
18.9203781
11
6.8083146
21
18.9203781
0
LINE
8
DEFAULT_255_2_778
10
6.8083146
20
18.9203781
11
6.8083146
21
18.4814781
0
LINE
8
DEFAULT_255_2_778
10
6.8083146
20
18.4814781
11
7.2645146
21
18.4814781
0
LINE
8
DEFAULT_255_2_778
10
6.8083146
20
22.3517781
11
7.2645146
21
22.3517781
0
LINE
8
DEFAULT_255_2_778
10
7.2645146
20
22.3517781
11
7.2645146
21
22.2649781
0
LINE
8
DEFAULT_255_2_778
10
7.2645146
20
22.2649781
11
6.8083146
21
22.2649781
0
LINE
8
DEFAULT_255_2_778
10
6.8083146
20
22.2649781
11
6.8083146
21
21.6762781
0
LINE
8
DEFAULT_255_2_778
10
6.8083146
20
21.6762781
11
6.7234146
21
21.6762781
0
LINE
8
DEFAULT_255_2_778
10
6.7234146
20
21.6762781
11
6.7234146
21
22.8756781
0
LINE
8
DEFAULT_255_2_778
10
6.7234146
20
22.8756781
11
7.2944146
21
22.8756781
0
LINE
8
DEFAULT_255_2_778
10
7.2944146
20
22.8756781
11
7.2944146
21
22.7872781
0
LINE
8
DEFAULT_255_2_778
10
7.2944146
20
22.7872781
11
6.8083146
21
22.7872781
0
LINE
8
DEFAULT_255_2_778
10
6.8083146
20
22.7872781
11
6.8083146
21
22.3483781
0
LINE
8
DEFAULT_255_2_778
10
6.8083146
20
22.3483781
11
7.2645146
21
22.3483781
0
LINE
8
DEFAULT_255_2_778
10
2.7584146
20
18.4848781
11
3.2146146
21
18.4848781
0
LINE
8
DEFAULT_255_2_778
10
3.2146146
20
18.4848781
11
3.2146146
21
18.3980781
0
LINE
8
DEFAULT_255_2_778
10
3.2146146
20
18.3980781
11
2.7584146
21
18.3980781
0
LINE
8
DEFAULT_255_2_778
10
2.7584146
20
18.3980781
11
2.7584146
21
17.8093781
0
LINE
8
DEFAULT_255_2_778
10
2.7584146
20
17.8093781
11
2.6735146
21
17.8093781
0
LINE
8
DEFAULT_255_2_778
10
2.6735146
20
17.8093781
11
2.6735146
21
19.0087781
0
LINE
8
DEFAULT_255_2_778
10
2.6735146
20
19.0087781
11
3.2445146
21
19.0087781
0
LINE
8
DEFAULT_255_2_778
10
3.2445146
20
19.0087781
11
3.2445146
21
18.9203781
0
LINE
8
DEFAULT_255_2_778
10
3.2445146
20
18.9203781
11
2.7584146
21
18.9203781
0
LINE
8
DEFAULT_255_2_778
10
2.7584146
20
18.9203781
11
2.7584146
21
18.4814781
0
LINE
8
DEFAULT_255_2_778
10
2.7584146
20
18.4814781
11
3.2146146
21
18.4814781
0
LINE
8
DEFAULT_255_2_778
10
2.7584146
20
22.3517781
11
3.2146146
21
22.3517781
0
LINE
8
DEFAULT_255_2_778
10
3.2146146
20
22.3517781
11
3.2146146
21
22.2649781
0
LINE
8
DEFAULT_255_2_778
10
3.2146146
20
22.2649781
11
2.7584146
21
22.2649781
0
LINE
8
DEFAULT_255_2_778
10
2.7584146
20
22.2649781
11
2.7584146
21
21.6762781
0
LINE
8
DEFAULT_255_2_778
10
2.7584146
20
21.6762781
11
2.6735146
21
21.6762781
0
LINE
8
DEFAULT_255_2_778
10
2.6735146
20
21.6762781
11
2.6735146
21
22.8756781
0
LINE
8
DEFAULT_255_2_778
10
2.6735146
20
22.8756781
11
3.2445146
21
22.8756781
0
LINE
8
DEFAULT_255_2_778
10
3.2445146
20
22.8756781
11
3.2445146
21
22.7872781
0
LINE
8
DEFAULT_255_2_778
10
3.2445146
20
22.7872781
11
2.7584146
21
22.7872781
0
LINE
8
DEFAULT_255_2_778
10
2.7584146
20
22.7872781
11
2.7584146
21
22.3483781
0
LINE
8
DEFAULT_255_2_778
10
2.7584146
20
22.3483781
11
3.2146146
21
22.3483781
0
LINE
8
DEFAULT_255_2_778
10
6.7052344
20
23.8448708
11
6.7901344
21
23.8448708
0
LINE
8
DEFAULT_255_2_778
10
6.7901344
20
23.8448708
11
6.7901344
21
23.6681708
0
LINE
8
DEFAULT_255_2_778
10
6.7901344
20
23.6681708
11
6.7052344
21
23.6681708
0
LINE
8
DEFAULT_255_2_778
10
6.7052344
20
23.6681708
11
6.7052344
21
23.8448708
0
LINE
8
DEFAULT_255_2_778
10
6.7052344
20
19.9763708
11
6.7901344
21
19.9763708
0
LINE
8
DEFAULT_255_2_778
10
6.7901344
20
19.9763708
11
6.7901344
21
19.7996708
0
LINE
8
DEFAULT_255_2_778
10
6.7901344
20
19.7996708
11
6.7052344
21
19.7996708
0
LINE
8
DEFAULT_255_2_778
10
6.7052344
20
19.7996708
11
6.7052344
21
19.9763708
0
LINE
8
DEFAULT_255_2_778
10
2.6552344
20
23.8448708
11
2.7401344
21
23.8448708
0
LINE
8
DEFAULT_255_2_778
10
2.7401344
20
23.8448708
11
2.7401344
21
23.6681708
0
LINE
8
DEFAULT_255_2_778
10
2.7401344
20
23.6681708
11
2.6552344
21
23.6681708
0
LINE
8
DEFAULT_255_2_778
10
2.6552344
20
23.6681708
11
2.6552344
21
23.8448708
0
LINE
8
DEFAULT_255_2_778
10
2.6552344
20
19.9763708
11
2.7401344
21
19.9763708
0
LINE
8
DEFAULT_255_2_778
10
2.7401344
20
19.9763708
11
2.7401344
21
19.7996708
0
LINE
8
DEFAULT_255_2_778
10
2.7401344
20
19.7996708
11
2.6552344
21
19.7996708
0
LINE
8
DEFAULT_255_2_778
10
2.6552344
20
19.7996708
11
2.6552344
21
19.9763708
0
LINE
8
DEFAULT_255_2_778
10
2.2987992
20
24.7877537
11
1.1991992
21
24.7877537
0
LINE
8
DEFAULT_255_2_778
10
6.3495992
20
24.7877537
11
5.2496992
21
24.7877537
0
LINE
8
DEFAULT_255_2_778
10
2.2987992
20
22.8396537
11
1.1991992
21
22.8396537
0
LINE
8
DEFAULT_255_2_778
10
6.3495992
20
22.8396537
11
5.2496992
21
22.8396537
0
LINE
8
DEFAULT_255_2_778
10
2.2987992
20
20.8891537
11
1.1991992
21
20.8891537
0
LINE
8
DEFAULT_255_2_778
10
6.3495992
20
20.8891537
11
5.2496992
21
20.8891537
0
LINE
8
DEFAULT_255_2_778
10
9.7316992
20
24.8271537
11
14.2817992
21
24.8271537
0
LINE
8
DEFAULT_255_2_778
10
14.2817992
20
24.8271537
11
14.2817992
21
20.2763537
0
LINE
8
DEFAULT_255_2_778
10
14.2817992
20
20.2763537
11
9.7316992
21
20.2763537
0
LINE
8
DEFAULT_255_2_778
10
9.7316992
20
20.2763537
11
9.7316992
21
24.8271537
0
LINE
8
DEFAULT_255_2_778
10
15.3551992
20
57.3042537
11
15.2551992
21
57.3042537
0
LINE
8
DEFAULT_255_2_778
10
15.3551992
20
56.8256537
11
15.2551992
21
56.8256537
0
LINE
8
DEFAULT_255_2_778
10
15.2551825
20
56.7060731
11
15.3551825
21
56.7060731
0
LINE
8
DEFAULT_255_2_778
10
15.3551825
20
56.7060731
11
15.3551825
21
59.3386731
0
LINE
8
DEFAULT_255_2_778
10
15.3551825
20
59.3386731
11
15.2551825
21
59.3386731
0
LINE
8
DEFAULT_255_2_778
10
1.1999825
20
62.1379731
11
2.2995825
21
62.1379731
0
LINE
8
DEFAULT_255_2_778
10
1.1999825
20
62.1302731
11
1.1999825
21
63.2362731
0
LINE
8
DEFAULT_255_2_778
10
1.1999825
20
63.2362731
11
2.2995825
21
63.2362731
0
LINE
8
DEFAULT_255_2_778
10
2.2995825
20
63.2362731
11
2.2995825
21
62.1302731
0
LINE
8
DEFAULT_255_2_778
10
15.2551825
20
63.6013731
11
0.2551825
21
63.6013731
0
LINE
8
DEFAULT_255_2_778
10
15.2551825
20
61.6913731
11
0.2551825
21
61.6913731
0
LINE
8
DEFAULT_255_2_778
10
14.2553825
20
57.4230731
11
1.2552825
21
57.4230731
0
LINE
8
DEFAULT_255_2_778
10
15.2551825
20
69.3888731
11
0.2551825
21
69.3888731
0
LINE
8
DEFAULT_255_2_778
10
9.5377825
20
70.8403731
11
9.5377825
21
73.0231731
0
LINE
8
DEFAULT_255_2_778
10
9.5377825
20
73.0231731
11
5.9727825
21
73.0231731
0
LINE
8
DEFAULT_255_2_778
10
5.9727825
20
73.0231731
11
5.9727825
21
70.8403731
0
LINE
8
DEFAULT_255_2_778
10
2.2998825
20
9.1948731
11
1.1999825
21
9.1948731
0
LINE
8
DEFAULT_255_2_778
10
1.2000636
20
9.2006939
11
1.2000636
21
8.0946939
0
LINE
8
DEFAULT_255_2_778
10
1.2000636
20
8.0946939
11
2.2999636
21
8.0946939
0
LINE
8
DEFAULT_255_2_778
10
2.2999636
20
8.0946939
11
2.2999636
21
9.2006939
0
LINE
8
DEFAULT_255_2_778
10
2.1697636
20
67.9074939
11
2.1686636
21
67.8481939
0
LINE
8
DEFAULT_255_2_778
10
2.1686636
20
67.8481939
11
2.1668636
21
67.8124939
0
LINE
8
DEFAULT_255_2_778
10
2.1668636
20
67.8124939
11
2.1639636
21
67.7751939
0
LINE
8
DEFAULT_255_2_778
10
2.1639636
20
67.7751939
11
2.1573636
21
67.7140939
0
LINE
8
DEFAULT_255_2_778
10
2.1573636
20
67.7140939
11
2.1522636
21
67.6790939
0
LINE
8
DEFAULT_255_2_778
10
2.1522636
20
67.6790939
11
2.1430636
21
67.6269939
0
LINE
8
DEFAULT_255_2_778
10
2.1430636
20
67.6269939
11
2.1255636
21
67.5539939
0
LINE
8
DEFAULT_255_2_778
10
2.1255636
20
67.5539939
11
2.1014636
21
67.4782939
0
LINE
8
DEFAULT_255_2_778
10
2.1014636
20
67.4782939
11
2.0713636
21
67.4073939
0
LINE
8
DEFAULT_255_2_778
10
2.0713636
20
67.4073939
11
2.0297636
21
67.3353939
0
LINE
8
DEFAULT_255_2_778
10
2.0297636
20
67.3353939
11
1.9686636
21
67.2615939
0
LINE
8
DEFAULT_255_2_778
10
1.9686636
20
67.2615939
11
1.8959636
21
67.2089939
0
LINE
8
DEFAULT_255_2_778
10
1.8959636
20
67.2089939
11
1.7556636
21
67.1578939
0
LINE
8
DEFAULT_255_2_778
10
1.7556636
20
67.1578939
11
1.5537636
21
67.1298939
0
LINE
8
DEFAULT_255_2_778
10
1.5537636
20
67.1298939
11
1.3392636
21
67.1324939
0
LINE
8
DEFAULT_255_2_778
10
1.3392636
20
67.1324939
11
1.2553636
21
67.1404939
0
LINE
8
DEFAULT_255_2_778
10
1.2553636
20
67.1404939
11
1.2553636
21
68.7342939
0
LINE
8
DEFAULT_255_2_778
10
1.2553636
20
68.7342939
11
1.6284636
21
68.7321939
0
LINE
8
DEFAULT_255_2_778
10
1.6284636
20
68.7321939
11
1.7495636
21
68.7154939
0
LINE
8
DEFAULT_255_2_778
10
1.7495636
20
68.7154939
11
1.8623636
21
68.6755939
0
LINE
8
DEFAULT_255_2_778
10
1.8623636
20
68.6755939
11
1.9390636
21
68.6268939
0
LINE
8
DEFAULT_255_2_778
10
1.9390636
20
68.6268939
11
2.0086636
21
68.5575939
0
LINE
8
DEFAULT_255_2_778
10
2.0086636
20
68.5575939
11
2.0493636
21
68.5011939
0
LINE
8
DEFAULT_255_2_778
10
2.0493636
20
68.5011939
11
2.0803636
21
68.4450939
0
LINE
8
DEFAULT_255_2_778
10
2.0803636
20
68.4450939
11
2.1049636
21
68.3881939
0
LINE
8
DEFAULT_255_2_778
10
2.1049636
20
68.3881939
11
2.1184636
21
68.3482939
0
LINE
8
DEFAULT_255_2_778
10
2.1184636
20
68.3482939
11
2.1297636
21
68.3077939
0
LINE
8
DEFAULT_255_2_778
10
2.1297636
20
68.3077939
11
2.1398636
21
68.2646939
0
LINE
8
DEFAULT_255_2_778
10
2.1398636
20
68.2646939
11
2.1475636
21
68.2262939
0
LINE
8
DEFAULT_255_2_778
10
2.1475636
20
68.2262939
11
2.1536636
21
68.1878939
0
LINE
8
DEFAULT_255_2_778
10
2.1536636
20
68.1878939
11
2.1591636
21
68.1437939
0
LINE
8
DEFAULT_255_2_778
10
2.1591636
20
68.1437939
11
2.1631636
21
68.1045939
0
LINE
8
DEFAULT_255_2_778
10
2.1631636
20
68.1045939
11
2.1663636
21
68.0606939
0
LINE
8
DEFAULT_255_2_778
10
2.1663636
20
68.0606939
11
2.1668636
21
67.8100939
0
LINE
8
DEFAULT_255_2_778
10
2.1668636
20
67.8100939
11
2.1628636
21
67.7632939
0
LINE
8
DEFAULT_255_2_778
10
2.1628636
20
67.7632939
11
2.1588636
21
67.7272939
0
LINE
8
DEFAULT_255_2_778
10
2.1588636
20
67.7272939
11
2.1530636
21
67.6857939
0
LINE
8
DEFAULT_255_2_778
10
2.1530636
20
67.6857939
11
2.1454636
21
67.6415939
0
LINE
8
DEFAULT_255_2_778
10
2.1454636
20
67.6415939
11
2.1372636
21
67.6026939
0
LINE
8
DEFAULT_255_2_778
10
2.1372636
20
67.6026939
11
2.1247636
21
67.5536939
0
LINE
8
DEFAULT_255_2_778
10
2.1247636
20
67.5536939
11
2.1025636
21
67.4838939
0
LINE
8
DEFAULT_255_2_778
10
2.1025636
20
67.4838939
11
2.0826636
21
67.4346939
0
LINE
8
DEFAULT_255_2_778
10
2.0826636
20
67.4346939
11
2.0427636
21
67.3584939
0
LINE
8
DEFAULT_255_2_778
10
2.0427636
20
67.3584939
11
2.0059636
21
67.3055939
0
LINE
8
DEFAULT_255_2_778
10
2.0059636
20
67.3055939
11
1.9601636
21
67.2568939
0
LINE
8
DEFAULT_255_2_778
10
1.9601636
20
67.2568939
11
1.8707636
21
67.1996939
0
LINE
8
DEFAULT_255_2_778
10
1.8707636
20
67.1996939
11
1.7485636
21
67.1599939
0
LINE
8
DEFAULT_255_2_778
10
1.7485636
20
67.1599939
11
1.5868636
21
67.1359939
0
LINE
8
DEFAULT_255_2_778
10
1.5868636
20
67.1359939
11
1.3804636
21
67.1329939
0
LINE
8
DEFAULT_255_2_778
10
1.3804636
20
67.1329939
11
1.2558636
21
67.1441939
0
LINE
8
DEFAULT_255_2_778
10
1.5439814
20
68.6179356
11
1.5439814
21
68.6213356
0
LINE
8
DEFAULT_255_2_778
10
1.5439814
20
68.6213356
11
1.3684814
21
68.6213356
0
LINE
8
DEFAULT_255_2_778
10
1.3684814
20
68.6213356
11
1.3684814
21
67.2481356
0
LINE
8
DEFAULT_255_2_778
10
1.3684814
20
67.2481356
11
1.6063814
21
67.2515356
0
LINE
8
DEFAULT_255_2_778
10
1.6063814
20
67.2515356
11
1.7706814
21
67.2822356
0
LINE
8
DEFAULT_255_2_778
10
1.7706814
20
67.2822356
11
1.8484814
21
67.3145356
0
LINE
8
DEFAULT_255_2_778
10
1.8484814
20
67.3145356
11
1.9026814
21
67.3579356
0
LINE
8
DEFAULT_255_2_778
10
1.9026814
20
67.3579356
11
1.9468814
21
67.4143356
0
LINE
8
DEFAULT_255_2_778
10
1.9468814
20
67.4143356
11
1.9804814
21
67.4756356
0
LINE
8
DEFAULT_255_2_778
10
1.9804814
20
67.4756356
11
2.0005814
21
67.5249356
0
LINE
8
DEFAULT_255_2_778
10
2.0005814
20
67.5249356
11
2.0180814
21
67.5796356
0
LINE
8
DEFAULT_255_2_778
10
2.0180814
20
67.5796356
11
2.0339814
21
67.6452356
0
LINE
8
DEFAULT_255_2_778
10
2.0339814
20
67.6452356
11
2.0402814
21
67.6794356
0
LINE
8
DEFAULT_255_2_778
10
2.0402814
20
67.6794356
11
2.0452814
21
67.7117356
0
LINE
8
DEFAULT_255_2_778
10
2.0452814
20
67.7117356
11
2.0503814
21
67.7505356
0
LINE
8
DEFAULT_255_2_778
10
2.0503814
20
67.7505356
11
2.0495814
21
68.1154356
0
LINE
8
DEFAULT_255_2_778
10
2.0495814
20
68.1154356
11
2.0460814
21
68.1495356
0
LINE
8
DEFAULT_255_2_778
10
2.0460814
20
68.1495356
11
2.0418814
21
68.1821356
0
LINE
8
DEFAULT_255_2_778
10
2.0418814
20
68.1821356
11
2.0362814
21
68.2144356
0
LINE
8
DEFAULT_255_2_778
10
2.0362814
20
68.2144356
11
2.0286814
21
68.2506356
0
LINE
8
DEFAULT_255_2_778
10
2.0286814
20
68.2506356
11
2.0066814
21
68.3287356
0
LINE
8
DEFAULT_255_2_778
10
2.0066814
20
68.3287356
11
1.9873814
21
68.3779356
0
LINE
8
DEFAULT_255_2_778
10
1.9873814
20
68.3779356
11
1.9553814
21
68.4393356
0
LINE
8
DEFAULT_255_2_778
10
1.9553814
20
68.4393356
11
1.9098814
21
68.5017356
0
LINE
8
DEFAULT_255_2_778
10
1.9098814
20
68.5017356
11
1.8394814
21
68.5602356
0
LINE
8
DEFAULT_255_2_778
10
1.8394814
20
68.5602356
11
1.7455814
21
68.6004356
0
LINE
8
DEFAULT_255_2_778
10
1.7455814
20
68.6004356
11
1.5833814
21
68.6208356
0
LINE
8
DEFAULT_255_2_778
10
1.5833814
20
68.6208356
11
1.5439814
21
68.6213356
0
LINE
8
DEFAULT_255_2_778
10
2.5046814
20
68.7255356
11
2.6154814
21
68.7255356
0
LINE
8
DEFAULT_255_2_778
10
2.6154814
20
68.7255356
11
2.6154814
21
67.1296356
0
LINE
8
DEFAULT_255_2_778
10
2.6154814
20
67.1296356
11
2.5046814
21
67.1296356
0
LINE
8
DEFAULT_255_2_778
10
2.5046814
20
67.1296356
11
2.5046814
21
68.7255356
0
LINE
8
DEFAULT_255_2_778
10
12.3000814
20
68.7277356
11
12.1891814
21
68.7277356
0
LINE
8
DEFAULT_255_2_778
10
12.1891814
20
68.7277356
11
12.1891814
21
67.1317356
0
LINE
8
DEFAULT_255_2_778
10
12.1891814
20
67.1317356
11
12.3000814
21
67.1317356
0
LINE
8
DEFAULT_255_2_778
10
12.3000814
20
67.1317356
11
12.3000814
21
67.9236356
0
LINE
8
DEFAULT_255_2_778
10
12.3000814
20
67.9236356
11
12.9702814
21
67.9236356
0
LINE
8
DEFAULT_255_2_778
10
12.9702814
20
67.9236356
11
12.9702814
21
67.1317356
0
LINE
8
DEFAULT_255_2_778
10
12.9702814
20
67.1317356
11
13.0834814
21
67.1317356
0
LINE
8
DEFAULT_255_2_778
10
13.0834814
20
67.1317356
11
13.0834814
21
68.7277356
0
LINE
8
DEFAULT_255_2_778
10
13.0834814
20
68.7277356
11
12.9702814
21
68.7277356
0
LINE
8
DEFAULT_255_2_778
10
12.9702814
20
68.7277356
11
12.9702814
21
68.0366356
0
LINE
8
DEFAULT_255_2_778
10
12.9702814
20
68.0366356
11
12.3000814
21
68.0366356
0
LINE
8
DEFAULT_255_2_778
10
12.3000814
20
68.0366356
11
12.3000814
21
68.7277356
0
LINE
8
DEFAULT_255_2_778
10
13.6073814
20
67.9180356
11
14.2153814
21
67.9180356
0
LINE
8
DEFAULT_255_2_778
10
14.2153814
20
67.9180356
11
14.2153814
21
68.0323356
0
LINE
8
DEFAULT_255_2_778
10
14.2153814
20
68.0323356
11
13.6073814
21
68.0323356
0
LINE
8
DEFAULT_255_2_778
10
13.6073814
20
68.0323356
11
13.6073814
21
68.6171356
0
LINE
8
DEFAULT_255_2_778
10
13.6073814
20
68.6171356
11
14.2552814
21
68.6171356
0
LINE
8
DEFAULT_255_2_778
10
14.2153814
20
67.9217356
11
13.6073814
21
67.9217356
0
LINE
8
DEFAULT_255_2_778
10
13.6073814
20
67.9217356
11
13.6073814
21
67.1343356
0
LINE
8
DEFAULT_255_2_778
10
13.6073814
20
67.1343356
11
13.4940814
21
67.1343356
0
LINE
8
DEFAULT_255_2_778
10
13.4940814
20
67.1343356
11
13.4940814
21
68.7303356
0
LINE
8
DEFAULT_255_2_778
10
13.4940814
20
68.7303356
11
14.2552814
21
68.7303356
0
LINE
8
DEFAULT_255_2_778
10
14.2552814
20
68.7303356
11
14.2552814
21
68.6139356
0
LINE
8
DEFAULT_255_2_778
10
14.2552814
20
68.6139356
11
13.6073814
21
68.6139356
0
LINE
8
DEFAULT_255_2_778
10
7.0665814
20
65.0814356
11
7.0702814
21
65.0507356
0
LINE
8
DEFAULT_255_2_778
10
7.0702814
20
65.0507356
11
7.0776814
21
65.0087356
0
LINE
8
DEFAULT_255_2_778
10
7.0776814
20
65.0087356
11
7.0908814
21
64.9584356
0
LINE
8
DEFAULT_255_2_778
10
7.0908814
20
64.9584356
11
7.1067814
21
64.9158356
0
LINE
8
DEFAULT_255_2_778
10
7.1067814
20
64.9158356
11
7.1348814
21
64.8645356
0
LINE
8
DEFAULT_255_2_778
10
7.1348814
20
64.8645356
11
7.1678814
21
64.8258356
0
LINE
8
DEFAULT_255_2_778
10
7.1678814
20
64.8258356
11
7.2205814
21
64.7907356
0
LINE
8
DEFAULT_255_2_778
10
7.2205814
20
64.7907356
11
7.3089814
21
64.7679356
0
LINE
8
DEFAULT_255_2_778
10
7.3089814
20
64.7679356
11
7.4139814
21
64.7716356
0
LINE
8
DEFAULT_255_2_778
10
7.4139814
20
64.7716356
11
7.4980814
21
64.8015356
0
LINE
8
DEFAULT_255_2_778
10
7.4980814
20
64.8015356
11
7.5499814
21
64.8430356
0
LINE
8
DEFAULT_255_2_778
10
7.5499814
20
64.8430356
11
7.5811814
21
64.8854356
0
LINE
8
DEFAULT_255_2_778
10
7.5811814
20
64.8854356
11
7.5986814
21
64.9200356
0
LINE
8
DEFAULT_255_2_778
10
7.5986814
20
64.9200356
11
7.6137814
21
64.9618356
0
LINE
8
DEFAULT_255_2_778
10
7.6137814
20
64.9618356
11
7.6264814
21
65.0124356
0
LINE
8
DEFAULT_255_2_778
10
7.6264814
20
65.0124356
11
7.6317814
21
65.0412356
0
LINE
8
DEFAULT_255_2_778
10
7.6317814
20
65.0412356
11
7.6362814
21
65.0730356
0
LINE
8
DEFAULT_255_2_778
10
7.6362814
20
65.0730356
11
7.6399814
21
65.1074356
0
LINE
8
DEFAULT_255_2_778
10
7.6399814
20
65.1074356
11
7.6425814
21
65.1449356
0
LINE
8
DEFAULT_255_2_778
10
7.6425814
20
65.1449356
11
7.6446814
21
66.2207356
0
LINE
8
DEFAULT_255_2_778
10
7.6446814
20
66.2207356
11
7.7756814
21
66.2207356
0
LINE
8
DEFAULT_255_2_778
10
7.7756814
20
66.2207356
11
7.7735814
21
65.1613356
0
LINE
8
DEFAULT_255_2_778
10
7.7735814
20
65.1613356
11
7.7711814
21
65.0962356
0
LINE
8
DEFAULT_255_2_778
10
7.7711814
20
65.0962356
11
7.7682814
21
65.0470356
0
LINE
8
DEFAULT_255_2_778
10
7.7682814
20
65.0470356
11
7.7647814
21
65.0105356
0
LINE
8
DEFAULT_255_2_778
10
7.7647814
20
65.0105356
11
7.7610814
21
64.9838356
0
LINE
8
DEFAULT_255_2_778
10
7.7610814
20
64.9838356
11
7.7555814
21
64.9534356
0
LINE
8
DEFAULT_255_2_778
10
7.7555814
20
64.9534356
11
7.7486814
21
64.9245356
0
LINE
8
DEFAULT_255_2_778
10
7.7486814
20
64.9245356
11
7.7319814
21
64.8716356
0
LINE
8
DEFAULT_255_2_778
10
7.7319814
20
64.8716356
11
7.7110814
21
64.8243356
0
LINE
8
DEFAULT_255_2_778
10
7.7110814
20
64.8243356
11
7.6862814
21
64.7819356
0
LINE
8
DEFAULT_255_2_778
10
7.6862814
20
64.7819356
11
7.6414814
21
64.7266356
0
LINE
8
DEFAULT_255_2_778
10
7.6414814
20
64.7266356
11
7.5888814
21
64.6816356
0
LINE
8
DEFAULT_255_2_778
10
7.5888814
20
64.6816356
11
7.5094814
21
64.6406356
0
LINE
8
DEFAULT_255_2_778
10
7.5094814
20
64.6406356
11
7.4131814
21
64.6181356
0
LINE
8
DEFAULT_255_2_778
10
7.4131814
20
64.6181356
11
7.2869814
21
64.6176356
0
LINE
8
DEFAULT_255_2_778
10
7.2869814
20
64.6176356
11
7.1893814
21
64.6390356
0
LINE
8
DEFAULT_255_2_778
10
7.1893814
20
64.6390356
11
7.0906814
21
64.6922356
0
LINE
8
DEFAULT_255_2_778
10
7.0906814
20
64.6922356
11
7.0416814
21
64.7383356
0
LINE
8
DEFAULT_255_2_778
10
7.0416814
20
64.7383356
11
6.9998814
21
64.7962356
0
LINE
8
DEFAULT_255_2_778
10
6.9998814
20
64.7962356
11
6.9758814
21
64.8425356
0
LINE
8
DEFAULT_255_2_778
10
6.9758814
20
64.8425356
11
6.9586814
21
64.8878356
0
LINE
8
DEFAULT_255_2_778
10
6.9586814
20
64.8878356
11
6.9509814
21
64.9140356
0
LINE
8
DEFAULT_255_2_778
10
6.9509814
20
64.9140356
11
6.9440814
21
64.9428356
0
LINE
8
DEFAULT_255_2_778
10
6.9440814
20
64.9428356
11
6.9379814
21
64.9745356
0
LINE
8
DEFAULT_255_2_778
10
6.9379814
20
64.9745356
11
6.9329814
21
65.0095356
0
LINE
8
DEFAULT_255_2_778
10
6.9329814
20
65.0095356
11
6.9289814
21
65.0476356
0
LINE
8
DEFAULT_255_2_778
10
6.9289814
20
65.0476356
11
6.9260814
21
65.0891356
0
LINE
8
DEFAULT_255_2_778
10
6.9260814
20
65.0891356
11
6.9247814
21
65.1179356
0
LINE
8
DEFAULT_255_2_778
10
6.9247814
20
65.1179356
11
6.9226814
21
65.1997356
0
LINE
8
DEFAULT_255_2_778
10
6.9226814
20
65.1997356
11
6.9215814
21
66.2202356
0
LINE
8
DEFAULT_255_2_778
10
6.9215814
20
66.2202356
11
7.0591814
21
66.2202356
0
LINE
8
DEFAULT_255_2_778
10
7.0591814
20
66.2202356
11
7.0610814
21
65.1600356
0
LINE
8
DEFAULT_255_2_778
10
7.0610814
20
65.1600356
11
7.0633814
21
65.1169356
0
LINE
8
DEFAULT_255_2_778
10
7.0633814
20
65.1169356
11
7.0665814
21
65.0804356
0
LINE
8
DEFAULT_255_2_778
10
6.1275814
20
64.6340356
11
5.9680814
21
64.6340356
0
LINE
8
DEFAULT_255_2_778
10
5.9680814
20
64.6340356
11
5.9680814
21
64.6375356
0
LINE
8
DEFAULT_255_2_778
10
5.9680814
20
64.6375356
11
6.1275814
21
64.6375356
0
LINE
8
DEFAULT_255_2_778
10
3.9262814
20
64.6375356
11
3.4311814
21
65.7318356
0
LINE
8
DEFAULT_255_2_778
10
3.4311814
20
65.7318356
11
3.3684814
21
65.8818356
0
LINE
8
DEFAULT_255_2_778
10
3.3684814
20
65.8818356
11
3.3380814
21
65.9588356
0
LINE
8
DEFAULT_255_2_778
10
3.3380814
20
65.9588356
11
3.3399814
21
65.8717356
0
LINE
8
DEFAULT_255_2_778
10
3.3399814
20
65.8717356
11
3.3414814
21
64.6338356
0
LINE
8
DEFAULT_255_2_778
10
3.3414814
20
64.6338356
11
3.2105814
21
64.6338356
0
LINE
8
DEFAULT_255_2_778
10
3.2105814
20
64.6338356
11
3.2105814
21
66.2210356
0
LINE
8
DEFAULT_255_2_778
10
3.2105814
20
66.2210356
11
3.3690814
21
66.2210356
0
LINE
8
DEFAULT_255_2_778
10
3.3690814
20
66.2210356
11
3.8550814
21
65.1478356
0
LINE
8
DEFAULT_255_2_778
10
3.8550814
20
65.1478356
11
3.9584814
21
64.8978356
0
LINE
8
DEFAULT_255_2_778
10
3.9584814
20
64.8978356
11
3.9566814
21
64.9677356
0
LINE
8
DEFAULT_255_2_778
10
3.9566814
20
64.9677356
11
3.9553814
21
66.2213356
0
LINE
8
DEFAULT_255_2_778
10
3.9553814
20
66.2213356
11
4.0857814
21
66.2213356
0
LINE
8
DEFAULT_255_2_778
10
4.0857814
20
66.2213356
11
4.0857814
21
64.6340356
0
LINE
8
DEFAULT_255_2_778
10
4.0857814
20
64.6340356
11
3.9256814
21
64.6340356
0
LINE
8
DEFAULT_255_2_778
10
3.9256814
20
64.6340356
11
3.9256814
21
64.6375356
0
LINE
8
DEFAULT_255_2_778
10
3.9256814
20
64.6375356
11
4.0857814
21
64.6375356
0
LINE
8
DEFAULT_255_2_778
10
6.4847814
20
65.9527356
11
6.4291814
21
65.7215356
0
LINE
8
DEFAULT_255_2_778
10
6.4291814
20
65.7215356
11
6.3714814
21
65.5024356
0
LINE
8
DEFAULT_255_2_778
10
6.3714814
20
65.5024356
11
6.1278814
21
64.6340356
0
LINE
8
DEFAULT_255_2_778
10
6.1278814
20
64.6340356
11
6.1278814
21
64.6375356
0
LINE
8
DEFAULT_255_2_778
10
6.1278814
20
64.6375356
11
6.3841814
21
65.5519356
0
LINE
8
DEFAULT_255_2_778
10
6.3841814
20
65.5519356
11
6.4294814
21
65.7252356
0
LINE
8
DEFAULT_255_2_778
10
6.4294814
20
65.7252356
11
6.4850814
21
65.9564356
0
LINE
8
DEFAULT_255_2_778
10
6.4850814
20
65.9564356
11
6.4850814
21
64.6340356
0
LINE
8
DEFAULT_255_2_778
10
6.4850814
20
64.6340356
11
6.6228814
21
64.6340356
0
LINE
8
DEFAULT_255_2_778
10
6.6228814
20
64.6340356
11
6.6228814
21
66.2213356
0
LINE
8
DEFAULT_255_2_778
10
6.6228814
20
66.2213356
11
6.4392814
21
66.2213356
0
LINE
8
DEFAULT_255_2_778
10
6.4392814
20
66.2213356
11
6.0899814
21
64.9449356
0
LINE
8
DEFAULT_255_2_778
10
6.0899814
20
64.9449356
11
6.0542814
21
64.8018356
0
LINE
8
DEFAULT_255_2_778
10
6.0542814
20
64.8018356
11
6.0145814
21
64.9560356
0
LINE
8
DEFAULT_255_2_778
10
6.0145814
20
64.9560356
11
5.6600814
21
66.2210356
0
LINE
8
DEFAULT_255_2_778
10
5.6600814
20
66.2210356
11
5.4687814
21
66.2210356
0
LINE
8
DEFAULT_255_2_778
10
5.4687814
20
66.2210356
11
5.4687814
21
64.6338356
0
LINE
8
DEFAULT_255_2_778
10
5.4687814
20
64.6338356
11
5.5997814
21
64.6338356
0
LINE
8
DEFAULT_255_2_778
10
5.5997814
20
64.6338356
11
5.5997814
21
65.9561356
0
LINE
8
DEFAULT_255_2_778
10
5.5997814
20
65.9561356
11
5.6383814
21
65.7985356
0
LINE
8
DEFAULT_255_2_778
10
5.6383814
20
65.7985356
11
5.6867814
21
65.6135356
0
LINE
8
DEFAULT_255_2_778
10
5.6867814
20
65.6135356
11
5.9688814
21
64.6375356
0
LINE
8
DEFAULT_255_2_778
10
1.2600814
20
64.9687356
11
1.2634814
21
64.9417356
0
LINE
8
DEFAULT_255_2_778
10
1.2634814
20
64.9417356
11
1.2724814
21
64.8952356
0
LINE
8
DEFAULT_255_2_778
10
1.2724814
20
64.8952356
11
1.2822814
21
64.8587356
0
LINE
8
DEFAULT_255_2_778
10
1.2822814
20
64.8587356
11
1.3031814
21
64.8052356
0
LINE
8
DEFAULT_255_2_778
10
1.3031814
20
64.8052356
11
1.3359814
21
64.7510356
0
LINE
8
DEFAULT_255_2_778
10
1.3359814
20
64.7510356
11
1.3819814
21
64.7018356
0
LINE
8
DEFAULT_255_2_778
10
1.3819814
20
64.7018356
11
1.4613814
21
64.6517356
0
LINE
8
DEFAULT_255_2_778
10
1.4613814
20
64.6517356
11
1.5756814
21
64.6187356
0
LINE
8
DEFAULT_255_2_778
10
1.5756814
20
64.6187356
11
1.7283814
21
64.6152356
0
LINE
8
DEFAULT_255_2_778
10
1.7283814
20
64.6152356
11
1.8487814
21
64.6422356
0
LINE
8
DEFAULT_255_2_778
10
1.8487814
20
64.6422356
11
1.9331814
21
64.6875356
0
LINE
8
DEFAULT_255_2_778
10
1.9331814
20
64.6875356
11
1.9984814
21
64.7523356
0
LINE
8
DEFAULT_255_2_778
10
1.9984814
20
64.7523356
11
2.0275814
21
64.7997356
0
LINE
8
DEFAULT_255_2_778
10
2.0275814
20
64.7997356
11
2.0495814
21
64.8531356
0
LINE
8
DEFAULT_255_2_778
10
2.0495814
20
64.8531356
11
2.0598814
21
64.8888356
0
LINE
8
DEFAULT_255_2_778
10
2.0598814
20
64.8888356
11
2.0691814
21
64.9343356
0
LINE
8
DEFAULT_255_2_778
10
2.0691814
20
64.9343356
11
2.0730814
21
64.9629356
0
LINE
8
DEFAULT_255_2_778
10
2.0730814
20
64.9629356
11
2.0720814
21
65.1486356
0
LINE
8
DEFAULT_255_2_778
10
2.0720814
20
65.1486356
11
2.0640814
21
65.1870356
0
LINE
8
DEFAULT_255_2_778
10
2.0640814
20
65.1870356
11
2.0529814
21
65.2227356
0
LINE
8
DEFAULT_255_2_778
10
2.0529814
20
65.2227356
11
2.0304814
21
65.2746356
0
LINE
8
DEFAULT_255_2_778
10
2.0304814
20
65.2746356
11
1.9897814
21
65.3375356
0
LINE
8
DEFAULT_255_2_778
10
1.9897814
20
65.3375356
11
1.9246814
21
65.4021356
0
LINE
8
DEFAULT_255_2_778
10
1.9246814
20
65.4021356
11
1.8275814
21
65.4627356
0
LINE
8
DEFAULT_255_2_778
10
1.8275814
20
65.4627356
11
1.9243814
21
65.5296356
0
LINE
8
DEFAULT_255_2_778
10
1.9243814
20
65.5296356
11
1.9918814
21
65.6045356
0
LINE
8
DEFAULT_255_2_778
10
1.9918814
20
65.6045356
11
2.0294814
21
65.6683356
0
LINE
8
DEFAULT_255_2_778
10
2.0294814
20
65.6683356
11
2.0484814
21
65.7175356
0
LINE
8
DEFAULT_255_2_778
10
2.0484814
20
65.7175356
11
2.0569814
21
65.7508356
0
LINE
8
DEFAULT_255_2_778
10
2.0569814
20
65.7508356
11
2.0569814
21
65.9305356
0
LINE
8
DEFAULT_255_2_778
10
2.0569814
20
65.9305356
11
2.0484814
21
65.9710356
0
LINE
8
DEFAULT_255_2_778
10
2.0484814
20
65.9710356
11
2.0312814
21
66.0233356
0
LINE
8
DEFAULT_255_2_778
10
2.0312814
20
66.0233356
11
1.9989814
21
66.0837356
0
LINE
8
DEFAULT_255_2_778
10
1.9989814
20
66.0837356
11
1.9550814
21
66.1355356
0
LINE
8
DEFAULT_255_2_778
10
1.9550814
20
66.1355356
11
1.8833814
21
66.1869356
0
LINE
8
DEFAULT_255_2_778
10
1.8833814
20
66.1869356
11
1.7838814
21
66.2234356
0
LINE
8
DEFAULT_255_2_778
10
1.7838814
20
66.2234356
11
1.6182814
21
66.2340356
0
LINE
8
DEFAULT_255_2_778
10
1.6182814
20
66.2340356
11
1.4809814
21
66.2022356
0
LINE
8
DEFAULT_255_2_778
10
1.4809814
20
66.2022356
11
1.3904814
21
66.1480356
0
LINE
8
DEFAULT_255_2_778
10
1.3904814
20
66.1480356
11
1.3412814
21
66.0966356
0
LINE
8
DEFAULT_255_2_778
10
1.3412814
20
66.0966356
11
1.3071814
21
66.0403356
0
LINE
8
DEFAULT_255_2_778
10
1.3071814
20
66.0403356
11
1.2883814
21
65.9908356
0
LINE
8
DEFAULT_255_2_778
10
1.2883814
20
65.9908356
11
1.2787814
21
65.9530356
0
LINE
8
DEFAULT_255_2_778
10
1.2787814
20
65.9530356
11
1.2735814
21
65.9228356
0
LINE
8
DEFAULT_255_2_778
10
1.2735814
20
65.9228356
11
1.2748814
21
65.7506356
0
LINE
8
DEFAULT_255_2_778
10
1.2748814
20
65.7506356
11
1.2827814
21
65.7170356
0
LINE
8
DEFAULT_255_2_778
10
1.2827814
20
65.7170356
11
1.3015814
21
65.6659356
0
LINE
8
DEFAULT_255_2_778
10
1.3015814
20
65.6659356
11
1.3340814
21
65.6077356
0
LINE
8
DEFAULT_255_2_778
10
1.3340814
20
65.6077356
11
1.3912814
21
65.5426356
0
LINE
8
DEFAULT_255_2_778
10
1.3912814
20
65.5426356
11
1.5052814
21
65.4651356
0
LINE
8
DEFAULT_255_2_778
10
1.5052814
20
65.4651356
11
1.3930814
21
65.3958356
0
LINE
8
DEFAULT_255_2_778
10
1.3930814
20
65.3958356
11
1.3420814
21
65.3426356
0
LINE
8
DEFAULT_255_2_778
10
1.3420814
20
65.3426356
11
1.3018814
21
65.2785356
0
LINE
8
DEFAULT_255_2_778
10
1.3018814
20
65.2785356
11
1.2801814
21
65.2277356
0
LINE
8
DEFAULT_255_2_778
10
1.2801814
20
65.2277356
11
1.2690814
21
65.1920356
0
LINE
8
DEFAULT_255_2_778
10
1.2690814
20
65.1920356
11
1.2610814
21
65.1537356
0
LINE
8
DEFAULT_255_2_778
10
1.2610814
20
65.1537356
11
1.2600814
21
64.9687356
0
LINE
8
DEFAULT_255_2_778
10
1.3841814
20
65.7934356
11
1.3859814
21
65.9006356
0
LINE
8
DEFAULT_255_2_778
10
1.3859814
20
65.9006356
11
1.3909814
21
65.9321356
0
LINE
8
DEFAULT_255_2_778
10
1.3909814
20
65.9321356
11
1.3997814
21
65.9651356
0
LINE
8
DEFAULT_255_2_778
10
1.3997814
20
65.9651356
11
1.4179814
21
66.0069356
0
LINE
8
DEFAULT_255_2_778
10
1.4179814
20
66.0069356
11
1.4597814
21
66.0588356
0
LINE
8
DEFAULT_255_2_778
10
1.4597814
20
66.0588356
11
1.5452814
21
66.1056356
0
LINE
8
DEFAULT_255_2_778
10
1.5452814
20
66.1056356
11
1.6830814
21
66.1226356
0
LINE
8
DEFAULT_255_2_778
10
1.6830814
20
66.1226356
11
1.8082814
21
66.0974356
0
LINE
8
DEFAULT_255_2_778
10
1.8082814
20
66.0974356
11
1.8825814
21
66.0482356
0
LINE
8
DEFAULT_255_2_778
10
1.8825814
20
66.0482356
11
1.9201814
21
65.9950356
0
LINE
8
DEFAULT_255_2_778
10
1.9201814
20
65.9950356
11
1.9384814
21
65.9450356
0
LINE
8
DEFAULT_255_2_778
10
1.9384814
20
65.9450356
11
1.9476814
21
65.8995356
0
LINE
8
DEFAULT_255_2_778
10
1.9476814
20
65.8995356
11
1.9463814
21
65.7733356
0
LINE
8
DEFAULT_255_2_778
10
1.9463814
20
65.7733356
11
1.9339814
21
65.7318356
0
LINE
8
DEFAULT_255_2_778
10
1.9339814
20
65.7318356
11
1.9026814
21
65.6746356
0
LINE
8
DEFAULT_255_2_778
10
1.9026814
20
65.6746356
11
1.8444814
21
65.6109356
0
LINE
8
DEFAULT_255_2_778
10
1.8444814
20
65.6109356
11
1.7378814
21
65.5452356
0
LINE
8
DEFAULT_255_2_778
10
1.7378814
20
65.5452356
11
1.6722814
21
65.5222356
0
LINE
8
DEFAULT_255_2_778
10
1.6722814
20
65.5222356
11
1.4769814
21
65.6185356
0
LINE
8
DEFAULT_255_2_778
10
1.4769814
20
65.6185356
11
1.4158814
21
65.6921356
0
LINE
8
DEFAULT_255_2_778
10
1.4158814
20
65.6921356
11
1.3938814
21
65.7450356
0
LINE
8
DEFAULT_255_2_778
10
1.3938814
20
65.7450356
11
1.3854814
21
65.7828356
0
LINE
8
DEFAULT_255_2_778
10
1.3854814
20
65.7828356
11
1.3841814
21
65.7934356
0
LINE
8
DEFAULT_255_2_778
10
1.6701814
20
65.4032356
11
1.8166814
21
65.3410356
0
LINE
8
DEFAULT_255_2_778
10
1.8166814
20
65.3410356
11
1.8918814
21
65.2809356
0
LINE
8
DEFAULT_255_2_778
10
1.8918814
20
65.2809356
11
1.9291814
21
65.2280356
0
LINE
8
DEFAULT_255_2_778
10
1.9291814
20
65.2280356
11
1.9492814
21
65.1796356
0
LINE
8
DEFAULT_255_2_778
10
1.9492814
20
65.1796356
11
1.9587814
21
65.1407356
0
LINE
8
DEFAULT_255_2_778
10
1.9587814
20
65.1407356
11
1.9585814
21
64.9595356
0
LINE
8
DEFAULT_255_2_778
10
1.9585814
20
64.9595356
11
1.9505814
21
64.9174356
0
LINE
8
DEFAULT_255_2_778
10
1.9505814
20
64.9174356
11
1.9389814
21
64.8788356
0
LINE
8
DEFAULT_255_2_778
10
1.9389814
20
64.8788356
11
1.9137814
21
64.8282356
0
LINE
8
DEFAULT_255_2_778
10
1.9137814
20
64.8282356
11
1.8637814
21
64.7764356
0
LINE
8
DEFAULT_255_2_778
10
1.8637814
20
64.7764356
11
1.7574814
21
64.7335356
0
LINE
8
DEFAULT_255_2_778
10
1.7574814
20
64.7335356
11
1.5989814
21
64.7314356
0
LINE
8
DEFAULT_255_2_778
10
1.5989814
20
64.7314356
11
1.4952814
21
64.7750356
0
LINE
8
DEFAULT_255_2_778
10
1.4952814
20
64.7750356
11
1.4121814
21
64.8655356
0
LINE
8
DEFAULT_255_2_778
10
1.4121814
20
64.8655356
11
1.3912814
21
64.9079356
0
LINE
8
DEFAULT_255_2_778
10
1.3912814
20
64.9079356
11
1.3796814
21
64.9457356
0
LINE
8
DEFAULT_255_2_778
10
1.3796814
20
64.9457356
11
1.3727814
21
64.9817356
0
LINE
8
DEFAULT_255_2_778
10
1.3727814
20
64.9817356
11
1.3745814
21
65.1404356
0
LINE
8
DEFAULT_255_2_778
10
1.3745814
20
65.1404356
11
1.3827814
21
65.1762356
0
LINE
8
DEFAULT_255_2_778
10
1.3827814
20
65.1762356
11
1.4007814
21
65.2235356
0
LINE
8
DEFAULT_255_2_778
10
1.4007814
20
65.2235356
11
1.4404814
21
65.2828356
0
LINE
8
DEFAULT_255_2_778
10
1.4404814
20
65.2828356
11
1.5251814
21
65.3479356
0
LINE
8
DEFAULT_255_2_778
10
1.5251814
20
65.3479356
11
1.6698814
21
65.4032356
0
LINE
8
DEFAULT_255_2_778
10
1.6698814
20
65.4032356
11
1.6682814
21
65.3992356
0
LINE
8
DEFAULT_255_2_778
10
1.6682814
20
65.3992356
11
1.4732814
21
65.3100356
0
LINE
8
DEFAULT_255_2_778
10
1.4732814
20
65.3100356
11
1.4092814
21
65.2362356
0
LINE
8
DEFAULT_255_2_778
10
1.4092814
20
65.2362356
11
1.3838814
21
65.1759356
0
LINE
8
DEFAULT_255_2_778
10
1.3838814
20
65.1759356
11
1.3753814
21
65.1404356
0
LINE
8
DEFAULT_255_2_778
10
1.3753814
20
65.1404356
11
1.3714814
21
65.1134356
0
LINE
8
DEFAULT_255_2_778
10
1.3714814
20
65.1134356
11
1.3690814
21
65.0835356
0
LINE
8
DEFAULT_255_2_778
10
1.3684814
20
65.0703356
11
1.3682814
21
65.0537356
0
LINE
8
DEFAULT_255_2_778
10
3.0261814
20
64.6700356
11
2.9305814
21
64.6123356
0
LINE
8
DEFAULT_255_2_778
10
2.9305814
20
64.6123356
11
2.9305814
21
64.6089356
0
LINE
8
DEFAULT_255_2_778
10
2.9305814
20
64.6089356
11
3.0261814
21
64.6666356
0
LINE
8
DEFAULT_255_2_778
10
3.0261814
20
64.6666356
11
3.0261814
21
64.6700356
0
LINE
8
DEFAULT_255_2_778
10
3.0261814
20
64.6700356
11
2.6953814
21
65.2037356
0
LINE
8
DEFAULT_255_2_778
10
2.6953814
20
65.2037356
11
3.0038814
21
65.6887356
0
LINE
8
DEFAULT_255_2_778
10
3.0038814
20
65.6887356
11
3.0038814
21
65.6852356
0
LINE
8
DEFAULT_255_2_778
10
3.0038814
20
65.6852356
11
2.6964814
21
65.2018356
0
LINE
8
DEFAULT_255_2_778
10
3.0038814
20
65.6887356
11
2.9107814
21
65.7484356
0
LINE
8
DEFAULT_255_2_778
10
2.9107814
20
65.7484356
11
2.6310814
21
65.3077356
0
LINE
8
DEFAULT_255_2_778
10
2.6310814
20
65.3077356
11
2.3537814
21
65.7529356
0
LINE
8
DEFAULT_255_2_778
10
2.3537814
20
65.7529356
11
2.2582814
21
65.6931356
0
LINE
8
DEFAULT_255_2_778
10
2.2582814
20
65.6931356
11
2.2582814
21
65.6897356
0
LINE
8
DEFAULT_255_2_778
10
2.2582814
20
65.6897356
11
2.5633814
21
65.2021356
0
LINE
8
DEFAULT_255_2_778
10
2.2582814
20
65.6934356
11
2.5644814
21
65.2039356
0
LINE
8
DEFAULT_255_2_778
10
2.5644814
20
65.2039356
11
2.2315814
21
64.6769356
0
LINE
8
DEFAULT_255_2_778
10
2.2315814
20
64.6769356
11
2.2315814
21
64.6734356
0
LINE
8
DEFAULT_255_2_778
10
2.2315814
20
64.6734356
11
2.3270814
21
64.6136356
0
LINE
8
DEFAULT_255_2_778
10
2.9305814
20
64.6126356
11
2.6287814
21
65.0976356
0
LINE
8
DEFAULT_255_2_778
10
2.6287814
20
65.0976356
11
2.6287814
21
65.0941356
0
LINE
8
DEFAULT_255_2_778
10
2.6287814
20
65.0941356
11
2.3268814
21
64.6136356
0
LINE
8
DEFAULT_255_2_778
10
2.3268814
20
64.6136356
11
2.3268814
21
64.6171356
0
LINE
8
DEFAULT_255_2_778
10
2.3268814
20
64.6171356
11
2.6287814
21
65.0976356
0
LINE
8
DEFAULT_255_2_778
10
4.4069814
20
64.6340356
11
4.2675814
21
64.6340356
0
LINE
8
DEFAULT_255_2_778
10
4.2675814
20
64.6340356
11
4.2675814
21
64.6375356
0
LINE
8
DEFAULT_255_2_778
10
4.2675814
20
64.6375356
11
4.6903814
21
66.2213356
0
LINE
8
DEFAULT_255_2_778
10
4.6903814
20
66.2213356
11
4.8639814
21
66.2213356
0
LINE
8
DEFAULT_255_2_778
10
4.8639814
20
66.2213356
11
5.2901814
21
64.6375356
0
LINE
8
DEFAULT_255_2_778
10
4.5527814
20
65.1920356
11
4.9956814
21
65.1920356
0
LINE
8
DEFAULT_255_2_778
10
4.9956814
20
65.1920356
11
4.9956814
21
65.1886356
0
LINE
8
DEFAULT_255_2_778
10
4.9956814
20
65.1886356
11
4.5527814
21
65.1886356
0
LINE
8
DEFAULT_255_2_778
10
4.5527814
20
65.1886356
11
4.4067814
21
64.6340356
0
LINE
8
DEFAULT_255_2_778
10
4.4067814
20
64.6340356
11
4.4067814
21
64.6375356
0
LINE
8
DEFAULT_255_2_778
10
4.4067814
20
64.6375356
11
4.5527814
21
65.1920356
0
LINE
8
DEFAULT_255_2_778
10
4.5527814
20
65.1920356
11
4.5527814
21
65.1886356
0
LINE
8
DEFAULT_255_2_778
10
4.9956814
20
65.1920356
11
5.1417814
21
64.6375356
0
LINE
8
DEFAULT_255_2_778
10
5.1417814
20
64.6375356
11
5.2901814
21
64.6375356
0
LINE
8
DEFAULT_255_2_778
10
5.2901814
20
64.6375356
11
5.2901814
21
64.6340356
0
LINE
8
DEFAULT_255_2_778
10
5.2901814
20
64.6340356
11
5.1417814
21
64.6340356
0
LINE
8
DEFAULT_255_2_778
10
5.1417814
20
64.6340356
11
5.1417814
21
64.6375356
0
LINE
8
DEFAULT_255_2_778
10
4.7757814
20
66.0649356
11
4.8236814
21
65.8598356
0
LINE
8
DEFAULT_255_2_778
10
4.8236814
20
65.8598356
11
4.9543814
21
65.3428356
0
LINE
8
DEFAULT_255_2_778
10
4.9543814
20
65.3428356
11
4.5937814
21
65.3428356
0
LINE
8
DEFAULT_255_2_778
10
4.5937814
20
65.3428356
11
4.7204814
21
65.8323356
0
LINE
8
DEFAULT_255_2_778
10
4.7204814
20
65.8323356
11
4.7755814
21
66.0646356
0
LINE
8
DEFAULT_255_2_778
10
4.7755814
20
66.0646356
11
4.7755814
21
66.0612356
0
LINE
8
DEFAULT_255_2_778
10
4.7755814
20
66.0612356
11
4.7204814
21
65.8286356
0
LINE
8
DEFAULT_255_2_778
10
4.7204814
20
65.8286356
11
4.5948814
21
65.3431356
0
LINE
8
DEFAULT_255_2_778
10
8.2122814
20
65.3370356
11
8.3741814
21
65.3235356
0
LINE
8
DEFAULT_255_2_778
10
8.3741814
20
65.3235356
11
8.3741814
21
65.3270356
0
LINE
8
DEFAULT_255_2_778
10
8.3741814
20
65.3270356
11
8.2558814
21
65.3405356
0
LINE
8
DEFAULT_255_2_778
10
8.2558814
20
65.3405356
11
8.2119814
21
65.3405356
0
LINE
8
DEFAULT_255_2_778
10
8.2119814
20
65.3405356
11
8.2119814
21
64.6340356
0
LINE
8
DEFAULT_255_2_778
10
8.2119814
20
64.6340356
11
8.0743814
21
64.6340356
0
LINE
8
DEFAULT_255_2_778
10
8.0743814
20
64.6340356
11
8.0743814
21
66.2213356
0
LINE
8
DEFAULT_255_2_778
10
8.0743814
20
66.2213356
11
8.4368814
21
66.2141356
0
LINE
8
DEFAULT_255_2_778
10
8.4368814
20
66.2141356
11
8.5585814
21
66.1797356
0
LINE
8
DEFAULT_255_2_778
10
8.5585814
20
66.1797356
11
8.6315814
21
66.1289356
0
LINE
8
DEFAULT_255_2_778
10
8.6315814
20
66.1289356
11
8.6823814
21
66.0667356
0
LINE
8
DEFAULT_255_2_778
10
8.6823814
20
66.0667356
11
8.7127814
21
66.0064356
0
LINE
8
DEFAULT_255_2_778
10
8.7127814
20
66.0064356
11
8.7297814
21
65.9540356
0
LINE
8
DEFAULT_255_2_778
10
8.7297814
20
65.9540356
11
8.7379814
21
65.9151356
0
LINE
8
DEFAULT_255_2_778
10
8.7379814
20
65.9151356
11
8.7358814
21
65.6834356
0
LINE
8
DEFAULT_255_2_778
10
8.7358814
20
65.6834356
11
8.7188814
21
65.6199356
0
LINE
8
DEFAULT_255_2_778
10
8.7188814
20
65.6199356
11
8.6746814
21
65.5310356
0
LINE
8
DEFAULT_255_2_778
10
8.6746814
20
65.5310356
11
8.5259814
21
65.4137356
0
LINE
8
DEFAULT_255_2_778
10
8.5259814
20
65.4137356
11
8.4984814
21
65.4042356
0
LINE
8
DEFAULT_255_2_778
10
8.5979814
20
65.8434356
11
8.5937814
21
65.8731356
0
LINE
8
DEFAULT_255_2_778
10
8.5937814
20
65.8731356
11
8.5842814
21
65.9122356
0
LINE
8
DEFAULT_255_2_778
10
8.5842814
20
65.9122356
11
8.5659814
21
65.9559356
0
LINE
8
DEFAULT_255_2_778
10
8.5659814
20
65.9559356
11
8.5204814
21
66.0133356
0
LINE
8
DEFAULT_255_2_778
10
8.5204814
20
66.0133356
11
8.4458814
21
66.0525356
0
LINE
8
DEFAULT_255_2_778
10
8.4458814
20
66.0525356
11
8.2960814
21
66.0702356
0
LINE
8
DEFAULT_255_2_778
10
8.2960814
20
66.0702356
11
8.2122814
21
66.0702356
0
LINE
8
DEFAULT_255_2_778
10
8.2122814
20
66.0702356
11
8.2122814
21
65.4913356
0
LINE
8
DEFAULT_255_2_778
10
8.2122814
20
65.4913356
11
8.4228814
21
65.5085356
0
LINE
8
DEFAULT_255_2_778
10
8.4228814
20
65.5085356
11
8.5148814
21
65.5556356
0
LINE
8
DEFAULT_255_2_778
10
8.5148814
20
65.5556356
11
8.5572814
21
65.6050356
0
LINE
8
DEFAULT_255_2_778
10
8.5572814
20
65.6050356
11
8.5778814
21
65.6468356
0
LINE
8
DEFAULT_255_2_778
10
8.5778814
20
65.6468356
11
8.5892814
21
65.6836356
0
LINE
8
DEFAULT_255_2_778
10
8.5892814
20
65.6836356
11
8.5947814
21
65.7111356
0
LINE
8
DEFAULT_255_2_778
10
8.5947814
20
65.7111356
11
8.5984814
21
65.7413356
0
LINE
8
DEFAULT_255_2_778
10
8.5984814
20
65.7413356
11
8.5979814
21
65.8434356
0
LINE
8
DEFAULT_255_2_778
10
8.6744814
20
64.6375356
11
8.6744814
21
64.6340356
0
LINE
8
DEFAULT_255_2_778
10
8.6744814
20
64.6340356
11
8.8204814
21
64.6340356
0
LINE
8
DEFAULT_255_2_778
10
8.8204814
20
64.6340356
11
8.8204814
21
64.6375356
0
LINE
8
DEFAULT_255_2_778
10
8.8204814
20
64.6375356
11
8.6744814
21
64.6375356
0
LINE
8
DEFAULT_255_2_778
10
8.6744814
20
64.6375356
11
8.5252814
21
65.1060356
0
LINE
8
DEFAULT_255_2_778
10
8.5252814
20
65.1060356
11
8.4876814
21
65.2063356
0
LINE
8
DEFAULT_255_2_778
10
8.3743814
20
65.3235356
11
8.4685814
21
65.2404356
0
LINE
8
DEFAULT_255_2_778
10
8.4685814
20
65.2404356
11
8.4876814
21
65.2026356
0
LINE
8
DEFAULT_255_2_778
10
8.4876814
20
65.2026356
11
8.4873814
21
65.2071356
0
LINE
8
DEFAULT_255_2_778
10
8.4873814
20
65.2071356
11
8.3934814
21
65.3198356
0
LINE
8
DEFAULT_255_2_778
10
8.3934814
20
65.3198356
11
8.3743814
21
65.3270356
0
LINE
8
DEFAULT_255_2_778
10
8.7469814
20
65.8053356
11
8.7445814
21
65.7482356
0
LINE
8
DEFAULT_255_2_778
10
8.7445814
20
65.7482356
11
8.7424814
21
65.7268356
0
LINE
8
DEFAULT_255_2_778
10
8.7424814
20
65.7268356
11
8.7360814
21
65.6860356
0
LINE
8
DEFAULT_255_2_778
10
8.7360814
20
65.6860356
11
8.7270814
21
65.6482356
0
LINE
8
DEFAULT_255_2_778
10
8.7270814
20
65.6482356
11
8.7088814
21
65.5966356
0
LINE
8
DEFAULT_255_2_778
10
8.7088814
20
65.5966356
11
8.6762814
21
65.5363356
0
LINE
8
DEFAULT_255_2_778
10
8.6762814
20
65.5363356
11
8.5312814
21
65.4190356
0
LINE
8
DEFAULT_255_2_778
10
8.5312814
20
65.4190356
11
8.4945814
21
65.4063356
0
LINE
8
DEFAULT_255_2_778
10
8.4945814
20
65.4063356
11
8.5730814
21
65.3553356
0
LINE
8
DEFAULT_255_2_778
10
8.5730814
20
65.3553356
11
8.6061814
21
65.3092356
0
LINE
8
DEFAULT_255_2_778
10
8.6061814
20
65.3092356
11
8.6360814
21
65.2362356
0
LINE
8
DEFAULT_255_2_778
10
8.6360814
20
65.2362356
11
8.6746814
21
65.1185356
0
LINE
8
DEFAULT_255_2_778
10
8.6746814
20
65.1185356
11
8.8207814
21
64.6375356
0
LINE
8
DEFAULT_255_2_778
10
2.2704814
20
61.4310356
11
2.3606814
21
61.4310356
0
LINE
8
DEFAULT_255_2_778
10
2.3606814
20
61.4310356
11
2.3606814
21
60.1319356
0
LINE
8
DEFAULT_255_2_778
10
2.3606814
20
60.1319356
11
2.2704814
21
60.1319356
0
LINE
8
DEFAULT_255_2_778
10
2.2704814
20
60.1319356
11
2.2704814
21
61.4310356
0
LINE
8
DEFAULT_255_2_778
10
4.2429814
20
60.7732356
11
4.4717814
21
60.7732356
0
LINE
8
DEFAULT_255_2_778
10
4.4717814
20
60.7732356
11
4.4717814
21
60.2867356
0
LINE
8
DEFAULT_255_2_778
10
4.4717814
20
60.2867356
11
4.3521814
21
60.2380356
0
LINE
8
DEFAULT_255_2_778
10
4.3521814
20
60.2380356
11
4.2095814
21
60.2165356
0
LINE
8
DEFAULT_255_2_778
10
4.2095814
20
60.2165356
11
4.1130814
21
60.2359356
0
LINE
8
DEFAULT_255_2_778
10
4.1130814
20
60.2359356
11
4.0431814
21
60.2761356
0
LINE
8
DEFAULT_255_2_778
10
4.0431814
20
60.2761356
11
3.9873814
21
60.3369356
0
LINE
8
DEFAULT_255_2_778
10
3.9873814
20
60.3369356
11
3.9542814
21
60.3912356
0
LINE
8
DEFAULT_255_2_778
10
3.9542814
20
60.3912356
11
3.9423814
21
60.4195356
0
LINE
8
DEFAULT_255_2_778
10
3.9423814
20
60.4195356
11
3.9317814
21
60.4555356
0
LINE
8
DEFAULT_255_2_778
10
3.9317814
20
60.4555356
11
3.9230814
21
60.4996356
0
LINE
8
DEFAULT_255_2_778
10
3.9230814
20
60.4996356
11
3.9188814
21
60.5285356
0
LINE
8
DEFAULT_255_2_778
10
3.9188814
20
60.5285356
11
3.9145814
21
60.5639356
0
LINE
8
DEFAULT_255_2_778
10
3.9145814
20
60.5639356
11
3.9161814
21
61.0529356
0
LINE
8
DEFAULT_255_2_778
10
3.9161814
20
61.0529356
11
3.9227814
21
61.0973356
0
LINE
8
DEFAULT_255_2_778
10
3.9227814
20
61.0973356
11
3.9338814
21
61.1489356
0
LINE
8
DEFAULT_255_2_778
10
3.9338814
20
61.1489356
11
3.9463814
21
61.1899356
0
LINE
8
DEFAULT_255_2_778
10
3.9463814
20
61.1899356
11
3.9680814
21
61.2394356
0
LINE
8
DEFAULT_255_2_778
10
3.9680814
20
61.2394356
11
3.9960814
21
61.2799356
0
LINE
8
DEFAULT_255_2_778
10
3.9960814
20
61.2799356
11
4.0415814
21
61.3177356
0
LINE
8
DEFAULT_255_2_778
10
4.0415814
20
61.3177356
11
4.1212814
21
61.3453356
0
LINE
8
DEFAULT_255_2_778
10
4.1212814
20
61.3453356
11
4.2648814
21
61.3513356
0
LINE
8
DEFAULT_255_2_778
10
4.2648814
20
61.3513356
11
4.3519814
21
61.3275356
0
LINE
8
DEFAULT_255_2_778
10
4.3519814
20
61.3275356
11
4.4008814
21
61.2894356
0
LINE
8
DEFAULT_255_2_778
10
4.4008814
20
61.2894356
11
4.4236814
21
61.2540356
0
LINE
8
DEFAULT_255_2_778
10
4.4236814
20
61.2540356
11
4.4381814
21
61.2175356
0
LINE
8
DEFAULT_255_2_778
10
4.4381814
20
61.2175356
11
4.4508814
21
61.1735356
0
LINE
8
DEFAULT_255_2_778
10
4.4508814
20
61.1735356
11
4.5392814
21
61.1952356
0
LINE
8
DEFAULT_255_2_778
10
4.5392814
20
61.1952356
11
4.5392814
21
61.1918356
0
LINE
8
DEFAULT_255_2_778
10
4.5392814
20
61.1918356
11
4.4508814
21
61.1701356
0
LINE
8
DEFAULT_255_2_778
10
4.4508814
20
61.1701356
11
4.4508814
21
61.1735356
0
LINE
8
DEFAULT_255_2_778
10
4.4725814
20
60.7700356
11
4.2437814
21
60.7700356
0
LINE
8
DEFAULT_255_2_778
10
4.2437814
20
60.7700356
11
4.2437814
21
60.8637356
0
LINE
8
DEFAULT_255_2_778
10
4.2437814
20
60.8637356
11
4.5628814
21
60.8637356
0
LINE
8
DEFAULT_255_2_778
10
4.5628814
20
60.8637356
11
4.5628814
21
60.2314356
0
LINE
8
DEFAULT_255_2_778
10
4.5628814
20
60.2314356
11
4.5411814
21
60.2187356
0
LINE
8
DEFAULT_255_2_778
10
4.5411814
20
60.2187356
11
4.5411814
21
60.2221356
0
LINE
8
DEFAULT_255_2_778
10
4.5392814
20
61.1952356
11
4.5233814
21
61.2500356
0
LINE
8
DEFAULT_255_2_778
10
4.5233814
20
61.2500356
11
4.5064814
21
61.2915356
0
LINE
8
DEFAULT_255_2_778
10
4.5064814
20
61.2915356
11
4.4744814
21
61.3445356
0
LINE
8
DEFAULT_255_2_778
10
4.4744814
20
61.3445356
11
4.4342814
21
61.3863356
0
LINE
8
DEFAULT_255_2_778
10
4.4342814
20
61.3863356
11
4.3707814
21
61.4228356
0
LINE
8
DEFAULT_255_2_778
10
4.3707814
20
61.4228356
11
4.2701814
21
61.4434356
0
LINE
8
DEFAULT_255_2_778
10
4.2701814
20
61.4434356
11
4.1333814
21
61.4394356
0
LINE
8
DEFAULT_255_2_778
10
4.1333814
20
61.4394356
11
4.0299814
21
61.4085356
0
LINE
8
DEFAULT_255_2_778
10
4.0299814
20
61.4085356
11
3.9674814
21
61.3691356
0
LINE
8
DEFAULT_255_2_778
10
3.9674814
20
61.3691356
11
3.9127814
21
61.3101356
0
LINE
8
DEFAULT_255_2_778
10
3.9127814
20
61.3101356
11
3.8807814
21
61.2587356
0
LINE
8
DEFAULT_255_2_778
10
3.8807814
20
61.2587356
11
3.8637814
21
61.2201356
0
LINE
8
DEFAULT_255_2_778
10
3.8637814
20
61.2201356
11
3.8463814
21
61.1651356
0
LINE
8
DEFAULT_255_2_778
10
3.8463814
20
61.1651356
11
3.8336814
21
61.1077356
0
LINE
8
DEFAULT_255_2_778
10
3.8336814
20
61.1077356
11
3.8248814
21
61.0513356
0
LINE
8
DEFAULT_255_2_778
10
3.8248814
20
61.0513356
11
3.8201814
21
61.0071356
0
LINE
8
DEFAULT_255_2_778
10
3.8201814
20
61.0071356
11
3.8219814
21
60.5642356
0
LINE
8
DEFAULT_255_2_778
10
3.8219814
20
60.5642356
11
3.8259814
21
60.5303356
0
LINE
8
DEFAULT_255_2_778
10
3.8259814
20
60.5303356
11
3.8341814
21
60.4806356
0
LINE
8
DEFAULT_255_2_778
10
3.8341814
20
60.4806356
11
3.8431814
21
60.4406356
0
LINE
8
DEFAULT_255_2_778
10
3.8431814
20
60.4406356
11
3.8555814
21
60.3983356
0
LINE
8
DEFAULT_255_2_778
10
3.8555814
20
60.3983356
11
3.8706814
21
60.3591356
0
LINE
8
DEFAULT_255_2_778
10
3.8706814
20
60.3591356
11
3.8997814
21
60.3046356
0
LINE
8
DEFAULT_255_2_778
10
3.8997814
20
60.3046356
11
3.9492814
21
60.2401356
0
LINE
8
DEFAULT_255_2_778
10
3.9492814
20
60.2401356
11
4.0082814
21
60.1874356
0
LINE
8
DEFAULT_255_2_778
10
4.0082814
20
60.1874356
11
4.0799814
21
60.1512356
0
LINE
8
DEFAULT_255_2_778
10
4.0799814
20
60.1512356
11
4.1979814
21
60.1271356
0
LINE
8
DEFAULT_255_2_778
10
4.1979814
20
60.1271356
11
4.3352814
21
60.1380356
0
LINE
8
DEFAULT_255_2_778
10
4.3352814
20
60.1380356
11
4.4739814
21
60.1880356
0
LINE
8
DEFAULT_255_2_778
10
4.4739814
20
60.1880356
11
4.5630814
21
60.2345356
0
LINE
8
DEFAULT_255_2_778
10
2.8509814
20
60.4742356
11
3.4081814
21
60.4742356
0
LINE
8
DEFAULT_255_2_778
10
3.4081814
20
60.4742356
11
3.4081814
21
60.4777356
0
LINE
8
DEFAULT_255_2_778
10
3.4081814
20
60.4777356
11
2.8509814
21
60.4777356
0
LINE
8
DEFAULT_255_2_778
10
3.1340814
20
61.3209356
11
3.3774814
21
60.5695356
0
LINE
8
DEFAULT_255_2_778
10
3.3774814
20
60.5695356
11
2.8816814
21
60.5695356
0
LINE
8
DEFAULT_255_2_778
10
2.8816814
20
60.5695356
11
3.1340814
21
61.3209356
0
LINE
8
DEFAULT_255_2_778
10
3.1340814
20
61.3209356
11
3.1340814
21
61.3175356
0
LINE
8
DEFAULT_255_2_778
10
3.1340814
20
61.3175356
11
2.8827814
21
60.5695356
0
LINE
8
DEFAULT_255_2_778
10
3.5235814
20
60.1226356
11
3.4081814
21
60.4740356
0
LINE
8
DEFAULT_255_2_778
10
2.7318814
20
60.1226356
11
2.7318814
21
60.1261356
0
LINE
8
DEFAULT_255_2_778
10
2.7318814
20
60.1261356
11
2.8509814
21
60.4774356
0
LINE
8
DEFAULT_255_2_778
10
2.8509814
20
60.4774356
11
2.8509814
21
60.4740356
0
LINE
8
DEFAULT_255_2_778
10
2.8509814
20
60.4740356
11
2.7318814
21
60.1226356
0
LINE
8
DEFAULT_255_2_778
10
2.7318814
20
60.1226356
11
2.6453814
21
60.1515356
0
LINE
8
DEFAULT_255_2_778
10
2.6453814
20
60.1515356
11
2.6453814
21
60.1549356
0
LINE
8
DEFAULT_255_2_778
10
2.6453814
20
60.1549356
11
3.0763814
21
61.4360356
0
LINE
8
DEFAULT_255_2_778
10
3.0763814
20
61.4360356
11
3.1917814
21
61.4360356
0
LINE
8
DEFAULT_255_2_778
10
3.1917814
20
61.4360356
11
3.6118814
21
60.1549356
0
LINE
8
DEFAULT_255_2_778
10
3.6118814
20
60.1549356
11
3.6118814
21
60.1515356
0
LINE
8
DEFAULT_255_2_778
10
3.6118814
20
60.1515356
11
3.5235814
21
60.1226356
0
LINE
8
DEFAULT_255_2_778
10
3.5235814
20
60.1226356
11
3.5235814
21
60.1261356
0
LINE
8
DEFAULT_255_2_778
10
3.5235814
20
60.1261356
11
3.6118814
21
60.1549356
0
LINE
8
DEFAULT_255_2_778
10
1.9979814
20
60.7822356
11
1.9960814
21
60.6986356
0
LINE
8
DEFAULT_255_2_778
10
1.9960814
20
60.6986356
11
1.9942814
21
60.6682356
0
LINE
8
DEFAULT_255_2_778
10
1.9942814
20
60.6682356
11
1.9907814
21
60.6301356
0
LINE
8
DEFAULT_255_2_778
10
1.9907814
20
60.6301356
11
1.9873814
21
60.6018356
0
LINE
8
DEFAULT_255_2_778
10
1.9873814
20
60.6018356
11
1.9783814
21
60.5467356
0
LINE
8
DEFAULT_255_2_778
10
1.9783814
20
60.5467356
11
1.9635814
21
60.4817356
0
LINE
8
DEFAULT_255_2_778
10
1.9635814
20
60.4817356
11
1.9415814
21
60.4129356
0
LINE
8
DEFAULT_255_2_778
10
1.9415814
20
60.4129356
11
1.9074814
21
60.3377356
0
LINE
8
DEFAULT_255_2_778
10
1.9074814
20
60.3377356
11
1.8651814
21
60.2737356
0
LINE
8
DEFAULT_255_2_778
10
1.8651814
20
60.2737356
11
1.7989814
21
60.2110356
0
LINE
8
DEFAULT_255_2_778
10
1.7989814
20
60.2110356
11
1.6976814
21
60.1649356
0
LINE
8
DEFAULT_255_2_778
10
1.6976814
20
60.1649356
11
1.5219814
21
60.1343356
0
LINE
8
DEFAULT_255_2_778
10
1.5219814
20
60.1343356
11
1.2872814
21
60.1374356
0
LINE
8
DEFAULT_255_2_778
10
1.2872814
20
60.1374356
11
1.2552814
21
60.1411356
0
LINE
8
DEFAULT_255_2_778
10
1.2552814
20
60.1411356
11
1.2552814
21
61.4384356
0
LINE
8
DEFAULT_255_2_778
10
1.2552814
20
61.4384356
11
1.5994814
21
61.4328356
0
LINE
8
DEFAULT_255_2_778
10
1.5994814
20
61.4328356
11
1.7095814
21
61.4072356
0
LINE
8
DEFAULT_255_2_778
10
1.7095814
20
61.4072356
11
1.7960814
21
61.3609356
0
LINE
8
DEFAULT_255_2_778
10
1.7960814
20
61.3609356
11
1.8558814
21
61.3069356
0
LINE
8
DEFAULT_255_2_778
10
1.8558814
20
61.3069356
11
1.9010814
21
61.2466356
0
LINE
8
DEFAULT_255_2_778
10
1.9010814
20
61.2466356
11
1.9264814
21
61.1997356
0
LINE
8
DEFAULT_255_2_778
10
1.9264814
20
61.1997356
11
1.9458814
21
61.1534356
0
LINE
8
DEFAULT_255_2_778
10
1.9458814
20
61.1534356
11
1.9672814
21
61.0823356
0
LINE
8
DEFAULT_255_2_778
10
1.9672814
20
61.0823356
11
1.9743814
21
61.0513356
0
LINE
8
DEFAULT_255_2_778
10
1.9743814
20
61.0513356
11
1.9804814
21
61.0190356
0
LINE
8
DEFAULT_255_2_778
10
1.9804814
20
61.0190356
11
1.9857814
21
60.9852356
0
LINE
8
DEFAULT_255_2_778
10
1.9857814
20
60.9852356
11
1.9913814
21
60.9365356
0
LINE
8
DEFAULT_255_2_778
10
1.9913814
20
60.9365356
11
1.9944814
21
60.8976356
0
LINE
8
DEFAULT_255_2_778
10
1.9944814
20
60.8976356
11
1.9947814
21
60.6764356
0
LINE
8
DEFAULT_255_2_778
10
1.9947814
20
60.6764356
11
1.9905814
21
60.6296356
0
LINE
8
DEFAULT_255_2_778
10
1.9905814
20
60.6296356
11
1.9860814
21
60.5946356
0
LINE
8
DEFAULT_255_2_778
10
1.9860814
20
60.5946356
11
1.9804814
21
60.5608356
0
LINE
8
DEFAULT_255_2_778
10
1.9804814
20
60.5608356
11
1.9738814
21
60.5277356
0
LINE
8
DEFAULT_255_2_778
10
1.9738814
20
60.5277356
11
1.9622814
21
60.4806356
0
LINE
8
DEFAULT_255_2_778
10
1.9622814
20
60.4806356
11
1.9444814
21
60.4242356
0
LINE
8
DEFAULT_255_2_778
10
1.9444814
20
60.4242356
11
1.9092814
21
60.3441356
0
LINE
8
DEFAULT_255_2_778
10
1.9092814
20
60.3441356
11
1.8677814
21
60.2798356
0
LINE
8
DEFAULT_255_2_778
10
1.8677814
20
60.2798356
11
1.8124814
21
60.2237356
0
LINE
8
DEFAULT_255_2_778
10
1.8124814
20
60.2237356
11
1.7322814
21
60.1795356
0
LINE
8
DEFAULT_255_2_778
10
1.7322814
20
60.1795356
11
1.5933814
21
60.1451356
0
LINE
8
DEFAULT_255_2_778
10
1.5933814
20
60.1451356
11
1.3737814
21
60.1340356
0
LINE
8
DEFAULT_255_2_778
10
1.3737814
20
60.1340356
11
1.2552814
21
60.1438356
0
LINE
8
DEFAULT_255_2_778
10
1.8971814
20
60.9658356
11
1.9008814
21
60.9309356
0
LINE
8
DEFAULT_255_2_778
10
1.9008814
20
60.9309356
11
1.9013814
21
60.6385356
0
LINE
8
DEFAULT_255_2_778
10
1.9013814
20
60.6385356
11
1.8973814
21
60.6073356
0
LINE
8
DEFAULT_255_2_778
10
1.8973814
20
60.6073356
11
1.8926814
21
60.5772356
0
LINE
8
DEFAULT_255_2_778
10
1.8926814
20
60.5772356
11
1.8857814
21
60.5414356
0
LINE
8
DEFAULT_255_2_778
10
1.8857814
20
60.5414356
11
1.8693814
21
60.4785356
0
LINE
8
DEFAULT_255_2_778
10
1.8693814
20
60.4785356
11
1.8460814
21
60.4168356
0
LINE
8
DEFAULT_255_2_778
10
1.8460814
20
60.4168356
11
1.8045814
21
60.3451356
0
LINE
8
DEFAULT_255_2_778
10
1.8045814
20
60.3451356
11
1.7624814
21
60.3001356
0
LINE
8
DEFAULT_255_2_778
10
1.7624814
20
60.3001356
11
1.6978814
21
60.2642356
0
LINE
8
DEFAULT_255_2_778
10
1.6978814
20
60.2642356
11
1.5833814
21
60.2361356
0
LINE
8
DEFAULT_255_2_778
10
1.5833814
20
60.2361356
11
1.3862814
21
60.2269356
0
LINE
8
DEFAULT_255_2_778
10
1.3862814
20
60.2269356
11
1.3473814
21
60.2282356
0
LINE
8
DEFAULT_255_2_778
10
1.3473814
20
60.2282356
11
1.3473814
21
61.3455356
0
LINE
8
DEFAULT_255_2_778
10
1.3473814
20
61.3455356
11
1.6082814
21
61.3381356
0
LINE
8
DEFAULT_255_2_778
10
1.6082814
20
61.3381356
11
1.7129814
21
61.3056356
0
LINE
8
DEFAULT_255_2_778
10
1.7129814
20
61.3056356
11
1.7785814
21
61.2574356
0
LINE
8
DEFAULT_255_2_778
10
1.7785814
20
61.2574356
11
1.8145814
21
61.2135356
0
LINE
8
DEFAULT_255_2_778
10
1.8145814
20
61.2135356
11
1.8489814
21
61.1505356
0
LINE
8
DEFAULT_255_2_778
10
1.8489814
20
61.1505356
11
1.8754814
21
61.0778356
0
LINE
8
DEFAULT_255_2_778
10
1.8754814
20
61.0778356
11
1.8894814
21
61.0195356
0
LINE
8
DEFAULT_255_2_778
10
1.8894814
20
61.0195356
11
1.8939814
21
60.9934356
0
LINE
8
DEFAULT_255_2_778
10
1.8939814
20
60.9934356
11
1.8971814
21
60.9658356
0
LINE
8
DEFAULT_255_2_778
10
3.2846814
20
23.6710356
11
3.2332814
21
23.6747356
0
LINE
8
DEFAULT_255_2_778
10
3.2332814
20
23.6747356
11
3.3298814
21
23.6765356
0
LINE
8
DEFAULT_255_2_778
10
3.3298814
20
23.6765356
11
3.4055814
21
23.7027356
0
LINE
8
DEFAULT_255_2_778
10
3.4055814
20
23.7027356
11
3.4586814
21
23.7403356
0
LINE
8
DEFAULT_255_2_778
10
3.4586814
20
23.7403356
11
3.5015814
21
23.7911356
0
LINE
8
DEFAULT_255_2_778
10
3.5015814
20
23.7911356
11
3.5259814
21
23.8347356
0
LINE
8
DEFAULT_255_2_778
10
3.5259814
20
23.8347356
11
3.5441814
21
23.8810356
0
LINE
8
DEFAULT_255_2_778
10
3.5441814
20
23.8810356
11
3.5573814
21
23.9308356
0
LINE
8
DEFAULT_255_2_778
10
3.5573814
20
23.9308356
11
3.5621814
21
23.9549356
0
LINE
8
DEFAULT_255_2_778
10
3.5621814
20
23.9549356
11
3.5666814
21
23.9832356
0
LINE
8
DEFAULT_255_2_778
10
3.5666814
20
23.9832356
11
3.5703814
21
24.0131356
0
LINE
8
DEFAULT_255_2_778
10
3.5703814
20
24.0131356
11
3.5703814
21
24.5481356
0
LINE
8
DEFAULT_255_2_778
10
3.5703814
20
24.5481356
11
3.5669814
21
24.5777356
0
LINE
8
DEFAULT_255_2_778
10
3.5669814
20
24.5777356
11
3.5629814
21
24.6047356
0
LINE
8
DEFAULT_255_2_778
10
3.5629814
20
24.6047356
11
3.5579814
21
24.6314356
0
LINE
8
DEFAULT_255_2_778
10
3.5579814
20
24.6314356
11
3.5438814
21
24.6843356
0
LINE
8
DEFAULT_255_2_778
10
3.5438814
20
24.6843356
11
3.5243814
21
24.7335356
0
LINE
8
DEFAULT_255_2_778
10
3.5243814
20
24.7335356
11
3.4883814
21
24.7912356
0
LINE
8
DEFAULT_255_2_778
10
3.4883814
20
24.7912356
11
3.4415814
21
24.8365356
0
LINE
8
DEFAULT_255_2_778
10
3.4415814
20
24.8365356
11
3.3536814
21
24.8772356
0
LINE
8
DEFAULT_255_2_778
10
3.3536814
20
24.8772356
11
3.2462814
21
24.8859356
0
LINE
8
DEFAULT_255_2_778
10
3.2462814
20
24.8859356
11
3.1621814
21
24.8690356
0
LINE
8
DEFAULT_255_2_778
10
3.1621814
20
24.8690356
11
3.0925814
21
24.8290356
0
LINE
8
DEFAULT_255_2_778
10
3.0925814
20
24.8290356
11
3.0475814
21
24.7817356
0
LINE
8
DEFAULT_255_2_778
10
3.0475814
20
24.7817356
11
3.0218814
21
24.7404356
0
LINE
8
DEFAULT_255_2_778
10
3.0218814
20
24.7404356
11
3.0028814
21
24.6957356
0
LINE
8
DEFAULT_255_2_778
10
3.0028814
20
24.6957356
11
2.9890814
21
24.6494356
0
LINE
8
DEFAULT_255_2_778
10
2.9890814
20
24.6494356
11
2.9790814
21
24.6018356
0
LINE
8
DEFAULT_255_2_778
10
2.9790814
20
24.6018356
11
2.9747814
21
24.5740356
0
LINE
8
DEFAULT_255_2_778
10
2.9747814
20
24.5740356
11
2.9713814
21
24.5446356
0
LINE
8
DEFAULT_255_2_778
10
2.9713814
20
24.5446356
11
2.9710814
21
24.0168356
0
LINE
8
DEFAULT_255_2_778
10
2.9710814
20
24.0168356
11
2.9747814
21
23.9863356
0
LINE
8
DEFAULT_255_2_778
10
2.9747814
20
23.9863356
11
2.9792814
21
23.9578356
0
LINE
8
DEFAULT_255_2_778
10
2.9792814
20
23.9578356
11
2.9903814
21
23.9051356
0
LINE
8
DEFAULT_255_2_778
10
2.9903814
20
23.9051356
11
3.0059814
21
23.8562356
0
LINE
8
DEFAULT_255_2_778
10
3.0059814
20
23.8562356
11
3.0266814
21
23.8123356
0
LINE
8
DEFAULT_255_2_778
10
3.0266814
20
23.8123356
11
3.0750814
21
23.7480356
0
LINE
8
DEFAULT_255_2_778
10
3.0750814
20
23.7480356
11
3.1411814
21
23.6998356
0
LINE
8
DEFAULT_255_2_778
10
3.1411814
20
23.6998356
11
3.2338814
21
23.6747356
0
LINE
8
DEFAULT_255_2_778
10
3.2338814
20
23.6747356
11
3.2094814
21
23.6781356
0
LINE
8
DEFAULT_255_2_778
10
3.3380814
20
23.7654356
11
3.2975814
21
23.7588356
0
LINE
8
DEFAULT_255_2_778
10
3.2975814
20
23.7588356
11
3.3748814
21
23.7813356
0
LINE
8
DEFAULT_255_2_778
10
3.3748814
20
23.7813356
11
3.4153814
21
23.8152356
0
LINE
8
DEFAULT_255_2_778
10
3.4153814
20
23.8152356
11
3.4510814
21
23.8728356
0
LINE
8
DEFAULT_255_2_778
10
3.4510814
20
23.8728356
11
3.4650814
21
23.9104356
0
LINE
8
DEFAULT_255_2_778
10
3.4650814
20
23.9104356
11
3.4751814
21
23.9490356
0
LINE
8
DEFAULT_255_2_778
10
3.4751814
20
23.9490356
11
3.4825814
21
23.9890356
0
LINE
8
DEFAULT_255_2_778
10
3.4825814
20
23.9890356
11
3.4809814
21
24.5877356
0
LINE
8
DEFAULT_255_2_778
10
3.4809814
20
24.5877356
11
3.4724814
21
24.6290356
0
LINE
8
DEFAULT_255_2_778
10
3.4724814
20
24.6290356
11
3.4586814
21
24.6719356
0
LINE
8
DEFAULT_255_2_778
10
3.4586814
20
24.6719356
11
3.4388814
21
24.7140356
0
LINE
8
DEFAULT_255_2_778
10
3.4388814
20
24.7140356
11
3.4057814
21
24.7552356
0
LINE
8
DEFAULT_255_2_778
10
3.4057814
20
24.7552356
11
3.3510814
21
24.7894356
0
LINE
8
DEFAULT_255_2_778
10
3.3510814
20
24.7894356
11
3.2684814
21
24.8018356
0
LINE
8
DEFAULT_255_2_778
10
3.2684814
20
24.8018356
11
3.1774814
21
24.7835356
0
LINE
8
DEFAULT_255_2_778
10
3.1774814
20
24.7835356
11
3.1221814
21
24.7394356
0
LINE
8
DEFAULT_255_2_778
10
3.1221814
20
24.7394356
11
3.0906814
21
24.6886356
0
LINE
8
DEFAULT_255_2_778
10
3.0906814
20
24.6886356
11
3.0766814
21
24.6510356
0
LINE
8
DEFAULT_255_2_778
10
3.0766814
20
24.6510356
11
3.0671814
21
24.6134356
0
LINE
8
DEFAULT_255_2_778
10
3.0671814
20
24.6134356
11
3.0602814
21
24.5732356
0
LINE
8
DEFAULT_255_2_778
10
3.0602814
20
24.5732356
11
3.0557814
21
24.5335356
0
LINE
8
DEFAULT_255_2_778
10
3.0557814
20
24.5335356
11
3.0573814
21
24.0170356
0
LINE
8
DEFAULT_255_2_778
10
3.0573814
20
24.0170356
11
3.0628814
21
23.9774356
0
LINE
8
DEFAULT_255_2_778
10
3.0628814
20
23.9774356
11
3.0708814
21
23.9379356
0
LINE
8
DEFAULT_255_2_778
10
3.0708814
20
23.9379356
11
3.0845814
21
23.8906356
0
LINE
8
DEFAULT_255_2_778
10
3.0845814
20
23.8906356
11
3.1033814
21
23.8477356
0
LINE
8
DEFAULT_255_2_778
10
3.1033814
20
23.8477356
11
3.1329814
21
23.8088356
0
LINE
8
DEFAULT_255_2_778
10
3.1329814
20
23.8088356
11
3.1925814
21
23.7704356
0
LINE
8
DEFAULT_255_2_778
10
3.1925814
20
23.7704356
11
3.2716814
21
23.7572356
0
LINE
8
DEFAULT_255_2_778
10
3.2716814
20
23.7572356
11
3.2975814
21
23.7591356
0
LINE
8
DEFAULT_255_2_778
10
3.2975814
20
23.7591356
11
3.2565814
21
23.7564356
0
LINE
8
DEFAULT_255_2_778
10
3.0488814
20
24.2274356
11
3.0488814
21
24.2880356
0
LINE
8
DEFAULT_255_2_778
10
3.6745814
20
21.6720356
11
3.6232814
21
21.6757356
0
LINE
8
DEFAULT_255_2_778
10
3.6232814
20
21.6757356
11
3.7198814
21
21.6776356
0
LINE
8
DEFAULT_255_2_778
10
3.7198814
20
21.6776356
11
3.7955814
21
21.7038356
0
LINE
8
DEFAULT_255_2_778
10
3.7955814
20
21.7038356
11
3.8486814
21
21.7414356
0
LINE
8
DEFAULT_255_2_778
10
3.8486814
20
21.7414356
11
3.8915814
21
21.7922356
0
LINE
8
DEFAULT_255_2_778
10
3.8915814
20
21.7922356
11
3.9158814
21
21.8358356
0
LINE
8
DEFAULT_255_2_778
10
3.9158814
20
21.8358356
11
3.9341814
21
21.8821356
0
LINE
8
DEFAULT_255_2_778
10
3.9341814
20
21.8821356
11
3.9473814
21
21.9319356
0
LINE
8
DEFAULT_255_2_778
10
3.9473814
20
21.9319356
11
3.9521814
21
21.9559356
0
LINE
8
DEFAULT_255_2_778
10
3.9521814
20
21.9559356
11
3.9566814
21
21.9842356
0
LINE
8
DEFAULT_255_2_778
10
3.9566814
20
21.9842356
11
3.9603814
21
22.0141356
0
LINE
8
DEFAULT_255_2_778
10
3.9603814
20
22.0141356
11
3.9603814
21
22.5491356
0
LINE
8
DEFAULT_255_2_778
10
3.9603814
20
22.5491356
11
3.9569814
21
22.5788356
0
LINE
8
DEFAULT_255_2_778
10
3.9569814
20
22.5788356
11
3.9529814
21
22.6058356
0
LINE
8
DEFAULT_255_2_778
10
3.9529814
20
22.6058356
11
3.9479814
21
22.6325356
0
LINE
8
DEFAULT_255_2_778
10
3.9479814
20
22.6325356
11
3.9338814
21
22.6854356
0
LINE
8
DEFAULT_255_2_778
10
3.9338814
20
22.6854356
11
3.9143814
21
22.7346356
0
LINE
8
DEFAULT_255_2_778
10
3.9143814
20
22.7346356
11
3.8783814
21
22.7923356
0
LINE
8
DEFAULT_255_2_778
10
3.8783814
20
22.7923356
11
3.8314814
21
22.8375356
0
LINE
8
DEFAULT_255_2_778
10
3.8314814
20
22.8375356
11
3.7436814
21
22.8783356
0
LINE
8
DEFAULT_255_2_778
10
3.7436814
20
22.8783356
11
3.6362814
21
22.8870356
0
LINE
8
DEFAULT_255_2_778
10
3.6362814
20
22.8870356
11
3.5520814
21
22.8701356
0
LINE
8
DEFAULT_255_2_778
10
3.5520814
20
22.8701356
11
3.4825814
21
22.8301356
0
LINE
8
DEFAULT_255_2_778
10
3.4825814
20
22.8301356
11
3.4375814
21
22.7828356
0
LINE
8
DEFAULT_255_2_778
10
3.4375814
20
22.7828356
11
3.4118814
21
22.7415356
0
LINE
8
DEFAULT_255_2_778
10
3.4118814
20
22.7415356
11
3.3928814
21
22.6968356
0
LINE
8
DEFAULT_255_2_778
10
3.3928814
20
22.6968356
11
3.3790814
21
22.6505356
0
LINE
8
DEFAULT_255_2_778
10
3.3790814
20
22.6505356
11
3.3690814
21
22.6028356
0
LINE
8
DEFAULT_255_2_778
10
3.3690814
20
22.6028356
11
3.3647814
21
22.5751356
0
LINE
8
DEFAULT_255_2_778
10
3.3647814
20
22.5751356
11
3.3613814
21
22.5457356
0
LINE
8
DEFAULT_255_2_778
10
3.3613814
20
22.5457356
11
3.3610814
21
22.0178356
0
LINE
8
DEFAULT_255_2_778
10
3.3610814
20
22.0178356
11
3.3647814
21
21.9874356
0
LINE
8
DEFAULT_255_2_778
10
3.3647814
20
21.9874356
11
3.3692814
21
21.9588356
0
LINE
8
DEFAULT_255_2_778
10
3.3692814
20
21.9588356
11
3.3803814
21
21.9062356
0
LINE
8
DEFAULT_255_2_778
10
3.3803814
20
21.9062356
11
3.3959814
21
21.8572356
0
LINE
8
DEFAULT_255_2_778
10
3.3959814
20
21.8572356
11
3.4166814
21
21.8133356
0
LINE
8
DEFAULT_255_2_778
10
3.4166814
20
21.8133356
11
3.4650814
21
21.7490356
0
LINE
8
DEFAULT_255_2_778
10
3.4650814
20
21.7490356
11
3.5311814
21
21.7009356
0
LINE
8
DEFAULT_255_2_778
10
3.5311814
20
21.7009356
11
3.6237814
21
21.6757356
0
LINE
8
DEFAULT_255_2_778
10
3.6237814
20
21.6757356
11
3.5994814
21
21.6792356
0
LINE
8
DEFAULT_255_2_778
10
3.7280814
20
21.7665356
11
3.6875814
21
21.7599356
0
LINE
8
DEFAULT_255_2_778
10
3.6875814
20
21.7599356
11
3.7648814
21
21.7824356
0
LINE
8
DEFAULT_255_2_778
10
3.7648814
20
21.7824356
11
3.8053814
21
21.8162356
0
LINE
8
DEFAULT_255_2_778
10
3.8053814
20
21.8162356
11
3.8410814
21
21.8739356
0
LINE
8
DEFAULT_255_2_778
10
3.8410814
20
21.8739356
11
3.8550814
21
21.9115356
0
LINE
8
DEFAULT_255_2_778
10
3.8550814
20
21.9115356
11
3.8650814
21
21.9501356
0
LINE
8
DEFAULT_255_2_778
10
3.8650814
20
21.9501356
11
3.8725814
21
21.9901356
0
LINE
8
DEFAULT_255_2_778
10
3.8725814
20
21.9901356
11
3.8711814
21
22.5888356
0
LINE
8
DEFAULT_255_2_778
10
3.8711814
20
22.5888356
11
3.8627814
21
22.6301356
0
LINE
8
DEFAULT_255_2_778
10
3.8627814
20
22.6301356
11
3.8489814
21
22.6730356
0
LINE
8
DEFAULT_255_2_778
10
3.8489814
20
22.6730356
11
3.8291814
21
22.7150356
0
LINE
8
DEFAULT_255_2_778
10
3.8291814
20
22.7150356
11
3.7960814
21
22.7563356
0
LINE
8
DEFAULT_255_2_778
10
3.7960814
20
22.7563356
11
3.7412814
21
22.7904356
0
LINE
8
DEFAULT_255_2_778
10
3.7412814
20
22.7904356
11
3.6587814
21
22.8029356
0
LINE
8
DEFAULT_255_2_778
10
3.6587814
20
22.8029356
11
3.5677814
21
22.7846356
0
LINE
8
DEFAULT_255_2_778
10
3.5677814
20
22.7846356
11
3.5124814
21
22.7404356
0
LINE
8
DEFAULT_255_2_778
10
3.5124814
20
22.7404356
11
3.4809814
21
22.6896356
0
LINE
8
DEFAULT_255_2_778
10
3.4809814
20
22.6896356
11
3.4669814
21
22.6521356
0
LINE
8
DEFAULT_255_2_778
10
3.4669814
20
22.6521356
11
3.4573814
21
22.6145356
0
LINE
8
DEFAULT_255_2_778
10
3.4573814
20
22.6145356
11
3.4504814
21
22.5743356
0
LINE
8
DEFAULT_255_2_778
10
3.4504814
20
22.5743356
11
3.4459814
21
22.5346356
0
LINE
8
DEFAULT_255_2_778
10
3.4459814
20
22.5346356
11
3.4475814
21
22.0181356
0
LINE
8
DEFAULT_255_2_778
10
3.4475814
20
22.0181356
11
3.4531814
21
21.9784356
0
LINE
8
DEFAULT_255_2_778
10
3.4531814
20
21.9784356
11
3.4610814
21
21.9390356
0
LINE
8
DEFAULT_255_2_778
10
3.4610814
20
21.9390356
11
3.4748814
21
21.8916356
0
LINE
8
DEFAULT_255_2_778
10
3.4748814
20
21.8916356
11
3.4936814
21
21.8488356
0
LINE
8
DEFAULT_255_2_778
10
3.4936814
20
21.8488356
11
3.5232814
21
21.8099356
0
LINE
8
DEFAULT_255_2_778
10
3.5232814
20
21.8099356
11
3.5827814
21
21.7715356
0
LINE
8
DEFAULT_255_2_778
10
3.5827814
20
21.7715356
11
3.6618814
21
21.7583356
0
LINE
8
DEFAULT_255_2_778
10
3.6618814
20
21.7583356
11
3.6878814
21
21.7601356
0
LINE
8
DEFAULT_255_2_778
10
3.6878814
20
21.7601356
11
3.6468814
21
21.7575356
0
LINE
8
DEFAULT_255_2_778
10
3.4391814
20
22.2285356
11
3.4391814
21
22.2890356
0
LINE
8
DEFAULT_255_2_778
10
2.9390814
20
19.9578356
11
3.2689814
21
20.3483356
0
LINE
8
DEFAULT_255_2_778
10
3.2689814
20
20.3483356
11
3.3740814
21
20.4976356
0
LINE
8
DEFAULT_255_2_778
10
3.3740814
20
20.4976356
11
3.4100814
21
20.5634356
0
LINE
8
DEFAULT_255_2_778
10
3.4100814
20
20.5634356
11
3.4274814
21
20.6116356
0
LINE
8
DEFAULT_255_2_778
10
3.4274814
20
20.6116356
11
3.4364814
21
20.6500356
0
LINE
8
DEFAULT_255_2_778
10
3.4364814
20
20.6500356
11
3.4409814
21
20.6801356
0
LINE
8
DEFAULT_255_2_778
10
3.4409814
20
20.6801356
11
3.4396814
21
20.7706356
0
LINE
8
DEFAULT_255_2_778
10
3.4396814
20
20.7706356
11
3.4346814
21
20.7947356
0
LINE
8
DEFAULT_255_2_778
10
3.4346814
20
20.7947356
11
3.4221814
21
20.8293356
0
LINE
8
DEFAULT_255_2_778
10
3.4221814
20
20.8293356
11
3.3967814
21
20.8682356
0
LINE
8
DEFAULT_255_2_778
10
3.3967814
20
20.8682356
11
3.3401814
21
20.9090356
0
LINE
8
DEFAULT_255_2_778
10
3.3401814
20
20.9090356
11
3.2483814
21
20.9275356
0
LINE
8
DEFAULT_255_2_778
10
3.2483814
20
20.9275356
11
3.1578814
21
20.9129356
0
LINE
8
DEFAULT_255_2_778
10
3.1578814
20
20.9129356
11
3.1015814
21
20.8764356
0
LINE
8
DEFAULT_255_2_778
10
3.1015814
20
20.8764356
11
3.0689814
21
20.8365356
0
LINE
8
DEFAULT_255_2_778
10
3.0689814
20
20.8365356
11
3.0589814
21
20.8177356
0
LINE
8
DEFAULT_255_2_778
10
3.0589814
20
20.8177356
11
2.9840814
21
20.8561356
0
LINE
8
DEFAULT_255_2_778
10
3.4433814
20
20.7254356
11
3.4412814
21
20.6873356
0
LINE
8
DEFAULT_255_2_778
10
3.4412814
20
20.6873356
11
3.4377814
21
20.6627356
0
LINE
8
DEFAULT_255_2_778
10
3.4377814
20
20.6627356
11
3.4288814
21
20.6206356
0
LINE
8
DEFAULT_255_2_778
10
3.4288814
20
20.6206356
11
3.4166814
21
20.5833356
0
LINE
8
DEFAULT_255_2_778
10
3.4166814
20
20.5833356
11
3.3875814
21
20.5240356
0
LINE
8
DEFAULT_255_2_778
10
3.3875814
20
20.5240356
11
3.2951814
21
20.3867356
0
LINE
8
DEFAULT_255_2_778
10
3.2951814
20
20.3867356
11
3.0599814
21
20.1012356
0
LINE
8
DEFAULT_255_2_778
10
3.0599814
20
20.1012356
11
2.9390814
21
19.9612356
0
LINE
8
DEFAULT_255_2_778
10
2.9390814
20
19.9612356
11
2.9390814
21
19.8049356
0
LINE
8
DEFAULT_255_2_778
10
2.9390814
20
19.8049356
11
3.5780814
21
19.8049356
0
LINE
8
DEFAULT_255_2_778
10
3.5780814
20
19.8049356
11
3.5780814
21
19.8914356
0
LINE
8
DEFAULT_255_2_778
10
3.5780814
20
19.8914356
11
3.0221814
21
19.8914356
0
LINE
8
DEFAULT_255_2_778
10
3.5280814
20
20.7201356
11
3.5256814
21
20.7682356
0
LINE
8
DEFAULT_255_2_778
10
3.5256814
20
20.7682356
11
3.5206814
21
20.8018356
0
LINE
8
DEFAULT_255_2_778
10
3.5206814
20
20.8018356
11
3.5116814
21
20.8373356
0
LINE
8
DEFAULT_255_2_778
10
3.5116814
20
20.8373356
11
3.4893814
21
20.8875356
0
LINE
8
DEFAULT_255_2_778
10
3.4893814
20
20.8875356
11
3.4290814
21
20.9571356
0
LINE
8
DEFAULT_255_2_778
10
3.4290814
20
20.9571356
11
3.3047814
21
21.0087356
0
LINE
8
DEFAULT_255_2_778
10
3.3047814
20
21.0087356
11
3.1425814
21
21.0005356
0
LINE
8
DEFAULT_255_2_778
10
3.1425814
20
21.0005356
11
3.0454814
21
20.9439356
0
LINE
8
DEFAULT_255_2_778
10
3.0454814
20
20.9439356
11
2.9938814
21
20.8791356
0
LINE
8
DEFAULT_255_2_778
10
2.9938814
20
20.8791356
11
2.9837814
21
20.8592356
0
LINE
8
DEFAULT_255_2_778
10
2.9837814
20
20.8592356
11
2.9837814
21
20.8558356
0
LINE
8
DEFAULT_255_2_778
10
2.9837814
20
20.8558356
11
3.0112814
21
20.9026356
0
LINE
8
DEFAULT_255_2_778
10
3.0112814
20
20.9026356
11
3.0655814
21
20.9571356
0
LINE
8
DEFAULT_255_2_778
10
3.0655814
20
20.9571356
11
3.1419814
21
20.9968356
0
LINE
8
DEFAULT_255_2_778
10
3.1419814
20
20.9968356
11
3.2568814
21
21.0101356
0
LINE
8
DEFAULT_255_2_778
10
3.2568814
20
21.0101356
11
3.3631814
21
20.9889356
0
LINE
8
DEFAULT_255_2_778
10
3.3631814
20
20.9889356
11
3.4391814
21
20.9450356
0
LINE
8
DEFAULT_255_2_778
10
3.4391814
20
20.9450356
11
3.4838814
21
20.8928356
0
LINE
8
DEFAULT_255_2_778
10
3.4838814
20
20.8928356
11
3.5079814
21
20.8442356
0
LINE
8
DEFAULT_255_2_778
10
3.5079814
20
20.8442356
11
3.5158814
21
20.8180356
0
LINE
8
DEFAULT_255_2_778
10
3.5158814
20
20.8180356
11
3.5216814
21
20.7912356
0
LINE
8
DEFAULT_255_2_778
10
3.5216814
20
20.7912356
11
3.5190814
21
20.6291356
0
LINE
8
DEFAULT_255_2_778
10
3.5190814
20
20.6291356
11
3.5110814
21
20.5947356
0
LINE
8
DEFAULT_255_2_778
10
3.5110814
20
20.5947356
11
3.4941814
21
20.5454356
0
LINE
8
DEFAULT_255_2_778
10
3.4941814
20
20.5454356
11
3.4602814
21
20.4780356
0
LINE
8
DEFAULT_255_2_778
10
3.4602814
20
20.4780356
11
3.4007814
21
20.3878356
0
LINE
8
DEFAULT_255_2_778
10
3.4007814
20
20.3878356
11
3.3015814
21
20.2592356
0
LINE
8
DEFAULT_255_2_778
10
3.3015814
20
20.2592356
11
3.0221814
21
19.9276356
0
LINE
8
DEFAULT_255_2_778
10
3.0221814
20
19.9276356
11
3.0221814
21
19.8877356
0
LINE
8
DEFAULT_255_2_778
10
3.0221814
20
19.8877356
11
3.5780814
21
19.8877356
0
LINE
8
DEFAULT_255_2_778
10
3.3290814
20
17.9591356
11
3.6589814
21
18.3497356
0
LINE
8
DEFAULT_255_2_778
10
3.6589814
20
18.3497356
11
3.7640814
21
18.4989356
0
LINE
8
DEFAULT_255_2_778
10
3.7640814
20
18.4989356
11
3.8000814
21
18.5648356
0
LINE
8
DEFAULT_255_2_778
10
3.8000814
20
18.5648356
11
3.8174814
21
18.6129356
0
LINE
8
DEFAULT_255_2_778
10
3.8174814
20
18.6129356
11
3.8264814
21
18.6513356
0
LINE
8
DEFAULT_255_2_778
10
3.8264814
20
18.6513356
11
3.8309814
21
18.6815356
0
LINE
8
DEFAULT_255_2_778
10
3.8309814
20
18.6815356
11
3.8296814
21
18.7719356
0
LINE
8
DEFAULT_255_2_778
10
3.8296814
20
18.7719356
11
3.8246814
21
18.7960356
0
LINE
8
DEFAULT_255_2_778
10
3.8246814
20
18.7960356
11
3.8121814
21
18.8307356
0
LINE
8
DEFAULT_255_2_778
10
3.8121814
20
18.8307356
11
3.7867814
21
18.8696356
0
LINE
8
DEFAULT_255_2_778
10
3.7867814
20
18.8696356
11
3.7301814
21
18.9103356
0
LINE
8
DEFAULT_255_2_778
10
3.7301814
20
18.9103356
11
3.6383814
21
18.9288356
0
LINE
8
DEFAULT_255_2_778
10
3.6383814
20
18.9288356
11
3.5478814
21
18.9143356
0
LINE
8
DEFAULT_255_2_778
10
3.5478814
20
18.9143356
11
3.4915814
21
18.8778356
0
LINE
8
DEFAULT_255_2_778
10
3.4915814
20
18.8778356
11
3.4589814
21
18.8378356
0
LINE
8
DEFAULT_255_2_778
10
3.4589814
20
18.8378356
11
3.4489814
21
18.8193356
0
LINE
8
DEFAULT_255_2_778
10
3.4489814
20
18.8193356
11
3.3740814
21
18.8577356
0
LINE
8
DEFAULT_255_2_778
10
3.8333814
20
18.7270356
11
3.8312814
21
18.6889356
0
LINE
8
DEFAULT_255_2_778
10
3.8312814
20
18.6889356
11
3.8277814
21
18.6643356
0
LINE
8
DEFAULT_255_2_778
10
3.8277814
20
18.6643356
11
3.8187814
21
18.6222356
0
LINE
8
DEFAULT_255_2_778
10
3.8187814
20
18.6222356
11
3.8066814
21
18.5849356
0
LINE
8
DEFAULT_255_2_778
10
3.8066814
20
18.5849356
11
3.7775814
21
18.5256356
0
LINE
8
DEFAULT_255_2_778
10
3.7775814
20
18.5256356
11
3.6851814
21
18.3883356
0
LINE
8
DEFAULT_255_2_778
10
3.6851814
20
18.3883356
11
3.4499814
21
18.1028356
0
LINE
8
DEFAULT_255_2_778
10
3.4499814
20
18.1028356
11
3.3290814
21
17.9628356
0
LINE
8
DEFAULT_255_2_778
10
3.3290814
20
17.9628356
11
3.3290814
21
17.8065356
0
LINE
8
DEFAULT_255_2_778
10
3.3290814
20
17.8065356
11
3.9680814
21
17.8065356
0
LINE
8
DEFAULT_255_2_778
10
3.9680814
20
17.8065356
11
3.9680814
21
17.8933356
0
LINE
8
DEFAULT_255_2_778
10
3.9680814
20
17.8933356
11
3.4121814
21
17.8933356
0
LINE
8
DEFAULT_255_2_778
10
3.9180814
20
18.7219356
11
3.9156814
21
18.7701356
0
LINE
8
DEFAULT_255_2_778
10
3.9156814
20
18.7701356
11
3.9106814
21
18.8037356
0
LINE
8
DEFAULT_255_2_778
10
3.9106814
20
18.8037356
11
3.9016814
21
18.8391356
0
LINE
8
DEFAULT_255_2_778
10
3.9016814
20
18.8391356
11
3.8793814
21
18.8894356
0
LINE
8
DEFAULT_255_2_778
10
3.8793814
20
18.8894356
11
3.8190814
21
18.9590356
0
LINE
8
DEFAULT_255_2_778
10
3.8190814
20
18.9590356
11
3.6947814
21
19.0106356
0
LINE
8
DEFAULT_255_2_778
10
3.6947814
20
19.0106356
11
3.5325814
21
19.0024356
0
LINE
8
DEFAULT_255_2_778
10
3.5325814
20
19.0024356
11
3.4354814
21
18.9458356
0
LINE
8
DEFAULT_255_2_778
10
3.4354814
20
18.9458356
11
3.3838814
21
18.8809356
0
LINE
8
DEFAULT_255_2_778
10
3.3838814
20
18.8809356
11
3.3737814
21
18.8611356
0
LINE
8
DEFAULT_255_2_778
10
3.3737814
20
18.8611356
11
3.3737814
21
18.8577356
0
LINE
8
DEFAULT_255_2_778
10
3.3737814
20
18.8577356
11
3.4012814
21
18.9045356
0
LINE
8
DEFAULT_255_2_778
10
3.4012814
20
18.9045356
11
3.4555814
21
18.9590356
0
LINE
8
DEFAULT_255_2_778
10
3.4555814
20
18.9590356
11
3.5319814
21
18.9987356
0
LINE
8
DEFAULT_255_2_778
10
3.5319814
20
18.9987356
11
3.6468814
21
19.0119356
0
LINE
8
DEFAULT_255_2_778
10
3.6468814
20
19.0119356
11
3.7531814
21
18.9908356
0
LINE
8
DEFAULT_255_2_778
10
3.7531814
20
18.9908356
11
3.8291814
21
18.9468356
0
LINE
8
DEFAULT_255_2_778
10
3.8291814
20
18.9468356
11
3.8738814
21
18.8947356
0
LINE
8
DEFAULT_255_2_778
10
3.8738814
20
18.8947356
11
3.8979814
21
18.8460356
0
LINE
8
DEFAULT_255_2_778
10
3.8979814
20
18.8460356
11
3.9058814
21
18.8198356
0
LINE
8
DEFAULT_255_2_778
10
3.9058814
20
18.8198356
11
3.9116814
21
18.7931356
0
LINE
8
DEFAULT_255_2_778
10
3.9116814
20
18.7931356
11
3.9090814
21
18.6309356
0
LINE
8
DEFAULT_255_2_778
10
3.9090814
20
18.6309356
11
3.9010814
21
18.5965356
0
LINE
8
DEFAULT_255_2_778
10
3.9010814
20
18.5965356
11
3.8841814
21
18.5473356
0
LINE
8
DEFAULT_255_2_778
10
3.8841814
20
18.5473356
11
3.8502814
21
18.4798356
0
LINE
8
DEFAULT_255_2_778
10
3.8502814
20
18.4798356
11
3.7907814
21
18.3896356
0
LINE
8
DEFAULT_255_2_778
10
3.7907814
20
18.3896356
11
3.6915814
21
18.2610356
0
LINE
8
DEFAULT_255_2_778
10
3.6915814
20
18.2610356
11
3.4121814
21
17.9295356
0
LINE
8
DEFAULT_255_2_778
10
3.4121814
20
17.9295356
11
3.4121814
21
17.8896356
0
LINE
8
DEFAULT_255_2_778
10
3.4121814
20
17.8896356
11
3.9680814
21
17.8896356
0
LINE
8
DEFAULT_255_2_778
10
3.4290814
20
16.2243356
11
3.6055814
21
16.2243356
0
LINE
8
DEFAULT_255_2_778
10
3.6055814
20
16.2243356
11
3.6055814
21
16.1383356
0
LINE
8
DEFAULT_255_2_778
10
3.6055814
20
16.1383356
11
3.4290814
21
16.1383356
0
LINE
8
DEFAULT_255_2_778
10
3.4290814
20
16.1383356
11
3.4290814
21
15.8229356
0
LINE
8
DEFAULT_255_2_778
10
3.4290814
20
15.8229356
11
3.3441814
21
15.8229356
0
LINE
8
DEFAULT_255_2_778
10
3.3441814
20
15.8229356
11
3.3441814
21
16.1383356
0
LINE
8
DEFAULT_255_2_778
10
3.3441814
20
16.1383356
11
2.8948814
21
16.1383356
0
LINE
8
DEFAULT_255_2_778
10
2.8948814
20
16.1383356
11
2.8948814
21
16.2640356
0
LINE
8
DEFAULT_255_2_778
10
2.8948814
20
16.2640356
11
3.2311814
21
17.0167356
0
LINE
8
DEFAULT_255_2_778
10
3.2311814
20
17.0167356
11
3.2311814
21
17.0133356
0
LINE
8
DEFAULT_255_2_778
10
3.2311814
20
17.0133356
11
2.8948814
21
16.2605356
0
LINE
8
DEFAULT_255_2_778
10
3.6055814
20
16.2208356
11
3.4290814
21
16.2208356
0
LINE
8
DEFAULT_255_2_778
10
3.4290814
20
16.2208356
11
3.4290814
21
17.0167356
0
LINE
8
DEFAULT_255_2_778
10
3.4290814
20
17.0167356
11
3.2311814
21
17.0167356
0
LINE
8
DEFAULT_255_2_778
10
2.9782814
20
16.2222356
11
3.3443814
21
16.2222356
0
LINE
8
DEFAULT_255_2_778
10
3.3443814
20
16.2222356
11
3.3443814
21
16.9320356
0
LINE
8
DEFAULT_255_2_778
10
3.3443814
20
16.9320356
11
3.2861814
21
16.9320356
0
LINE
8
DEFAULT_255_2_778
10
3.2861814
20
16.9320356
11
2.9745814
21
16.2341356
0
LINE
8
DEFAULT_255_2_778
10
3.8267814
20
14.2899356
11
4.0032814
21
14.2899356
0
LINE
8
DEFAULT_255_2_778
10
4.0032814
20
14.2899356
11
4.0032814
21
14.2039356
0
LINE
8
DEFAULT_255_2_778
10
4.0032814
20
14.2039356
11
3.8267814
21
14.2039356
0
LINE
8
DEFAULT_255_2_778
10
3.8267814
20
14.2039356
11
3.8267814
21
13.8885356
0
LINE
8
DEFAULT_255_2_778
10
3.8267814
20
13.8885356
11
3.7418814
21
13.8885356
0
LINE
8
DEFAULT_255_2_778
10
3.7418814
20
13.8885356
11
3.7418814
21
14.2039356
0
LINE
8
DEFAULT_255_2_778
10
3.7418814
20
14.2039356
11
3.2925814
21
14.2039356
0
LINE
8
DEFAULT_255_2_778
10
3.2925814
20
14.2039356
11
3.2925814
21
14.3296356
0
LINE
8
DEFAULT_255_2_778
10
3.2925814
20
14.3296356
11
3.6288814
21
15.0823356
0
LINE
8
DEFAULT_255_2_778
10
3.6288814
20
15.0823356
11
3.6288814
21
15.0789356
0
LINE
8
DEFAULT_255_2_778
10
3.6288814
20
15.0789356
11
3.2925814
21
14.3261356
0
LINE
8
DEFAULT_255_2_778
10
4.0032814
20
14.2865356
11
3.8267814
21
14.2865356
0
LINE
8
DEFAULT_255_2_778
10
3.8267814
20
14.2865356
11
3.8267814
21
15.0823356
0
LINE
8
DEFAULT_255_2_778
10
3.8267814
20
15.0823356
11
3.6288814
21
15.0823356
0
LINE
8
DEFAULT_255_2_778
10
3.3758814
20
14.2865356
11
3.7420814
21
14.2865356
0
LINE
8
DEFAULT_255_2_778
10
3.7420814
20
14.2865356
11
3.7420814
21
14.9963356
0
LINE
8
DEFAULT_255_2_778
10
3.7420814
20
14.9963356
11
3.6838814
21
14.9963356
0
LINE
8
DEFAULT_255_2_778
10
3.6838814
20
14.9963356
11
3.3719814
21
14.2992356
0
LINE
8
DEFAULT_255_2_778
10
3.2443814
20
12.7103356
11
3.2742814
21
12.7119356
0
LINE
8
DEFAULT_255_2_778
10
3.2742814
20
12.7119356
11
3.2742814
21
12.7154356
0
LINE
8
DEFAULT_255_2_778
10
3.2742814
20
12.7154356
11
3.2443814
21
12.7138356
0
LINE
8
DEFAULT_255_2_778
10
3.2742814
20
12.7119356
11
3.3663814
21
12.6984356
0
LINE
8
DEFAULT_255_2_778
10
3.3663814
20
12.6984356
11
3.4282814
21
12.6677356
0
LINE
8
DEFAULT_255_2_778
10
3.4282814
20
12.6677356
11
3.4780814
21
12.6191356
0
LINE
8
DEFAULT_255_2_778
10
3.4780814
20
12.6191356
11
3.5031814
21
12.5796356
0
LINE
8
DEFAULT_255_2_778
10
3.5031814
20
12.5796356
11
3.5216814
21
12.5373356
0
LINE
8
DEFAULT_255_2_778
10
3.5216814
20
12.5373356
11
3.5348814
21
12.4926356
0
LINE
8
DEFAULT_255_2_778
10
3.5348814
20
12.4926356
11
3.5396814
21
12.4698356
0
LINE
8
DEFAULT_255_2_778
10
3.5396814
20
12.4698356
11
3.5409814
21
12.2113356
0
LINE
8
DEFAULT_255_2_778
10
3.5409814
20
12.2113356
11
3.5317814
21
12.1664356
0
LINE
8
DEFAULT_255_2_778
10
3.5317814
20
12.1664356
11
3.5179814
21
12.1230356
0
LINE
8
DEFAULT_255_2_778
10
3.5179814
20
12.1230356
11
3.4941814
21
12.0732356
0
LINE
8
DEFAULT_255_2_778
10
3.4941814
20
12.0732356
11
3.4597814
21
12.0272356
0
LINE
8
DEFAULT_255_2_778
10
3.4597814
20
12.0272356
11
3.4052814
21
11.9835356
0
LINE
8
DEFAULT_255_2_778
10
3.4052814
20
11.9835356
11
3.3176814
21
11.9507356
0
LINE
8
DEFAULT_255_2_778
10
3.3176814
20
11.9507356
11
3.1967814
21
11.9467356
0
LINE
8
DEFAULT_255_2_778
10
3.1967814
20
11.9467356
11
3.1110814
21
11.9698356
0
LINE
8
DEFAULT_255_2_778
10
3.1110814
20
11.9698356
11
3.0464814
21
12.0118356
0
LINE
8
DEFAULT_255_2_778
10
3.0464814
20
12.0118356
11
3.0078814
21
12.0542356
0
LINE
8
DEFAULT_255_2_778
10
3.0078814
20
12.0542356
11
2.9800814
21
12.0991356
0
LINE
8
DEFAULT_255_2_778
10
2.9800814
20
12.0991356
11
2.9626814
21
12.1388356
0
LINE
8
DEFAULT_255_2_778
10
2.9626814
20
12.1388356
11
2.9469814
21
12.1883356
0
LINE
8
DEFAULT_255_2_778
10
2.9469814
20
12.1883356
11
2.9374814
21
12.2275356
0
LINE
8
DEFAULT_255_2_778
10
2.9374814
20
12.2275356
11
2.9321814
21
12.2550356
0
LINE
8
DEFAULT_255_2_778
10
2.9321814
20
12.2550356
11
2.9252814
21
12.3013356
0
LINE
8
DEFAULT_255_2_778
10
2.9252814
20
12.3013356
11
2.9205814
21
12.3476356
0
LINE
8
DEFAULT_255_2_778
10
2.9205814
20
12.3476356
11
2.9205814
21
12.7746356
0
LINE
8
DEFAULT_255_2_778
10
2.9205814
20
12.7746356
11
2.9239814
21
12.8127356
0
LINE
8
DEFAULT_255_2_778
10
2.9239814
20
12.8127356
11
2.9297814
21
12.8590356
0
LINE
8
DEFAULT_255_2_778
10
2.9297814
20
12.8590356
11
2.9385814
21
12.9048356
0
LINE
8
DEFAULT_255_2_778
10
2.9385814
20
12.9048356
11
2.9525814
21
12.9561356
0
LINE
8
DEFAULT_255_2_778
10
2.9525814
20
12.9561356
11
2.9686814
21
12.9977356
0
LINE
8
DEFAULT_255_2_778
10
2.9686814
20
12.9977356
11
2.9959814
21
13.0456356
0
LINE
8
DEFAULT_255_2_778
10
2.9959814
20
13.0456356
11
3.0332814
21
13.0879356
0
LINE
8
DEFAULT_255_2_778
10
3.0332814
20
13.0879356
11
3.0911814
21
13.1265356
0
LINE
8
DEFAULT_255_2_778
10
3.0911814
20
13.1265356
11
3.1808814
21
13.1514356
0
LINE
8
DEFAULT_255_2_778
10
3.1808814
20
13.1514356
11
3.3018814
21
13.1472356
0
LINE
8
DEFAULT_255_2_778
10
3.3018814
20
13.1472356
11
3.3896814
21
13.1144356
0
LINE
8
DEFAULT_255_2_778
10
3.3896814
20
13.1144356
11
3.4536814
21
13.0643356
0
LINE
8
DEFAULT_255_2_778
10
3.4536814
20
13.0643356
11
3.4978814
21
13.0019356
0
LINE
8
DEFAULT_255_2_778
10
3.5510814
20
12.3370356
11
3.5510814
21
12.3404356
0
LINE
8
DEFAULT_255_2_778
10
2.9152814
20
12.5511356
11
2.9152814
21
12.5476356
0
LINE
8
DEFAULT_255_2_778
10
2.9160814
20
12.6500356
11
2.9181814
21
12.7331356
0
LINE
8
DEFAULT_255_2_778
10
2.9181814
20
12.7331356
11
2.9197814
21
12.7627356
0
LINE
8
DEFAULT_255_2_778
10
2.9197814
20
12.7627356
11
2.9218814
21
12.7916356
0
LINE
8
DEFAULT_255_2_778
10
2.9218814
20
12.7916356
11
2.9247814
21
12.8207356
0
LINE
8
DEFAULT_255_2_778
10
2.9247814
20
12.8207356
11
2.9316814
21
12.8715356
0
LINE
8
DEFAULT_255_2_778
10
2.9316814
20
12.8715356
11
2.9417814
21
12.9207356
0
LINE
8
DEFAULT_255_2_778
10
2.9417814
20
12.9207356
11
2.9570814
21
12.9723356
0
LINE
8
DEFAULT_255_2_778
10
2.9570814
20
12.9723356
11
2.9827814
21
13.0281356
0
LINE
8
DEFAULT_255_2_778
10
2.9827814
20
13.0281356
11
3.0268814
21
13.0853356
0
LINE
8
DEFAULT_255_2_778
10
3.0268814
20
13.0853356
11
3.1046814
21
13.1361356
0
LINE
8
DEFAULT_255_2_778
10
3.1046814
20
13.1361356
11
3.2300814
21
13.1577356
0
LINE
8
DEFAULT_255_2_778
10
3.2300814
20
13.1577356
11
3.3523814
21
13.1361356
0
LINE
8
DEFAULT_255_2_778
10
3.3523814
20
13.1361356
11
3.4420814
21
13.0797356
0
LINE
8
DEFAULT_255_2_778
10
3.4420814
20
13.0797356
11
3.4915814
21
13.0173356
0
LINE
8
DEFAULT_255_2_778
10
3.4915814
20
13.0173356
11
3.4978814
21
13.0056356
0
LINE
8
DEFAULT_255_2_778
10
3.4978814
20
13.0056356
11
3.4978814
21
13.0022356
0
LINE
8
DEFAULT_255_2_778
10
3.4978814
20
13.0022356
11
3.4213814
21
12.9625356
0
LINE
8
DEFAULT_255_2_778
10
3.4213814
20
12.9625356
11
3.3806814
21
13.0175356
0
LINE
8
DEFAULT_255_2_778
10
3.3806814
20
13.0175356
11
3.2962814
21
13.0633356
0
LINE
8
DEFAULT_255_2_778
10
3.2962814
20
13.0633356
11
3.1507814
21
13.0601356
0
LINE
8
DEFAULT_255_2_778
10
3.1507814
20
13.0601356
11
3.0880814
21
13.0218356
0
LINE
8
DEFAULT_255_2_778
10
3.0880814
20
13.0218356
11
3.0496814
21
12.9678356
0
LINE
8
DEFAULT_255_2_778
10
3.0496814
20
12.9678356
11
3.0287814
21
12.9130356
0
LINE
8
DEFAULT_255_2_778
10
3.0287814
20
12.9130356
11
3.0192814
21
12.8736356
0
LINE
8
DEFAULT_255_2_778
10
3.0192814
20
12.8736356
11
3.0131814
21
12.8379356
0
LINE
8
DEFAULT_255_2_778
10
3.0131814
20
12.8379356
11
3.0086814
21
12.7995356
0
LINE
8
DEFAULT_255_2_778
10
3.0086814
20
12.7995356
11
3.0059814
21
12.7648356
0
LINE
8
DEFAULT_255_2_778
10
3.0059814
20
12.7648356
11
3.0044814
21
12.7363356
0
LINE
8
DEFAULT_255_2_778
10
3.0044814
20
12.7363356
11
3.0017814
21
12.6638356
0
LINE
8
DEFAULT_255_2_778
10
3.0017814
20
12.6638356
11
3.0001814
21
12.5452356
0
LINE
8
DEFAULT_255_2_778
10
3.0001814
20
12.5452356
11
3.1007814
21
12.6609356
0
LINE
8
DEFAULT_255_2_778
10
3.1007814
20
12.6609356
11
3.2446814
21
12.7103356
0
LINE
8
DEFAULT_255_2_778
10
3.2446814
20
12.7103356
11
3.2446814
21
12.7138356
0
LINE
8
DEFAULT_255_2_778
10
3.2446814
20
12.7138356
11
3.0882814
21
12.6550356
0
LINE
8
DEFAULT_255_2_778
10
3.0882814
20
12.6550356
11
3.0044814
21
12.5579356
0
LINE
8
DEFAULT_255_2_778
10
3.0044814
20
12.5579356
11
3.0009814
21
12.5511356
0
LINE
8
DEFAULT_255_2_778
10
3.4618814
20
12.4196356
11
3.4565814
21
12.4550356
0
LINE
8
DEFAULT_255_2_778
10
3.4565814
20
12.4550356
11
3.4467814
21
12.4963356
0
LINE
8
DEFAULT_255_2_778
10
3.4467814
20
12.4963356
11
3.4303814
21
12.5384356
0
LINE
8
DEFAULT_255_2_778
10
3.4303814
20
12.5384356
11
3.3970814
21
12.5852356
0
LINE
8
DEFAULT_255_2_778
10
3.3970814
20
12.5852356
11
3.3245814
21
12.6228356
0
LINE
8
DEFAULT_255_2_778
10
3.3245814
20
12.6228356
11
3.2774814
21
12.6275356
0
LINE
8
DEFAULT_255_2_778
10
3.2774814
20
12.6275356
11
3.1763814
21
12.6077356
0
LINE
8
DEFAULT_255_2_778
10
3.1763814
20
12.6077356
11
3.1144814
21
12.5624356
0
LINE
8
DEFAULT_255_2_778
10
3.1144814
20
12.5624356
11
3.0607814
21
12.4907356
0
LINE
8
DEFAULT_255_2_778
10
3.0607814
20
12.4907356
11
3.0395814
21
12.4442356
0
LINE
8
DEFAULT_255_2_778
10
3.0395814
20
12.4442356
11
3.0290814
21
12.4061356
0
LINE
8
DEFAULT_255_2_778
10
3.0290814
20
12.4061356
11
3.0247814
21
12.3823356
0
LINE
8
DEFAULT_255_2_778
10
3.0247814
20
12.3823356
11
3.0253814
21
12.2423356
0
LINE
8
DEFAULT_255_2_778
10
3.0253814
20
12.2423356
11
3.0356814
21
12.2042356
0
LINE
8
DEFAULT_255_2_778
10
3.0356814
20
12.2042356
11
3.0560814
21
12.1568356
0
LINE
8
DEFAULT_255_2_778
10
3.0560814
20
12.1568356
11
3.1020814
21
12.0944356
0
LINE
8
DEFAULT_255_2_778
10
3.1020814
20
12.0944356
11
3.1787814
21
12.0409356
0
LINE
8
DEFAULT_255_2_778
10
3.1787814
20
12.0409356
11
3.2790814
21
12.0301356
0
LINE
8
DEFAULT_255_2_778
10
3.2790814
20
12.0301356
11
3.3623814
21
12.0608356
0
LINE
8
DEFAULT_255_2_778
10
3.3623814
20
12.0608356
11
3.4150814
21
12.1177356
0
LINE
8
DEFAULT_255_2_778
10
3.4150814
20
12.1177356
11
3.4415814
21
12.1732356
0
LINE
8
DEFAULT_255_2_778
10
3.4415814
20
12.1732356
11
3.4531814
21
12.2137356
0
LINE
8
DEFAULT_255_2_778
10
3.4531814
20
12.2137356
11
3.4581814
21
12.2420356
0
LINE
8
DEFAULT_255_2_778
10
3.4581814
20
12.2420356
11
3.4610814
21
12.2648356
0
LINE
8
DEFAULT_255_2_778
10
3.4610814
20
12.2648356
11
3.4618814
21
12.4196356
0
LINE
8
DEFAULT_255_2_778
10
3.6420814
20
10.7760356
11
3.6719814
21
10.7776356
0
LINE
8
DEFAULT_255_2_778
10
3.6719814
20
10.7776356
11
3.6719814
21
10.7810356
0
LINE
8
DEFAULT_255_2_778
10
3.6719814
20
10.7810356
11
3.6420814
21
10.7794356
0
LINE
8
DEFAULT_255_2_778
10
3.6719814
20
10.7776356
11
3.7640814
21
10.7641356
0
LINE
8
DEFAULT_255_2_778
10
3.7640814
20
10.7641356
11
3.8259814
21
10.7334356
0
LINE
8
DEFAULT_255_2_778
10
3.8259814
20
10.7334356
11
3.8756814
21
10.6847356
0
LINE
8
DEFAULT_255_2_778
10
3.8756814
20
10.6847356
11
3.9008814
21
10.6453356
0
LINE
8
DEFAULT_255_2_778
10
3.9008814
20
10.6453356
11
3.9193814
21
10.6029356
0
LINE
8
DEFAULT_255_2_778
10
3.9193814
20
10.6029356
11
3.9325814
21
10.5582356
0
LINE
8
DEFAULT_255_2_778
10
3.9325814
20
10.5582356
11
3.9373814
21
10.5355356
0
LINE
8
DEFAULT_255_2_778
10
3.9373814
20
10.5355356
11
3.9386814
21
10.2770356
0
LINE
8
DEFAULT_255_2_778
10
3.9386814
20
10.2770356
11
3.9293814
21
10.2320356
0
LINE
8
DEFAULT_255_2_778
10
3.9293814
20
10.2320356
11
3.9156814
21
10.1886356
0
LINE
8
DEFAULT_255_2_778
10
3.9156814
20
10.1886356
11
3.8918814
21
10.1389356
0
LINE
8
DEFAULT_255_2_778
10
3.8918814
20
10.1389356
11
3.8574814
21
10.0928356
0
LINE
8
DEFAULT_255_2_778
10
3.8574814
20
10.0928356
11
3.8029814
21
10.0492356
0
LINE
8
DEFAULT_255_2_778
10
3.8029814
20
10.0492356
11
3.7153814
21
10.0163356
0
LINE
8
DEFAULT_255_2_778
10
3.7153814
20
10.0163356
11
3.5944814
21
10.0124356
0
LINE
8
DEFAULT_255_2_778
10
3.5944814
20
10.0124356
11
3.5087814
21
10.0354356
0
LINE
8
DEFAULT_255_2_778
10
3.5087814
20
10.0354356
11
3.4441814
21
10.0775356
0
LINE
8
DEFAULT_255_2_778
10
3.4441814
20
10.0775356
11
3.4055814
21
10.1198356
0
LINE
8
DEFAULT_255_2_778
10
3.4055814
20
10.1198356
11
3.3777814
21
10.1648356
0
LINE
8
DEFAULT_255_2_778
10
3.3777814
20
10.1648356
11
3.3602814
21
10.2045356
0
LINE
8
DEFAULT_255_2_778
10
3.3602814
20
10.2045356
11
3.3446814
21
10.2539356
0
LINE
8
DEFAULT_255_2_778
10
3.3446814
20
10.2539356
11
3.3351814
21
10.2931356
0
LINE
8
DEFAULT_255_2_778
10
3.3351814
20
10.2931356
11
3.3298814
21
10.3206356
0
LINE
8
DEFAULT_255_2_778
10
3.3298814
20
10.3206356
11
3.3229814
21
10.3669356
0
LINE
8
DEFAULT_255_2_778
10
3.3229814
20
10.3669356
11
3.3182814
21
10.4132356
0
LINE
8
DEFAULT_255_2_778
10
3.3182814
20
10.4132356
11
3.3182814
21
10.8403356
0
LINE
8
DEFAULT_255_2_778
10
3.3182814
20
10.8403356
11
3.3216814
21
10.8784356
0
LINE
8
DEFAULT_255_2_778
10
3.3216814
20
10.8784356
11
3.3274814
21
10.9247356
0
LINE
8
DEFAULT_255_2_778
10
3.3274814
20
10.9247356
11
3.3361814
21
10.9704356
0
LINE
8
DEFAULT_255_2_778
10
3.3361814
20
10.9704356
11
3.3502814
21
11.0218356
0
LINE
8
DEFAULT_255_2_778
10
3.3502814
20
11.0218356
11
3.3663814
21
11.0633356
0
LINE
8
DEFAULT_255_2_778
10
3.3663814
20
11.0633356
11
3.3936814
21
11.1112356
0
LINE
8
DEFAULT_255_2_778
10
3.3936814
20
11.1112356
11
3.4309814
21
11.1535356
0
LINE
8
DEFAULT_255_2_778
10
3.4309814
20
11.1535356
11
3.4888814
21
11.1922356
0
LINE
8
DEFAULT_255_2_778
10
3.4888814
20
11.1922356
11
3.5785814
21
11.2170356
0
LINE
8
DEFAULT_255_2_778
10
3.5785814
20
11.2170356
11
3.6994814
21
11.2128356
0
LINE
8
DEFAULT_255_2_778
10
3.6994814
20
11.2128356
11
3.7873814
21
11.1800356
0
LINE
8
DEFAULT_255_2_778
10
3.7873814
20
11.1800356
11
3.8510814
21
11.1300356
0
LINE
8
DEFAULT_255_2_778
10
3.8510814
20
11.1300356
11
3.8952814
21
11.0675356
0
LINE
8
DEFAULT_255_2_778
10
3.9484814
20
10.4026356
11
3.9484814
21
10.4061356
0
LINE
8
DEFAULT_255_2_778
10
3.3126814
20
10.6167356
11
3.3126814
21
10.6132356
0
LINE
8
DEFAULT_255_2_778
10
3.3134814
20
10.7156356
11
3.3155814
21
10.7987356
0
LINE
8
DEFAULT_255_2_778
10
3.3155814
20
10.7987356
11
3.3171814
21
10.8284356
0
LINE
8
DEFAULT_255_2_778
10
3.3171814
20
10.8284356
11
3.3192814
21
10.8572356
0
LINE
8
DEFAULT_255_2_778
10
3.3192814
20
10.8572356
11
3.3221814
21
10.8863356
0
LINE
8
DEFAULT_255_2_778
10
3.3221814
20
10.8863356
11
3.3290814
21
10.9371356
0
LINE
8
DEFAULT_255_2_778
10
3.3290814
20
10.9371356
11
3.3391814
21
10.9863356
0
LINE
8
DEFAULT_255_2_778
10
3.3391814
20
10.9863356
11
3.3544814
21
11.0379356
0
LINE
8
DEFAULT_255_2_778
10
3.3544814
20
11.0379356
11
3.3801814
21
11.0937356
0
LINE
8
DEFAULT_255_2_778
10
3.3801814
20
11.0937356
11
3.4243814
21
11.1509356
0
LINE
8
DEFAULT_255_2_778
10
3.4243814
20
11.1509356
11
3.5020814
21
11.2017356
0
LINE
8
DEFAULT_255_2_778
10
3.5020814
20
11.2017356
11
3.6275814
21
11.2234356
0
LINE
8
DEFAULT_255_2_778
10
3.6275814
20
11.2234356
11
3.7497814
21
11.2017356
0
LINE
8
DEFAULT_255_2_778
10
3.7497814
20
11.2017356
11
3.8394814
21
11.1453356
0
LINE
8
DEFAULT_255_2_778
10
3.8394814
20
11.1453356
11
3.8889814
21
11.0829356
0
LINE
8
DEFAULT_255_2_778
10
3.8889814
20
11.0829356
11
3.8952814
21
11.0712356
0
LINE
8
DEFAULT_255_2_778
10
3.8952814
20
11.0712356
11
3.8952814
21
11.0678356
0
LINE
8
DEFAULT_255_2_778
10
3.8952814
20
11.0678356
11
3.8187814
21
11.0281356
0
LINE
8
DEFAULT_255_2_778
10
3.8187814
20
11.0281356
11
3.7780814
21
11.0831356
0
LINE
8
DEFAULT_255_2_778
10
3.7780814
20
11.0831356
11
3.6936814
21
11.1289356
0
LINE
8
DEFAULT_255_2_778
10
3.6936814
20
11.1289356
11
3.5481814
21
11.1257356
0
LINE
8
DEFAULT_255_2_778
10
3.5481814
20
11.1257356
11
3.4854814
21
11.0874356
0
LINE
8
DEFAULT_255_2_778
10
3.4854814
20
11.0874356
11
3.4470814
21
11.0334356
0
LINE
8
DEFAULT_255_2_778
10
3.4470814
20
11.0334356
11
3.4261814
21
10.9786356
0
LINE
8
DEFAULT_255_2_778
10
3.4261814
20
10.9786356
11
3.4166814
21
10.9392356
0
LINE
8
DEFAULT_255_2_778
10
3.4166814
20
10.9392356
11
3.4105814
21
10.9035356
0
LINE
8
DEFAULT_255_2_778
10
3.4105814
20
10.9035356
11
3.4060814
21
10.8651356
0
LINE
8
DEFAULT_255_2_778
10
3.4060814
20
10.8651356
11
3.4034814
21
10.8305356
0
LINE
8
DEFAULT_255_2_778
10
3.4034814
20
10.8305356
11
3.4018814
21
10.8019356
0
LINE
8
DEFAULT_255_2_778
10
3.4018814
20
10.8019356
11
3.3991814
21
10.7294356
0
LINE
8
DEFAULT_255_2_778
10
3.3991814
20
10.7294356
11
3.3975814
21
10.6109356
0
LINE
8
DEFAULT_255_2_778
10
3.3975814
20
10.6109356
11
3.4981814
21
10.7265356
0
LINE
8
DEFAULT_255_2_778
10
3.4981814
20
10.7265356
11
3.6420814
21
10.7760356
0
LINE
8
DEFAULT_255_2_778
10
3.6420814
20
10.7760356
11
3.6420814
21
10.7794356
0
LINE
8
DEFAULT_255_2_778
10
3.6420814
20
10.7794356
11
3.4856814
21
10.7207356
0
LINE
8
DEFAULT_255_2_778
10
3.4856814
20
10.7207356
11
3.4018814
21
10.6236356
0
LINE
8
DEFAULT_255_2_778
10
3.4018814
20
10.6236356
11
3.3983814
21
10.6167356
0
LINE
8
DEFAULT_255_2_778
10
3.8592814
20
10.4852356
11
3.8539814
21
10.5206356
0
LINE
8
DEFAULT_255_2_778
10
3.8539814
20
10.5206356
11
3.8441814
21
10.5619356
0
LINE
8
DEFAULT_255_2_778
10
3.8441814
20
10.5619356
11
3.8277814
21
10.6040356
0
LINE
8
DEFAULT_255_2_778
10
3.8277814
20
10.6040356
11
3.7944814
21
10.6508356
0
LINE
8
DEFAULT_255_2_778
10
3.7944814
20
10.6508356
11
3.7219814
21
10.6884356
0
LINE
8
DEFAULT_255_2_778
10
3.7219814
20
10.6884356
11
3.6748814
21
10.6932356
0
LINE
8
DEFAULT_255_2_778
10
3.6748814
20
10.6932356
11
3.5737814
21
10.6733356
0
LINE
8
DEFAULT_255_2_778
10
3.5737814
20
10.6733356
11
3.5118814
21
10.6281356
0
LINE
8
DEFAULT_255_2_778
10
3.5118814
20
10.6281356
11
3.4581814
21
10.5564356
0
LINE
8
DEFAULT_255_2_778
10
3.4581814
20
10.5564356
11
3.4370814
21
10.5098356
0
LINE
8
DEFAULT_255_2_778
10
3.4370814
20
10.5098356
11
3.4264814
21
10.4717356
0
LINE
8
DEFAULT_255_2_778
10
3.4264814
20
10.4717356
11
3.4221814
21
10.4479356
0
LINE
8
DEFAULT_255_2_778
10
3.4221814
20
10.4479356
11
3.4227814
21
10.3079356
0
LINE
8
DEFAULT_255_2_778
10
3.4227814
20
10.3079356
11
3.4330814
21
10.2698356
0
LINE
8
DEFAULT_255_2_778
10
3.4330814
20
10.2698356
11
3.4534814
21
10.2225356
0
LINE
8
DEFAULT_255_2_778
10
3.4534814
20
10.2225356
11
3.4994814
21
10.1600356
0
LINE
8
DEFAULT_255_2_778
10
3.4994814
20
10.1600356
11
3.5761814
21
10.1066356
0
LINE
8
DEFAULT_255_2_778
10
3.5761814
20
10.1066356
11
3.6764814
21
10.0957356
0
LINE
8
DEFAULT_255_2_778
10
3.6764814
20
10.0957356
11
3.7597814
21
10.1264356
0
LINE
8
DEFAULT_255_2_778
10
3.7597814
20
10.1264356
11
3.8124814
21
10.1833356
0
LINE
8
DEFAULT_255_2_778
10
3.8124814
20
10.1833356
11
3.8389814
21
10.2389356
0
LINE
8
DEFAULT_255_2_778
10
3.8389814
20
10.2389356
11
3.8505814
21
10.2793356
0
LINE
8
DEFAULT_255_2_778
10
3.8505814
20
10.2793356
11
3.8555814
21
10.3077356
0
LINE
8
DEFAULT_255_2_778
10
3.8555814
20
10.3077356
11
3.8584814
21
10.3304356
0
LINE
8
DEFAULT_255_2_778
10
3.8584814
20
10.3304356
11
3.8592814
21
10.4852356
0
LINE
8
DEFAULT_255_2_778
10
5.4769814
20
8.9099356
11
5.4737814
21
8.9318356
0
LINE
8
DEFAULT_255_2_778
10
5.4737814
20
8.9318356
11
5.4629814
21
8.9691356
0
LINE
8
DEFAULT_255_2_778
10
5.4629814
20
8.9691356
11
5.4309814
21
9.0239356
0
LINE
8
DEFAULT_255_2_778
10
5.4309814
20
9.0239356
11
5.3589814
21
9.0826356
0
LINE
8
DEFAULT_255_2_778
10
5.3589814
20
9.0826356
11
5.2435814
21
9.1136356
0
LINE
8
DEFAULT_255_2_778
10
5.2435814
20
9.1136356
11
5.0319814
21
9.1141356
0
LINE
8
DEFAULT_255_2_778
10
5.0319814
20
9.1141356
11
5.0319814
21
8.6752356
0
LINE
8
DEFAULT_255_2_778
10
5.0319814
20
8.6752356
11
5.3163814
21
8.6844356
0
LINE
8
DEFAULT_255_2_778
10
5.3163814
20
8.6844356
11
5.4150814
21
8.7368356
0
LINE
8
DEFAULT_255_2_778
10
5.4150814
20
8.7368356
11
5.4544814
21
8.7884356
0
LINE
8
DEFAULT_255_2_778
10
5.4544814
20
8.7884356
11
5.4727814
21
8.8387356
0
LINE
8
DEFAULT_255_2_778
10
5.4727814
20
8.8387356
11
5.4764814
21
8.8601356
0
LINE
8
DEFAULT_255_2_778
10
5.4764814
20
8.8601356
11
5.4769814
21
8.9099356
0
LINE
8
DEFAULT_255_2_778
10
4.9469814
20
9.1991356
11
5.3121814
21
9.1903356
0
LINE
8
DEFAULT_255_2_778
10
5.3121814
20
9.1903356
11
5.4237814
21
9.1448356
0
LINE
8
DEFAULT_255_2_778
10
5.4237814
20
9.1448356
11
5.4920814
21
9.0850356
0
LINE
8
DEFAULT_255_2_778
10
5.4920814
20
9.0850356
11
5.5330814
21
9.0205356
0
LINE
8
DEFAULT_255_2_778
10
5.5330814
20
9.0205356
11
5.5481814
21
8.9824356
0
LINE
8
DEFAULT_255_2_778
10
5.5481814
20
8.9824356
11
5.5568814
21
8.9485356
0
LINE
8
DEFAULT_255_2_778
10
5.5568814
20
8.9485356
11
5.5610814
21
8.9204356
0
LINE
8
DEFAULT_255_2_778
10
5.5610814
20
8.9204356
11
5.5602814
21
8.8511356
0
LINE
8
DEFAULT_255_2_778
10
5.5602814
20
8.8511356
11
5.5552814
21
8.8228356
0
LINE
8
DEFAULT_255_2_778
10
5.5552814
20
8.8228356
11
5.5414814
21
8.7773356
0
LINE
8
DEFAULT_255_2_778
10
5.5414814
20
8.7773356
11
5.5073814
21
8.7143356
0
LINE
8
DEFAULT_255_2_778
10
5.5073814
20
8.7143356
11
5.4443814
21
8.6535356
0
LINE
8
DEFAULT_255_2_778
10
5.4443814
20
8.6535356
11
5.4081814
21
8.6318356
0
LINE
8
DEFAULT_255_2_778
10
5.4081814
20
8.6318356
11
5.4787814
21
8.5693356
0
LINE
8
DEFAULT_255_2_778
10
5.4787814
20
8.5693356
11
5.5205814
21
8.5032356
0
LINE
8
DEFAULT_255_2_778
10
5.5205814
20
8.5032356
11
5.5417814
21
8.4468356
0
LINE
8
DEFAULT_255_2_778
10
5.5417814
20
8.4468356
11
5.5515814
21
8.4032356
0
LINE
8
DEFAULT_255_2_778
10
5.5515814
20
8.4032356
11
5.5560814
21
8.3706356
0
LINE
8
DEFAULT_255_2_778
10
5.5560814
20
8.3706356
11
5.5579814
21
8.3513356
0
LINE
8
DEFAULT_255_2_778
10
5.5579814
20
8.3513356
11
5.5602814
21
8.3101356
0
LINE
8
DEFAULT_255_2_778
10
5.5602814
20
8.3101356
11
5.5613814
21
8.2685356
0
LINE
8
DEFAULT_255_2_778
10
5.5613814
20
8.2659356
11
5.5634814
21
8.1161356
0
LINE
8
DEFAULT_255_2_778
10
5.5634814
20
8.1161356
11
5.5679814
21
8.0873356
0
LINE
8
DEFAULT_255_2_778
10
5.5679814
20
8.0873356
11
5.5780814
21
8.0484356
0
LINE
8
DEFAULT_255_2_778
10
5.5780814
20
8.0484356
11
5.5878814
21
8.0211356
0
LINE
8
DEFAULT_255_2_778
10
5.5594814
20
8.1833356
11
5.5594814
21
8.1913356
0
LINE
8
DEFAULT_255_2_778
10
5.5602814
20
8.1621356
11
5.5597814
21
8.1775356
0
LINE
8
DEFAULT_255_2_778
10
5.5880814
20
8.0246356
11
5.5880814
21
8.0211356
0
LINE
8
DEFAULT_255_2_778
10
5.5880814
20
8.0211356
11
5.5097814
21
7.9912356
0
LINE
8
DEFAULT_255_2_778
10
5.5097814
20
7.9912356
11
5.4914814
21
8.0518356
0
LINE
8
DEFAULT_255_2_778
10
5.4914814
20
8.0518356
11
5.4840814
21
8.0875356
0
LINE
8
DEFAULT_255_2_778
10
5.4840814
20
8.0875356
11
5.4806814
21
8.1111356
0
LINE
8
DEFAULT_255_2_778
10
5.4806814
20
8.1111356
11
5.4779814
21
8.3026356
0
LINE
8
DEFAULT_255_2_778
10
5.4779814
20
8.3026356
11
5.4761814
21
8.3423356
0
LINE
8
DEFAULT_255_2_778
10
5.4761814
20
8.3423356
11
5.4732814
21
8.3701356
0
LINE
8
DEFAULT_255_2_778
10
5.4732814
20
8.3701356
11
5.4676814
21
8.4019356
0
LINE
8
DEFAULT_255_2_778
10
5.4676814
20
8.4019356
11
5.4552814
21
8.4460356
0
LINE
8
DEFAULT_255_2_778
10
5.4552814
20
8.4460356
11
5.4338814
21
8.4905356
0
LINE
8
DEFAULT_255_2_778
10
5.4338814
20
8.4905356
11
5.3869814
21
8.5431356
0
LINE
8
DEFAULT_255_2_778
10
5.3869814
20
8.5431356
11
5.2962814
21
8.5836356
0
LINE
8
DEFAULT_255_2_778
10
5.2962814
20
8.5836356
11
5.0319814
21
8.5900356
0
LINE
8
DEFAULT_255_2_778
10
5.0319814
20
8.5900356
11
5.0319814
21
7.9997356
0
LINE
8
DEFAULT_255_2_778
10
5.0319814
20
7.9997356
11
4.9469814
21
7.9997356
0
LINE
8
DEFAULT_255_2_778
10
4.9469814
20
7.9997356
11
4.9469814
21
9.2022356
0
LINE
8
DEFAULT_255_2_778
10
4.9469814
20
9.2022356
11
5.3211814
21
9.1916356
0
LINE
8
DEFAULT_255_2_778
10
5.3211814
20
9.1916356
11
5.4401814
21
9.1369356
0
LINE
8
DEFAULT_255_2_778
10
5.4401814
20
9.1369356
11
5.5007814
21
9.0773356
0
LINE
8
DEFAULT_255_2_778
10
5.5007814
20
9.0773356
11
5.5377814
21
9.0136356
0
LINE
8
DEFAULT_255_2_778
10
5.5377814
20
9.0136356
11
5.5531814
21
8.9683356
0
LINE
8
DEFAULT_255_2_778
10
5.5531814
20
8.9683356
11
5.5597814
21
8.9342356
0
LINE
8
DEFAULT_255_2_778
10
5.5597814
20
8.9342356
11
5.5621814
21
8.9088356
0
LINE
8
DEFAULT_255_2_778
10
5.5621814
20
8.9088356
11
5.5626814
21
8.8935356
0
LINE
8
DEFAULT_255_2_778
10
4.3992814
20
8.1198356
11
4.1571814
21
9.0943356
0
LINE
8
DEFAULT_255_2_778
10
4.1571814
20
9.0943356
11
4.1296814
21
9.2025356
0
LINE
8
DEFAULT_255_2_778
10
4.6805814
20
9.2091356
11
4.7620814
21
9.1874356
0
LINE
8
DEFAULT_255_2_778
10
4.7620814
20
9.1874356
11
4.7620814
21
9.1840356
0
LINE
8
DEFAULT_255_2_778
10
4.7620814
20
9.1840356
11
4.4556814
21
8.0000356
0
LINE
8
DEFAULT_255_2_778
10
4.4556814
20
8.0000356
11
4.3408814
21
8.0000356
0
LINE
8
DEFAULT_255_2_778
10
4.3408814
20
8.0000356
11
4.2320814
21
8.4326356
0
LINE
8
DEFAULT_255_2_778
10
4.2320814
20
8.4326356
11
4.0727814
21
9.0826356
0
LINE
8
DEFAULT_255_2_778
10
4.0727814
20
9.0826356
11
3.8015814
21
8.0000356
0
LINE
8
DEFAULT_255_2_778
10
3.8015814
20
8.0000356
11
3.6883814
21
8.0000356
0
LINE
8
DEFAULT_255_2_778
10
3.6883814
20
8.0000356
11
3.3904814
21
9.1840356
0
LINE
8
DEFAULT_255_2_778
10
4.5395814
20
8.6609356
11
4.3990814
21
8.1161356
0
LINE
8
DEFAULT_255_2_778
10
4.3990814
20
8.1161356
11
4.3990814
21
8.1196356
0
LINE
8
DEFAULT_255_2_778
10
4.3990814
20
8.1196356
11
4.6802814
21
9.2088356
0
LINE
8
DEFAULT_255_2_778
10
4.6802814
20
9.2088356
11
4.6802814
21
9.2054356
0
LINE
8
DEFAULT_255_2_778
10
4.6802814
20
9.2054356
11
4.5395814
21
8.6609356
0
LINE
8
DEFAULT_255_2_778
10
4.0145814
20
9.1988356
11
4.0145814
21
9.2022356
0
LINE
8
DEFAULT_255_2_778
10
4.0145814
20
9.2022356
11
3.7449814
21
8.1230356
0
LINE
8
DEFAULT_255_2_778
10
3.7449814
20
8.1230356
11
3.7449814
21
8.1196356
0
LINE
8
DEFAULT_255_2_778
10
3.7449814
20
8.1196356
11
4.0145814
21
9.1988356
0
LINE
8
DEFAULT_255_2_778
10
4.0145814
20
9.1988356
11
4.1294814
21
9.1988356
0
LINE
8
DEFAULT_255_2_778
10
4.1294814
20
9.1988356
11
4.1294814
21
9.2022356
0
LINE
8
DEFAULT_255_2_778
10
4.1294814
20
9.2022356
11
4.0145814
21
9.2022356
0
LINE
8
DEFAULT_255_2_778
10
3.7449814
20
8.1230356
11
3.4719814
21
9.2073356
0
LINE
8
DEFAULT_255_2_778
10
3.4719814
20
9.2073356
11
3.3904814
21
9.1874356
0
LINE
8
DEFAULT_255_2_778
10
3.3904814
20
9.1874356
11
3.3904814
21
9.1840356
0
LINE
8
DEFAULT_255_2_778
10
3.3904814
20
9.1840356
11
3.4719814
21
9.2038356
0
LINE
8
DEFAULT_255_2_778
10
3.4719814
20
9.2038356
11
3.4719814
21
9.2073356
0
LINE
8
DEFAULT_255_2_778
10
3.2676814
20
8.9342356
11
3.2658814
21
8.8321356
0
LINE
8
DEFAULT_255_2_778
10
3.2658814
20
8.8321356
11
3.2549814
21
8.7908356
0
LINE
8
DEFAULT_255_2_778
10
3.2549814
20
8.7908356
11
3.2322814
21
8.7408356
0
LINE
8
DEFAULT_255_2_778
10
3.2322814
20
8.7408356
11
3.1806814
21
8.6768356
0
LINE
8
DEFAULT_255_2_778
10
3.1806814
20
8.6768356
11
3.0930814
21
8.6191356
0
LINE
8
DEFAULT_255_2_778
10
3.0930814
20
8.6191356
11
2.9723814
21
8.5900356
0
LINE
8
DEFAULT_255_2_778
10
2.9723814
20
8.5900356
11
2.7395814
21
8.5884356
0
LINE
8
DEFAULT_255_2_778
10
2.7395814
20
8.5884356
11
2.7395814
21
7.9997356
0
LINE
8
DEFAULT_255_2_778
10
2.7395814
20
7.9997356
11
2.6546814
21
7.9997356
0
LINE
8
DEFAULT_255_2_778
10
2.6546814
20
7.9997356
11
2.6546814
21
9.2022356
0
LINE
8
DEFAULT_255_2_778
10
2.6546814
20
9.2022356
11
3.0276814
21
9.1914356
0
LINE
8
DEFAULT_255_2_778
10
3.0276814
20
9.1914356
11
3.1425814
21
9.1390356
0
LINE
8
DEFAULT_255_2_778
10
3.1425814
20
9.1390356
11
3.2123814
21
9.0705356
0
LINE
8
DEFAULT_255_2_778
10
3.2123814
20
9.0705356
11
3.2496814
21
9.0011356
0
LINE
8
DEFAULT_255_2_778
10
3.2496814
20
9.0011356
11
3.2623814
21
8.9593356
0
LINE
8
DEFAULT_255_2_778
10
3.2623814
20
8.9593356
11
3.2676814
21
8.9342356
0
LINE
8
DEFAULT_255_2_778
10
3.1845814
20
8.9101356
11
3.1814814
21
8.9310356
0
LINE
8
DEFAULT_255_2_778
10
3.1814814
20
8.9310356
11
3.1700814
21
8.9691356
0
LINE
8
DEFAULT_255_2_778
10
3.1700814
20
8.9691356
11
3.1382814
21
9.0239356
0
LINE
8
DEFAULT_255_2_778
10
3.1382814
20
9.0239356
11
3.0647814
21
9.0840356
0
LINE
8
DEFAULT_255_2_778
10
3.0647814
20
9.0840356
11
2.9517814
21
9.1139356
0
LINE
8
DEFAULT_255_2_778
10
2.9517814
20
9.1139356
11
2.7400814
21
9.1144356
0
LINE
8
DEFAULT_255_2_778
10
2.7400814
20
9.1144356
11
2.7400814
21
8.6736356
0
LINE
8
DEFAULT_255_2_778
10
2.7400814
20
8.6736356
11
3.0242814
21
8.6850356
0
LINE
8
DEFAULT_255_2_778
10
3.0242814
20
8.6850356
11
3.1224814
21
8.7381356
0
LINE
8
DEFAULT_255_2_778
10
3.1224814
20
8.7381356
11
3.1623814
21
8.7895356
0
LINE
8
DEFAULT_255_2_778
10
3.1623814
20
8.7895356
11
3.1790814
21
8.8321356
0
LINE
8
DEFAULT_255_2_778
10
3.1790814
20
8.8321356
11
3.1853814
21
8.8673356
0
LINE
8
DEFAULT_255_2_778
10
3.1853814
20
8.8673356
11
3.1845814
21
8.9101356
0
LINE
8
DEFAULT_255_2_778
10
7.5930814
20
20.6804356
11
7.5909814
21
20.7288356
0
LINE
8
DEFAULT_255_2_778
10
7.5909814
20
20.7288356
11
7.5872814
21
20.7605356
0
LINE
8
DEFAULT_255_2_778
10
7.5872814
20
20.7605356
11
7.5795814
21
20.7992356
0
LINE
8
DEFAULT_255_2_778
10
7.5795814
20
20.7992356
11
7.5639814
21
20.8481356
0
LINE
8
DEFAULT_255_2_778
10
7.5639814
20
20.8481356
11
7.5351814
21
20.9029356
0
LINE
8
DEFAULT_255_2_778
10
7.5351814
20
20.9029356
11
7.4769814
21
20.9637356
0
LINE
8
DEFAULT_255_2_778
10
7.4769814
20
20.9637356
11
7.3668814
21
21.0106356
0
LINE
8
DEFAULT_255_2_778
10
7.3668814
20
21.0106356
11
7.1993814
21
21.0074356
0
LINE
8
DEFAULT_255_2_778
10
7.1993814
20
21.0074356
11
7.0861814
21
20.9492356
0
LINE
8
DEFAULT_255_2_778
10
7.0861814
20
20.9492356
11
7.0348814
21
20.8868356
0
LINE
8
DEFAULT_255_2_778
10
7.0348814
20
20.8868356
11
7.0252814
21
20.8677356
0
LINE
8
DEFAULT_255_2_778
10
7.0252814
20
20.8677356
11
7.0252814
21
20.8643356
0
LINE
8
DEFAULT_255_2_778
10
7.0252814
20
20.8643356
11
7.0567814
21
20.9156356
0
LINE
8
DEFAULT_255_2_778
10
7.0567814
20
20.9156356
11
7.1207814
21
20.9712356
0
LINE
8
DEFAULT_255_2_778
10
7.1207814
20
20.9712356
11
7.2226814
21
21.0087356
0
LINE
8
DEFAULT_255_2_778
10
7.2226814
20
21.0087356
11
7.3750814
21
21.0056356
0
LINE
8
DEFAULT_255_2_778
10
7.3750814
20
21.0056356
11
7.4674814
21
20.9672356
0
LINE
8
DEFAULT_255_2_778
10
7.4674814
20
20.9672356
11
7.5287814
21
20.9085356
0
LINE
8
DEFAULT_255_2_778
10
7.5287814
20
20.9085356
11
7.5589814
21
20.8571356
0
LINE
8
DEFAULT_255_2_778
10
7.5589814
20
20.8571356
11
7.5740814
21
20.8166356
0
LINE
8
DEFAULT_255_2_778
10
7.5740814
20
20.8166356
11
7.5846814
21
20.7719356
0
LINE
8
DEFAULT_255_2_778
10
7.5846814
20
20.7719356
11
7.5899814
21
20.7351356
0
LINE
8
DEFAULT_255_2_778
10
7.5899814
20
20.7351356
11
7.5891814
21
20.6206356
0
LINE
8
DEFAULT_255_2_778
10
7.5891814
20
20.6206356
11
7.5840814
21
20.5957356
0
LINE
8
DEFAULT_255_2_778
10
7.5840814
20
20.5957356
11
7.5721814
21
20.5626356
0
LINE
8
DEFAULT_255_2_778
10
7.5721814
20
20.5626356
11
7.5398814
21
20.5113356
0
LINE
8
DEFAULT_255_2_778
10
7.5398814
20
20.5113356
11
7.4729814
21
20.4552356
0
LINE
8
DEFAULT_255_2_778
10
7.4729814
20
20.4552356
11
7.4229814
21
20.4274356
0
LINE
8
DEFAULT_255_2_778
10
7.4229814
20
20.4274356
11
7.5295814
21
20.3579356
0
LINE
8
DEFAULT_255_2_778
10
7.5295814
20
20.3579356
11
7.5687814
21
20.3089356
0
LINE
8
DEFAULT_255_2_778
10
7.5687814
20
20.3089356
11
7.5893814
21
20.2626356
0
LINE
8
DEFAULT_255_2_778
10
7.5893814
20
20.2626356
11
7.5959814
21
20.2383356
0
LINE
8
DEFAULT_255_2_778
10
7.5959814
20
20.2383356
11
7.6004814
21
20.2118356
0
LINE
8
DEFAULT_255_2_778
10
7.6004814
20
20.2118356
11
7.6028814
21
20.1689356
0
LINE
8
DEFAULT_255_2_778
10
7.0252814
20
19.9485356
11
7.0686814
21
19.8771356
0
LINE
8
DEFAULT_255_2_778
10
7.0686814
20
19.8771356
11
7.1372814
21
19.8255356
0
LINE
8
DEFAULT_255_2_778
10
7.1372814
20
19.8255356
11
7.2435814
21
19.7983356
0
LINE
8
DEFAULT_255_2_778
10
7.2435814
20
19.7983356
11
7.3869814
21
19.8112356
0
LINE
8
DEFAULT_255_2_778
10
7.3869814
20
19.8112356
11
7.4803814
21
19.8575356
0
LINE
8
DEFAULT_255_2_778
10
7.4803814
20
19.8575356
11
7.5330814
21
19.9115356
0
LINE
8
DEFAULT_255_2_778
10
7.5330814
20
19.9115356
11
7.5621814
21
19.9604356
0
LINE
8
DEFAULT_255_2_778
10
7.5621814
20
19.9604356
11
7.5822814
21
20.0134356
0
LINE
8
DEFAULT_255_2_778
10
7.5822814
20
20.0134356
11
7.5914814
21
20.0501356
0
LINE
8
DEFAULT_255_2_778
10
7.5914814
20
20.0501356
11
7.5978814
21
20.0872356
0
LINE
8
DEFAULT_255_2_778
10
7.5978814
20
20.0872356
11
7.5962814
21
20.2417356
0
LINE
8
DEFAULT_255_2_778
10
7.5962814
20
20.2417356
11
7.5761814
21
20.2991356
0
LINE
8
DEFAULT_255_2_778
10
7.5761814
20
20.2991356
11
7.5139814
21
20.3748356
0
LINE
8
DEFAULT_255_2_778
10
7.5139814
20
20.3748356
11
7.4263814
21
20.4290356
0
LINE
8
DEFAULT_255_2_778
10
7.1020814
20
19.9832356
11
7.0255814
21
19.9483356
0
LINE
8
DEFAULT_255_2_778
10
7.0255814
20
19.9483356
11
7.0255814
21
19.9517356
0
LINE
8
DEFAULT_255_2_778
10
7.0255814
20
19.9517356
11
7.1020814
21
19.9866356
0
LINE
8
DEFAULT_255_2_778
10
7.1020814
20
19.9866356
11
7.1020814
21
19.9829356
0
LINE
8
DEFAULT_255_2_778
10
7.1020814
20
19.9829356
11
7.1398814
21
19.9258356
0
LINE
8
DEFAULT_255_2_778
10
7.1398814
20
19.9258356
11
7.2155814
21
19.8872356
0
LINE
8
DEFAULT_255_2_778
10
7.2155814
20
19.8872356
11
7.3692814
21
19.8943356
0
LINE
8
DEFAULT_255_2_778
10
7.3692814
20
19.8943356
11
7.4523814
21
19.9467356
0
LINE
8
DEFAULT_255_2_778
10
7.4523814
20
19.9467356
11
7.4832814
21
19.9938356
0
LINE
8
DEFAULT_255_2_778
10
7.4832814
20
19.9938356
11
7.4988814
21
20.0343356
0
LINE
8
DEFAULT_255_2_778
10
7.4988814
20
20.0343356
11
7.5099814
21
20.0830356
0
LINE
8
DEFAULT_255_2_778
10
7.5099814
20
20.0830356
11
7.5144814
21
20.1131356
0
LINE
8
DEFAULT_255_2_778
10
7.5144814
20
20.1131356
11
7.5129814
21
20.2197356
0
LINE
8
DEFAULT_255_2_778
10
7.5129814
20
20.2197356
11
7.5012814
21
20.2536356
0
LINE
8
DEFAULT_255_2_778
10
7.5012814
20
20.2536356
11
7.4626814
21
20.3065356
0
LINE
8
DEFAULT_255_2_778
10
7.4626814
20
20.3065356
11
7.3702814
21
20.3608356
0
LINE
8
DEFAULT_255_2_778
10
7.3702814
20
20.3608356
11
7.2845814
21
20.3825356
0
LINE
8
DEFAULT_255_2_778
10
7.2845814
20
20.3825356
11
7.2795814
21
20.4655356
0
LINE
8
DEFAULT_255_2_778
10
7.2795814
20
20.4655356
11
7.4430814
21
20.5333356
0
LINE
8
DEFAULT_255_2_778
10
7.4430814
20
20.5333356
11
7.4930814
21
20.5960356
0
LINE
8
DEFAULT_255_2_778
10
7.4930814
20
20.5960356
11
7.5041814
21
20.6322356
0
LINE
8
DEFAULT_255_2_778
10
7.5041814
20
20.6322356
11
7.5017814
21
20.7566356
0
LINE
8
DEFAULT_255_2_778
10
7.5017814
20
20.7566356
11
7.4909814
21
20.7979356
0
LINE
8
DEFAULT_255_2_778
10
7.4909814
20
20.7979356
11
7.4636814
21
20.8518356
0
LINE
8
DEFAULT_255_2_778
10
7.4636814
20
20.8518356
11
7.4073814
21
20.9050356
0
LINE
8
DEFAULT_255_2_778
10
7.4073814
20
20.9050356
11
7.2956814
21
20.9312356
0
LINE
8
DEFAULT_255_2_778
10
7.2956814
20
20.9312356
11
7.1760814
21
20.9063356
0
LINE
8
DEFAULT_255_2_778
10
7.1760814
20
20.9063356
11
7.1165814
21
20.8524356
0
LINE
8
DEFAULT_255_2_778
10
7.1165814
20
20.8524356
11
7.1014814
21
20.8264356
0
LINE
8
DEFAULT_255_2_778
10
7.1014814
20
20.8264356
11
7.0250814
21
20.8645356
0
LINE
8
DEFAULT_255_2_778
10
7.9833814
20
18.6817356
11
7.9812814
21
18.7301356
0
LINE
8
DEFAULT_255_2_778
10
7.9812814
20
18.7301356
11
7.9775814
21
18.7619356
0
LINE
8
DEFAULT_255_2_778
10
7.9775814
20
18.7619356
11
7.9698814
21
18.8005356
0
LINE
8
DEFAULT_255_2_778
10
7.9698814
20
18.8005356
11
7.9542814
21
18.8495356
0
LINE
8
DEFAULT_255_2_778
10
7.9542814
20
18.8495356
11
7.9253814
21
18.9042356
0
LINE
8
DEFAULT_255_2_778
10
7.9253814
20
18.9042356
11
7.8671814
21
18.9651356
0
LINE
8
DEFAULT_255_2_778
10
7.8671814
20
18.9651356
11
7.7573814
21
19.0119356
0
LINE
8
DEFAULT_255_2_778
10
7.7573814
20
19.0119356
11
7.5899814
21
19.0087356
0
LINE
8
DEFAULT_255_2_778
10
7.5899814
20
19.0087356
11
7.4766814
21
18.9505356
0
LINE
8
DEFAULT_255_2_778
10
7.4766814
20
18.9505356
11
7.4253814
21
18.8881356
0
LINE
8
DEFAULT_255_2_778
10
7.4253814
20
18.8881356
11
7.4158814
21
18.8690356
0
LINE
8
DEFAULT_255_2_778
10
7.4158814
20
18.8690356
11
7.4158814
21
18.8656356
0
LINE
8
DEFAULT_255_2_778
10
7.4158814
20
18.8656356
11
7.4472814
21
18.9169356
0
LINE
8
DEFAULT_255_2_778
10
7.4472814
20
18.9169356
11
7.5113814
21
18.9725356
0
LINE
8
DEFAULT_255_2_778
10
7.5113814
20
18.9725356
11
7.6131814
21
19.0101356
0
LINE
8
DEFAULT_255_2_778
10
7.6131814
20
19.0101356
11
7.7655814
21
19.0069356
0
LINE
8
DEFAULT_255_2_778
10
7.7655814
20
19.0069356
11
7.8579814
21
18.9685356
0
LINE
8
DEFAULT_255_2_778
10
7.8579814
20
18.9685356
11
7.9193814
21
18.9098356
0
LINE
8
DEFAULT_255_2_778
10
7.9193814
20
18.9098356
11
7.9492814
21
18.8585356
0
LINE
8
DEFAULT_255_2_778
10
7.9492814
20
18.8585356
11
7.9642814
21
18.8180356
0
LINE
8
DEFAULT_255_2_778
10
7.9642814
20
18.8180356
11
7.9748814
21
18.7733356
0
LINE
8
DEFAULT_255_2_778
10
7.9748814
20
18.7733356
11
7.9801814
21
18.7365356
0
LINE
8
DEFAULT_255_2_778
10
7.9801814
20
18.7365356
11
7.9793814
21
18.6219356
0
LINE
8
DEFAULT_255_2_778
10
7.9793814
20
18.6219356
11
7.9743814
21
18.5971356
0
LINE
8
DEFAULT_255_2_778
10
7.9743814
20
18.5971356
11
7.9624814
21
18.5640356
0
LINE
8
DEFAULT_255_2_778
10
7.9624814
20
18.5640356
11
7.9301814
21
18.5126356
0
LINE
8
DEFAULT_255_2_778
10
7.9301814
20
18.5126356
11
7.8632814
21
18.4566356
0
LINE
8
DEFAULT_255_2_778
10
7.8632814
20
18.4566356
11
7.8132814
21
18.4288356
0
LINE
8
DEFAULT_255_2_778
10
7.8132814
20
18.4288356
11
7.9280814
21
18.3510356
0
LINE
8
DEFAULT_255_2_778
10
7.9280814
20
18.3510356
11
7.9674814
21
18.2944356
0
LINE
8
DEFAULT_255_2_778
10
7.9674814
20
18.2944356
11
7.9830814
21
18.2523356
0
LINE
8
DEFAULT_255_2_778
10
7.9830814
20
18.2523356
11
7.9894814
21
18.2219356
0
LINE
8
DEFAULT_255_2_778
10
7.9894814
20
18.2219356
11
7.9915814
21
18.2031356
0
LINE
8
DEFAULT_255_2_778
10
7.9915814
20
18.2031356
11
7.9928814
21
18.1716356
0
LINE
8
DEFAULT_255_2_778
10
7.4152814
20
17.9496356
11
7.4586814
21
17.8779356
0
LINE
8
DEFAULT_255_2_778
10
7.4586814
20
17.8779356
11
7.5279814
21
17.8261356
0
LINE
8
DEFAULT_255_2_778
10
7.5279814
20
17.8261356
11
7.6351814
21
17.7991356
0
LINE
8
DEFAULT_255_2_778
10
7.6351814
20
17.7991356
11
7.7788814
21
17.8128356
0
LINE
8
DEFAULT_255_2_778
10
7.7788814
20
17.8128356
11
7.8761814
21
17.8631356
0
LINE
8
DEFAULT_255_2_778
10
7.8761814
20
17.8631356
11
7.9243814
21
17.9142356
0
LINE
8
DEFAULT_255_2_778
10
7.9243814
20
17.9142356
11
7.9608814
21
17.9806356
0
LINE
8
DEFAULT_255_2_778
10
7.9608814
20
17.9806356
11
7.9759814
21
18.0261356
0
LINE
8
DEFAULT_255_2_778
10
7.9759814
20
18.0261356
11
7.9854814
21
18.0708356
0
LINE
8
DEFAULT_255_2_778
10
7.9854814
20
18.0708356
11
7.9904814
21
18.1089356
0
LINE
8
DEFAULT_255_2_778
10
7.9904814
20
18.1089356
11
7.9883814
21
18.2335356
0
LINE
8
DEFAULT_255_2_778
10
7.9883814
20
18.2335356
11
7.9732814
21
18.2851356
0
LINE
8
DEFAULT_255_2_778
10
7.9732814
20
18.2851356
11
7.9222814
21
18.3602356
0
LINE
8
DEFAULT_255_2_778
10
7.9222814
20
18.3602356
11
7.8166814
21
18.4301356
0
LINE
8
DEFAULT_255_2_778
10
7.4922814
20
17.9843356
11
7.4158814
21
17.9494356
0
LINE
8
DEFAULT_255_2_778
10
7.4158814
20
17.9494356
11
7.4158814
21
17.9528356
0
LINE
8
DEFAULT_255_2_778
10
7.4158814
20
17.9528356
11
7.4922814
21
17.9877356
0
LINE
8
DEFAULT_255_2_778
10
7.4922814
20
17.9877356
11
7.4922814
21
17.9840356
0
LINE
8
DEFAULT_255_2_778
10
7.4922814
20
17.9840356
11
7.5301814
21
17.9269356
0
LINE
8
DEFAULT_255_2_778
10
7.5301814
20
17.9269356
11
7.6060814
21
17.8882356
0
LINE
8
DEFAULT_255_2_778
10
7.6060814
20
17.8882356
11
7.7597814
21
17.8954356
0
LINE
8
DEFAULT_255_2_778
10
7.7597814
20
17.8954356
11
7.8428814
21
17.9478356
0
LINE
8
DEFAULT_255_2_778
10
7.8428814
20
17.9478356
11
7.8740814
21
17.9949356
0
LINE
8
DEFAULT_255_2_778
10
7.8740814
20
17.9949356
11
7.8896814
21
18.0353356
0
LINE
8
DEFAULT_255_2_778
10
7.8896814
20
18.0353356
11
7.9010814
21
18.0840356
0
LINE
8
DEFAULT_255_2_778
10
7.9010814
20
18.0840356
11
7.9052814
21
18.1142356
0
LINE
8
DEFAULT_255_2_778
10
7.9052814
20
18.1142356
11
7.9036814
21
18.2208356
0
LINE
8
DEFAULT_255_2_778
10
7.9036814
20
18.2208356
11
7.8920814
21
18.2547356
0
LINE
8
DEFAULT_255_2_778
10
7.8920814
20
18.2547356
11
7.8534814
21
18.3076356
0
LINE
8
DEFAULT_255_2_778
10
7.8534814
20
18.3076356
11
7.7610814
21
18.3618356
0
LINE
8
DEFAULT_255_2_778
10
7.7610814
20
18.3618356
11
7.6753814
21
18.3835356
0
LINE
8
DEFAULT_255_2_778
10
7.6753814
20
18.3835356
11
7.6703814
21
18.4666356
0
LINE
8
DEFAULT_255_2_778
10
7.6703814
20
18.4666356
11
7.8338814
21
18.5343356
0
LINE
8
DEFAULT_255_2_778
10
7.8338814
20
18.5343356
11
7.8838814
21
18.5971356
0
LINE
8
DEFAULT_255_2_778
10
7.8838814
20
18.5971356
11
7.8949814
21
18.6333356
0
LINE
8
DEFAULT_255_2_778
10
7.8949814
20
18.6333356
11
7.8925814
21
18.7577356
0
LINE
8
DEFAULT_255_2_778
10
7.8925814
20
18.7577356
11
7.8817814
21
18.7989356
0
LINE
8
DEFAULT_255_2_778
10
7.8817814
20
18.7989356
11
7.8544814
21
18.8529356
0
LINE
8
DEFAULT_255_2_778
10
7.8544814
20
18.8529356
11
7.7981814
21
18.9061356
0
LINE
8
DEFAULT_255_2_778
10
7.7981814
20
18.9061356
11
7.6864814
21
18.9323356
0
LINE
8
DEFAULT_255_2_778
10
7.6864814
20
18.9323356
11
7.5668814
21
18.9074356
0
LINE
8
DEFAULT_255_2_778
10
7.5668814
20
18.9074356
11
7.5073814
21
18.8534356
0
LINE
8
DEFAULT_255_2_778
10
7.5073814
20
18.8534356
11
7.4922814
21
18.8275356
0
LINE
8
DEFAULT_255_2_778
10
7.4922814
20
18.8275356
11
7.4158814
21
18.8659356
0
LINE
8
DEFAULT_255_2_778
10
7.5690814
20
16.2087356
11
7.5690814
21
16.2163356
0
LINE
8
DEFAULT_255_2_778
10
7.5690814
20
16.2163356
11
7.5668814
21
16.2682356
0
LINE
8
DEFAULT_255_2_778
10
7.5668814
20
16.2682356
11
7.5645814
21
16.2960356
0
LINE
8
DEFAULT_255_2_778
10
7.5645814
20
16.2960356
11
7.5615814
21
16.3200356
0
LINE
8
DEFAULT_255_2_778
10
7.5615814
20
16.3200356
11
7.5523814
21
16.3716356
0
LINE
8
DEFAULT_255_2_778
10
7.5523814
20
16.3716356
11
7.5383814
21
16.4222356
0
LINE
8
DEFAULT_255_2_778
10
7.5383814
20
16.4222356
11
7.5184814
21
16.4706356
0
LINE
8
DEFAULT_255_2_778
10
7.5184814
20
16.4706356
11
7.4912814
21
16.5156356
0
LINE
8
DEFAULT_255_2_778
10
7.4912814
20
16.5156356
11
7.4435814
21
16.5637356
0
LINE
8
DEFAULT_255_2_778
10
7.4435814
20
16.5637356
11
7.3628814
21
16.5981356
0
LINE
8
DEFAULT_255_2_778
10
7.3628814
20
16.5981356
11
7.2311814
21
16.5926356
0
LINE
8
DEFAULT_255_2_778
10
7.2311814
20
16.5926356
11
7.1364814
21
16.5481356
0
LINE
8
DEFAULT_255_2_778
10
7.1364814
20
16.5481356
11
7.0816814
21
16.4918356
0
LINE
8
DEFAULT_255_2_778
10
7.0816814
20
16.4918356
11
7.0816814
21
16.9310356
0
LINE
8
DEFAULT_255_2_778
10
7.0816814
20
16.9310356
11
7.5525814
21
16.9310356
0
LINE
8
DEFAULT_255_2_778
10
7.5525814
20
16.9310356
11
7.5525814
21
17.0170356
0
LINE
8
DEFAULT_255_2_778
10
7.5525814
20
17.0170356
11
6.9982814
21
17.0170356
0
LINE
8
DEFAULT_255_2_778
10
6.9982814
20
17.0170356
11
6.9982814
21
16.3597356
0
LINE
8
DEFAULT_255_2_778
10
6.9982814
20
16.3597356
11
7.1247814
21
16.3597356
0
LINE
8
DEFAULT_255_2_778
10
7.1247814
20
16.3597356
11
7.1313814
21
16.3960356
0
LINE
8
DEFAULT_255_2_778
10
7.1313814
20
16.3960356
11
7.1364814
21
16.4156356
0
LINE
8
DEFAULT_255_2_778
10
7.1364814
20
16.4156356
11
7.1623814
21
16.4587356
0
LINE
8
DEFAULT_255_2_778
10
7.1623814
20
16.4587356
11
7.2271814
21
16.5034356
0
LINE
8
DEFAULT_255_2_778
10
7.2271814
20
16.5034356
11
7.3470814
21
16.5153356
0
LINE
8
DEFAULT_255_2_778
10
7.3470814
20
16.5153356
11
7.4036814
21
16.4854356
0
LINE
8
DEFAULT_255_2_778
10
7.4036814
20
16.4854356
11
7.4462814
21
16.4235356
0
LINE
8
DEFAULT_255_2_778
10
7.4462814
20
16.4235356
11
7.4660814
21
16.3687356
0
LINE
8
DEFAULT_255_2_778
10
7.4660814
20
16.3687356
11
7.4769814
21
16.3195356
0
LINE
8
DEFAULT_255_2_778
10
7.4769814
20
16.3195356
11
7.4790814
21
16.1198356
0
LINE
8
DEFAULT_255_2_778
10
7.4790814
20
16.1198356
11
7.4703814
21
16.0803356
0
LINE
8
DEFAULT_255_2_778
10
7.4703814
20
16.0803356
11
7.4576814
21
16.0422356
0
LINE
8
DEFAULT_255_2_778
10
7.4576814
20
16.0422356
11
7.4316814
21
15.9909356
0
LINE
8
DEFAULT_255_2_778
10
7.4316814
20
15.9909356
11
7.3901814
21
15.9430356
0
LINE
8
DEFAULT_255_2_778
10
7.3901814
20
15.9430356
11
7.3194814
21
15.9052356
0
LINE
8
DEFAULT_255_2_778
10
7.3194814
20
15.9052356
11
7.1797814
21
15.9107356
0
LINE
8
DEFAULT_255_2_778
10
7.1797814
20
15.9107356
11
7.1118814
21
15.9533356
0
LINE
8
DEFAULT_255_2_778
10
7.1118814
20
15.9533356
11
7.0781814
21
16.0033356
0
LINE
8
DEFAULT_255_2_778
10
7.0781814
20
16.0033356
11
7.0781814
21
16.0068356
0
LINE
8
DEFAULT_255_2_778
10
7.0781814
20
16.0068356
11
7.0017814
21
15.9721356
0
LINE
8
DEFAULT_255_2_778
10
7.0017814
20
15.9721356
11
7.0017814
21
15.9687356
0
LINE
8
DEFAULT_255_2_778
10
7.0017814
20
15.9687356
11
7.0781814
21
16.0033356
0
LINE
8
DEFAULT_255_2_778
10
7.0017814
20
15.9687356
11
7.0358814
21
15.9110356
0
LINE
8
DEFAULT_255_2_778
10
7.0358814
20
15.9110356
11
7.0930814
21
15.8591356
0
LINE
8
DEFAULT_255_2_778
10
7.0930814
20
15.8591356
11
7.2044814
21
15.8189356
0
LINE
8
DEFAULT_255_2_778
10
7.2044814
20
15.8189356
11
7.3464814
21
15.8250356
0
LINE
8
DEFAULT_255_2_778
10
7.3464814
20
15.8250356
11
7.4316814
21
15.8660356
0
LINE
8
DEFAULT_255_2_778
10
7.4316814
20
15.8660356
11
7.4864814
21
15.9200356
0
LINE
8
DEFAULT_255_2_778
10
7.4864814
20
15.9200356
11
7.5226814
21
15.9790356
0
LINE
8
DEFAULT_255_2_778
10
7.5226814
20
15.9790356
11
7.5433814
21
16.0290356
0
LINE
8
DEFAULT_255_2_778
10
7.5433814
20
16.0290356
11
7.5573814
21
16.0798356
0
LINE
8
DEFAULT_255_2_778
10
7.5573814
20
16.0798356
11
7.5634814
21
16.1129356
0
LINE
8
DEFAULT_255_2_778
10
7.5634814
20
16.1129356
11
7.5621814
21
16.3214356
0
LINE
8
DEFAULT_255_2_778
10
7.5621814
20
16.3214356
11
7.5565814
21
16.3566356
0
LINE
8
DEFAULT_255_2_778
10
7.5565814
20
16.3566356
11
7.5438814
21
16.4097356
0
LINE
8
DEFAULT_255_2_778
10
7.5438814
20
16.4097356
11
7.5189814
21
16.4738356
0
LINE
8
DEFAULT_255_2_778
10
7.5189814
20
16.4738356
11
7.4721814
21
16.5423356
0
LINE
8
DEFAULT_255_2_778
10
7.4721814
20
16.5423356
11
7.3885814
21
16.5955356
0
LINE
8
DEFAULT_255_2_778
10
7.3885814
20
16.5955356
11
7.2440814
21
16.5992356
0
LINE
8
DEFAULT_255_2_778
10
7.2440814
20
16.5992356
11
7.1369814
21
16.5521356
0
LINE
8
DEFAULT_255_2_778
10
7.1369814
20
16.5521356
11
7.0819814
21
16.4955356
0
LINE
8
DEFAULT_255_2_778
10
7.9669814
20
14.2743356
11
7.9669814
21
14.2822356
0
LINE
8
DEFAULT_255_2_778
10
7.9669814
20
14.2822356
11
7.9648814
21
14.3341356
0
LINE
8
DEFAULT_255_2_778
10
7.9648814
20
14.3341356
11
7.9624814
21
14.3619356
0
LINE
8
DEFAULT_255_2_778
10
7.9624814
20
14.3619356
11
7.9595814
21
14.3859356
0
LINE
8
DEFAULT_255_2_778
10
7.9595814
20
14.3859356
11
7.9502814
21
14.4375356
0
LINE
8
DEFAULT_255_2_778
10
7.9502814
20
14.4375356
11
7.9362814
21
14.4881356
0
LINE
8
DEFAULT_255_2_778
10
7.9362814
20
14.4881356
11
7.9163814
21
14.5365356
0
LINE
8
DEFAULT_255_2_778
10
7.9163814
20
14.5365356
11
7.8891814
21
14.5815356
0
LINE
8
DEFAULT_255_2_778
10
7.8891814
20
14.5815356
11
7.8415814
21
14.6296356
0
LINE
8
DEFAULT_255_2_778
10
7.8415814
20
14.6296356
11
7.7608814
21
14.6640356
0
LINE
8
DEFAULT_255_2_778
10
7.7608814
20
14.6640356
11
7.6290814
21
14.6585356
0
LINE
8
DEFAULT_255_2_778
10
7.6290814
20
14.6585356
11
7.5343814
21
14.6140356
0
LINE
8
DEFAULT_255_2_778
10
7.5343814
20
14.6140356
11
7.4795814
21
14.5577356
0
LINE
8
DEFAULT_255_2_778
10
7.4795814
20
14.5577356
11
7.4795814
21
14.9969356
0
LINE
8
DEFAULT_255_2_778
10
7.4795814
20
14.9969356
11
7.9505814
21
14.9969356
0
LINE
8
DEFAULT_255_2_778
10
7.9505814
20
14.9969356
11
7.9505814
21
15.0829356
0
LINE
8
DEFAULT_255_2_778
10
7.9505814
20
15.0829356
11
7.3962814
21
15.0829356
0
LINE
8
DEFAULT_255_2_778
10
7.3962814
20
15.0829356
11
7.3962814
21
14.4256356
0
LINE
8
DEFAULT_255_2_778
10
7.3962814
20
14.4256356
11
7.5226814
21
14.4256356
0
LINE
8
DEFAULT_255_2_778
10
7.5226814
20
14.4256356
11
7.5293814
21
14.4619356
0
LINE
8
DEFAULT_255_2_778
10
7.5293814
20
14.4619356
11
7.5343814
21
14.4815356
0
LINE
8
DEFAULT_255_2_778
10
7.5343814
20
14.4815356
11
7.5602814
21
14.5246356
0
LINE
8
DEFAULT_255_2_778
10
7.5602814
20
14.5246356
11
7.6250814
21
14.5693356
0
LINE
8
DEFAULT_255_2_778
10
7.6250814
20
14.5693356
11
7.7449814
21
14.5812356
0
LINE
8
DEFAULT_255_2_778
10
7.7449814
20
14.5812356
11
7.8015814
21
14.5513356
0
LINE
8
DEFAULT_255_2_778
10
7.8015814
20
14.5513356
11
7.8439814
21
14.4894356
0
LINE
8
DEFAULT_255_2_778
10
7.8439814
20
14.4894356
11
7.8637814
21
14.4346356
0
LINE
8
DEFAULT_255_2_778
10
7.8637814
20
14.4346356
11
7.8745814
21
14.3854356
0
LINE
8
DEFAULT_255_2_778
10
7.8745814
20
14.3854356
11
7.8767814
21
14.1857356
0
LINE
8
DEFAULT_255_2_778
10
7.8767814
20
14.1857356
11
7.8679814
21
14.1462356
0
LINE
8
DEFAULT_255_2_778
10
7.8679814
20
14.1462356
11
7.8552814
21
14.1081356
0
LINE
8
DEFAULT_255_2_778
10
7.8552814
20
14.1081356
11
7.8293814
21
14.0568356
0
LINE
8
DEFAULT_255_2_778
10
7.8293814
20
14.0568356
11
7.7878814
21
14.0089356
0
LINE
8
DEFAULT_255_2_778
10
7.7878814
20
14.0089356
11
7.7171814
21
13.9711356
0
LINE
8
DEFAULT_255_2_778
10
7.7171814
20
13.9711356
11
7.5774814
21
13.9766356
0
LINE
8
DEFAULT_255_2_778
10
7.5774814
20
13.9766356
11
7.5094814
21
14.0192356
0
LINE
8
DEFAULT_255_2_778
10
7.5094814
20
14.0192356
11
7.4758814
21
14.0692356
0
LINE
8
DEFAULT_255_2_778
10
7.4758814
20
14.0692356
11
7.4758814
21
14.0727356
0
LINE
8
DEFAULT_255_2_778
10
7.4758814
20
14.0727356
11
7.3994814
21
14.0380356
0
LINE
8
DEFAULT_255_2_778
10
7.3994814
20
14.0380356
11
7.3994814
21
14.0346356
0
LINE
8
DEFAULT_255_2_778
10
7.3994814
20
14.0346356
11
7.4758814
21
14.0692356
0
LINE
8
DEFAULT_255_2_778
10
7.3994814
20
14.0346356
11
7.4335814
21
13.9769356
0
LINE
8
DEFAULT_255_2_778
10
7.4335814
20
13.9769356
11
7.4906814
21
13.9250356
0
LINE
8
DEFAULT_255_2_778
10
7.4906814
20
13.9250356
11
7.6020814
21
13.8848356
0
LINE
8
DEFAULT_255_2_778
10
7.6020814
20
13.8848356
11
7.7441814
21
13.8909356
0
LINE
8
DEFAULT_255_2_778
10
7.7441814
20
13.8909356
11
7.8293814
21
13.9319356
0
LINE
8
DEFAULT_255_2_778
10
7.8293814
20
13.9319356
11
7.8841814
21
13.9859356
0
LINE
8
DEFAULT_255_2_778
10
7.8841814
20
13.9859356
11
7.9203814
21
14.0449356
0
LINE
8
DEFAULT_255_2_778
10
7.9203814
20
14.0449356
11
7.9410814
21
14.0949356
0
LINE
8
DEFAULT_255_2_778
10
7.9410814
20
14.0949356
11
7.9550814
21
14.1457356
0
LINE
8
DEFAULT_255_2_778
10
7.9550814
20
14.1457356
11
7.9611814
21
14.1788356
0
LINE
8
DEFAULT_255_2_778
10
7.9611814
20
14.1788356
11
7.9597814
21
14.3873356
0
LINE
8
DEFAULT_255_2_778
10
7.9597814
20
14.3873356
11
7.9542814
21
14.4225356
0
LINE
8
DEFAULT_255_2_778
10
7.9542814
20
14.4225356
11
7.9415814
21
14.4756356
0
LINE
8
DEFAULT_255_2_778
10
7.9415814
20
14.4756356
11
7.9166814
21
14.5397356
0
LINE
8
DEFAULT_255_2_778
10
7.9166814
20
14.5397356
11
7.8698814
21
14.6082356
0
LINE
8
DEFAULT_255_2_778
10
7.8698814
20
14.6082356
11
7.7862814
21
14.6614356
0
LINE
8
DEFAULT_255_2_778
10
7.7862814
20
14.6614356
11
7.6417814
21
14.6651356
0
LINE
8
DEFAULT_255_2_778
10
7.6417814
20
14.6651356
11
7.5346814
21
14.6180356
0
LINE
8
DEFAULT_255_2_778
10
7.5346814
20
14.6180356
11
7.4795814
21
14.5614356
0
LINE
8
DEFAULT_255_2_778
10
7.4991594
20
13.0622073
11
6.9832594
21
13.0622073
0
LINE
8
DEFAULT_255_2_778
10
6.9832594
20
13.0622073
11
6.9832594
21
13.1498073
0
LINE
8
DEFAULT_255_2_778
10
6.9832594
20
13.1498073
11
7.5825594
21
13.1498073
0
LINE
8
DEFAULT_255_2_778
10
7.5825594
20
13.1498073
11
7.5825594
21
13.0257073
0
LINE
8
DEFAULT_255_2_778
10
7.5825594
20
13.0257073
11
7.2412594
21
11.9494073
0
LINE
8
DEFAULT_255_2_778
10
7.2412594
20
11.9494073
11
7.1613594
21
11.9758073
0
LINE
8
DEFAULT_255_2_778
10
7.5031594
20
13.0527073
11
7.4587594
21
12.9191073
0
LINE
8
DEFAULT_255_2_778
10
7.4587594
20
12.9191073
11
7.1613594
21
11.9795073
0
LINE
8
DEFAULT_255_2_778
10
7.1613594
20
11.9795073
11
7.1613594
21
11.9761073
0
LINE
8
DEFAULT_255_2_778
10
7.1613594
20
11.9761073
11
7.5031594
21
13.0493073
0
LINE
8
DEFAULT_255_2_778
10
7.8968594
20
11.1279073
11
7.3809594
21
11.1279073
0
LINE
8
DEFAULT_255_2_778
10
7.3809594
20
11.1279073
11
7.3809594
21
11.2155073
0
LINE
8
DEFAULT_255_2_778
10
7.3809594
20
11.2155073
11
7.9802594
21
11.2155073
0
LINE
8
DEFAULT_255_2_778
10
7.9802594
20
11.2155073
11
7.9802594
21
11.0914073
0
LINE
8
DEFAULT_255_2_778
10
7.9802594
20
11.0914073
11
7.6389594
21
10.0151073
0
LINE
8
DEFAULT_255_2_778
10
7.6389594
20
10.0151073
11
7.5590594
21
10.0415073
0
LINE
8
DEFAULT_255_2_778
10
7.9008594
20
11.1184073
11
7.8564594
21
10.9848073
0
LINE
8
DEFAULT_255_2_778
10
7.8564594
20
10.9848073
11
7.5590594
21
10.0452073
0
LINE
8
DEFAULT_255_2_778
10
7.5590594
20
10.0452073
11
7.5590594
21
10.0418073
0
LINE
8
DEFAULT_255_2_778
10
7.5590594
20
10.0418073
11
7.9008594
21
11.1150073
0
LINE
8
DEFAULT_255_2_778
10
13.8872896
20
9.2303344
11
13.9920896
21
9.2303344
0
LINE
8
DEFAULT_255_2_778
10
13.9920896
20
9.2303344
11
13.9920896
21
8.0415344
0
LINE
8
DEFAULT_255_2_778
10
13.9920896
20
8.0415344
11
13.9087896
21
8.0415344
0
LINE
8
DEFAULT_255_2_778
10
13.9087896
20
8.0415344
11
13.9087896
21
9.1245344
0
LINE
8
DEFAULT_255_2_778
10
13.9087896
20
9.1245344
11
13.6907896
21
8.9329344
0
LINE
8
DEFAULT_255_2_778
10
13.6907896
20
8.9329344
11
13.6856896
21
9.0171344
0
LINE
8
DEFAULT_255_2_778
10
13.6856896
20
9.0171344
11
13.8870896
21
9.2266344
0
LINE
8
DEFAULT_255_2_778
10
13.8870896
20
9.2266344
11
13.8870896
21
9.2300344
0
LINE
8
DEFAULT_255_2_778
10
13.8870896
20
9.2300344
11
13.6856896
21
9.0205344
0
LINE
8
DEFAULT_255_2_778
10
13.6856896
20
9.0205344
11
13.6856896
21
9.0171344
0
LINE
8
DEFAULT_255_2_778
10
13.2753896
20
8.0730344
11
13.2345896
21
8.0550344
0
LINE
8
DEFAULT_255_2_778
10
13.2345896
20
8.0550344
11
13.2988896
21
8.0862344
0
LINE
8
DEFAULT_255_2_778
10
13.2988896
20
8.0862344
11
13.3597896
21
8.1452344
0
LINE
8
DEFAULT_255_2_778
10
13.3597896
20
8.1452344
11
13.3885896
21
8.1908344
0
LINE
8
DEFAULT_255_2_778
10
13.3885896
20
8.1908344
11
13.4083896
21
8.2373344
0
LINE
8
DEFAULT_255_2_778
10
13.4083896
20
8.2373344
11
13.4232896
21
8.2873344
0
LINE
8
DEFAULT_255_2_778
10
13.4232896
20
8.2873344
11
13.4332896
21
8.3379344
0
LINE
8
DEFAULT_255_2_778
10
13.4332896
20
8.3379344
11
13.4351896
21
8.9536344
0
LINE
8
DEFAULT_255_2_778
10
13.4351896
20
8.9536344
11
13.4306896
21
8.9816344
0
LINE
8
DEFAULT_255_2_778
10
13.4306896
20
8.9816344
11
13.4189896
21
9.0340344
0
LINE
8
DEFAULT_255_2_778
10
13.4189896
20
9.0340344
11
13.4020896
21
9.0837344
0
LINE
8
DEFAULT_255_2_778
10
13.4020896
20
9.0837344
11
13.3787896
21
9.1295344
0
LINE
8
DEFAULT_255_2_778
10
13.3787896
20
9.1295344
11
13.3374896
21
9.1822344
0
LINE
8
DEFAULT_255_2_778
10
13.3374896
20
9.1822344
11
13.2858896
21
9.2213344
0
LINE
8
DEFAULT_255_2_778
10
13.2858896
20
9.2213344
11
13.1940896
21
9.2520344
0
LINE
8
DEFAULT_255_2_778
10
13.1940896
20
9.2520344
11
13.0657896
21
9.2483344
0
LINE
8
DEFAULT_255_2_778
10
13.0657896
20
9.2483344
11
12.9765896
21
9.2097344
0
LINE
8
DEFAULT_255_2_778
10
12.9765896
20
9.2097344
11
12.9287896
21
9.1663344
0
LINE
8
DEFAULT_255_2_778
10
12.9287896
20
9.1663344
11
12.9003896
21
9.1266344
0
LINE
8
DEFAULT_255_2_778
10
12.9003896
20
9.1266344
11
12.8787896
21
9.0829344
0
LINE
8
DEFAULT_255_2_778
10
12.8787896
20
9.0829344
11
12.8628896
21
9.0372344
0
LINE
8
DEFAULT_255_2_778
10
12.8628896
20
9.0372344
11
12.8514896
21
8.9901344
0
LINE
8
DEFAULT_255_2_778
10
12.8514896
20
8.9901344
11
12.8432896
21
8.9422344
0
LINE
8
DEFAULT_255_2_778
10
12.8432896
20
8.9422344
11
12.8451896
21
8.3424344
0
LINE
8
DEFAULT_255_2_778
10
12.8451896
20
8.3424344
11
12.8551896
21
8.2900344
0
LINE
8
DEFAULT_255_2_778
10
12.8551896
20
8.2900344
11
12.8691896
21
8.2405344
0
LINE
8
DEFAULT_255_2_778
10
12.8691896
20
8.2405344
11
12.8884896
21
8.1939344
0
LINE
8
DEFAULT_255_2_778
10
12.8884896
20
8.1939344
11
12.9138896
21
8.1513344
0
LINE
8
DEFAULT_255_2_778
10
12.9138896
20
8.1513344
11
12.9583896
21
8.1027344
0
LINE
8
DEFAULT_255_2_778
10
12.9583896
20
8.1027344
11
13.0266896
21
8.0616344
0
LINE
8
DEFAULT_255_2_778
10
13.0266896
20
8.0616344
11
13.1141896
21
8.0426344
0
LINE
8
DEFAULT_255_2_778
10
13.1141896
20
8.0426344
11
13.2104896
21
8.0489344
0
LINE
8
DEFAULT_255_2_778
10
13.2356896
20
8.1455344
11
13.1967896
21
8.1328344
0
LINE
8
DEFAULT_255_2_778
10
13.1967896
20
8.1328344
11
13.2663896
21
8.1669344
0
LINE
8
DEFAULT_255_2_778
10
13.2663896
20
8.1669344
11
13.3015896
21
8.2080344
0
LINE
8
DEFAULT_255_2_778
10
13.3015896
20
8.2080344
11
13.3208896
21
8.2445344
0
LINE
8
DEFAULT_255_2_778
10
13.3208896
20
8.2445344
11
13.3350896
21
8.2847344
0
LINE
8
DEFAULT_255_2_778
10
13.3350896
20
8.2847344
11
13.3454896
21
8.3278344
0
LINE
8
DEFAULT_255_2_778
10
13.3454896
20
8.3278344
11
13.3541896
21
8.3844344
0
LINE
8
DEFAULT_255_2_778
10
13.3541896
20
8.3844344
11
13.3543896
21
8.9184344
0
LINE
8
DEFAULT_255_2_778
10
13.3543896
20
8.9184344
11
13.3515896
21
8.9427344
0
LINE
8
DEFAULT_255_2_778
10
13.3515896
20
8.9427344
11
13.3443896
21
8.9840344
0
LINE
8
DEFAULT_255_2_778
10
13.3443896
20
8.9840344
11
13.3324896
21
9.0271344
0
LINE
8
DEFAULT_255_2_778
10
13.3324896
20
9.0271344
11
13.3152896
21
9.0686344
0
LINE
8
DEFAULT_255_2_778
10
13.3152896
20
9.0686344
11
13.2835896
21
9.1157344
0
LINE
8
DEFAULT_255_2_778
10
13.2835896
20
9.1157344
11
13.2324896
21
9.1536344
0
LINE
8
DEFAULT_255_2_778
10
13.2324896
20
9.1536344
11
13.1186896
21
9.1710344
0
LINE
8
DEFAULT_255_2_778
10
13.1186896
20
9.1710344
11
13.0435896
21
9.1515344
0
LINE
8
DEFAULT_255_2_778
10
13.0435896
20
9.1515344
11
12.9982896
21
9.1181344
0
LINE
8
DEFAULT_255_2_778
10
12.9982896
20
9.1181344
11
12.9638896
21
9.0686344
0
LINE
8
DEFAULT_255_2_778
10
12.9638896
20
9.0686344
11
12.9482896
21
9.0316344
0
LINE
8
DEFAULT_255_2_778
10
12.9482896
20
9.0316344
11
12.9374896
21
8.9930344
0
LINE
8
DEFAULT_255_2_778
10
12.9374896
20
8.9930344
11
12.9300896
21
8.9536344
0
LINE
8
DEFAULT_255_2_778
10
12.9300896
20
8.9536344
11
12.9250896
21
8.9136344
0
LINE
8
DEFAULT_255_2_778
10
12.9250896
20
8.9136344
11
12.9223896
21
8.8842344
0
LINE
8
DEFAULT_255_2_778
10
12.9223896
20
8.8842344
11
12.9202896
21
8.8520344
0
LINE
8
DEFAULT_255_2_778
10
12.9202896
20
8.8520344
11
12.9178896
21
8.7713344
0
LINE
8
DEFAULT_255_2_778
10
12.9178896
20
8.7713344
11
12.9170896
21
8.5953344
0
LINE
8
DEFAULT_255_2_778
10
12.9170896
20
8.5953344
11
12.9194896
21
8.4675344
0
LINE
8
DEFAULT_255_2_778
10
12.9194896
20
8.4675344
11
12.9213896
21
8.4336344
0
LINE
8
DEFAULT_255_2_778
10
12.9213896
20
8.4336344
11
12.9234896
21
8.4072344
0
LINE
8
DEFAULT_255_2_778
10
12.9234896
20
8.4072344
11
12.9263896
21
8.3797344
0
LINE
8
DEFAULT_255_2_778
10
12.9263896
20
8.3797344
11
12.9324896
21
8.3392344
0
LINE
8
DEFAULT_255_2_778
10
12.9324896
20
8.3392344
11
12.9419896
21
8.2939344
0
LINE
8
DEFAULT_255_2_778
10
12.9419896
20
8.2939344
11
12.9549896
21
8.2527344
0
LINE
8
DEFAULT_255_2_778
10
12.9549896
20
8.2527344
11
12.9728896
21
8.2148344
0
LINE
8
DEFAULT_255_2_778
10
12.9728896
20
8.2148344
11
13.0117896
21
8.1672344
0
LINE
8
DEFAULT_255_2_778
10
13.0117896
20
8.1672344
11
13.0750896
21
8.1344344
0
LINE
8
DEFAULT_255_2_778
10
13.0750896
20
8.1344344
11
13.1803896
21
8.1294344
0
LINE
8
DEFAULT_255_2_778
10
12.0302333
20
8.9432573
11
12.0350333
21
8.9752573
0
LINE
8
DEFAULT_255_2_778
10
12.0350333
20
8.9752573
11
12.0464333
21
9.0260573
0
LINE
8
DEFAULT_255_2_778
10
12.0464333
20
9.0260573
11
12.0691333
21
9.0879573
0
LINE
8
DEFAULT_255_2_778
10
12.0691333
20
9.0879573
11
12.1032333
21
9.1442573
0
LINE
8
DEFAULT_255_2_778
10
12.1032333
20
9.1442573
11
12.1689333
21
9.2038573
0
LINE
8
DEFAULT_255_2_778
10
12.1689333
20
9.2038573
11
12.2797333
21
9.2480573
0
LINE
8
DEFAULT_255_2_778
10
12.2797333
20
9.2480573
11
12.4808333
21
9.2532573
0
LINE
8
DEFAULT_255_2_778
10
12.4808333
20
9.2532573
11
12.5914333
21
9.2112573
0
LINE
8
DEFAULT_255_2_778
10
12.5914333
20
9.2112573
11
12.6586333
21
9.1479573
0
LINE
8
DEFAULT_255_2_778
10
12.6586333
20
9.1479573
11
12.6864333
21
9.0982573
0
LINE
8
DEFAULT_255_2_778
10
12.6864333
20
9.0982573
11
12.6967333
21
9.0651573
0
LINE
8
DEFAULT_255_2_778
10
12.6967333
20
9.0651573
11
12.7004333
21
9.0450573
0
LINE
8
DEFAULT_255_2_778
10
12.7004333
20
9.0450573
11
12.7004333
21
9.0416573
0
LINE
8
DEFAULT_255_2_778
10
12.7004333
20
9.0416573
11
12.6189333
21
9.0217573
0
LINE
8
DEFAULT_255_2_778
10
12.6189333
20
9.0217573
11
12.6131333
21
9.0456573
0
LINE
8
DEFAULT_255_2_778
10
12.6131333
20
9.0456573
11
12.5980333
21
9.0805573
0
LINE
8
DEFAULT_255_2_778
10
12.5980333
20
9.0805573
11
12.5673333
21
9.1196573
0
LINE
8
DEFAULT_255_2_778
10
12.5673333
20
9.1196573
11
12.5178333
21
9.1519573
0
LINE
8
DEFAULT_255_2_778
10
12.5178333
20
9.1519573
11
12.4107333
21
9.1712573
0
LINE
8
DEFAULT_255_2_778
10
12.4107333
20
9.1712573
11
12.2697333
21
9.1572573
0
LINE
8
DEFAULT_255_2_778
10
12.2697333
20
9.1572573
11
12.2017333
21
9.1233573
0
LINE
8
DEFAULT_255_2_778
10
12.2017333
20
9.1233573
11
12.1601333
21
9.0773573
0
LINE
8
DEFAULT_255_2_778
10
12.1601333
20
9.0773573
11
12.1390333
21
9.0358573
0
LINE
8
DEFAULT_255_2_778
10
12.1390333
20
9.0358573
11
12.1281333
21
9.0043573
0
LINE
8
DEFAULT_255_2_778
10
12.1281333
20
9.0043573
11
12.1181333
21
8.9611573
0
LINE
8
DEFAULT_255_2_778
10
12.1181333
20
8.9611573
11
12.1136333
21
8.9302573
0
LINE
8
DEFAULT_255_2_778
10
12.1136333
20
8.9302573
11
12.1138333
21
8.3878573
0
LINE
8
DEFAULT_255_2_778
10
12.1138333
20
8.3878573
11
12.1170333
21
8.3640573
0
LINE
8
DEFAULT_255_2_778
10
12.1170333
20
8.3640573
11
12.1228333
21
8.3314573
0
LINE
8
DEFAULT_255_2_778
10
12.1228333
20
8.3314573
11
12.1305333
21
8.2997573
0
LINE
8
DEFAULT_255_2_778
10
12.1305333
20
8.2997573
11
12.1464333
21
8.2544573
0
LINE
8
DEFAULT_255_2_778
10
12.1464333
20
8.2544573
11
12.1699333
21
8.2105573
0
LINE
8
DEFAULT_255_2_778
10
12.1699333
20
8.2105573
11
12.2107333
21
8.1658573
0
LINE
8
DEFAULT_255_2_778
10
12.2107333
20
8.1658573
11
12.2805333
21
8.1335573
0
LINE
8
DEFAULT_255_2_778
10
12.2805333
20
8.1335573
11
12.4681333
21
8.1314573
0
LINE
8
DEFAULT_255_2_778
10
12.4681333
20
8.1314573
11
12.5401333
21
8.1603573
0
LINE
8
DEFAULT_255_2_778
10
12.5401333
20
8.1603573
11
12.5856333
21
8.2015573
0
LINE
8
DEFAULT_255_2_778
10
12.5856333
20
8.2015573
11
12.6094333
21
8.2391573
0
LINE
8
DEFAULT_255_2_778
10
12.6094333
20
8.2391573
11
12.6208333
21
8.2682573
0
LINE
8
DEFAULT_255_2_778
10
12.6208333
20
8.2682573
11
12.6208333
21
8.2716573
0
LINE
8
DEFAULT_255_2_778
10
12.6208333
20
8.2716573
11
12.6991333
21
8.2433573
0
LINE
8
DEFAULT_255_2_778
10
12.6991333
20
8.2433573
11
12.6991333
21
8.2399573
0
LINE
8
DEFAULT_255_2_778
10
12.6991333
20
8.2399573
11
12.6832333
21
8.1986573
0
LINE
8
DEFAULT_255_2_778
10
12.6832333
20
8.1986573
11
12.6554333
21
8.1544573
0
LINE
8
DEFAULT_255_2_778
10
12.6554333
20
8.1544573
11
12.5985333
21
8.0997573
0
LINE
8
DEFAULT_255_2_778
10
12.5985333
20
8.0997573
11
12.5139333
21
8.0581573
0
LINE
8
DEFAULT_255_2_778
10
12.5139333
20
8.0581573
11
12.3900333
21
8.0420573
0
LINE
8
DEFAULT_255_2_778
10
12.3900333
20
8.0420573
11
12.2654333
21
8.0518573
0
LINE
8
DEFAULT_255_2_778
10
12.2654333
20
8.0518573
11
12.1702333
21
8.0912573
0
LINE
8
DEFAULT_255_2_778
10
12.1702333
20
8.0912573
11
12.1178333
21
8.1383573
0
LINE
8
DEFAULT_255_2_778
10
12.1178333
20
8.1383573
11
12.0852333
21
8.1867573
0
LINE
8
DEFAULT_255_2_778
10
12.0852333
20
8.1867573
11
12.0683333
21
8.2227573
0
LINE
8
DEFAULT_255_2_778
10
12.0683333
20
8.2227573
11
12.0501333
21
8.2767573
0
LINE
8
DEFAULT_255_2_778
10
12.0501333
20
8.2767573
11
12.0408333
21
8.3145573
0
LINE
8
DEFAULT_255_2_778
10
12.0408333
20
8.3145573
11
12.0339333
21
8.3526573
0
LINE
8
DEFAULT_255_2_778
10
12.0339333
20
8.3526573
11
12.0302333
21
8.3804573
0
LINE
8
DEFAULT_255_2_778
10
12.0302333
20
8.3804573
11
12.0273333
21
8.4100573
0
LINE
8
DEFAULT_255_2_778
10
12.0273333
20
8.4100573
11
12.0273333
21
8.9127573
0
LINE
8
DEFAULT_255_2_778
10
12.0273333
20
8.9127573
11
12.0305333
21
8.9410573
0
LINE
8
DEFAULT_255_2_778
10
12.0305333
20
8.9410573
11
12.0371333
21
8.9823573
0
LINE
8
DEFAULT_255_2_778
10
12.0371333
20
8.9823573
11
12.0464333
21
9.0220573
0
LINE
8
DEFAULT_255_2_778
10
12.0464333
20
9.0220573
11
12.0593333
21
9.0614573
0
LINE
8
DEFAULT_255_2_778
10
12.0593333
20
9.0614573
11
12.0866333
21
9.1167573
0
LINE
8
DEFAULT_255_2_778
10
12.0866333
20
9.1167573
11
12.1353333
21
9.1749573
0
LINE
8
DEFAULT_255_2_778
10
12.1353333
20
9.1749573
11
12.1958333
21
9.2157573
0
LINE
8
DEFAULT_255_2_778
10
12.1958333
20
9.2157573
11
12.2892333
21
9.2466573
0
LINE
8
DEFAULT_255_2_778
10
12.2892333
20
9.2466573
11
12.4350333
21
9.2551573
0
LINE
8
DEFAULT_255_2_778
10
12.4350333
20
9.2551573
11
12.5342333
21
9.2363573
0
LINE
8
DEFAULT_255_2_778
10
12.5342333
20
9.2363573
11
12.6054333
21
9.1980573
0
LINE
8
DEFAULT_255_2_778
10
12.6054333
20
9.1980573
11
12.6589333
21
9.1442573
0
LINE
8
DEFAULT_255_2_778
10
12.6589333
20
9.1442573
11
12.6843333
21
9.1003573
0
LINE
8
DEFAULT_255_2_778
10
12.6843333
20
9.1003573
11
12.6964333
21
9.0638573
0
LINE
8
DEFAULT_255_2_778
10
12.6964333
20
9.0638573
11
12.7009333
21
9.0413573
0
LINE
8
DEFAULT_255_2_778
10
12.0236333
20
8.5301573
11
12.0236333
21
8.5267573
0
LINE
8
DEFAULT_255_2_778
10
11.1814333
20
8.9432573
11
11.1862333
21
8.9752573
0
LINE
8
DEFAULT_255_2_778
10
11.1862333
20
8.9752573
11
11.1976333
21
9.0260573
0
LINE
8
DEFAULT_255_2_778
10
11.1976333
20
9.0260573
11
11.2203333
21
9.0879573
0
LINE
8
DEFAULT_255_2_778
10
11.2203333
20
9.0879573
11
11.2544333
21
9.1442573
0
LINE
8
DEFAULT_255_2_778
10
11.2544333
20
9.1442573
11
11.3201333
21
9.2038573
0
LINE
8
DEFAULT_255_2_778
10
11.3201333
20
9.2038573
11
11.4309333
21
9.2480573
0
LINE
8
DEFAULT_255_2_778
10
11.4309333
20
9.2480573
11
11.6320333
21
9.2532573
0
LINE
8
DEFAULT_255_2_778
10
11.6320333
20
9.2532573
11
11.7426333
21
9.2112573
0
LINE
8
DEFAULT_255_2_778
10
11.7426333
20
9.2112573
11
11.8098333
21
9.1479573
0
LINE
8
DEFAULT_255_2_778
10
11.8098333
20
9.1479573
11
11.8376333
21
9.0982573
0
LINE
8
DEFAULT_255_2_778
10
11.8376333
20
9.0982573
11
11.8479333
21
9.0651573
0
LINE
8
DEFAULT_255_2_778
10
11.8479333
20
9.0651573
11
11.8516333
21
9.0450573
0
LINE
8
DEFAULT_255_2_778
10
11.8516333
20
9.0450573
11
11.8516333
21
9.0416573
0
LINE
8
DEFAULT_255_2_778
10
11.8516333
20
9.0416573
11
11.7701333
21
9.0217573
0
LINE
8
DEFAULT_255_2_778
10
11.7701333
20
9.0217573
11
11.7643333
21
9.0456573
0
LINE
8
DEFAULT_255_2_778
10
11.7643333
20
9.0456573
11
11.7492333
21
9.0805573
0
LINE
8
DEFAULT_255_2_778
10
11.7492333
20
9.0805573
11
11.7185333
21
9.1196573
0
LINE
8
DEFAULT_255_2_778
10
11.7185333
20
9.1196573
11
11.6690333
21
9.1519573
0
LINE
8
DEFAULT_255_2_778
10
11.6690333
20
9.1519573
11
11.5619333
21
9.1712573
0
LINE
8
DEFAULT_255_2_778
10
11.5619333
20
9.1712573
11
11.4209333
21
9.1572573
0
LINE
8
DEFAULT_255_2_778
10
11.4209333
20
9.1572573
11
11.3529333
21
9.1233573
0
LINE
8
DEFAULT_255_2_778
10
11.3529333
20
9.1233573
11
11.3113333
21
9.0773573
0
LINE
8
DEFAULT_255_2_778
10
11.3113333
20
9.0773573
11
11.2902333
21
9.0358573
0
LINE
8
DEFAULT_255_2_778
10
11.2902333
20
9.0358573
11
11.2793333
21
9.0043573
0
LINE
8
DEFAULT_255_2_778
10
11.2793333
20
9.0043573
11
11.2693333
21
8.9611573
0
LINE
8
DEFAULT_255_2_778
10
11.2693333
20
8.9611573
11
11.2648333
21
8.9302573
0
LINE
8
DEFAULT_255_2_778
10
11.2648333
20
8.9302573
11
11.2650333
21
8.3878573
0
LINE
8
DEFAULT_255_2_778
10
11.2650333
20
8.3878573
11
11.2682333
21
8.3640573
0
LINE
8
DEFAULT_255_2_778
10
11.2682333
20
8.3640573
11
11.2740333
21
8.3314573
0
LINE
8
DEFAULT_255_2_778
10
11.2740333
20
8.3314573
11
11.2817333
21
8.2997573
0
LINE
8
DEFAULT_255_2_778
10
11.2817333
20
8.2997573
11
11.2976333
21
8.2544573
0
LINE
8
DEFAULT_255_2_778
10
11.2976333
20
8.2544573
11
11.3211333
21
8.2105573
0
LINE
8
DEFAULT_255_2_778
10
11.3211333
20
8.2105573
11
11.3619333
21
8.1658573
0
LINE
8
DEFAULT_255_2_778
10
11.3619333
20
8.1658573
11
11.4317333
21
8.1335573
0
LINE
8
DEFAULT_255_2_778
10
11.4317333
20
8.1335573
11
11.6193333
21
8.1314573
0
LINE
8
DEFAULT_255_2_778
10
11.6193333
20
8.1314573
11
11.6913333
21
8.1603573
0
LINE
8
DEFAULT_255_2_778
10
11.6913333
20
8.1603573
11
11.7368333
21
8.2015573
0
LINE
8
DEFAULT_255_2_778
10
11.7368333
20
8.2015573
11
11.7606333
21
8.2391573
0
LINE
8
DEFAULT_255_2_778
10
11.7606333
20
8.2391573
11
11.7720333
21
8.2682573
0
LINE
8
DEFAULT_255_2_778
10
11.7720333
20
8.2682573
11
11.7720333
21
8.2716573
0
LINE
8
DEFAULT_255_2_778
10
11.7720333
20
8.2716573
11
11.8503333
21
8.2433573
0
LINE
8
DEFAULT_255_2_778
10
11.8503333
20
8.2433573
11
11.8503333
21
8.2399573
0
LINE
8
DEFAULT_255_2_778
10
11.8503333
20
8.2399573
11
11.8344333
21
8.1986573
0
LINE
8
DEFAULT_255_2_778
10
11.8344333
20
8.1986573
11
11.8066333
21
8.1544573
0
LINE
8
DEFAULT_255_2_778
10
11.8066333
20
8.1544573
11
11.7497333
21
8.0997573
0
LINE
8
DEFAULT_255_2_778
10
11.7497333
20
8.0997573
11
11.6651333
21
8.0581573
0
LINE
8
DEFAULT_255_2_778
10
11.6651333
20
8.0581573
11
11.5412333
21
8.0420573
0
LINE
8
DEFAULT_255_2_778
10
11.5412333
20
8.0420573
11
11.4166333
21
8.0518573
0
LINE
8
DEFAULT_255_2_778
10
11.4166333
20
8.0518573
11
11.3214333
21
8.0912573
0
LINE
8
DEFAULT_255_2_778
10
11.3214333
20
8.0912573
11
11.2690333
21
8.1383573
0
LINE
8
DEFAULT_255_2_778
10
11.2690333
20
8.1383573
11
11.2364333
21
8.1867573
0
LINE
8
DEFAULT_255_2_778
10
11.2364333
20
8.1867573
11
11.2195333
21
8.2227573
0
LINE
8
DEFAULT_255_2_778
10
11.2195333
20
8.2227573
11
11.2013333
21
8.2767573
0
LINE
8
DEFAULT_255_2_778
10
11.2013333
20
8.2767573
11
11.1920333
21
8.3145573
0
LINE
8
DEFAULT_255_2_778
10
11.1920333
20
8.3145573
11
11.1851333
21
8.3526573
0
LINE
8
DEFAULT_255_2_778
10
11.1851333
20
8.3526573
11
11.1814333
21
8.3804573
0
LINE
8
DEFAULT_255_2_778
10
11.1814333
20
8.3804573
11
11.1785333
21
8.4100573
0
LINE
8
DEFAULT_255_2_778
10
11.1785333
20
8.4100573
11
11.1785333
21
8.9127573
0
LINE
8
DEFAULT_255_2_778
10
11.1785333
20
8.9127573
11
11.1817333
21
8.9410573
0
LINE
8
DEFAULT_255_2_778
10
11.1817333
20
8.9410573
11
11.1883333
21
8.9823573
0
LINE
8
DEFAULT_255_2_778
10
11.1883333
20
8.9823573
11
11.1976333
21
9.0220573
0
LINE
8
DEFAULT_255_2_778
10
11.1976333
20
9.0220573
11
11.2105333
21
9.0614573
0
LINE
8
DEFAULT_255_2_778
10
11.2105333
20
9.0614573
11
11.2378333
21
9.1167573
0
LINE
8
DEFAULT_255_2_778
10
11.2378333
20
9.1167573
11
11.2865333
21
9.1749573
0
LINE
8
DEFAULT_255_2_778
10
11.2865333
20
9.1749573
11
11.3470333
21
9.2157573
0
LINE
8
DEFAULT_255_2_778
10
11.3470333
20
9.2157573
11
11.4404333
21
9.2466573
0
LINE
8
DEFAULT_255_2_778
10
11.4404333
20
9.2466573
11
11.5862333
21
9.2551573
0
LINE
8
DEFAULT_255_2_778
10
11.5862333
20
9.2551573
11
11.6854333
21
9.2363573
0
LINE
8
DEFAULT_255_2_778
10
11.6854333
20
9.2363573
11
11.7566333
21
9.1980573
0
LINE
8
DEFAULT_255_2_778
10
11.7566333
20
9.1980573
11
11.8101333
21
9.1442573
0
LINE
8
DEFAULT_255_2_778
10
11.8101333
20
9.1442573
11
11.8355333
21
9.1003573
0
LINE
8
DEFAULT_255_2_778
10
11.8355333
20
9.1003573
11
11.8476333
21
9.0638573
0
LINE
8
DEFAULT_255_2_778
10
11.8476333
20
9.0638573
11
11.8521333
21
9.0413573
0
LINE
8
DEFAULT_255_2_778
10
11.1748333
20
8.5301573
11
11.1748333
21
8.5267573
0
LINE
8
DEFAULT_255_2_778
10
10.6800949
20
4.9501344
11
11.0329949
21
4.9501344
0
LINE
8
DEFAULT_255_2_778
10
11.0329949
20
4.9501344
11
11.0329949
21
4.8477344
0
LINE
8
DEFAULT_255_2_778
10
11.0329949
20
4.8477344
11
10.6800949
21
4.8477344
0
LINE
8
DEFAULT_255_2_778
10
10.6800949
20
4.8477344
11
10.6800949
21
4.9501344
0
LINE
8
DEFAULT_255_2_778
10
6.3183949
20
4.9501344
11
6.6713949
21
4.9501344
0
LINE
8
DEFAULT_255_2_778
10
6.6713949
20
4.9501344
11
6.6713949
21
4.8477344
0
LINE
8
DEFAULT_255_2_778
10
6.6713949
20
4.8477344
11
6.3183949
21
4.8477344
0
LINE
8
DEFAULT_255_2_778
10
6.3183949
20
4.8477344
11
6.3183949
21
4.9501344
0
LINE
8
DEFAULT_255_2_778
10
8.5895949
20
5.1443344
11
9.0247949
21
5.1443344
0
LINE
8
DEFAULT_255_2_778
10
9.0247949
20
5.1443344
11
9.0247949
21
5.0446344
0
LINE
8
DEFAULT_255_2_778
10
9.0247949
20
5.0446344
11
8.5895949
21
5.0446344
0
LINE
8
DEFAULT_255_2_778
10
8.5895949
20
5.0446344
11
8.5895949
21
4.3627344
0
LINE
8
DEFAULT_255_2_778
10
8.5895949
20
4.3627344
11
8.5085949
21
4.3627344
0
LINE
8
DEFAULT_255_2_778
10
8.5085949
20
4.3627344
11
8.5085949
21
5.7510344
0
LINE
8
DEFAULT_255_2_778
10
8.5085949
20
5.7510344
11
9.0533949
21
5.7510344
0
LINE
8
DEFAULT_255_2_778
10
9.0533949
20
5.7510344
11
9.0533949
21
5.6494344
0
LINE
8
DEFAULT_255_2_778
10
9.0533949
20
5.6494344
11
8.5895949
21
5.6494344
0
LINE
8
DEFAULT_255_2_778
10
8.5895949
20
5.6494344
11
8.5895949
21
5.1409344
0
LINE
8
DEFAULT_255_2_778
10
8.5895949
20
5.1409344
11
9.0247949
21
5.1409344
0
LINE
8
DEFAULT_255_2_778
10
7.5812949
20
5.7510344
11
8.2770949
21
5.7510344
0
LINE
8
DEFAULT_255_2_778
10
8.2770949
20
5.7510344
11
8.2770949
21
5.6494344
0
LINE
8
DEFAULT_255_2_778
10
8.2770949
20
5.6494344
11
7.9696949
21
5.6494344
0
LINE
8
DEFAULT_255_2_778
10
7.9696949
20
5.6494344
11
7.9696949
21
4.3627344
0
LINE
8
DEFAULT_255_2_778
10
7.9696949
20
4.3627344
11
7.8886949
21
4.3627344
0
LINE
8
DEFAULT_255_2_778
10
7.8886949
20
4.3627344
11
7.8886949
21
5.6494344
0
LINE
8
DEFAULT_255_2_778
10
7.8886949
20
5.6494344
11
7.5812949
21
5.6494344
0
LINE
8
DEFAULT_255_2_778
10
7.5812949
20
5.6494344
11
7.5812949
21
5.7510344
0
LINE
8
DEFAULT_255_2_778
10
5.8640896
20
5.7573677
11
5.9616896
21
5.7573677
0
LINE
8
DEFAULT_255_2_778
10
5.9616896
20
5.7573677
11
5.9616896
21
4.3606677
0
LINE
8
DEFAULT_255_2_778
10
5.9616896
20
4.3606677
11
5.8841896
21
4.3606677
0
LINE
8
DEFAULT_255_2_778
10
5.8841896
20
4.3606677
11
5.8841896
21
5.6335677
0
LINE
8
DEFAULT_255_2_778
10
5.8841896
20
5.6335677
11
5.6944896
21
5.4112677
0
LINE
8
DEFAULT_255_2_778
10
5.6944896
20
5.4112677
11
5.6812896
21
5.4086677
0
LINE
8
DEFAULT_255_2_778
10
5.6812896
20
5.4086677
11
5.6764896
21
5.5118677
0
LINE
8
DEFAULT_255_2_778
10
5.6764896
20
5.5118677
11
5.8640896
21
5.7539677
0
LINE
8
DEFAULT_255_2_778
10
5.8640896
20
5.7539677
11
5.8640896
21
5.7573677
0
LINE
8
DEFAULT_255_2_778
10
5.8640896
20
5.7573677
11
5.6764896
21
5.5152677
0
LINE
8
DEFAULT_255_2_778
10
5.6764896
20
5.5152677
11
5.6764896
21
5.5118677
0
LINE
8
DEFAULT_255_2_778
10
4.5641896
20
5.7573677
11
4.6617896
21
5.7573677
0
LINE
8
DEFAULT_255_2_778
10
4.6617896
20
5.7573677
11
4.6617896
21
4.3606677
0
LINE
8
DEFAULT_255_2_778
10
4.6617896
20
4.3606677
11
4.5842896
21
4.3606677
0
LINE
8
DEFAULT_255_2_778
10
4.5842896
20
4.3606677
11
4.5842896
21
5.6335677
0
LINE
8
DEFAULT_255_2_778
10
4.5842896
20
5.6335677
11
4.3945896
21
5.4112677
0
LINE
8
DEFAULT_255_2_778
10
4.3945896
20
5.4112677
11
4.3813896
21
5.4086677
0
LINE
8
DEFAULT_255_2_778
10
4.3813896
20
5.4086677
11
4.3765896
21
5.5118677
0
LINE
8
DEFAULT_255_2_778
10
4.3765896
20
5.5118677
11
4.5641896
21
5.7539677
0
LINE
8
DEFAULT_255_2_778
10
4.5641896
20
5.7539677
11
4.5641896
21
5.7573677
0
LINE
8
DEFAULT_255_2_778
10
4.5641896
20
5.7573677
11
4.3765896
21
5.5152677
0
LINE
8
DEFAULT_255_2_778
10
4.3765896
20
5.5152677
11
4.3765896
21
5.5118677
0
LINE
8
DEFAULT_255_2_778
10
4.0237105
20
5.6407062
11
3.7093105
21
4.3910062
0
LINE
8
DEFAULT_255_2_778
10
3.7093105
20
4.3910062
11
3.7093105
21
4.3876062
0
LINE
8
DEFAULT_255_2_778
10
3.7093105
20
4.3876062
11
4.0237105
21
5.6372062
0
LINE
8
DEFAULT_255_2_778
10
4.0237105
20
5.6372062
11
4.0237105
21
5.6645062
0
LINE
8
DEFAULT_255_2_778
10
4.0237105
20
5.6645062
11
3.5437105
21
5.6645062
0
LINE
8
DEFAULT_255_2_778
10
3.5437105
20
5.6645062
11
3.5437105
21
5.7669062
0
LINE
8
DEFAULT_255_2_778
10
3.5437105
20
5.7669062
11
4.1012105
21
5.7669062
0
LINE
8
DEFAULT_255_2_778
10
4.1012105
20
5.7669062
11
4.1012105
21
5.6216062
0
LINE
8
DEFAULT_255_2_778
10
4.1012105
20
5.6216062
11
3.7837105
21
4.3566062
0
LINE
8
DEFAULT_255_2_778
10
3.7837105
20
4.3566062
11
3.7093105
21
4.3876062
0
LINE
8
DEFAULT_255_2_778
10
1.2622105
20
5.3570062
11
1.2651105
21
5.3922062
0
LINE
8
DEFAULT_255_2_778
10
1.2651105
20
5.3922062
11
1.2712105
21
5.4464062
0
LINE
8
DEFAULT_255_2_778
10
1.2712105
20
5.4464062
11
1.2805105
21
5.5010062
0
LINE
8
DEFAULT_255_2_778
10
1.2805105
20
5.5010062
11
1.2939105
21
5.5578062
0
LINE
8
DEFAULT_255_2_778
10
1.2939105
20
5.5578062
11
1.3111105
21
5.6084062
0
LINE
8
DEFAULT_255_2_778
10
1.3111105
20
5.6084062
11
1.3506105
21
5.6803062
0
LINE
8
DEFAULT_255_2_778
10
1.3506105
20
5.6803062
11
1.4143105
21
5.7412062
0
LINE
8
DEFAULT_255_2_778
10
1.4143105
20
5.7412062
11
1.5069105
21
5.7740062
0
LINE
8
DEFAULT_255_2_778
10
1.5069105
20
5.7740062
11
1.6358105
21
5.7621062
0
LINE
8
DEFAULT_255_2_778
10
1.6358105
20
5.7621062
11
1.7186105
21
5.7124062
0
LINE
8
DEFAULT_255_2_778
10
1.7186105
20
5.7124062
11
1.7747105
21
5.6433062
0
LINE
8
DEFAULT_255_2_778
10
1.7747105
20
5.6433062
11
1.7972105
21
5.5981062
0
LINE
8
DEFAULT_255_2_778
10
1.7972105
20
5.5981062
11
1.7972105
21
5.5946062
0
LINE
8
DEFAULT_255_2_778
10
1.7972105
20
5.5946062
11
1.7252105
21
5.5499062
0
LINE
8
DEFAULT_255_2_778
10
1.7252105
20
5.5499062
11
1.6916105
21
5.6084062
0
LINE
8
DEFAULT_255_2_778
10
1.6916105
20
5.6084062
11
1.6289105
21
5.6586062
0
LINE
8
DEFAULT_255_2_778
10
1.6289105
20
5.6586062
11
1.5326105
21
5.6758062
0
LINE
8
DEFAULT_255_2_778
10
1.5326105
20
5.6758062
11
1.4421105
21
5.6444062
0
LINE
8
DEFAULT_255_2_778
10
1.4421105
20
5.6444062
11
1.3950105
21
5.5861062
0
LINE
8
DEFAULT_255_2_778
10
1.3950105
20
5.5861062
11
1.3720105
21
5.5308062
0
LINE
8
DEFAULT_255_2_778
10
1.3720105
20
5.5308062
11
1.3572105
21
5.4726062
0
LINE
8
DEFAULT_255_2_778
10
1.3572105
20
5.4726062
11
1.3500105
21
5.4306062
0
LINE
8
DEFAULT_255_2_778
10
1.3500105
20
5.4306062
11
1.3450105
21
5.3906062
0
LINE
8
DEFAULT_255_2_778
10
1.3450105
20
5.3906062
11
1.3426105
21
5.3660062
0
LINE
8
DEFAULT_255_2_778
10
1.3426105
20
5.3660062
11
1.3408105
21
5.3388062
0
LINE
8
DEFAULT_255_2_778
10
1.3408105
20
5.3388062
11
1.3387105
21
5.2948062
0
LINE
8
DEFAULT_255_2_778
10
1.3387105
20
5.2948062
11
1.3368105
21
5.2353062
0
LINE
8
DEFAULT_255_2_778
10
1.3368105
20
5.2353062
11
1.3344105
21
5.0570062
0
LINE
8
DEFAULT_255_2_778
10
1.3344105
20
5.0570062
11
1.3344105
21
5.0678062
0
LINE
8
DEFAULT_255_2_778
10
1.7636105
20
4.9170062
11
1.7572105
21
4.9649062
0
LINE
8
DEFAULT_255_2_778
10
1.7572105
20
4.9649062
11
1.7504105
21
4.9993062
0
LINE
8
DEFAULT_255_2_778
10
1.7504105
20
4.9993062
11
1.7369105
21
5.0440062
0
LINE
8
DEFAULT_255_2_778
10
1.7369105
20
5.0440062
11
1.7078105
21
5.0990062
0
LINE
8
DEFAULT_255_2_778
10
1.7078105
20
5.0990062
11
1.6578105
21
5.1401062
0
LINE
8
DEFAULT_255_2_778
10
1.6578105
20
5.1401062
11
1.5927105
21
5.1536062
0
LINE
8
DEFAULT_255_2_778
10
1.5927105
20
5.1536062
11
1.5014105
21
5.1319062
0
LINE
8
DEFAULT_255_2_778
10
1.5014105
20
5.1319062
11
1.4485105
21
5.0863062
0
LINE
8
DEFAULT_255_2_778
10
1.4485105
20
5.0863062
11
1.3969105
21
5.0046062
0
LINE
8
DEFAULT_255_2_778
10
1.3969105
20
5.0046062
11
1.3709105
21
4.9347062
0
LINE
8
DEFAULT_255_2_778
10
1.3709105
20
4.9347062
11
1.3606105
21
4.8847062
0
LINE
8
DEFAULT_255_2_778
10
1.3606105
20
4.8847062
11
1.3609105
21
4.6868062
0
LINE
8
DEFAULT_255_2_778
10
1.3609105
20
4.6868062
11
1.3765105
21
4.6281062
0
LINE
8
DEFAULT_255_2_778
10
1.3765105
20
4.6281062
11
1.3998105
21
4.5739062
0
LINE
8
DEFAULT_255_2_778
10
1.3998105
20
4.5739062
11
1.4408105
21
4.5138062
0
LINE
8
DEFAULT_255_2_778
10
1.4408105
20
4.5138062
11
1.5056105
21
4.4622062
0
LINE
8
DEFAULT_255_2_778
10
1.5056105
20
4.4622062
11
1.5945105
21
4.4519062
0
LINE
8
DEFAULT_255_2_778
10
1.5945105
20
4.4519062
11
1.6649105
21
4.4818062
0
LINE
8
DEFAULT_255_2_778
10
1.6649105
20
4.4818062
11
1.7107105
21
4.5363062
0
LINE
8
DEFAULT_255_2_778
10
1.7107105
20
4.5363062
11
1.7347105
21
4.5863062
0
LINE
8
DEFAULT_255_2_778
10
1.7347105
20
4.5863062
11
1.7480105
21
4.6286062
0
LINE
8
DEFAULT_255_2_778
10
1.7480105
20
4.6286062
11
1.7556105
21
4.6633062
0
LINE
8
DEFAULT_255_2_778
10
1.7556105
20
4.6633062
11
1.7609105
21
4.6993062
0
LINE
8
DEFAULT_255_2_778
10
1.7609105
20
4.6993062
11
1.7636105
21
4.9170062
0
LINE
8
DEFAULT_255_2_778
10
1.5900105
20
5.2562062
11
1.7107105
21
5.2221062
0
LINE
8
DEFAULT_255_2_778
10
1.7107105
20
5.2221062
11
1.7710105
21
5.1607062
0
LINE
8
DEFAULT_255_2_778
10
1.7710105
20
5.1607062
11
1.8062105
21
5.0930062
0
LINE
8
DEFAULT_255_2_778
10
1.8062105
20
5.0930062
11
1.8255105
21
5.0313062
0
LINE
8
DEFAULT_255_2_778
10
1.8255105
20
5.0313062
11
1.8353105
21
4.9816062
0
LINE
8
DEFAULT_255_2_778
10
1.8353105
20
4.9816062
11
1.8403105
21
4.9456062
0
LINE
8
DEFAULT_255_2_778
10
1.8403105
20
4.9456062
11
1.8440105
21
4.9072062
0
LINE
8
DEFAULT_255_2_778
10
1.8440105
20
4.9072062
11
1.8430105
21
4.7080062
0
LINE
8
DEFAULT_255_2_778
10
1.8430105
20
4.7080062
11
1.8395105
21
4.6741062
0
LINE
8
DEFAULT_255_2_778
10
1.8395105
20
4.6741062
11
1.8324105
21
4.6260062
0
LINE
8
DEFAULT_255_2_778
10
1.8324105
20
4.6260062
11
1.8197105
21
4.5707062
0
LINE
8
DEFAULT_255_2_778
10
1.8197105
20
4.5707062
11
1.8033105
21
4.5223062
0
LINE
8
DEFAULT_255_2_778
10
1.8033105
20
4.5223062
11
1.7763105
21
4.4688062
0
LINE
8
DEFAULT_255_2_778
10
1.7763105
20
4.4688062
11
1.7316105
21
4.4138062
0
LINE
8
DEFAULT_255_2_778
10
1.7316105
20
4.4138062
11
1.6763105
21
4.3751062
0
LINE
8
DEFAULT_255_2_778
10
1.6763105
20
4.3751062
11
1.6038105
21
4.3532062
0
LINE
8
DEFAULT_255_2_778
10
1.6038105
20
4.3532062
11
1.4937105
21
4.3585062
0
LINE
8
DEFAULT_255_2_778
10
1.4937105
20
4.3585062
11
1.4323105
21
4.3844062
0
LINE
8
DEFAULT_255_2_778
10
1.4323105
20
4.3844062
11
1.3746105
21
4.4342062
0
LINE
8
DEFAULT_255_2_778
10
1.3746105
20
4.4342062
11
1.3326105
21
4.4971062
0
LINE
8
DEFAULT_255_2_778
10
1.3326105
20
4.4971062
11
1.3119105
21
4.5434062
0
LINE
8
DEFAULT_255_2_778
10
1.3119105
20
4.5434062
11
1.2963105
21
4.5910062
0
LINE
8
DEFAULT_255_2_778
10
1.2963105
20
4.5910062
11
1.2818105
21
4.6538062
0
LINE
8
DEFAULT_255_2_778
10
1.2818105
20
4.6538062
11
1.2754105
21
4.6892062
0
LINE
8
DEFAULT_255_2_778
10
1.2754105
20
4.6892062
11
1.2685105
21
4.7392062
0
LINE
8
DEFAULT_255_2_778
10
1.2685105
20
4.7392062
11
1.2633105
21
4.7935062
0
LINE
8
DEFAULT_255_2_778
10
1.2633105
20
4.7935062
11
1.2638105
21
5.3673062
0
LINE
8
DEFAULT_255_2_778
10
1.2638105
20
5.3673062
11
1.2675105
21
5.4070062
0
LINE
8
DEFAULT_255_2_778
10
1.2675105
20
5.4070062
11
1.2741105
21
5.4581062
0
LINE
8
DEFAULT_255_2_778
10
1.2741105
20
5.4581062
11
1.2842105
21
5.5131062
0
LINE
8
DEFAULT_255_2_778
10
1.2842105
20
5.5131062
11
1.2982105
21
5.5676062
0
LINE
8
DEFAULT_255_2_778
10
1.2982105
20
5.5676062
11
1.3162105
21
5.6158062
0
LINE
8
DEFAULT_255_2_778
10
1.3162105
20
5.6158062
11
1.3416105
21
5.6634062
0
LINE
8
DEFAULT_255_2_778
10
1.3416105
20
5.6634062
11
1.3731105
21
5.7034062
0
LINE
8
DEFAULT_255_2_778
10
1.3731105
20
5.7034062
11
1.4342105
21
5.7489062
0
LINE
8
DEFAULT_255_2_778
10
1.4342105
20
5.7489062
11
1.5220105
21
5.7721062
0
LINE
8
DEFAULT_255_2_778
10
1.5220105
20
5.7721062
11
1.6051105
21
5.7674062
0
LINE
8
DEFAULT_255_2_778
10
1.6051105
20
5.7674062
11
1.6834105
21
5.7354062
0
LINE
8
DEFAULT_255_2_778
10
1.6834105
20
5.7354062
11
1.7459105
21
5.6809062
0
LINE
8
DEFAULT_255_2_778
10
1.7459105
20
5.6809062
11
1.7750105
21
5.6399062
0
LINE
8
DEFAULT_255_2_778
10
1.7750105
20
5.6399062
11
1.7975105
21
5.5946062
0
LINE
8
DEFAULT_255_2_778
10
1.5620105
20
5.2512062
11
1.5898105
21
5.2530062
0
LINE
8
DEFAULT_255_2_778
10
1.5898105
20
5.2530062
11
1.5898105
21
5.2565062
0
LINE
8
DEFAULT_255_2_778
10
1.5898105
20
5.2565062
11
1.5620105
21
5.2546062
0
LINE
8
DEFAULT_255_2_778
10
1.3344105
20
5.0570062
11
1.3715105
21
5.1263062
0
LINE
8
DEFAULT_255_2_778
10
1.3715105
20
5.1263062
11
1.4728105
21
5.2245062
0
LINE
8
DEFAULT_255_2_778
10
1.4728105
20
5.2245062
11
1.5622105
21
5.2512062
0
LINE
8
DEFAULT_255_2_778
10
1.5622105
20
5.2512062
11
1.5622105
21
5.2546062
0
LINE
8
DEFAULT_255_2_778
10
1.5622105
20
5.2546062
11
1.4217105
21
5.1903062
0
LINE
8
DEFAULT_255_2_778
10
1.4217105
20
5.1903062
11
1.3434105
21
5.0813062
0
LINE
8
DEFAULT_255_2_778
10
1.3434105
20
5.0813062
11
1.3347105
21
5.0607062
0
LINE
8
DEFAULT_255_2_778
10
2.068122
20
4.4670521
11
2.546522
21
4.4670521
0
LINE
8
DEFAULT_255_2_778
10
2.546522
20
4.4670521
11
2.546522
21
4.3664521
0
LINE
8
DEFAULT_255_2_778
10
2.546522
20
4.3664521
11
1.990622
21
4.3664521
0
LINE
8
DEFAULT_255_2_778
10
1.990622
20
4.3664521
11
1.990622
21
5.7650521
0
LINE
8
DEFAULT_255_2_778
10
1.990622
20
5.7650521
11
2.546522
21
5.7650521
0
LINE
8
DEFAULT_255_2_778
10
2.546522
20
5.7650521
11
2.546522
21
5.6626521
0
LINE
8
DEFAULT_255_2_778
10
2.546522
20
5.6626521
11
2.068122
21
5.6626521
0
LINE
8
DEFAULT_255_2_778
10
2.068122
20
5.6626521
11
2.068122
21
5.1504521
0
LINE
8
DEFAULT_255_2_778
10
2.068122
20
5.1504521
11
2.517122
21
5.1504521
0
LINE
8
DEFAULT_255_2_778
10
2.068122
20
5.1538521
11
2.517122
21
5.1538521
0
LINE
8
DEFAULT_255_2_778
10
2.517122
20
5.1538521
11
2.517122
21
5.0533521
0
LINE
8
DEFAULT_255_2_778
10
2.517122
20
5.0533521
11
2.068122
21
5.0533521
0
LINE
8
DEFAULT_255_2_778
10
2.068122
20
5.0533521
11
2.068122
21
4.4635521
0
LINE
8
DEFAULT_255_2_778
10
2.068122
20
4.4635521
11
2.546522
21
4.4635521
0
LINE
8
DEFAULT_255_2_778
10
2.759222
20
5.4282521
11
2.760322
21
5.4454521
0
LINE
8
DEFAULT_255_2_778
10
2.760322
20
5.4454521
11
2.762922
21
5.4724521
0
LINE
8
DEFAULT_255_2_778
10
2.762922
20
5.4724521
11
2.769822
21
5.5134521
0
LINE
8
DEFAULT_255_2_778
10
2.769822
20
5.5134521
11
2.784322
21
5.5655521
0
LINE
8
DEFAULT_255_2_778
10
2.784322
20
5.5655521
11
2.814022
21
5.6311521
0
LINE
8
DEFAULT_255_2_778
10
2.814022
20
5.6311521
11
2.864822
21
5.6981521
0
LINE
8
DEFAULT_255_2_778
10
2.864822
20
5.6981521
11
2.951622
21
5.7547521
0
LINE
8
DEFAULT_255_2_778
10
2.951622
20
5.7547521
11
3.100322
21
5.7748521
0
LINE
8
DEFAULT_255_2_778
10
3.100322
20
5.7748521
11
3.195022
21
5.7383521
0
LINE
8
DEFAULT_255_2_778
10
3.195022
20
5.7383521
11
3.254222
21
5.6803521
0
LINE
8
DEFAULT_255_2_778
10
3.254222
20
5.6803521
11
3.290822
21
5.6203521
0
LINE
8
DEFAULT_255_2_778
10
3.290822
20
5.6203521
11
3.317022
21
5.5541521
0
LINE
8
DEFAULT_255_2_778
10
3.317022
20
5.5541521
11
3.329722
21
5.5089521
0
LINE
8
DEFAULT_255_2_778
10
3.329722
20
5.5089521
11
3.329722
21
5.5055521
0
LINE
8
DEFAULT_255_2_778
10
3.329722
20
5.5055521
11
3.253722
21
5.4782521
0
LINE
8
DEFAULT_255_2_778
10
3.253722
20
5.4782521
11
3.242622
21
5.5168521
0
LINE
8
DEFAULT_255_2_778
10
3.242622
20
5.5168521
11
3.228322
21
5.5541521
0
LINE
8
DEFAULT_255_2_778
10
3.228322
20
5.5541521
11
3.194222
21
5.6105521
0
LINE
8
DEFAULT_255_2_778
10
3.194222
20
5.6105521
11
3.151122
21
5.6507521
0
LINE
8
DEFAULT_255_2_778
10
3.151122
20
5.6507521
11
3.098922
21
5.6721521
0
LINE
8
DEFAULT_255_2_778
10
3.098922
20
5.6721521
11
2.991022
21
5.6634521
0
LINE
8
DEFAULT_255_2_778
10
2.991022
20
5.6634521
11
2.925922
21
5.6290521
0
LINE
8
DEFAULT_255_2_778
10
2.925922
20
5.6290521
11
2.884122
21
5.5822521
0
LINE
8
DEFAULT_255_2_778
10
2.884122
20
5.5822521
11
2.863722
21
5.5457521
0
LINE
8
DEFAULT_255_2_778
10
2.863722
20
5.5457521
11
2.851822
21
5.5142521
0
LINE
8
DEFAULT_255_2_778
10
2.851822
20
5.5142521
11
2.846022
21
5.4912521
0
LINE
8
DEFAULT_255_2_778
10
2.846022
20
5.4912521
11
2.847322
21
5.3311521
0
LINE
8
DEFAULT_255_2_778
10
2.847322
20
5.3311521
11
2.870122
21
5.2872521
0
LINE
8
DEFAULT_255_2_778
10
2.870122
20
5.2872521
11
2.919822
21
5.2351521
0
LINE
8
DEFAULT_255_2_778
10
2.919822
20
5.2351521
11
3.232322
21
5.0244521
0
LINE
8
DEFAULT_255_2_778
10
3.232322
20
5.0244521
11
3.292622
21
4.9644521
0
LINE
8
DEFAULT_255_2_778
10
3.292622
20
4.9644521
11
3.327022
21
4.9107521
0
LINE
8
DEFAULT_255_2_778
10
3.327022
20
4.9107521
11
3.341322
21
4.8781521
0
LINE
8
DEFAULT_255_2_778
10
3.341322
20
4.8781521
11
3.352122
21
4.8392521
0
LINE
8
DEFAULT_255_2_778
10
3.352122
20
4.8392521
11
3.355322
21
4.8207521
0
LINE
8
DEFAULT_255_2_778
10
3.355322
20
4.8207521
11
3.355122
21
4.6956521
0
LINE
8
DEFAULT_255_2_778
10
3.355122
20
4.6956521
11
3.351422
21
4.6715521
0
LINE
8
DEFAULT_255_2_778
10
3.351422
20
4.6715521
11
3.342622
21
4.6318521
0
LINE
8
DEFAULT_255_2_778
10
3.342622
20
4.6318521
11
3.328622
21
4.5863521
0
LINE
8
DEFAULT_255_2_778
10
3.328622
20
4.5863521
11
3.304522
21
4.5315521
0
LINE
8
DEFAULT_255_2_778
10
3.304522
20
4.5315521
11
3.270922
21
4.4778521
0
LINE
8
DEFAULT_255_2_778
10
3.270922
20
4.4778521
11
3.215922
21
4.4193521
0
LINE
8
DEFAULT_255_2_778
10
3.215922
20
4.4193521
11
3.145822
21
4.3744521
0
LINE
8
DEFAULT_255_2_778
10
3.145822
20
4.3744521
11
3.071722
21
4.3532521
0
LINE
8
DEFAULT_255_2_778
10
3.071722
20
4.3532521
11
2.965122
21
4.3585521
0
LINE
8
DEFAULT_255_2_778
10
2.965122
20
4.3585521
11
2.897322
21
4.3871521
0
LINE
8
DEFAULT_255_2_778
10
2.897322
20
4.3871521
11
2.837022
21
4.4397521
0
LINE
8
DEFAULT_255_2_778
10
2.837022
20
4.4397521
11
2.803122
21
4.4887521
0
LINE
8
DEFAULT_255_2_778
10
2.803122
20
4.4887521
11
2.777222
21
4.5434521
0
LINE
8
DEFAULT_255_2_778
10
2.777222
20
4.5434521
11
2.761922
21
4.5895521
0
LINE
8
DEFAULT_255_2_778
10
2.761922
20
4.5895521
11
2.753922
21
4.6202521
0
LINE
8
DEFAULT_255_2_778
10
3.359322
20
4.7599521
11
3.359322
21
4.7633521
0
LINE
8
DEFAULT_255_2_778
10
2.829922
20
4.6474521
11
2.753922
21
4.6202521
0
LINE
8
DEFAULT_255_2_778
10
2.753922
20
4.6202521
11
2.753922
21
4.6236521
0
LINE
8
DEFAULT_255_2_778
10
2.753922
20
4.6236521
11
2.829922
21
4.6509521
0
LINE
8
DEFAULT_255_2_778
10
2.829922
20
4.6509521
11
2.829922
21
4.6474521
0
LINE
8
DEFAULT_255_2_778
10
2.829922
20
4.6474521
11
2.840222
21
4.6048521
0
LINE
8
DEFAULT_255_2_778
10
2.840222
20
4.6048521
11
2.856322
21
4.5649521
0
LINE
8
DEFAULT_255_2_778
10
2.856322
20
4.5649521
11
2.888622
21
4.5143521
0
LINE
8
DEFAULT_255_2_778
10
2.888622
20
4.5143521
11
2.936022
21
4.4733521
0
LINE
8
DEFAULT_255_2_778
10
2.936022
20
4.4733521
11
3.006322
21
4.4511521
0
LINE
8
DEFAULT_255_2_778
10
3.006322
20
4.4511521
11
3.098922
21
4.4585521
0
LINE
8
DEFAULT_255_2_778
10
3.098922
20
4.4585521
11
3.159822
21
4.4897521
0
LINE
8
DEFAULT_255_2_778
10
3.159822
20
4.4897521
11
3.204022
21
4.5315521
0
LINE
8
DEFAULT_255_2_778
10
3.204022
20
4.5315521
11
3.238422
21
4.5834521
0
LINE
8
DEFAULT_255_2_778
10
3.238422
20
4.5834521
11
3.254522
21
4.6191521
0
LINE
8
DEFAULT_255_2_778
10
3.254522
20
4.6191521
11
3.266722
21
4.6575521
0
LINE
8
DEFAULT_255_2_778
10
3.266722
20
4.6575521
11
3.275222
21
4.6969521
0
LINE
8
DEFAULT_255_2_778
10
3.275222
20
4.6969521
11
3.278122
21
4.7173521
0
LINE
8
DEFAULT_255_2_778
10
3.278122
20
4.7173521
11
3.278122
21
4.8027521
0
LINE
8
DEFAULT_255_2_778
10
3.278122
20
4.8027521
11
3.272522
21
4.8292521
0
LINE
8
DEFAULT_255_2_778
10
3.272522
20
4.8292521
11
3.262522
21
4.8556521
0
LINE
8
DEFAULT_255_2_778
10
3.262522
20
4.8556521
11
3.231022
21
4.9038521
0
LINE
8
DEFAULT_255_2_778
10
3.231022
20
4.9038521
11
3.170622
21
4.9586521
0
LINE
8
DEFAULT_255_2_778
10
3.170622
20
4.9586521
11
2.870122
21
5.1610521
0
LINE
8
DEFAULT_255_2_778
10
2.870122
20
5.1610521
11
2.814822
21
5.2200521
0
LINE
8
DEFAULT_255_2_778
10
2.814822
20
5.2200521
11
2.780422
21
5.2792521
0
LINE
8
DEFAULT_255_2_778
10
2.780422
20
5.2792521
11
2.769522
21
5.3105521
0
LINE
8
DEFAULT_255_2_778
10
2.769522
20
5.3105521
11
2.765822
21
5.3266521
0
LINE
8
DEFAULT_255_2_778
10
2.765822
20
5.3266521
11
2.766122
21
5.4859521
0
LINE
8
DEFAULT_255_2_778
10
2.766122
20
5.4859521
11
2.774322
21
5.5256521
0
LINE
8
DEFAULT_255_2_778
10
2.774322
20
5.5256521
11
2.785722
21
5.5631521
0
LINE
8
DEFAULT_255_2_778
10
2.785722
20
5.5631521
11
2.801822
21
5.6026521
0
LINE
8
DEFAULT_255_2_778
10
2.801822
20
5.6026521
11
2.834422
21
5.6581521
0
LINE
8
DEFAULT_255_2_778
10
2.834422
20
5.6581521
11
2.873822
21
5.7023521
0
LINE
8
DEFAULT_255_2_778
10
2.873822
20
5.7023521
11
2.936022
21
5.7441521
0
LINE
8
DEFAULT_255_2_778
10
2.936022
20
5.7441521
11
3.013222
21
5.7687521
0
LINE
8
DEFAULT_255_2_778
10
3.013222
20
5.7687521
11
3.119622
21
5.7687521
0
LINE
8
DEFAULT_255_2_778
10
3.119622
20
5.7687521
11
3.188622
21
5.7401521
0
LINE
8
DEFAULT_255_2_778
10
3.188622
20
5.7401521
11
3.247922
21
5.6864521
0
LINE
8
DEFAULT_255_2_778
10
3.247922
20
5.6864521
11
3.281822
21
5.6364521
0
LINE
8
DEFAULT_255_2_778
10
3.281822
20
5.6364521
11
3.306922
21
5.5824521
0
LINE
8
DEFAULT_255_2_778
10
3.306922
20
5.5824521
11
3.322822
21
5.5356521
0
LINE
8
DEFAULT_255_2_778
10
3.322822
20
5.5356521
11
3.330722
21
5.5060521
0
LINE
8
DEFAULT_255_2_778
10
5.471522
20
5.3835521
11
5.470122
21
5.4314521
0
LINE
8
DEFAULT_255_2_778
10
5.470122
20
5.4314521
11
5.468822
21
5.4512521
0
LINE
8
DEFAULT_255_2_778
10
5.468822
20
5.4512521
11
5.464322
21
5.4920521
0
LINE
8
DEFAULT_255_2_778
10
5.464322
20
5.4920521
11
5.457222
21
5.5330521
0
LINE
8
DEFAULT_255_2_778
10
5.457222
20
5.5330521
11
5.443422
21
5.5838521
0
LINE
8
DEFAULT_255_2_778
10
5.443422
20
5.5838521
11
5.415922
21
5.6467521
0
LINE
8
DEFAULT_255_2_778
10
5.415922
20
5.6467521
11
5.368322
21
5.7097521
0
LINE
8
DEFAULT_255_2_778
10
5.368322
20
5.7097521
11
5.285722
21
5.7613521
0
LINE
8
DEFAULT_255_2_778
10
5.285722
20
5.7613521
11
5.142322
21
5.7729521
0
LINE
8
DEFAULT_255_2_778
10
5.142322
20
5.7729521
11
5.044222
21
5.7348521
0
LINE
8
DEFAULT_255_2_778
10
5.044222
20
5.7348521
11
4.974822
21
5.6645521
0
LINE
8
DEFAULT_255_2_778
10
4.974822
20
5.6645521
11
4.947622
21
5.6123521
0
LINE
8
DEFAULT_255_2_778
10
4.947622
20
5.6123521
11
4.943622
21
5.6015521
0
LINE
8
DEFAULT_255_2_778
10
4.943622
20
5.6015521
11
4.943622
21
5.5981521
0
LINE
8
DEFAULT_255_2_778
10
4.943622
20
5.5981521
11
4.965022
21
5.6452521
0
LINE
8
DEFAULT_255_2_778
10
4.965022
20
5.6452521
11
5.010622
21
5.7036521
0
LINE
8
DEFAULT_255_2_778
10
5.010622
20
5.7036521
11
5.085422
21
5.7536521
0
LINE
8
DEFAULT_255_2_778
10
5.085422
20
5.7536521
11
5.194422
21
5.7727521
0
LINE
8
DEFAULT_255_2_778
10
5.194422
20
5.7727521
11
5.296822
21
5.7531521
0
LINE
8
DEFAULT_255_2_778
10
5.296822
20
5.7531521
11
5.369122
21
5.7050521
0
LINE
8
DEFAULT_255_2_778
10
5.369122
20
5.7050521
11
5.411122
21
5.6504521
0
LINE
8
DEFAULT_255_2_778
10
5.411122
20
5.6504521
11
5.436822
21
5.5967521
0
LINE
8
DEFAULT_255_2_778
10
5.436822
20
5.5967521
11
5.453222
21
5.5433521
0
LINE
8
DEFAULT_255_2_778
10
5.453222
20
5.5433521
11
5.460922
21
5.5060521
0
LINE
8
DEFAULT_255_2_778
10
5.460922
20
5.5060521
11
5.466722
21
5.4650521
0
LINE
8
DEFAULT_255_2_778
10
5.466722
20
5.4650521
11
5.465422
21
5.2967521
0
LINE
8
DEFAULT_255_2_778
10
5.465422
20
5.2967521
11
5.456622
21
5.2594521
0
LINE
8
DEFAULT_255_2_778
10
5.456622
20
5.2594521
11
5.434922
21
5.2067521
0
LINE
8
DEFAULT_255_2_778
10
5.434922
20
5.2067521
11
5.389422
21
5.1459521
0
LINE
8
DEFAULT_255_2_778
10
5.389422
20
5.1459521
11
5.313222
21
5.0877521
0
LINE
8
DEFAULT_255_2_778
10
5.313222
20
5.0877521
11
5.406622
21
5.0131521
0
LINE
8
DEFAULT_255_2_778
10
5.406622
20
5.0131521
11
5.444522
21
4.9583521
0
LINE
8
DEFAULT_255_2_778
10
5.444522
20
4.9583521
11
5.464022
21
4.9093521
0
LINE
8
DEFAULT_255_2_778
10
5.464022
20
4.9093521
11
5.471722
21
4.8792521
0
LINE
8
DEFAULT_255_2_778
10
5.471722
20
4.8792521
11
5.477022
21
4.8469521
0
LINE
8
DEFAULT_255_2_778
10
5.477022
20
4.8469521
11
5.479722
21
4.8141521
0
LINE
8
DEFAULT_255_2_778
10
5.479722
20
4.8141521
11
5.480222
21
4.7943521
0
LINE
8
DEFAULT_255_2_778
10
5.480222
20
4.7943521
11
5.478122
21
4.7204521
0
LINE
8
DEFAULT_255_2_778
10
5.478122
20
4.7204521
11
5.476022
21
4.6964521
0
LINE
8
DEFAULT_255_2_778
10
5.476022
20
4.6964521
11
5.470922
21
4.6556521
0
LINE
8
DEFAULT_255_2_778
10
5.470922
20
4.6556521
11
5.463322
21
4.6138521
0
LINE
8
DEFAULT_255_2_778
10
5.463322
20
4.6138521
11
5.452722
21
4.5733521
0
LINE
8
DEFAULT_255_2_778
10
5.452722
20
4.5733521
11
5.428622
21
4.5112521
0
LINE
8
DEFAULT_255_2_778
10
5.428622
20
4.5112521
11
5.383422
21
4.4410521
0
LINE
8
DEFAULT_255_2_778
10
5.383422
20
4.4410521
11
5.321722
21
4.3889521
0
LINE
8
DEFAULT_255_2_778
10
5.321722
20
4.3889521
11
5.232822
21
4.3569521
0
LINE
8
DEFAULT_255_2_778
10
5.232822
20
4.3569521
11
5.094222
21
4.3635521
0
LINE
8
DEFAULT_255_2_778
10
5.094222
20
4.3635521
11
5.014522
21
4.4093521
0
LINE
8
DEFAULT_255_2_778
10
5.014522
20
4.4093521
11
4.976222
21
4.4556521
0
LINE
8
DEFAULT_255_2_778
10
4.976222
20
4.4556521
11
4.947822
21
4.5141521
0
LINE
8
DEFAULT_255_2_778
10
4.947822
20
4.5141521
11
4.942322
21
4.5289521
0
LINE
8
DEFAULT_255_2_778
10
5.013522
20
4.5696521
11
4.942322
21
4.5289521
0
LINE
8
DEFAULT_255_2_778
10
4.942322
20
4.5289521
11
4.942322
21
4.5323521
0
LINE
8
DEFAULT_255_2_778
10
4.942322
20
4.5323521
11
5.013522
21
4.5731521
0
LINE
8
DEFAULT_255_2_778
10
5.013522
20
4.5731521
11
5.013522
21
4.5696521
0
LINE
8
DEFAULT_255_2_778
10
5.013522
20
4.5696521
11
5.036522
21
4.5201521
0
LINE
8
DEFAULT_255_2_778
10
5.036522
20
4.5201521
11
5.083022
21
4.4728521
0
LINE
8
DEFAULT_255_2_778
10
5.083022
20
4.4728521
11
5.195022
21
4.4519521
0
LINE
8
DEFAULT_255_2_778
10
5.195022
20
4.4519521
11
5.291522
21
4.4813521
0
LINE
8
DEFAULT_255_2_778
10
5.291522
20
4.4813521
11
5.342922
21
4.5318521
0
LINE
8
DEFAULT_255_2_778
10
5.342922
20
4.5318521
11
5.368822
21
4.5826521
0
LINE
8
DEFAULT_255_2_778
10
5.368822
20
4.5826521
11
5.383922
21
4.6323521
0
LINE
8
DEFAULT_255_2_778
10
5.383922
20
4.6323521
11
5.390222
21
4.6643521
0
LINE
8
DEFAULT_255_2_778
10
5.390222
20
4.6643521
11
5.395522
21
4.7017521
0
LINE
8
DEFAULT_255_2_778
10
5.395522
20
4.7017521
11
5.393722
21
4.8580521
0
LINE
8
DEFAULT_255_2_778
10
5.393722
20
4.8580521
11
5.379422
21
4.8990521
0
LINE
8
DEFAULT_255_2_778
10
5.379422
20
4.8990521
11
5.344522
21
4.9527521
0
LINE
8
DEFAULT_255_2_778
10
5.344522
20
4.9527521
11
5.264622
21
5.0099521
0
LINE
8
DEFAULT_255_2_778
10
5.264622
20
5.0099521
11
5.183922
21
5.0356521
0
LINE
8
DEFAULT_255_2_778
10
5.183922
20
5.0356521
11
5.179122
21
5.1327521
0
LINE
8
DEFAULT_255_2_778
10
5.179122
20
5.1327521
11
5.318522
21
5.2001521
0
LINE
8
DEFAULT_255_2_778
10
5.318522
20
5.2001521
11
5.364022
21
5.2552521
0
LINE
8
DEFAULT_255_2_778
10
5.364022
20
5.2552521
11
5.380222
21
5.2914521
0
LINE
8
DEFAULT_255_2_778
10
5.380222
20
5.2914521
11
5.387622
21
5.3229521
0
LINE
8
DEFAULT_255_2_778
10
5.387622
20
5.3229521
11
5.386022
21
5.4724521
0
LINE
8
DEFAULT_255_2_778
10
5.386022
20
5.4724521
11
5.380222
21
5.5039521
0
LINE
8
DEFAULT_255_2_778
10
5.380222
20
5.5039521
11
5.364822
21
5.5536521
0
LINE
8
DEFAULT_255_2_778
10
5.364822
20
5.5536521
11
5.332622
21
5.6121521
0
LINE
8
DEFAULT_255_2_778
10
5.332622
20
5.6121521
11
5.268822
21
5.6608521
0
LINE
8
DEFAULT_255_2_778
10
5.268822
20
5.6608521
11
5.157722
21
5.6732521
0
LINE
8
DEFAULT_255_2_778
10
5.157722
20
5.6732521
11
5.074322
21
5.6399521
0
LINE
8
DEFAULT_255_2_778
10
5.074322
20
5.6399521
11
5.032222
21
5.5912521
0
LINE
8
DEFAULT_255_2_778
10
5.032222
20
5.5912521
11
5.013722
21
5.5533521
0
LINE
8
DEFAULT_255_2_778
10
5.013722
20
5.5533521
11
4.942622
21
5.5981521
0
LINE
8
DEFAULT_255_2_778
10
6.789922
20
5.3570521
11
6.792822
21
5.3922521
0
LINE
8
DEFAULT_255_2_778
10
6.792822
20
5.3922521
11
6.798922
21
5.4465521
0
LINE
8
DEFAULT_255_2_778
10
6.798922
20
5.4465521
11
6.808122
21
5.5010521
0
LINE
8
DEFAULT_255_2_778
10
6.808122
20
5.5010521
11
6.821622
21
5.5578521
0
LINE
8
DEFAULT_255_2_778
10
6.821622
20
5.5578521
11
6.838822
21
5.6084521
0
LINE
8
DEFAULT_255_2_778
10
6.838822
20
5.6084521
11
6.878222
21
5.6803521
0
LINE
8
DEFAULT_255_2_778
10
6.878222
20
5.6803521
11
6.942022
21
5.7412521
0
LINE
8
DEFAULT_255_2_778
10
6.942022
20
5.7412521
11
7.034622
21
5.7740521
0
LINE
8
DEFAULT_255_2_778
10
7.034622
20
5.7740521
11
7.163522
21
5.7621521
0
LINE
8
DEFAULT_255_2_778
10
7.163522
20
5.7621521
11
7.246322
21
5.7124521
0
LINE
8
DEFAULT_255_2_778
10
7.246322
20
5.7124521
11
7.302422
21
5.6433521
0
LINE
8
DEFAULT_255_2_778
10
7.302422
20
5.6433521
11
7.324922
21
5.5981521
0
LINE
8
DEFAULT_255_2_778
10
7.324922
20
5.5981521
11
7.324922
21
5.5946521
0
LINE
8
DEFAULT_255_2_778
10
7.324922
20
5.5946521
11
7.252922
21
5.5499521
0
LINE
8
DEFAULT_255_2_778
10
7.252922
20
5.5499521
11
7.219322
21
5.6084521
0
LINE
8
DEFAULT_255_2_778
10
7.219322
20
5.6084521
11
7.156622
21
5.6586521
0
LINE
8
DEFAULT_255_2_778
10
7.156622
20
5.6586521
11
7.060322
21
5.6758521
0
LINE
8
DEFAULT_255_2_778
10
7.060322
20
5.6758521
11
6.969822
21
5.6444521
0
LINE
8
DEFAULT_255_2_778
10
6.969822
20
5.6444521
11
6.922722
21
5.5862521
0
LINE
8
DEFAULT_255_2_778
10
6.922722
20
5.5862521
11
6.899722
21
5.5309521
0
LINE
8
DEFAULT_255_2_778
10
6.899722
20
5.5309521
11
6.884922
21
5.4726521
0
LINE
8
DEFAULT_255_2_778
10
6.884922
20
5.4726521
11
6.877722
21
5.4306521
0
LINE
8
DEFAULT_255_2_778
10
6.877722
20
5.4306521
11
6.872722
21
5.3906521
0
LINE
8
DEFAULT_255_2_778
10
6.872722
20
5.3906521
11
6.870322
21
5.3660521
0
LINE
8
DEFAULT_255_2_778
10
6.870322
20
5.3660521
11
6.868522
21
5.3388521
0
LINE
8
DEFAULT_255_2_778
10
6.868522
20
5.3388521
11
6.866322
21
5.2948521
0
LINE
8
DEFAULT_255_2_778
10
6.866322
20
5.2948521
11
6.864522
21
5.2353521
0
LINE
8
DEFAULT_255_2_778
10
6.864522
20
5.2353521
11
6.862122
21
5.0570521
0
LINE
8
DEFAULT_255_2_778
10
6.862122
20
5.0570521
11
6.862122
21
5.0678521
0
LINE
8
DEFAULT_255_2_778
10
7.291322
20
4.9170521
11
7.284922
21
4.9649521
0
LINE
8
DEFAULT_255_2_778
10
7.284922
20
4.9649521
11
7.278022
21
4.9993521
0
LINE
8
DEFAULT_255_2_778
10
7.278022
20
4.9993521
11
7.264522
21
5.0440521
0
LINE
8
DEFAULT_255_2_778
10
7.264522
20
5.0440521
11
7.235422
21
5.0991521
0
LINE
8
DEFAULT_255_2_778
10
7.235422
20
5.0991521
11
7.185422
21
5.1401521
0
LINE
8
DEFAULT_255_2_778
10
7.185422
20
5.1401521
11
7.120322
21
5.1536521
0
LINE
8
DEFAULT_255_2_778
10
7.120322
20
5.1536521
11
7.029122
21
5.1319521
0
LINE
8
DEFAULT_255_2_778
10
7.029122
20
5.1319521
11
6.976122
21
5.0864521
0
LINE
8
DEFAULT_255_2_778
10
6.976122
20
5.0864521
11
6.924522
21
5.0046521
0
LINE
8
DEFAULT_255_2_778
10
6.924522
20
5.0046521
11
6.898622
21
4.9347521
0
LINE
8
DEFAULT_255_2_778
10
6.898622
20
4.9347521
11
6.888322
21
4.8847521
0
LINE
8
DEFAULT_255_2_778
10
6.888322
20
4.8847521
11
6.888622
21
4.6868521
0
LINE
8
DEFAULT_255_2_778
10
6.888622
20
4.6868521
11
6.904222
21
4.6281521
0
LINE
8
DEFAULT_255_2_778
10
6.904222
20
4.6281521
11
6.927522
21
4.5739521
0
LINE
8
DEFAULT_255_2_778
10
6.927522
20
4.5739521
11
6.968522
21
4.5138521
0
LINE
8
DEFAULT_255_2_778
10
6.968522
20
4.5138521
11
7.033322
21
4.4622521
0
LINE
8
DEFAULT_255_2_778
10
7.033322
20
4.4622521
11
7.122222
21
4.4519521
0
LINE
8
DEFAULT_255_2_778
10
7.122222
20
4.4519521
11
7.192622
21
4.4818521
0
LINE
8
DEFAULT_255_2_778
10
7.192622
20
4.4818521
11
7.238322
21
4.5363521
0
LINE
8
DEFAULT_255_2_778
10
7.238322
20
4.5363521
11
7.262422
21
4.5863521
0
LINE
8
DEFAULT_255_2_778
10
7.262422
20
4.5863521
11
7.275722
21
4.6286521
0
LINE
8
DEFAULT_255_2_778
10
7.275722
20
4.6286521
11
7.283322
21
4.6633521
0
LINE
8
DEFAULT_255_2_778
10
7.283322
20
4.6633521
11
7.288622
21
4.6993521
0
LINE
8
DEFAULT_255_2_778
10
7.288622
20
4.6993521
11
7.291322
21
4.9170521
0
LINE
8
DEFAULT_255_2_778
10
7.117722
20
5.2562521
11
7.238322
21
5.2221521
0
LINE
8
DEFAULT_255_2_778
10
7.238322
20
5.2221521
11
7.298722
21
5.1607521
0
LINE
8
DEFAULT_255_2_778
10
7.298722
20
5.1607521
11
7.333922
21
5.0930521
0
LINE
8
DEFAULT_255_2_778
10
7.333922
20
5.0930521
11
7.353222
21
5.0313521
0
LINE
8
DEFAULT_255_2_778
10
7.353222
20
5.0313521
11
7.363022
21
4.9816521
0
LINE
8
DEFAULT_255_2_778
10
7.363022
20
4.9816521
11
7.368022
21
4.9456521
0
LINE
8
DEFAULT_255_2_778
10
7.368022
20
4.9456521
11
7.371722
21
4.9072521
0
LINE
8
DEFAULT_255_2_778
10
7.371722
20
4.9072521
11
7.370622
21
4.7080521
0
LINE
8
DEFAULT_255_2_778
10
7.370622
20
4.7080521
11
7.367222
21
4.6741521
0
LINE
8
DEFAULT_255_2_778
10
7.367222
20
4.6741521
11
7.360122
21
4.6260521
0
LINE
8
DEFAULT_255_2_778
10
7.360122
20
4.6260521
11
7.347422
21
4.5707521
0
LINE
8
DEFAULT_255_2_778
10
7.347422
20
4.5707521
11
7.330922
21
4.5223521
0
LINE
8
DEFAULT_255_2_778
10
7.330922
20
4.5223521
11
7.304022
21
4.4688521
0
LINE
8
DEFAULT_255_2_778
10
7.304022
20
4.4688521
11
7.259222
21
4.4138521
0
LINE
8
DEFAULT_255_2_778
10
7.259222
20
4.4138521
11
7.203922
21
4.3752521
0
LINE
8
DEFAULT_255_2_778
10
7.203922
20
4.3752521
11
7.131522
21
4.3532521
0
LINE
8
DEFAULT_255_2_778
10
7.131522
20
4.3532521
11
7.021422
21
4.3585521
0
LINE
8
DEFAULT_255_2_778
10
7.021422
20
4.3585521
11
6.960022
21
4.3844521
0
LINE
8
DEFAULT_255_2_778
10
6.960022
20
4.3844521
11
6.902322
21
4.4342521
0
LINE
8
DEFAULT_255_2_778
10
6.902322
20
4.4342521
11
6.860322
21
4.4971521
0
LINE
8
DEFAULT_255_2_778
10
6.860322
20
4.4971521
11
6.839622
21
4.5434521
0
LINE
8
DEFAULT_255_2_778
10
6.839622
20
4.5434521
11
6.824022
21
4.5911521
0
LINE
8
DEFAULT_255_2_778
10
6.824022
20
4.5911521
11
6.809522
21
4.6538521
0
LINE
8
DEFAULT_255_2_778
10
6.809522
20
4.6538521
11
6.803122
21
4.6892521
0
LINE
8
DEFAULT_255_2_778
10
6.803122
20
4.6892521
11
6.796222
21
4.7392521
0
LINE
8
DEFAULT_255_2_778
10
6.796222
20
4.7392521
11
6.790922
21
4.7935521
0
LINE
8
DEFAULT_255_2_778
10
6.790922
20
4.7935521
11
6.791522
21
5.3673521
0
LINE
8
DEFAULT_255_2_778
10
6.791522
20
5.3673521
11
6.795222
21
5.4070521
0
LINE
8
DEFAULT_255_2_778
10
6.795222
20
5.4070521
11
6.801822
21
5.4581521
0
LINE
8
DEFAULT_255_2_778
10
6.801822
20
5.4581521
11
6.811822
21
5.5131521
0
LINE
8
DEFAULT_255_2_778
10
6.811822
20
5.5131521
11
6.825922
21
5.5676521
0
LINE
8
DEFAULT_255_2_778
10
6.825922
20
5.5676521
11
6.843922
21
5.6158521
0
LINE
8
DEFAULT_255_2_778
10
6.843922
20
5.6158521
11
6.869322
21
5.6634521
0
LINE
8
DEFAULT_255_2_778
10
6.869322
20
5.6634521
11
6.900722
21
5.7034521
0
LINE
8
DEFAULT_255_2_778
10
6.900722
20
5.7034521
11
6.961922
21
5.7489521
0
LINE
8
DEFAULT_255_2_778
10
6.961922
20
5.7489521
11
7.049722
21
5.7722521
0
LINE
8
DEFAULT_255_2_778
10
7.049722
20
5.7722521
11
7.132822
21
5.7674521
0
LINE
8
DEFAULT_255_2_778
10
7.132822
20
5.7674521
11
7.211122
21
5.7354521
0
LINE
8
DEFAULT_255_2_778
10
7.211122
20
5.7354521
11
7.273522
21
5.6809521
0
LINE
8
DEFAULT_255_2_778
10
7.273522
20
5.6809521
11
7.302622
21
5.6399521
0
LINE
8
DEFAULT_255_2_778
10
7.302622
20
5.6399521
11
7.325122
21
5.5946521
0
LINE
8
DEFAULT_255_2_778
10
6.862122
20
5.0573521
11
6.899122
21
5.1266521
0
LINE
8
DEFAULT_255_2_778
10
6.899122
20
5.1266521
11
7.000522
21
5.2247521
0
LINE
8
DEFAULT_255_2_778
10
7.000522
20
5.2247521
11
7.089922
21
5.2515521
0
LINE
8
DEFAULT_255_2_778
10
7.089922
20
5.2515521
11
7.089922
21
5.2549521
0
LINE
8
DEFAULT_255_2_778
10
7.089922
20
5.2549521
11
6.949422
21
5.1906521
0
LINE
8
DEFAULT_255_2_778
10
6.949422
20
5.1906521
11
6.871122
21
5.0816521
0
LINE
8
DEFAULT_255_2_778
10
6.871122
20
5.0816521
11
6.862422
21
5.0610521
0
LINE
8
DEFAULT_255_2_778
10
9.299422
20
5.4539521
11
9.306622
21
5.4959521
0
LINE
8
DEFAULT_255_2_778
10
9.306622
20
5.4959521
11
9.320622
21
5.5531521
0
LINE
8
DEFAULT_255_2_778
10
9.320622
20
5.5531521
11
9.330422
21
5.5785521
0
LINE
8
DEFAULT_255_2_778
10
9.330422
20
5.5785521
11
9.316622
21
5.5348521
0
LINE
8
DEFAULT_255_2_778
10
9.316622
20
5.5348521
11
9.304522
21
5.4798521
0
LINE
8
DEFAULT_255_2_778
10
9.304522
20
5.4798521
11
9.297122
21
5.4311521
0
LINE
8
DEFAULT_255_2_778
10
9.297122
20
5.4311521
11
9.292622
21
5.3922521
0
LINE
8
DEFAULT_255_2_778
10
9.292622
20
5.3922521
11
9.289122
21
5.3520521
0
LINE
8
DEFAULT_255_2_778
10
9.289122
20
5.3520521
11
9.289422
21
4.7678521
0
LINE
8
DEFAULT_255_2_778
10
9.289422
20
4.7678521
11
9.292822
21
4.7284521
0
LINE
8
DEFAULT_255_2_778
10
9.292822
20
4.7284521
11
9.299722
21
4.6731521
0
LINE
8
DEFAULT_255_2_778
10
9.299722
20
4.6731521
11
9.305022
21
4.6416521
0
LINE
8
DEFAULT_255_2_778
10
9.305022
20
4.6416521
11
9.318522
21
4.5821521
0
LINE
8
DEFAULT_255_2_778
10
9.318522
20
4.5821521
11
9.337322
21
4.5262521
0
LINE
8
DEFAULT_255_2_778
10
9.337322
20
4.5262521
11
9.363222
21
4.4736521
0
LINE
8
DEFAULT_255_2_778
10
9.363222
20
4.4736521
11
9.409522
21
4.4146521
0
LINE
8
DEFAULT_255_2_778
10
9.409522
20
4.4146521
11
9.466722
21
4.3754521
0
LINE
8
DEFAULT_255_2_778
10
9.466722
20
4.3754521
11
9.543422
21
4.3540521
0
LINE
8
DEFAULT_255_2_778
10
9.543422
20
4.3540521
11
9.633422
21
4.3606521
0
LINE
8
DEFAULT_255_2_778
10
9.633422
20
4.3606521
11
9.699822
21
4.3908521
0
LINE
8
DEFAULT_255_2_778
10
9.699822
20
4.3908521
11
9.754322
21
4.4439521
0
LINE
8
DEFAULT_255_2_778
10
9.754322
20
4.4439521
11
9.782822
21
4.4889521
0
LINE
8
DEFAULT_255_2_778
10
9.782822
20
4.4889521
11
9.804822
21
4.5373521
0
LINE
8
DEFAULT_255_2_778
10
9.804822
20
4.5373521
11
9.821222
21
4.5881521
0
LINE
8
DEFAULT_255_2_778
10
9.821222
20
4.5881521
11
9.834222
21
4.6445521
0
LINE
8
DEFAULT_255_2_778
10
9.834222
20
4.6445521
11
9.841822
21
4.6919521
0
LINE
8
DEFAULT_255_2_778
10
9.841822
20
4.6919521
11
9.845822
21
4.7265521
0
LINE
8
DEFAULT_255_2_778
10
9.845822
20
4.7265521
11
9.845022
21
5.4123521
0
LINE
8
DEFAULT_255_2_778
10
9.845022
20
5.4123521
11
9.841122
21
5.4451521
0
LINE
8
DEFAULT_255_2_778
10
9.841122
20
5.4451521
11
9.831322
21
5.5031521
0
LINE
8
DEFAULT_255_2_778
10
9.831322
20
5.5031521
11
9.820122
21
5.5496521
0
LINE
8
DEFAULT_255_2_778
10
9.820122
20
5.5496521
11
9.803522
21
5.5994521
0
LINE
8
DEFAULT_255_2_778
10
9.803522
20
5.5994521
11
9.770122
21
5.6645521
0
LINE
8
DEFAULT_255_2_778
10
9.770122
20
5.6645521
11
9.716722
21
5.7248521
0
LINE
8
DEFAULT_255_2_778
10
9.716722
20
5.7248521
11
9.634422
21
5.7658521
0
LINE
8
DEFAULT_255_2_778
10
9.634422
20
5.7658521
11
9.526222
21
5.7703521
0
LINE
8
DEFAULT_255_2_778
10
9.332522
20
5.5862521
11
9.335722
21
5.5933521
0
LINE
8
DEFAULT_255_2_778
10
9.335722
20
5.5933521
11
9.354222
21
5.6346521
0
LINE
8
DEFAULT_255_2_778
10
9.354222
20
5.6346521
11
9.358522
21
5.6415521
0
LINE
8
DEFAULT_255_2_778
10
9.358522
20
5.6415521
11
9.382822
21
5.6796521
0
LINE
8
DEFAULT_255_2_778
10
9.382822
20
5.6796521
11
9.390722
21
5.6875521
0
LINE
8
DEFAULT_255_2_778
10
9.390722
20
5.6875521
11
9.421722
21
5.7179521
0
LINE
8
DEFAULT_255_2_778
10
9.421722
20
5.7179521
11
9.406622
21
5.7102521
0
LINE
8
DEFAULT_255_2_778
10
9.406622
20
5.7102521
11
9.390522
21
5.6872521
0
LINE
8
DEFAULT_255_2_778
10
9.500522
20
5.7608521
11
9.431522
21
5.7274521
0
LINE
8
DEFAULT_255_2_778
10
9.431522
20
5.7274521
11
9.421422
21
5.7177521
0
LINE
8
DEFAULT_255_2_778
10
9.362222
20
4.9522521
11
9.362222
21
4.9967521
0
LINE
8
DEFAULT_255_2_778
10
9.361422
20
5.0652521
11
9.362222
21
4.9967521
0
LINE
8
DEFAULT_255_2_778
10
9.776022
20
4.9697521
11
9.776022
21
4.9781521
0
LINE
8
DEFAULT_255_2_778
10
9.775722
20
4.9546521
11
9.775722
21
4.9697521
0
LINE
8
DEFAULT_255_2_778
10
9.775722
20
4.9697521
11
9.776022
21
5.0292521
0
LINE
8
DEFAULT_255_2_778
10
9.776022
20
5.0673521
11
9.774122
21
5.2602521
0
LINE
8
DEFAULT_255_2_778
10
9.774122
20
5.2602521
11
9.772522
21
5.3083521
0
LINE
8
DEFAULT_255_2_778
10
9.772522
20
5.3083521
11
9.770422
21
5.3491521
0
LINE
8
DEFAULT_255_2_778
10
9.770422
20
5.3491521
11
9.768022
21
5.3785521
0
LINE
8
DEFAULT_255_2_778
10
9.768022
20
5.3785521
11
9.764922
21
5.4094521
0
LINE
8
DEFAULT_255_2_778
10
9.764922
20
5.4094521
11
9.761122
21
5.4375521
0
LINE
8
DEFAULT_255_2_778
10
9.761122
20
5.4375521
11
9.752922
21
5.4814521
0
LINE
8
DEFAULT_255_2_778
10
9.752922
20
5.4814521
11
9.741322
21
5.5248521
0
LINE
8
DEFAULT_255_2_778
10
9.741322
20
5.5248521
11
9.717822
21
5.5814521
0
LINE
8
DEFAULT_255_2_778
10
9.717822
20
5.5814521
11
9.687922
21
5.6224521
0
LINE
8
DEFAULT_255_2_778
10
9.687922
20
5.6224521
11
9.632822
21
5.6608521
0
LINE
8
DEFAULT_255_2_778
10
9.632822
20
5.6608521
11
9.576722
21
5.6721521
0
LINE
8
DEFAULT_255_2_778
10
9.576722
20
5.6721521
11
9.502122
21
5.6589521
0
LINE
8
DEFAULT_255_2_778
10
9.502122
20
5.6589521
11
9.454822
21
5.6293521
0
LINE
8
DEFAULT_255_2_778
10
9.454822
20
5.6293521
11
9.425722
21
5.5925521
0
LINE
8
DEFAULT_255_2_778
10
9.425722
20
5.5925521
11
9.404522
21
5.5491521
0
LINE
8
DEFAULT_255_2_778
10
9.404522
20
5.5491521
11
9.389922
21
5.5047521
0
LINE
8
DEFAULT_255_2_778
10
9.389922
20
5.5047521
11
9.379922
21
5.4581521
0
LINE
8
DEFAULT_255_2_778
10
9.379922
20
5.4581521
11
9.372722
21
5.4078521
0
LINE
8
DEFAULT_255_2_778
10
9.372722
20
5.4078521
11
9.368222
21
5.3602521
0
LINE
8
DEFAULT_255_2_778
10
9.368222
20
5.3602521
11
9.365922
21
5.3224521
0
LINE
8
DEFAULT_255_2_778
10
9.365922
20
5.3224521
11
9.363522
21
5.2583521
0
LINE
8
DEFAULT_255_2_778
10
9.363522
20
5.2583521
11
9.362222
21
4.9972521
0
LINE
8
DEFAULT_255_2_778
10
9.362222
20
4.9972521
11
9.363522
21
4.8644521
0
LINE
8
DEFAULT_255_2_778
10
9.363522
20
4.8644521
11
9.365322
21
4.8138521
0
LINE
8
DEFAULT_255_2_778
10
9.365322
20
4.8138521
11
9.367722
21
4.7760521
0
LINE
8
DEFAULT_255_2_778
10
9.367722
20
4.7760521
11
9.369622
21
4.7530521
0
LINE
8
DEFAULT_255_2_778
10
9.369622
20
4.7530521
11
9.373322
21
4.7196521
0
LINE
8
DEFAULT_255_2_778
10
9.373322
20
4.7196521
11
9.377522
21
4.6884521
0
LINE
8
DEFAULT_255_2_778
10
9.377522
20
4.6884521
11
9.384922
21
4.6466521
0
LINE
8
DEFAULT_255_2_778
10
9.384922
20
4.6466521
11
9.396022
21
4.6024521
0
LINE
8
DEFAULT_255_2_778
10
9.396022
20
4.6024521
11
9.411122
21
4.5606521
0
LINE
8
DEFAULT_255_2_778
10
9.411122
20
4.5606521
11
9.432522
21
4.5220521
0
LINE
8
DEFAULT_255_2_778
10
9.432522
20
4.5220521
11
9.479922
21
4.4752521
0
LINE
8
DEFAULT_255_2_778
10
9.479922
20
4.4752521
11
9.533322
21
4.4559521
0
LINE
8
DEFAULT_255_2_778
10
9.533322
20
4.4559521
11
9.630722
21
4.4627521
0
LINE
8
DEFAULT_255_2_778
10
9.630722
20
4.4627521
11
9.678922
21
4.4934521
0
LINE
8
DEFAULT_255_2_778
10
9.678922
20
4.4934521
11
9.715422
21
4.5413521
0
LINE
8
DEFAULT_255_2_778
10
9.715422
20
4.5413521
11
9.735522
21
4.5876521
0
LINE
8
DEFAULT_255_2_778
10
9.735522
20
4.5876521
11
9.750322
21
4.6397521
0
LINE
8
DEFAULT_255_2_778
10
9.750322
20
4.6397521
11
9.760122
21
4.6903521
0
LINE
8
DEFAULT_255_2_778
10
9.760122
20
4.6903521
11
9.764122
21
4.7191521
0
LINE
8
DEFAULT_255_2_778
10
9.764122
20
4.7191521
11
9.768622
21
4.7620521
0
LINE
8
DEFAULT_255_2_778
10
9.768622
20
4.7620521
11
9.771522
21
4.7990521
0
LINE
8
DEFAULT_255_2_778
10
9.771522
20
4.7990521
11
9.772522
21
4.8160521
0
LINE
8
DEFAULT_255_2_778
10
9.772522
20
4.8160521
11
9.774122
21
4.8580521
0
LINE
8
DEFAULT_255_2_778
10
9.774122
20
4.8580521
11
9.775722
21
4.9705521
0
LINE
8
DEFAULT_255_2_778
10
9.776222
20
5.0673521
11
9.776222
21
5.0678521
0
LINE
8
DEFAULT_255_2_778
10
9.776222
20
5.0469521
11
9.776222
21
5.0297521
0
LINE
8
DEFAULT_255_2_778
10
9.776222
20
4.9938521
11
9.776522
21
5.0700521
0
LINE
8
DEFAULT_255_2_778
10
10.352822
20
5.6589521
11
10.407822
21
5.6131521
0
LINE
8
DEFAULT_255_2_778
10
10.407822
20
5.6131521
11
10.437722
21
5.5645521
0
LINE
8
DEFAULT_255_2_778
10
10.437722
20
5.5645521
11
10.461222
21
5.4970521
0
LINE
8
DEFAULT_255_2_778
10
10.461222
20
5.4970521
11
10.472922
21
5.4454521
0
LINE
8
DEFAULT_255_2_778
10
10.472922
20
5.4454521
11
10.481122
21
5.3933521
0
LINE
8
DEFAULT_255_2_778
10
10.481122
20
5.3933521
11
10.484822
21
5.3597521
0
LINE
8
DEFAULT_255_2_778
10
10.484822
20
5.3597521
11
10.488022
21
5.3229521
0
LINE
8
DEFAULT_255_2_778
10
10.488022
20
5.3229521
11
10.490322
21
5.2880521
0
LINE
8
DEFAULT_255_2_778
10
10.490322
20
5.2880521
11
10.492522
21
5.2395521
0
LINE
8
DEFAULT_255_2_778
10
10.492522
20
5.2395521
11
10.494022
21
5.1824521
0
LINE
8
DEFAULT_255_2_778
10
10.494022
20
5.1824521
11
10.495922
21
4.9522521
0
LINE
8
DEFAULT_255_2_778
10
10.495622
20
4.9766521
11
10.493822
21
4.8556521
0
LINE
8
DEFAULT_255_2_778
10
10.493822
20
4.8556521
11
10.492222
21
4.8136521
0
LINE
8
DEFAULT_255_2_778
10
10.492222
20
4.8136521
11
10.491122
21
4.7966521
0
LINE
8
DEFAULT_255_2_778
10
10.491122
20
4.7966521
11
10.488522
21
4.7596521
0
LINE
8
DEFAULT_255_2_778
10
10.488522
20
4.7596521
11
10.484022
21
4.7167521
0
LINE
8
DEFAULT_255_2_778
10
10.484022
20
4.7167521
11
10.480022
21
4.6879521
0
LINE
8
DEFAULT_255_2_778
10
10.480022
20
4.6879521
11
10.470222
21
4.6374521
0
LINE
8
DEFAULT_255_2_778
10
10.470222
20
4.6374521
11
10.455422
21
4.5852521
0
LINE
8
DEFAULT_255_2_778
10
10.455422
20
4.5852521
11
10.435322
21
4.5389521
0
LINE
8
DEFAULT_255_2_778
10
10.435322
20
4.5389521
11
10.398822
21
4.4910521
0
LINE
8
DEFAULT_255_2_778
10
10.398822
20
4.4910521
11
10.350622
21
4.4604521
0
LINE
8
DEFAULT_255_2_778
10
10.350622
20
4.4604521
11
10.253322
21
4.4535521
0
LINE
8
DEFAULT_255_2_778
10
10.253322
20
4.4535521
11
10.199822
21
4.4728521
0
LINE
8
DEFAULT_255_2_778
10
10.199822
20
4.4728521
11
10.152522
21
4.5196521
0
LINE
8
DEFAULT_255_2_778
10
10.152522
20
4.5196521
11
10.131022
21
4.5582521
0
LINE
8
DEFAULT_255_2_778
10
10.131022
20
4.5582521
11
10.116022
21
4.6001521
0
LINE
8
DEFAULT_255_2_778
10
10.116022
20
4.6001521
11
10.104822
21
4.6442521
0
LINE
8
DEFAULT_255_2_778
10
10.104822
20
4.6442521
11
10.097422
21
4.6860521
0
LINE
8
DEFAULT_255_2_778
10
10.097422
20
4.6860521
11
10.093222
21
4.7173521
0
LINE
8
DEFAULT_255_2_778
10
10.093222
20
4.7173521
11
10.089522
21
4.7506521
0
LINE
8
DEFAULT_255_2_778
10
10.089522
20
4.7506521
11
10.087622
21
4.7736521
0
LINE
8
DEFAULT_255_2_778
10
10.087622
20
4.7736521
11
10.085322
21
4.8115521
0
LINE
8
DEFAULT_255_2_778
10
10.085322
20
4.8115521
11
10.083422
21
4.8620521
0
LINE
8
DEFAULT_255_2_778
10
10.083422
20
4.8620521
11
10.081322
21
5.0636521
0
LINE
8
DEFAULT_255_2_778
10
10.081822
20
4.9504521
11
10.083122
21
5.2562521
0
LINE
8
DEFAULT_255_2_778
10
10.083122
20
5.2562521
11
10.085522
21
5.3202521
0
LINE
8
DEFAULT_255_2_778
10
10.085522
20
5.3202521
11
10.087922
21
5.3581521
0
LINE
8
DEFAULT_255_2_778
10
10.087922
20
5.3581521
11
10.092422
21
5.4057521
0
LINE
8
DEFAULT_255_2_778
10
10.092422
20
5.4057521
11
10.099522
21
5.4560521
0
LINE
8
DEFAULT_255_2_778
10
10.099522
20
5.4560521
11
10.109622
21
5.5025521
0
LINE
8
DEFAULT_255_2_778
10
10.109622
20
5.5025521
11
10.124222
21
5.5470521
0
LINE
8
DEFAULT_255_2_778
10
10.124222
20
5.5470521
11
10.145322
21
5.5904521
0
LINE
8
DEFAULT_255_2_778
10
10.145322
20
5.5904521
11
10.174422
21
5.6272521
0
LINE
8
DEFAULT_255_2_778
10
10.174422
20
5.6272521
11
10.221822
21
5.6568521
0
LINE
8
DEFAULT_255_2_778
10
10.221822
20
5.6568521
11
10.296122
21
5.6700521
0
LINE
8
DEFAULT_255_2_778
10
10.296122
20
5.6700521
11
10.341622
21
5.6626521
0
LINE
8
DEFAULT_255_2_778
10
10.219422
20
5.7592521
11
10.150322
21
5.7259521
0
LINE
8
DEFAULT_255_2_778
10
10.150322
20
5.7259521
11
10.101122
21
5.6777521
0
LINE
8
DEFAULT_255_2_778
10
10.101122
20
5.6777521
11
10.072622
21
5.6327521
0
LINE
8
DEFAULT_255_2_778
10
10.072622
20
5.6327521
11
10.050922
21
5.5843521
0
LINE
8
DEFAULT_255_2_778
10
10.050922
20
5.5843521
11
10.034722
21
5.5335521
0
LINE
8
DEFAULT_255_2_778
10
10.034722
20
5.5335521
11
10.022622
21
5.4785521
0
LINE
8
DEFAULT_255_2_778
10
10.022622
20
5.4785521
11
10.015122
21
5.4298521
0
LINE
8
DEFAULT_255_2_778
10
10.015122
20
5.4298521
11
10.010622
21
5.3909521
0
LINE
8
DEFAULT_255_2_778
10
10.010622
20
5.3909521
11
10.007222
21
5.3507521
0
LINE
8
DEFAULT_255_2_778
10
10.007222
20
5.3507521
11
10.007522
21
4.7662521
0
LINE
8
DEFAULT_255_2_778
10
10.007522
20
4.7662521
11
10.010922
21
4.7268521
0
LINE
8
DEFAULT_255_2_778
10
10.010922
20
4.7268521
11
10.017822
21
4.6715521
0
LINE
8
DEFAULT_255_2_778
10
10.017822
20
4.6715521
11
10.023122
21
4.6400521
0
LINE
8
DEFAULT_255_2_778
10
10.023122
20
4.6400521
11
10.036622
21
4.5805521
0
LINE
8
DEFAULT_255_2_778
10
10.036622
20
4.5805521
11
10.055422
21
4.5246521
0
LINE
8
DEFAULT_255_2_778
10
10.055422
20
4.5246521
11
10.081322
21
4.4720521
0
LINE
8
DEFAULT_255_2_778
10
10.081322
20
4.4720521
11
10.127622
21
4.4130521
0
LINE
8
DEFAULT_255_2_778
10
10.127622
20
4.4130521
11
10.184722
21
4.3738521
0
LINE
8
DEFAULT_255_2_778
10
10.184722
20
4.3738521
11
10.261522
21
4.3524521
0
LINE
8
DEFAULT_255_2_778
10
10.261522
20
4.3524521
11
10.351422
21
4.3590521
0
LINE
8
DEFAULT_255_2_778
10
10.351422
20
4.3590521
11
10.417822
21
4.3892521
0
LINE
8
DEFAULT_255_2_778
10
10.417822
20
4.3892521
11
10.472322
21
4.4424521
0
LINE
8
DEFAULT_255_2_778
10
10.472322
20
4.4424521
11
10.500922
21
4.4873521
0
LINE
8
DEFAULT_255_2_778
10
10.500922
20
4.4873521
11
10.522922
21
4.5358521
0
LINE
8
DEFAULT_255_2_778
10
10.522922
20
4.5358521
11
10.539322
21
4.5866521
0
LINE
8
DEFAULT_255_2_778
10
10.539322
20
4.5866521
11
10.552322
21
4.6429521
0
LINE
8
DEFAULT_255_2_778
10
10.552322
20
4.6429521
11
10.559922
21
4.6903521
0
LINE
8
DEFAULT_255_2_778
10
10.559922
20
4.6903521
11
10.563922
21
4.7249521
0
LINE
8
DEFAULT_255_2_778
10
10.563922
20
4.7249521
11
10.563122
21
5.4107521
0
LINE
8
DEFAULT_255_2_778
10
10.563122
20
5.4107521
11
10.559122
21
5.4435521
0
LINE
8
DEFAULT_255_2_778
10
10.559122
20
5.4435521
11
10.549322
21
5.5015521
0
LINE
8
DEFAULT_255_2_778
10
10.549322
20
5.5015521
11
10.538222
21
5.5481521
0
LINE
8
DEFAULT_255_2_778
10
10.538222
20
5.5481521
11
10.521622
21
5.5978521
0
LINE
8
DEFAULT_255_2_778
10
10.521622
20
5.5978521
11
10.488222
21
5.6629521
0
LINE
8
DEFAULT_255_2_778
10
10.488222
20
5.6629521
11
10.434822
21
5.7232521
0
LINE
8
DEFAULT_255_2_778
10
10.434822
20
5.7232521
11
10.352522
21
5.7642521
0
LINE
8
DEFAULT_255_2_778
10
10.352522
20
5.7642521
11
10.244322
21
5.7687521
0
LINE
8
DEFAULT_255_2_778
10
10.244322
20
5.7687521
11
10.124922
21
5.7087521
0
LINE
8
DEFAULT_255_2_778
10
10.124922
20
5.7087521
11
10.067022
21
5.6258521
0
LINE
8
DEFAULT_255_2_778
10
10.067022
20
5.6258521
11
10.038722
21
5.5520521
0
LINE
8
DEFAULT_255_2_778
10
10.038722
20
5.5520521
11
10.024722
21
5.4949521
0
LINE
8
DEFAULT_255_2_778
10
10.024722
20
5.4949521
11
10.017522
21
5.4528521
0
LINE
8
DEFAULT_255_2_778
10
11.675722
20
5.0678521
11
11.675422
21
4.9916521
0
LINE
8
DEFAULT_255_2_778
10
11.675122
20
4.9530521
11
11.675722
21
5.0448521
0
LINE
8
DEFAULT_255_2_778
10
11.532022
20
5.6586521
11
11.587022
21
5.6203521
0
LINE
8
DEFAULT_255_2_778
10
11.587022
20
5.6203521
11
11.616922
21
5.5793521
0
LINE
8
DEFAULT_255_2_778
10
11.616922
20
5.5793521
11
11.640522
21
5.5227521
0
LINE
8
DEFAULT_255_2_778
10
11.640522
20
5.5227521
11
11.652122
21
5.4793521
0
LINE
8
DEFAULT_255_2_778
10
11.652122
20
5.4793521
11
11.660322
21
5.4353521
0
LINE
8
DEFAULT_255_2_778
10
11.660322
20
5.4353521
11
11.664022
21
5.4073521
0
LINE
8
DEFAULT_255_2_778
10
11.664022
20
5.4073521
11
11.667222
21
5.3763521
0
LINE
8
DEFAULT_255_2_778
10
11.667222
20
5.3763521
11
11.669622
21
5.3470521
0
LINE
8
DEFAULT_255_2_778
10
11.669622
20
5.3470521
11
11.671722
21
5.3062521
0
LINE
8
DEFAULT_255_2_778
10
11.671722
20
5.3062521
11
11.673322
21
5.2581521
0
LINE
8
DEFAULT_255_2_778
10
11.673322
20
5.2581521
11
11.675122
21
5.0647521
0
LINE
8
DEFAULT_255_2_778
10
11.674922
20
4.9763521
11
11.673022
21
4.8554521
0
LINE
8
DEFAULT_255_2_778
10
11.673022
20
4.8554521
11
11.671422
21
4.8133521
0
LINE
8
DEFAULT_255_2_778
10
11.671422
20
4.8133521
11
11.670422
21
4.7964521
0
LINE
8
DEFAULT_255_2_778
10
11.670422
20
4.7964521
11
11.667722
21
4.7593521
0
LINE
8
DEFAULT_255_2_778
10
11.667722
20
4.7593521
11
11.663222
21
4.7165521
0
LINE
8
DEFAULT_255_2_778
10
11.663222
20
4.7165521
11
11.659322
21
4.6876521
0
LINE
8
DEFAULT_255_2_778
10
11.659322
20
4.6876521
11
11.649522
21
4.6371521
0
LINE
8
DEFAULT_255_2_778
10
11.649522
20
4.6371521
11
11.634722
21
4.5850521
0
LINE
8
DEFAULT_255_2_778
10
11.634722
20
4.5850521
11
11.614622
21
4.5387521
0
LINE
8
DEFAULT_255_2_778
10
11.614622
20
4.5387521
11
11.578022
21
4.4908521
0
LINE
8
DEFAULT_255_2_778
10
11.578022
20
4.4908521
11
11.529922
21
4.4601521
0
LINE
8
DEFAULT_255_2_778
10
11.529922
20
4.4601521
11
11.432522
21
4.4532521
0
LINE
8
DEFAULT_255_2_778
10
11.432522
20
4.4532521
11
11.379122
21
4.4725521
0
LINE
8
DEFAULT_255_2_778
10
11.379122
20
4.4725521
11
11.331722
21
4.5194521
0
LINE
8
DEFAULT_255_2_778
10
11.331722
20
4.5194521
11
11.310322
21
4.5580521
0
LINE
8
DEFAULT_255_2_778
10
11.310322
20
4.5580521
11
11.295222
21
4.5998521
0
LINE
8
DEFAULT_255_2_778
10
11.295222
20
4.5998521
11
11.284122
21
4.6440521
0
LINE
8
DEFAULT_255_2_778
10
11.284122
20
4.6440521
11
11.276722
21
4.6858521
0
LINE
8
DEFAULT_255_2_778
10
11.276722
20
4.6858521
11
11.272422
21
4.7170521
0
LINE
8
DEFAULT_255_2_778
10
11.272422
20
4.7170521
11
11.268722
21
4.7503521
0
LINE
8
DEFAULT_255_2_778
10
11.268722
20
4.7503521
11
11.266922
21
4.7734521
0
LINE
8
DEFAULT_255_2_778
10
11.266922
20
4.7734521
11
11.264522
21
4.8112521
0
LINE
8
DEFAULT_255_2_778
10
11.264522
20
4.8112521
11
11.262722
21
4.8617521
0
LINE
8
DEFAULT_255_2_778
10
11.262722
20
4.8617521
11
11.260522
21
5.0633521
0
LINE
8
DEFAULT_255_2_778
10
11.399222
20
5.7587521
11
11.330122
21
5.7253521
0
LINE
8
DEFAULT_255_2_778
10
11.330122
20
5.7253521
11
11.280922
21
5.6772521
0
LINE
8
DEFAULT_255_2_778
10
11.280922
20
5.6772521
11
11.252322
21
5.6322521
0
LINE
8
DEFAULT_255_2_778
10
11.252322
20
5.6322521
11
11.230622
21
5.5838521
0
LINE
8
DEFAULT_255_2_778
10
11.230622
20
5.5838521
11
11.214522
21
5.5330521
0
LINE
8
DEFAULT_255_2_778
10
11.214522
20
5.5330521
11
11.202322
21
5.4779521
0
LINE
8
DEFAULT_255_2_778
10
11.202322
20
5.4779521
11
11.194922
21
5.4293521
0
LINE
8
DEFAULT_255_2_778
10
11.194922
20
5.4293521
11
11.190422
21
5.3904521
0
LINE
8
DEFAULT_255_2_778
10
11.190422
20
5.3904521
11
11.187022
21
5.3501521
0
LINE
8
DEFAULT_255_2_778
10
11.187022
20
5.3501521
11
11.187322
21
4.7657521
0
LINE
8
DEFAULT_255_2_778
10
11.187322
20
4.7657521
11
11.190722
21
4.7263521
0
LINE
8
DEFAULT_255_2_778
10
11.190722
20
4.7263521
11
11.197622
21
4.6710521
0
LINE
8
DEFAULT_255_2_778
10
11.197622
20
4.6710521
11
11.202922
21
4.6395521
0
LINE
8
DEFAULT_255_2_778
10
11.202922
20
4.6395521
11
11.216422
21
4.5799521
0
LINE
8
DEFAULT_255_2_778
10
11.216422
20
4.5799521
11
11.235122
21
4.5241521
0
LINE
8
DEFAULT_255_2_778
10
11.235122
20
4.5241521
11
11.261122
21
4.4715521
0
LINE
8
DEFAULT_255_2_778
10
11.261122
20
4.4715521
11
11.307422
21
4.4125521
0
LINE
8
DEFAULT_255_2_778
10
11.307422
20
4.4125521
11
11.364522
21
4.3733521
0
LINE
8
DEFAULT_255_2_778
10
11.364522
20
4.3733521
11
11.441322
21
4.3519521
0
LINE
8
DEFAULT_255_2_778
10
11.441322
20
4.3519521
11
11.531222
21
4.3585521
0
LINE
8
DEFAULT_255_2_778
10
11.531222
20
4.3585521
11
11.597622
21
4.3886521
0
LINE
8
DEFAULT_255_2_778
10
11.597622
20
4.3886521
11
11.652122
21
4.4418521
0
LINE
8
DEFAULT_255_2_778
10
11.652122
20
4.4418521
11
11.680722
21
4.4868521
0
LINE
8
DEFAULT_255_2_778
10
11.680722
20
4.4868521
11
11.702722
21
4.5352521
0
LINE
8
DEFAULT_255_2_778
10
11.702722
20
4.5352521
11
11.719122
21
4.5860521
0
LINE
8
DEFAULT_255_2_778
10
11.719122
20
4.5860521
11
11.732022
21
4.6424521
0
LINE
8
DEFAULT_255_2_778
10
11.732022
20
4.6424521
11
11.739722
21
4.6897521
0
LINE
8
DEFAULT_255_2_778
10
11.739722
20
4.6897521
11
11.743722
21
4.7244521
0
LINE
8
DEFAULT_255_2_778
10
11.743722
20
4.7244521
11
11.742922
21
5.4102521
0
LINE
8
DEFAULT_255_2_778
10
11.742922
20
5.4102521
11
11.738922
21
5.4430521
0
LINE
8
DEFAULT_255_2_778
10
11.738922
20
5.4430521
11
11.729122
21
5.5010521
0
LINE
8
DEFAULT_255_2_778
10
11.729122
20
5.5010521
11
11.718022
21
5.5475521
0
LINE
8
DEFAULT_255_2_778
10
11.718022
20
5.5475521
11
11.701322
21
5.5973521
0
LINE
8
DEFAULT_255_2_778
10
11.701322
20
5.5973521
11
11.668022
21
5.6624521
0
LINE
8
DEFAULT_255_2_778
10
11.668022
20
5.6624521
11
11.614622
21
5.7227521
0
LINE
8
DEFAULT_255_2_778
10
11.614622
20
5.7227521
11
11.532322
21
5.7637521
0
LINE
8
DEFAULT_255_2_778
10
11.532322
20
5.7637521
11
11.424122
21
5.7682521
0
LINE
8
DEFAULT_255_2_778
10
11.424122
20
5.7682521
11
11.316622
21
5.7190521
0
LINE
8
DEFAULT_255_2_778
10
11.316622
20
5.7190521
11
11.260522
21
5.6510521
0
LINE
8
DEFAULT_255_2_778
10
11.260522
20
5.6510521
11
11.229822
21
5.5864521
0
LINE
8
DEFAULT_255_2_778
10
11.229822
20
5.5864521
11
11.213722
21
5.5356521
0
LINE
8
DEFAULT_255_2_778
10
11.213722
20
5.5356521
11
11.202322
21
5.4843521
0
LINE
8
DEFAULT_255_2_778
10
11.202322
20
5.4843521
11
11.194122
21
5.4319521
0
LINE
8
DEFAULT_255_2_778
10
11.194122
20
5.4319521
11
11.188822
21
5.3837521
0
LINE
8
DEFAULT_255_2_778
10
11.188822
20
5.3837521
11
11.186722
21
5.3589521
0
LINE
8
DEFAULT_255_2_778
10
11.186722
20
5.3589521
11
11.184622
21
5.3263521
0
LINE
8
DEFAULT_255_2_778
10
11.184622
20
5.3263521
11
11.182022
21
5.2417521
0
LINE
8
DEFAULT_255_2_778
10
11.260322
20
4.9498521
11
11.261622
21
5.2557521
0
LINE
8
DEFAULT_255_2_778
10
11.261622
20
5.2557521
11
11.264022
21
5.3197521
0
LINE
8
DEFAULT_255_2_778
10
11.264022
20
5.3197521
11
11.266422
21
5.3576521
0
LINE
8
DEFAULT_255_2_778
10
11.266422
20
5.3576521
11
11.270922
21
5.4052521
0
LINE
8
DEFAULT_255_2_778
10
11.270922
20
5.4052521
11
11.278022
21
5.4554521
0
LINE
8
DEFAULT_255_2_778
10
11.278022
20
5.4554521
11
11.288122
21
5.5020521
0
LINE
8
DEFAULT_255_2_778
10
11.288122
20
5.5020521
11
11.302622
21
5.5465521
0
LINE
8
DEFAULT_255_2_778
10
11.302622
20
5.5465521
11
11.323822
21
5.5899521
0
LINE
8
DEFAULT_255_2_778
10
11.323822
20
5.5899521
11
11.352922
21
5.6266521
0
LINE
8
DEFAULT_255_2_778
10
11.352922
20
5.6266521
11
11.400222
21
5.6563521
0
LINE
8
DEFAULT_255_2_778
10
11.400222
20
5.6563521
11
11.474622
21
5.6695521
0
LINE
8
DEFAULT_255_2_778
10
11.474622
20
5.6695521
11
11.520122
21
5.6621521
0
LINE
8
DEFAULT_255_2_778
10
11.996322
20
4.8937521
11
11.998222
21
4.8054521
0
LINE
8
DEFAULT_255_2_778
10
11.998222
20
4.8054521
11
12.000622
21
4.7675521
0
LINE
8
DEFAULT_255_2_778
10
12.000622
20
4.7675521
11
12.004822
21
4.7236521
0
LINE
8
DEFAULT_255_2_778
10
12.004822
20
4.7236521
11
12.010422
21
4.6850521
0
LINE
8
DEFAULT_255_2_778
10
12.010422
20
4.6850521
11
12.018822
21
4.6432521
0
LINE
8
DEFAULT_255_2_778
10
12.018822
20
4.6432521
11
12.036822
21
4.5850521
0
LINE
8
DEFAULT_255_2_778
10
12.036822
20
4.5850521
11
12.064622
21
4.5283521
0
LINE
8
DEFAULT_255_2_778
10
12.064622
20
4.5283521
11
12.121222
21
4.4712521
0
LINE
8
DEFAULT_255_2_778
10
12.121222
20
4.4712521
11
12.203822
21
4.4484521
0
LINE
8
DEFAULT_255_2_778
10
12.203822
20
4.4484521
11
12.366022
21
4.4606521
0
LINE
8
DEFAULT_255_2_778
10
12.366022
20
4.4606521
11
12.439322
21
4.5162521
0
LINE
8
DEFAULT_255_2_778
10
12.439322
20
4.5162521
11
12.470222
21
4.5678521
0
LINE
8
DEFAULT_255_2_778
10
12.470222
20
4.5678521
11
12.485322
21
4.6109521
0
LINE
8
DEFAULT_255_2_778
10
12.485322
20
4.6109521
11
12.485322
21
4.6143521
0
LINE
8
DEFAULT_255_2_778
10
12.485322
20
4.6143521
11
12.462822
21
4.5556521
0
LINE
8
DEFAULT_255_2_778
10
12.462822
20
4.5556521
11
12.415422
21
4.4950521
0
LINE
8
DEFAULT_255_2_778
10
12.415422
20
4.4950521
11
12.340822
21
4.4561521
0
LINE
8
DEFAULT_255_2_778
10
12.340822
20
4.4561521
11
12.137622
21
4.4656521
0
LINE
8
DEFAULT_255_2_778
10
12.137622
20
4.4656521
11
12.077622
21
4.5133521
0
LINE
8
DEFAULT_255_2_778
10
12.077622
20
4.5133521
11
12.047922
21
4.5614521
0
LINE
8
DEFAULT_255_2_778
10
12.047922
20
4.5614521
11
12.027622
21
4.6141521
0
LINE
8
DEFAULT_255_2_778
10
12.027622
20
4.6141521
11
12.013522
21
4.6686521
0
LINE
8
DEFAULT_255_2_778
10
12.013522
20
4.6686521
11
12.007222
21
4.7048521
0
LINE
8
DEFAULT_255_2_778
10
12.007222
20
4.7048521
11
12.002222
21
4.7456521
0
LINE
8
DEFAULT_255_2_778
10
12.002222
20
4.7456521
11
11.999322
21
4.7808521
0
LINE
8
DEFAULT_255_2_778
10
11.999322
20
4.7808521
11
11.996622
21
4.8363521
0
LINE
8
DEFAULT_255_2_778
10
11.996622
20
4.8363521
11
11.996122
21
4.8665521
0
LINE
8
DEFAULT_255_2_778
10
11.995822
20
4.8903521
11
11.998222
21
5.3422521
0
LINE
8
DEFAULT_255_2_778
10
11.998222
20
5.3422521
11
12.000322
21
5.3689521
0
LINE
8
DEFAULT_255_2_778
10
12.000322
20
5.3689521
11
12.004522
21
5.4073521
0
LINE
8
DEFAULT_255_2_778
10
12.004522
20
5.4073521
11
12.010122
21
5.4409521
0
LINE
8
DEFAULT_255_2_778
10
12.010122
20
5.4409521
11
12.020422
21
5.4838521
0
LINE
8
DEFAULT_255_2_778
10
12.020422
20
5.4838521
11
12.043222
21
5.5433521
0
LINE
8
DEFAULT_255_2_778
10
12.043222
20
5.5433521
11
12.081822
21
5.5981521
0
LINE
8
DEFAULT_255_2_778
10
12.081822
20
5.5981521
11
12.152222
21
5.6412521
0
LINE
8
DEFAULT_255_2_778
10
12.152222
20
5.6412521
11
12.337422
21
5.6507521
0
LINE
8
DEFAULT_255_2_778
10
12.337422
20
5.6507521
11
12.427622
21
5.6044521
0
LINE
8
DEFAULT_255_2_778
10
12.427622
20
5.6044521
11
12.458622
21
5.5600521
0
LINE
8
DEFAULT_255_2_778
10
12.458622
20
5.5600521
11
12.476622
21
5.5123521
0
LINE
8
DEFAULT_255_2_778
10
12.476622
20
5.5123521
11
12.483422
21
5.4832521
0
LINE
8
DEFAULT_255_2_778
10
12.483422
20
5.4832521
11
12.561222
21
5.5062521
0
LINE
8
DEFAULT_255_2_778
10
12.561222
20
5.5062521
11
12.559922
21
5.5221521
0
LINE
8
DEFAULT_255_2_778
10
12.559922
20
5.5221521
11
12.555422
21
5.5467521
0
LINE
8
DEFAULT_255_2_778
10
12.555422
20
5.5467521
11
12.540922
21
5.5907521
0
LINE
8
DEFAULT_255_2_778
10
12.540922
20
5.5907521
11
12.508622
21
5.6481521
0
LINE
8
DEFAULT_255_2_778
10
12.508622
20
5.6481521
11
12.449622
21
5.7084521
0
LINE
8
DEFAULT_255_2_778
10
12.449622
20
5.7084521
11
12.361722
21
5.7486521
0
LINE
8
DEFAULT_255_2_778
10
12.361722
20
5.7486521
11
12.196422
21
5.7528521
0
LINE
8
DEFAULT_255_2_778
10
12.196422
20
5.7528521
11
12.080722
21
5.7124521
0
LINE
8
DEFAULT_255_2_778
10
12.080722
20
5.7124521
11
12.009022
21
5.6499521
0
LINE
8
DEFAULT_255_2_778
10
12.009022
20
5.6499521
11
11.970922
21
5.5888521
0
LINE
8
DEFAULT_255_2_778
10
11.970922
20
5.5888521
11
11.950322
21
5.5369521
0
LINE
8
DEFAULT_255_2_778
10
11.950322
20
5.5369521
11
11.935822
21
5.4840521
0
LINE
8
DEFAULT_255_2_778
10
11.935822
20
5.4840521
11
11.928922
21
5.4491521
0
LINE
8
DEFAULT_255_2_778
10
11.928922
20
5.4491521
11
11.922022
21
5.4002521
0
LINE
8
DEFAULT_255_2_778
10
11.922022
20
5.4002521
11
11.919622
21
5.3755521
0
LINE
8
DEFAULT_255_2_778
10
11.919622
20
5.3755521
11
11.917522
21
5.3499521
0
LINE
8
DEFAULT_255_2_778
10
11.917522
20
5.3499521
11
11.916422
21
5.3298521
0
LINE
8
DEFAULT_255_2_778
10
12.485022
20
4.6143521
11
12.559622
21
4.5815521
0
LINE
8
DEFAULT_255_2_778
10
12.559622
20
4.5815521
11
12.559622
21
4.5781521
0
LINE
8
DEFAULT_255_2_778
10
12.559622
20
4.5781521
11
12.547722
21
4.5381521
0
LINE
8
DEFAULT_255_2_778
10
12.547722
20
4.5381521
11
12.525822
21
4.4916521
0
LINE
8
DEFAULT_255_2_778
10
12.525822
20
4.4916521
11
12.476022
21
4.4270521
0
LINE
8
DEFAULT_255_2_778
10
12.476022
20
4.4270521
11
12.394022
21
4.3715521
0
LINE
8
DEFAULT_255_2_778
10
12.394022
20
4.3715521
11
12.276322
21
4.3487521
0
LINE
8
DEFAULT_255_2_778
10
12.276322
20
4.3487521
11
12.128922
21
4.3654521
0
LINE
8
DEFAULT_255_2_778
10
12.128922
20
4.3654521
11
12.041122
21
4.4178521
0
LINE
8
DEFAULT_255_2_778
10
12.041122
20
4.4178521
11
11.996122
21
4.4733521
0
LINE
8
DEFAULT_255_2_778
10
11.996122
20
4.4733521
11
11.964922
21
4.5379521
0
LINE
8
DEFAULT_255_2_778
10
11.964922
20
4.5379521
11
11.943722
21
4.6064521
0
LINE
8
DEFAULT_255_2_778
10
11.943722
20
4.6064521
11
11.933922
21
4.6514521
0
LINE
8
DEFAULT_255_2_778
10
11.933922
20
4.6514521
11
11.926222
21
4.6993521
0
LINE
8
DEFAULT_255_2_778
10
11.926222
20
4.6993521
11
11.920922
21
4.7472521
0
LINE
8
DEFAULT_255_2_778
10
11.920922
20
4.7472521
11
11.918822
21
4.7752521
0
LINE
8
DEFAULT_255_2_778
10
11.918822
20
4.7752521
11
11.916722
21
5.3258521
0
LINE
8
DEFAULT_255_2_778
10
13.197322
20
5.5380521
11
13.171422
21
5.6391521
0
LINE
8
DEFAULT_255_2_778
10
13.171422
20
5.6391521
11
12.954722
21
4.8300521
0
LINE
8
DEFAULT_255_2_778
10
12.954722
20
4.8300521
11
13.380422
21
4.8300521
0
LINE
8
DEFAULT_255_2_778
10
13.380422
20
4.8300521
11
13.197322
21
5.5380521
0
LINE
8
DEFAULT_255_2_778
10
13.121922
20
5.7634521
11
13.121922
21
5.7669521
0
LINE
8
DEFAULT_255_2_778
10
13.121922
20
5.7669521
11
12.751722
21
4.3873521
0
LINE
8
DEFAULT_255_2_778
10
12.751722
20
4.3873521
11
12.751722
21
4.3839521
0
LINE
8
DEFAULT_255_2_778
10
12.751722
20
4.3839521
11
13.121922
21
5.7634521
0
LINE
8
DEFAULT_255_2_778
10
13.121922
20
5.7634521
11
13.221122
21
5.7634521
0
LINE
8
DEFAULT_255_2_778
10
13.221122
20
5.7634521
11
13.221122
21
5.7669521
0
LINE
8
DEFAULT_255_2_778
10
13.221122
20
5.7669521
11
13.121922
21
5.7669521
0
LINE
8
DEFAULT_255_2_778
10
13.221122
20
5.7669521
11
13.582022
21
4.3873521
0
LINE
8
DEFAULT_255_2_778
10
13.582022
20
4.3873521
11
13.582022
21
4.3839521
0
LINE
8
DEFAULT_255_2_778
10
13.582022
20
4.3839521
11
13.506122
21
4.3529521
0
LINE
8
DEFAULT_255_2_778
10
13.506122
20
4.3529521
11
13.406822
21
4.7313521
0
LINE
8
DEFAULT_255_2_778
10
13.406822
20
4.7313521
11
12.928522
21
4.7313521
0
LINE
8
DEFAULT_255_2_778
10
12.928522
20
4.7313521
11
12.826322
21
4.3529521
0
LINE
8
DEFAULT_255_2_778
10
12.826322
20
4.3529521
11
12.752022
21
4.3839521
0
LINE
8
DEFAULT_255_2_778
10
14.196422
20
5.0676521
11
14.196422
21
4.9914521
0
LINE
8
DEFAULT_255_2_778
10
14.196122
20
4.9527521
11
14.196622
21
5.0446521
0
LINE
8
DEFAULT_255_2_778
10
14.053022
20
5.6584521
11
14.108022
21
5.6200521
0
LINE
8
DEFAULT_255_2_778
10
14.108022
20
5.6200521
11
14.137922
21
5.5790521
0
LINE
8
DEFAULT_255_2_778
10
14.137922
20
5.5790521
11
14.161422
21
5.5224521
0
LINE
8
DEFAULT_255_2_778
10
14.161422
20
5.5224521
11
14.173122
21
5.4790521
0
LINE
8
DEFAULT_255_2_778
10
14.173122
20
5.4790521
11
14.181322
21
5.4351521
0
LINE
8
DEFAULT_255_2_778
10
14.181322
20
5.4351521
11
14.185022
21
5.4070521
0
LINE
8
DEFAULT_255_2_778
10
14.185022
20
5.4070521
11
14.188222
21
5.3761521
0
LINE
8
DEFAULT_255_2_778
10
14.188222
20
5.3761521
11
14.190522
21
5.3467521
0
LINE
8
DEFAULT_255_2_778
10
14.190522
20
5.3467521
11
14.192722
21
5.3060521
0
LINE
8
DEFAULT_255_2_778
10
14.192722
20
5.3060521
11
14.194222
21
5.2578521
0
LINE
8
DEFAULT_255_2_778
10
14.194222
20
5.2578521
11
14.196122
21
5.0644521
0
LINE
8
DEFAULT_255_2_778
10
14.195822
20
4.9760521
11
14.194022
21
4.8551521
0
LINE
8
DEFAULT_255_2_778
10
14.194022
20
4.8551521
11
14.192422
21
4.8130521
0
LINE
8
DEFAULT_255_2_778
10
14.192422
20
4.8130521
11
14.191322
21
4.7961521
0
LINE
8
DEFAULT_255_2_778
10
14.191322
20
4.7961521
11
14.188722
21
4.7591521
0
LINE
8
DEFAULT_255_2_778
10
14.188722
20
4.7591521
11
14.184222
21
4.7162521
0
LINE
8
DEFAULT_255_2_778
10
14.184222
20
4.7162521
11
14.180222
21
4.6874521
0
LINE
8
DEFAULT_255_2_778
10
14.180222
20
4.6874521
11
14.170422
21
4.6368521
0
LINE
8
DEFAULT_255_2_778
10
14.170422
20
4.6368521
11
14.155622
21
4.5847521
0
LINE
8
DEFAULT_255_2_778
10
14.155622
20
4.5847521
11
14.135522
21
4.5384521
0
LINE
8
DEFAULT_255_2_778
10
14.135522
20
4.5384521
11
14.099022
21
4.4905521
0
LINE
8
DEFAULT_255_2_778
10
14.099022
20
4.4905521
11
14.050822
21
4.4598521
0
LINE
8
DEFAULT_255_2_778
10
14.050822
20
4.4598521
11
13.953522
21
4.4529521
0
LINE
8
DEFAULT_255_2_778
10
13.953522
20
4.4529521
11
13.900022
21
4.4723521
0
LINE
8
DEFAULT_255_2_778
10
13.900022
20
4.4723521
11
13.852722
21
4.5191521
0
LINE
8
DEFAULT_255_2_778
10
13.852722
20
4.5191521
11
13.831222
21
4.5577521
0
LINE
8
DEFAULT_255_2_778
10
13.831222
20
4.5577521
11
13.816222
21
4.5995521
0
LINE
8
DEFAULT_255_2_778
10
13.816222
20
4.5995521
11
13.805022
21
4.6437521
0
LINE
8
DEFAULT_255_2_778
10
13.805022
20
4.6437521
11
13.797622
21
4.6855521
0
LINE
8
DEFAULT_255_2_778
10
13.797622
20
4.6855521
11
13.793422
21
4.7167521
0
LINE
8
DEFAULT_255_2_778
10
13.793422
20
4.7167521
11
13.789722
21
4.7501521
0
LINE
8
DEFAULT_255_2_778
10
13.789722
20
4.7501521
11
13.787822
21
4.7731521
0
LINE
8
DEFAULT_255_2_778
10
13.787822
20
4.7731521
11
13.785522
21
4.8109521
0
LINE
8
DEFAULT_255_2_778
10
13.785522
20
4.8109521
11
13.783622
21
4.8615521
0
LINE
8
DEFAULT_255_2_778
10
13.783622
20
4.8615521
11
13.781522
21
5.0631521
0
LINE
8
DEFAULT_255_2_778
10
13.782022
20
4.9498521
11
13.783322
21
5.2557521
0
LINE
8
DEFAULT_255_2_778
10
13.783322
20
5.2557521
11
13.785722
21
5.3197521
0
LINE
8
DEFAULT_255_2_778
10
13.785722
20
5.3197521
11
13.788122
21
5.3576521
0
LINE
8
DEFAULT_255_2_778
10
13.788122
20
5.3576521
11
13.792622
21
5.4052521
0
LINE
8
DEFAULT_255_2_778
10
13.792622
20
5.4052521
11
13.799722
21
5.4554521
0
LINE
8
DEFAULT_255_2_778
10
13.799722
20
5.4554521
11
13.809822
21
5.5020521
0
LINE
8
DEFAULT_255_2_778
10
13.809822
20
5.5020521
11
13.824422
21
5.5465521
0
LINE
8
DEFAULT_255_2_778
10
13.824422
20
5.5465521
11
13.845522
21
5.5899521
0
LINE
8
DEFAULT_255_2_778
10
13.845522
20
5.5899521
11
13.874622
21
5.6266521
0
LINE
8
DEFAULT_255_2_778
10
13.874622
20
5.6266521
11
13.922022
21
5.6563521
0
LINE
8
DEFAULT_255_2_778
10
13.922022
20
5.6563521
11
13.996322
21
5.6695521
0
LINE
8
DEFAULT_255_2_778
10
13.996322
20
5.6695521
11
14.041822
21
5.6621521
0
LINE
8
DEFAULT_255_2_778
10
13.919922
20
5.7587521
11
13.850822
21
5.7253521
0
LINE
8
DEFAULT_255_2_778
10
13.850822
20
5.7253521
11
13.801622
21
5.6772521
0
LINE
8
DEFAULT_255_2_778
10
13.801622
20
5.6772521
11
13.773022
21
5.6322521
0
LINE
8
DEFAULT_255_2_778
10
13.773022
20
5.6322521
11
13.751322
21
5.5838521
0
LINE
8
DEFAULT_255_2_778
10
13.751322
20
5.5838521
11
13.735222
21
5.5330521
0
LINE
8
DEFAULT_255_2_778
10
13.735222
20
5.5330521
11
13.723022
21
5.4779521
0
LINE
8
DEFAULT_255_2_778
10
13.723022
20
5.4779521
11
13.715622
21
5.4293521
0
LINE
8
DEFAULT_255_2_778
10
13.715622
20
5.4293521
11
13.711122
21
5.3904521
0
LINE
8
DEFAULT_255_2_778
10
13.711122
20
5.3904521
11
13.707722
21
5.3501521
0
LINE
8
DEFAULT_255_2_778
10
13.707722
20
5.3501521
11
13.707922
21
4.7657521
0
LINE
8
DEFAULT_255_2_778
10
13.707922
20
4.7657521
11
13.711422
21
4.7263521
0
LINE
8
DEFAULT_255_2_778
10
13.711422
20
4.7263521
11
13.718322
21
4.6710521
0
LINE
8
DEFAULT_255_2_778
10
13.718322
20
4.6710521
11
13.723522
21
4.6395521
0
LINE
8
DEFAULT_255_2_778
10
13.723522
20
4.6395521
11
13.737022
21
4.5799521
0
LINE
8
DEFAULT_255_2_778
10
13.737022
20
4.5799521
11
13.755822
21
4.5241521
0
LINE
8
DEFAULT_255_2_778
10
13.755822
20
4.5241521
11
13.781822
21
4.4715521
0
LINE
8
DEFAULT_255_2_778
10
13.781822
20
4.4715521
11
13.828122
21
4.4125521
0
LINE
8
DEFAULT_255_2_778
10
13.828122
20
4.4125521
11
13.885222
21
4.3733521
0
LINE
8
DEFAULT_255_2_778
10
13.885222
20
4.3733521
11
13.961922
21
4.3519521
0
LINE
8
DEFAULT_255_2_778
10
13.961922
20
4.3519521
11
14.051922
21
4.3585521
0
LINE
8
DEFAULT_255_2_778
10
14.051922
20
4.3585521
11
14.118322
21
4.3886521
0
LINE
8
DEFAULT_255_2_778
10
14.118322
20
4.3886521
11
14.172822
21
4.4418521
0
LINE
8
DEFAULT_255_2_778
10
14.172822
20
4.4418521
11
14.201422
21
4.4868521
0
LINE
8
DEFAULT_255_2_778
10
14.201422
20
4.4868521
11
14.223322
21
4.5352521
0
LINE
8
DEFAULT_255_2_778
10
14.223322
20
4.5352521
11
14.239722
21
4.5860521
0
LINE
8
DEFAULT_255_2_778
10
14.239722
20
4.5860521
11
14.252722
21
4.6424521
0
LINE
8
DEFAULT_255_2_778
10
14.252722
20
4.6424521
11
14.260422
21
4.6897521
0
LINE
8
DEFAULT_255_2_778
10
14.260422
20
4.6897521
11
14.264422
21
4.7244521
0
LINE
8
DEFAULT_255_2_778
10
14.264422
20
4.7244521
11
14.263622
21
5.4102521
0
LINE
8
DEFAULT_255_2_778
10
14.263622
20
5.4102521
11
14.259622
21
5.4430521
0
LINE
8
DEFAULT_255_2_778
10
14.259622
20
5.4430521
11
14.249822
21
5.5010521
0
LINE
8
DEFAULT_255_2_778
10
14.249822
20
5.5010521
11
14.238722
21
5.5475521
0
LINE
8
DEFAULT_255_2_778
10
14.238722
20
5.5475521
11
14.222022
21
5.5973521
0
LINE
8
DEFAULT_255_2_778
10
14.222022
20
5.5973521
11
14.188722
21
5.6624521
0
LINE
8
DEFAULT_255_2_778
10
14.188722
20
5.6624521
11
14.135222
21
5.7227521
0
LINE
8
DEFAULT_255_2_778
10
14.135222
20
5.7227521
11
14.053022
21
5.7637521
0
LINE
8
DEFAULT_255_2_778
10
14.053022
20
5.7637521
11
13.944722
21
5.7682521
0
LINE
8
DEFAULT_255_2_778
10
13.944722
20
5.7682521
11
13.837322
21
5.7190521
0
LINE
8
DEFAULT_255_2_778
10
13.837322
20
5.7190521
11
13.781222
21
5.6510521
0
LINE
8
DEFAULT_255_2_778
10
13.781222
20
5.6510521
11
13.750522
21
5.5864521
0
LINE
8
DEFAULT_255_2_778
10
13.750522
20
5.5864521
11
13.734422
21
5.5356521
0
LINE
8
DEFAULT_255_2_778
10
13.734422
20
5.5356521
11
13.723022
21
5.4843521
0
LINE
8
DEFAULT_255_2_778
10
13.723022
20
5.4843521
11
13.714822
21
5.4319521
0
LINE
8
DEFAULT_255_2_778
10
13.714822
20
5.4319521
11
13.709522
21
5.3837521
0
LINE
8
DEFAULT_255_2_778
10
13.709522
20
5.3837521
11
13.707422
21
5.3589521
0
LINE
8
DEFAULT_255_2_778
10
13.707422
20
5.3589521
11
13.705322
21
5.3263521
0
LINE
8
DEFAULT_255_2_778
10
13.705322
20
5.3263521
11
13.702622
21
5.2417521
0
ENDSEC
0
EOF