0
SECTION
2
HEADER
9
$MEASUREMENT
70
1
0
ENDSEC
0
SECTION
2
TABLES
0
TABLE
2
LTYPE
0
LTYPE
72
65
70
64
2
CONTINUOUS
3
______
73
0
40
0
0
ENDTAB
0
TABLE
2
LAYER
0
LAYER
2
DEFAULT_255_2_778
70
0
62
255
6
CONTINUOUS
0
ENDTAB
0
ENDSEC
0
SECTION
2
ENTITIES
0
ARC
8
DEFAULT_255_2_778
10
32.9515032
20
47.0204129
40
26.0028118
50
90.0017037
51
112.3501316
0
LINE
8
DEFAULT_255_2_778
10
14.98683
20
69.2315247
11
17.05053
21
70.4231247
0
LINE
8
DEFAULT_255_2_778
10
17.05053
20
70.4231247
11
17.25063
21
70.4231247
0
LINE
8
DEFAULT_255_2_778
10
17.25063
20
70.4231247
11
17.35303
21
69.2521247
0
LINE
8
DEFAULT_255_2_778
10
32.95073
20
73.0232247
11
33.06183
21
70.9010247
0
LINE
8
DEFAULT_255_2_778
10
57.93343
20
66.8447247
11
57.93293
21
66.8579247
0
LINE
8
DEFAULT_255_2_778
10
57.93293
20
66.8579247
11
57.83293
21
66.8542247
0
LINE
8
DEFAULT_255_2_778
10
57.93163
20
64.3195247
11
58.03163
21
64.3232247
0
LINE
8
DEFAULT_255_2_778
10
58.03163
20
64.3232247
11
58.00733
21
64.9714247
0
LINE
8
DEFAULT_255_2_778
10
58.00733
20
64.9714247
11
57.98053
21
65.6673247
0
LINE
8
DEFAULT_255_2_778
10
57.98053
20
65.6673247
11
57.96943
21
65.9485247
0
LINE
8
DEFAULT_255_2_778
10
57.96943
20
65.9485247
11
57.86943
21
65.9448247
0
LINE
8
DEFAULT_255_2_778
10
57.86943
20
65.9448247
11
57.96943
21
65.9485247
0
LINE
8
DEFAULT_255_2_778
10
58.10493
20
63.2296247
11
58.28113
21
63.2363247
0
LINE
8
DEFAULT_255_2_778
10
58.28113
20
63.2363247
11
58.32183
21
62.1377247
0
LINE
8
DEFAULT_255_2_778
10
58.32183
20
62.1377247
11
58.15783
21
62.1316247
0
LINE
8
DEFAULT_255_2_778
10
58.04163
20
61.1805247
11
58.14143
21
61.1860247
0
LINE
8
DEFAULT_255_2_778
10
58.14143
20
61.1860247
11
58.04143
21
61.1823247
0
LINE
8
DEFAULT_255_2_778
10
58.14173
20
61.1863247
11
58.14173
21
61.1916247
0
LINE
8
DEFAULT_255_2_778
10
58.14173
20
61.1916247
11
58.04163
21
61.1879247
0
LINE
8
DEFAULT_255_2_778
10
58.08373
20
59.8758247
11
58.18373
21
59.8795247
0
LINE
8
DEFAULT_255_2_778
10
58.18373
20
59.8795247
11
58.18353
21
59.8903247
0
LINE
8
DEFAULT_255_2_778
10
58.18353
20
59.8903247
11
58.08353
21
59.8866247
0
LINE
8
DEFAULT_255_2_778
10
4.85093
20
65.7482247
11
1.35073
21
65.7482247
0
LINE
8
DEFAULT_255_2_778
10
1.35073
20
65.7482247
11
1.35073
21
50.3982247
0
LINE
8
DEFAULT_255_2_778
10
1.35073
20
50.3982247
11
4.85093
21
50.3982247
0
ARC
8
DEFAULT_255_2_778
10
21.4517803
20
393.2689708
40
391.4956613
50
269.9998318
51
275.3163541
0
ARC
8
DEFAULT_255_2_778
10
32.9512399
20
25.8282803
40
26.0051709
50
247.6526346
51
269.9988786
0
LINE
8
DEFAULT_255_2_778
10
4.950631
20
49.9733095
11
4.850631
21
49.9733095
0
LINE
8
DEFAULT_255_2_778
10
4.850631
20
49.9733095
11
4.850631
21
66.0732095
0
LINE
8
DEFAULT_255_2_778
10
4.850631
20
66.0732095
11
4.950631
21
66.0732095
0
LINE
8
DEFAULT_255_2_778
10
21.450631
20
1.7733095
11
4.950631
21
1.7733095
0
LINE
8
DEFAULT_255_2_778
10
4.950631
20
1.7733095
11
4.950631
21
69.1439095
0
LINE
8
DEFAULT_255_2_778
10
4.950631
20
69.1439095
11
19.680231
21
69.2725095
0
LINE
8
DEFAULT_255_2_778
10
58.460531
20
24.7807095
11
58.461331
21
24.8378095
0
LINE
8
DEFAULT_255_2_778
10
58.461331
20
24.8378095
11
58.361331
21
24.8408095
0
LINE
8
DEFAULT_255_2_778
10
58.427431
20
22.8312095
11
58.428531
21
22.8873095
0
LINE
8
DEFAULT_255_2_778
10
58.428531
20
22.8873095
11
58.328431
21
22.8902095
0
LINE
8
DEFAULT_255_2_778
10
58.290631
20
20.9339095
11
58.390631
21
20.9310095
0
LINE
8
DEFAULT_255_2_778
10
58.390631
20
20.9310095
11
58.389631
21
20.8813095
0
LINE
8
DEFAULT_255_2_778
10
58.264731
20
19.7258095
11
58.364731
21
19.7229095
0
LINE
8
DEFAULT_255_2_778
10
58.364731
20
19.7229095
11
58.365031
21
19.7311095
0
LINE
8
DEFAULT_255_2_778
10
58.365031
20
19.7311095
11
58.264931
21
19.7340095
0
LINE
8
DEFAULT_255_2_778
10
58.346731
20
18.9326095
11
58.348031
21
18.9929095
0
LINE
8
DEFAULT_255_2_778
10
58.348031
20
18.9929095
11
58.248031
21
18.9958095
0
LINE
8
DEFAULT_255_2_778
10
58.360231
20
24.7836095
11
58.536931
21
24.7786095
0
LINE
8
DEFAULT_255_2_778
10
58.536931
20
24.7786095
11
58.505531
21
23.6790095
0
LINE
8
DEFAULT_255_2_778
10
58.505531
20
23.6790095
11
58.442531
21
23.6808095
0
LINE
8
DEFAULT_255_2_778
10
58.442531
20
23.6808095
11
58.441731
21
23.6308095
0
LINE
8
DEFAULT_255_2_778
10
58.441731
20
23.6308095
11
58.341731
21
23.6337095
0
LINE
8
DEFAULT_255_2_778
10
58.246731
20
18.9353095
11
58.369231
21
18.9318095
0
LINE
8
DEFAULT_255_2_778
10
58.369231
20
18.9318095
11
58.337731
21
17.8322095
0
LINE
8
DEFAULT_255_2_778
10
58.337731
20
17.8322095
11
58.320031
21
17.8327095
0
LINE
8
DEFAULT_255_2_778
10
57.954131
20
9.1388095
11
58.088531
21
9.1348095
0
LINE
8
DEFAULT_255_2_778
10
58.088531
20
9.1348095
11
58.057031
21
8.0355095
0
LINE
8
DEFAULT_255_2_778
10
58.057031
20
8.0355095
11
57.913331
21
8.0397095
0
LINE
8
DEFAULT_255_2_778
10
58.327431
20
22.8336095
11
58.480831
21
22.8291095
0
LINE
8
DEFAULT_255_2_778
10
58.480831
20
22.8291095
11
58.449431
21
21.7295095
0
LINE
8
DEFAULT_255_2_778
10
58.449431
20
21.7295095
11
58.406531
21
21.7308095
0
LINE
8
DEFAULT_255_2_778
10
58.406531
20
21.7308095
11
58.390431
21
20.9310095
0
LINE
8
DEFAULT_255_2_778
10
58.289631
20
20.8842095
11
58.425031
21
20.8802095
0
LINE
8
DEFAULT_255_2_778
10
58.425031
20
20.8802095
11
58.393531
21
19.7806095
0
LINE
8
DEFAULT_255_2_778
10
58.393531
20
19.7806095
11
58.365831
21
19.7814095
0
LINE
8
DEFAULT_255_2_778
10
57.956231
20
9.1954095
11
58.056231
21
9.1909095
0
LINE
8
DEFAULT_255_2_778
10
58.056231
20
9.1909095
11
57.956231
21
9.1938095
0
LINE
8
DEFAULT_255_2_778
10
57.911231
20
7.9812095
11
58.011231
21
7.9783095
0
LINE
8
DEFAULT_255_2_778
10
58.011231
20
7.9783095
11
58.011531
21
7.9865095
0
LINE
8
DEFAULT_255_2_778
10
57.764131
20
4.3398095
11
57.864131
21
4.3369095
0
LINE
8
DEFAULT_255_2_778
10
57.864131
20
4.3369095
11
57.923631
21
5.7611095
0
LINE
8
DEFAULT_255_2_778
10
33.061831
20
1.9453095
11
32.950731
21
-0.1768905
0
LINE
8
DEFAULT_255_2_778
10
58.084031
20
59.8684095
11
58.184031
21
59.8721095
0
ARC
8
DEFAULT_255_2_778
10
6.4505994
20
92.2717831
40
28.2986549
50
269.9997992
51
284.7502624
0
ARC
8
DEFAULT_255_2_778
10
6.4510913
20
92.2707723
40
28.2975521
50
284.7498203
51
297.8716875
0
ARC
8
DEFAULT_255_2_778
10
21.4500351
20
-320.4593643
40
391.5325925
50
84.6838968
51
89.9999319
0
ARC
8
DEFAULT_255_2_778
10
55.8996925
20
62.5729025
40
2.3009771
50
359.9983322
51
26.5510614
0
ARC
8
DEFAULT_255_2_778
10
55.8953301
20
62.572855
40
2.3053395
50
359.3966941
51
359.9995159
0
ARC
8
DEFAULT_255_2_778
10
55.9019838
20
62.5726625
40
2.2986842
50
337.4550479
51
359.399746
0
ARC
8
DEFAULT_255_2_778
10
-691.4878274
20
36.4230444
40
749.9386408
50
0.0900564
51
1.9308781
0
ARC
8
DEFAULT_255_2_778
10
-691.4759403
20
36.4229005
40
749.926754
50
359.9999903
51
0.0900688
0
ARC
8
DEFAULT_255_2_778
10
-691.5840398
20
36.4231525
40
750.0348536
50
357.4809021
51
359.9999711
0
LINE
8
DEFAULT_255_2_778
10
57.8993003
20
65.1733282
11
57.9993003
21
65.1770282
0
LINE
8
DEFAULT_255_2_778
10
4.9506003
20
63.9731282
11
6.4505003
21
63.9731282
0
LINE
8
DEFAULT_255_2_778
10
19.6800003
20
67.2558282
11
19.6800003
21
71.0732282
0
LINE
8
DEFAULT_255_2_778
10
19.6800003
20
71.0732282
11
21.4505003
21
71.0732282
0
LINE
8
DEFAULT_255_2_778
10
57.7257003
20
69.3891282
11
57.9580003
21
63.6014282
0
LINE
8
DEFAULT_255_2_778
10
57.9701844
20
5.1332331
11
57.8976844
21
5.1354331
0
LINE
8
DEFAULT_255_2_778
10
57.9235844
20
5.7608331
11
57.8235844
21
5.7637331
0
LINE
8
DEFAULT_255_2_778
10
58.0132844
20
8.0368331
11
58.0114844
21
7.9868331
0
LINE
8
DEFAULT_255_2_778
10
58.0114844
20
7.9868331
11
57.9113844
21
7.9897331
0
LINE
8
DEFAULT_255_2_778
10
58.0873844
20
9.0999331
11
58.1251844
21
9.0988331
0
LINE
8
DEFAULT_255_2_778
10
58.3376844
20
17.8322331
11
58.2201844
21
17.8356331
0
LINE
8
DEFAULT_255_2_778
10
58.3934844
20
19.7806331
11
58.2659844
21
19.7843331
0
LINE
8
DEFAULT_255_2_778
10
58.4495844
20
21.7295331
11
58.3066844
21
21.7335331
0
LINE
8
DEFAULT_255_2_778
10
58.3413844
20
23.6252331
11
58.4413844
21
23.6223331
0
LINE
8
DEFAULT_255_2_778
10
58.5053844
20
23.6789331
11
58.3424844
21
23.6837331
0
LINE
8
DEFAULT_255_2_778
10
58.4273747
20
22.8307627
11
58.4414747
21
23.6289627
0
LINE
8
DEFAULT_255_2_778
10
58.3188747
20
17.7816627
11
58.3202747
21
17.8324627
0
LINE
8
DEFAULT_255_2_778
10
58.3646747
20
19.7311627
11
58.3657747
21
19.7813627
0
LINE
8
DEFAULT_255_2_778
10
58.1834747
20
59.8903627
11
58.1418747
21
61.1841627
0
LINE
8
DEFAULT_255_2_778
10
57.9331747
20
66.8467627
11
57.8664747
21
68.4499627
0
LINE
8
DEFAULT_255_2_778
10
57.8661747
20
68.4602627
11
57.8648747
21
68.4943627
0
LINE
8
DEFAULT_255_2_778
10
57.7667747
20
68.4461627
11
57.8667747
21
68.4499627
0
LINE
8
DEFAULT_255_2_778
10
57.8667747
20
68.4499627
11
57.8667747
21
68.4528627
0
LINE
8
DEFAULT_255_2_778
10
57.8667747
20
68.4528627
11
57.7667747
21
68.4491627
0
LINE
8
DEFAULT_255_2_778
10
57.8664747
20
68.4530627
11
57.8661747
21
68.4602627
0
LINE
8
DEFAULT_255_2_778
10
57.8661747
20
68.4602627
11
57.7661747
21
68.4565627
0
LINE
8
DEFAULT_255_2_778
10
57.8339747
20
66.8282627
11
57.9339747
21
66.8319627
0
LINE
8
DEFAULT_255_2_778
10
57.9339747
20
66.8319627
11
57.9334747
21
66.8428627
0
LINE
8
DEFAULT_255_2_778
10
57.8646747
20
68.4943627
11
57.8646747
21
68.4988627
0
LINE
8
DEFAULT_255_2_778
10
57.8646747
20
68.4988627
11
57.7645747
21
68.4951627
0
LINE
8
DEFAULT_255_2_778
10
4.9503747
20
6.0733627
11
4.5502747
21
6.0733627
0
LINE
8
DEFAULT_255_2_778
10
4.5502747
20
6.0733627
11
3.5501747
21
7.0731627
0
LINE
8
DEFAULT_255_2_778
10
3.5501747
20
7.0731627
11
3.5501747
21
32.0731627
0
LINE
8
DEFAULT_255_2_778
10
3.5501747
20
32.0731627
11
4.5502747
21
33.0732627
0
LINE
8
DEFAULT_255_2_778
10
4.5502747
20
33.0732627
11
4.9503747
21
33.0732627
0
LINE
8
DEFAULT_255_2_778
10
3.5507678
20
31.1081276
11
2.0505678
21
31.1081276
0
LINE
8
DEFAULT_255_2_778
10
2.0505678
20
31.1081276
11
2.0505678
21
8.0380276
0
LINE
8
DEFAULT_255_2_778
10
2.0505678
20
8.0380276
11
3.5507678
21
8.0380276
0
LINE
8
DEFAULT_255_2_778
10
0.2005678
20
42.8543276
11
4.9506678
21
42.8543276
0
LINE
8
DEFAULT_255_2_778
10
0.2005678
20
39.2920276
11
4.9506678
21
39.2920276
0
LINE
8
DEFAULT_255_2_778
10
4.9506133
20
36.7731985
11
0.2005133
21
36.7731985
0
LINE
8
DEFAULT_255_2_778
10
0.2005133
20
36.7731985
11
0.2005133
21
45.3731985
0
LINE
8
DEFAULT_255_2_778
10
0.2005133
20
45.3731985
11
4.9506133
21
45.3731985
0
LINE
8
DEFAULT_255_2_778
10
58.0540133
20
9.1355985
11
58.0559133
21
9.1855985
0
LINE
8
DEFAULT_255_2_778
10
58.0559133
20
9.1855985
11
57.9559133
21
9.1884985
0
LINE
8
DEFAULT_255_2_778
10
57.9580133
20
9.2456985
11
58.0580133
21
9.2427985
0
LINE
8
DEFAULT_255_2_778
10
58.0580133
20
9.2427985
11
58.0561133
21
9.1927985
0
LINE
8
DEFAULT_255_2_778
10
58.3189133
20
17.7816985
11
58.2189133
21
17.7845985
0
LINE
8
DEFAULT_255_2_778
10
58.2186698
20
17.7741968
11
58.3186698
21
17.7712968
0
LINE
8
DEFAULT_255_2_778
10
58.3186698
20
17.7712968
11
58.3189698
21
17.7815968
0
LINE
8
DEFAULT_255_2_778
10
58.4057698
20
21.6807968
11
58.3056698
21
21.6836968
0
LINE
8
DEFAULT_255_2_778
10
58.3054698
20
21.6754968
11
58.4054698
21
21.6725968
0
ENDSEC
0
EOF