0
SECTION
2
HEADER
9
$MEASUREMENT
70
1
0
ENDSEC
0
SECTION
2
TABLES
0
TABLE
2
LTYPE
0
LTYPE
72
65
70
64
2
CONTINUOUS
3
______
73
0
40
0
0
ENDTAB
0
TABLE
2
LAYER
0
LAYER
2
DEFAULT_255_2_778
70
0
62
255
6
CONTINUOUS
0
ENDTAB
0
ENDSEC
0
SECTION
2
ENTITIES
0
ARC
8
DEFAULT_255_2_778
10
32.9515815
20
47.0200267
40
26.003187
50
90.0018671
51
112.3499684
0
LINE
8
DEFAULT_255_2_778
10
58.1573341
20
10.0653136
11
58.1571341
21
10.0579136
0
LINE
8
DEFAULT_255_2_778
10
58.4889341
20
22.3685136
11
58.4889341
21
22.3695136
0
LINE
8
DEFAULT_255_2_778
10
58.3060341
20
21.6996136
11
58.4762341
21
21.6996136
0
LINE
8
DEFAULT_255_2_778
10
58.4762341
20
21.6996136
11
58.4762341
21
21.7073136
0
LINE
8
DEFAULT_255_2_778
10
58.4963341
20
22.7680136
11
58.4963341
21
22.7733136
0
LINE
8
DEFAULT_255_2_778
10
57.9568341
20
9.2128136
11
58.1269341
21
9.2144136
0
LINE
8
DEFAULT_255_2_778
10
58.1269341
20
9.2144136
11
57.9568341
21
9.2144136
0
LINE
8
DEFAULT_255_2_778
10
57.9581341
20
9.2472136
11
58.1282341
21
9.2472136
0
LINE
8
DEFAULT_255_2_778
10
58.1282341
20
9.2472136
11
58.1282341
21
9.2438136
0
LINE
8
DEFAULT_255_2_778
10
58.1282341
20
9.2438136
11
57.9581341
21
9.2438136
0
LINE
8
DEFAULT_255_2_778
10
58.2105341
20
61.2186136
11
58.2108341
21
61.2135136
0
LINE
8
DEFAULT_255_2_778
10
57.9846341
20
9.9897136
11
58.1547341
21
9.9873136
0
LINE
8
DEFAULT_255_2_778
10
58.1547341
20
9.9873136
11
57.9846341
21
9.9873136
0
LINE
8
DEFAULT_255_2_778
10
57.9118341
20
7.9995136
11
58.0819341
21
7.9995136
0
LINE
8
DEFAULT_255_2_778
10
58.0819341
20
7.9995136
11
58.0822341
21
8.0079136
0
LINE
8
DEFAULT_255_2_778
10
58.3894341
20
17.7975136
11
58.3896341
21
17.8073136
0
LINE
8
DEFAULT_255_2_778
10
58.1547341
20
9.9912136
11
58.1547341
21
9.9875136
0
LINE
8
DEFAULT_255_2_778
10
58.4354341
20
19.7493136
11
58.4357341
21
19.7575136
0
LINE
8
DEFAULT_255_2_778
10
58.4357341
20
19.7575136
11
58.2658341
21
19.7575136
0
LINE
8
DEFAULT_255_2_778
10
57.9584341
20
9.2523136
11
58.1285341
21
9.2523136
0
LINE
8
DEFAULT_255_2_778
10
58.1285341
20
9.2523136
11
58.1282341
21
9.2475136
0
LINE
8
DEFAULT_255_2_778
10
58.2526341
20
59.9168136
11
58.2531341
21
59.8988136
0
LINE
8
DEFAULT_255_2_778
10
58.2531341
20
59.8988136
11
58.0833341
21
59.8988136
0
LINE
8
DEFAULT_255_2_778
10
58.4539341
20
21.8824136
11
58.4796341
21
21.8824136
0
LINE
8
DEFAULT_255_2_778
10
58.4796341
20
21.8824136
11
58.4796341
21
21.8859136
0
LINE
8
DEFAULT_255_2_778
10
58.5217341
20
24.2470136
11
58.5219341
21
24.2533136
0
LINE
8
DEFAULT_255_2_778
10
58.5119341
20
23.6562136
11
58.3420341
21
23.6578136
0
LINE
8
DEFAULT_255_2_778
10
58.5301341
20
24.7823136
11
58.5301341
21
24.7785136
0
LINE
8
DEFAULT_255_2_778
10
57.9353341
20
4.3617136
11
57.9353341
21
4.3588136
0
LINE
8
DEFAULT_255_2_778
10
57.9351341
20
4.3580136
11
57.9348341
21
4.3538136
0
LINE
8
DEFAULT_255_2_778
10
57.9348341
20
4.3538136
11
57.7647341
21
4.3538136
0
LINE
8
DEFAULT_255_2_778
10
3.5508341
20
31.1082136
11
2.1506341
21
31.1082136
0
LINE
8
DEFAULT_255_2_778
10
2.1506341
20
31.1082136
11
2.1506341
21
8.0439136
0
LINE
8
DEFAULT_255_2_778
10
2.1506341
20
8.0439136
11
3.5508341
21
8.0439136
0
LINE
8
DEFAULT_255_2_778
10
14.9869341
20
69.2315136
11
17.0506341
21
70.4231136
0
LINE
8
DEFAULT_255_2_778
10
17.0506341
20
70.4231136
11
17.2506341
21
70.4231136
0
LINE
8
DEFAULT_255_2_778
10
17.2506341
20
70.4231136
11
17.3530341
21
69.2521136
0
LINE
8
DEFAULT_255_2_778
10
32.9507341
20
73.0232136
11
33.0619341
21
70.9010136
0
LINE
8
DEFAULT_255_2_778
10
2.1506521
20
8.0439284
11
2.1506521
21
8.0383284
0
LINE
8
DEFAULT_255_2_778
10
2.1506521
20
8.0383284
11
3.5508521
21
8.0383284
0
LINE
8
DEFAULT_255_2_778
10
4.8504521
20
50.3981284
11
1.4505521
21
50.3981284
0
LINE
8
DEFAULT_255_2_778
10
1.4505521
20
50.3981284
11
1.4505521
21
65.7482284
0
LINE
8
DEFAULT_255_2_778
10
1.4505521
20
65.7482284
11
4.8504521
21
65.7482284
0
LINE
8
DEFAULT_255_2_778
10
4.9505497
20
6.0733127
11
4.5504497
21
6.0733127
0
LINE
8
DEFAULT_255_2_778
10
4.5504497
20
6.0733127
11
3.5503497
21
7.0731127
0
LINE
8
DEFAULT_255_2_778
10
3.5503497
20
7.0731127
11
3.5503497
21
32.0731127
0
LINE
8
DEFAULT_255_2_778
10
3.5503497
20
32.0731127
11
4.5504497
21
33.0732127
0
LINE
8
DEFAULT_255_2_778
10
4.5504497
20
33.0732127
11
4.9505497
21
33.0732127
0
LINE
8
DEFAULT_255_2_778
10
4.9507497
20
49.9732127
11
4.8507497
21
49.9732127
0
LINE
8
DEFAULT_255_2_778
10
4.8507497
20
49.9732127
11
4.8507497
21
66.0731127
0
LINE
8
DEFAULT_255_2_778
10
4.8507497
20
66.0731127
11
4.9507497
21
66.0731127
0
LINE
8
DEFAULT_255_2_778
10
58.2897497
20
20.8841127
11
58.4251497
21
20.8802127
0
LINE
8
DEFAULT_255_2_778
10
58.4251497
20
20.8802127
11
58.3937497
21
19.7805127
0
LINE
8
DEFAULT_255_2_778
10
58.3937497
20
19.7805127
11
58.2661497
21
19.7842127
0
LINE
8
DEFAULT_255_2_778
10
58.1579497
20
62.1316127
11
58.3220497
21
62.1377127
0
LINE
8
DEFAULT_255_2_778
10
58.3220497
20
62.1377127
11
58.2812497
21
63.2362127
0
LINE
8
DEFAULT_255_2_778
10
58.2812497
20
63.2362127
11
58.1050497
21
63.2296127
0
LINE
8
DEFAULT_255_2_778
10
57.9542497
20
9.1387127
11
58.0886497
21
9.1348127
0
LINE
8
DEFAULT_255_2_778
10
58.0886497
20
9.1348127
11
58.0571497
21
8.0352127
0
LINE
8
DEFAULT_255_2_778
10
58.0571497
20
8.0352127
11
57.9134497
21
8.0394127
0
LINE
8
DEFAULT_255_2_778
10
58.3603497
20
24.7835127
11
58.5368497
21
24.7785127
0
LINE
8
DEFAULT_255_2_778
10
58.5368497
20
24.7785127
11
58.5053497
21
23.6792127
0
LINE
8
DEFAULT_255_2_778
10
58.5053497
20
23.6792127
11
58.3423497
21
23.6839127
0
LINE
8
DEFAULT_255_2_778
10
58.3275497
20
22.8336127
11
58.4810497
21
22.8291127
0
LINE
8
DEFAULT_255_2_778
10
58.4810497
20
22.8291127
11
58.4495497
21
21.7295127
0
LINE
8
DEFAULT_255_2_778
10
58.4495497
20
21.7295127
11
58.3066497
21
21.7337127
0
LINE
8
DEFAULT_255_2_778
10
58.2468497
20
18.9352127
11
58.3696497
21
18.9318127
0
LINE
8
DEFAULT_255_2_778
10
58.3696497
20
18.9318127
11
58.3381497
21
17.8322127
0
LINE
8
DEFAULT_255_2_778
10
58.3381497
20
17.8322127
11
58.2206497
21
17.8356127
0
ARC
8
DEFAULT_255_2_778
10
6.4506994
20
92.2717831
40
28.2986549
50
269.9997992
51
284.7502624
0
ARC
8
DEFAULT_255_2_778
10
6.4511913
20
92.2707723
40
28.2975521
50
284.7498203
51
297.8716875
0
ARC
8
DEFAULT_255_2_778
10
21.4501351
20
-320.4593643
40
391.5325925
50
84.6838968
51
89.9999319
0
ARC
8
DEFAULT_255_2_778
10
55.8997925
20
62.5729025
40
2.3009771
50
359.9983322
51
26.5510614
0
ARC
8
DEFAULT_255_2_778
10
55.8954301
20
62.572855
40
2.3053395
50
359.3966941
51
359.9995159
0
ARC
8
DEFAULT_255_2_778
10
55.9020838
20
62.5726625
40
2.2986842
50
337.4550479
51
359.399746
0
ARC
8
DEFAULT_255_2_778
10
-691.4877274
20
36.4230444
40
749.9386408
50
0.0900564
51
1.9308781
0
ARC
8
DEFAULT_255_2_778
10
-691.4758403
20
36.4229005
40
749.926754
50
359.9999903
51
0.0900688
0
ARC
8
DEFAULT_255_2_778
10
-691.5839398
20
36.4231525
40
750.0348536
50
357.4809021
51
359.9999711
0
LINE
8
DEFAULT_255_2_778
10
19.6803003
20
69.2724282
11
4.9507003
21
69.1439282
0
LINE
8
DEFAULT_255_2_778
10
4.9507003
20
69.1439282
11
4.9507003
21
63.9731282
0
LINE
8
DEFAULT_255_2_778
10
4.9507003
20
63.9731282
11
6.4506003
21
63.9731282
0
LINE
8
DEFAULT_255_2_778
10
19.6801003
20
67.2558282
11
19.6801003
21
71.0732282
0
LINE
8
DEFAULT_255_2_778
10
19.6801003
20
71.0732282
11
21.4506003
21
71.0732282
0
LINE
8
DEFAULT_255_2_778
10
57.7258003
20
69.3891282
11
57.9581003
21
63.6014282
0
LINE
8
DEFAULT_255_2_778
10
58.0682003
20
65.2063282
11
58.0669003
21
65.2420282
0
LINE
8
DEFAULT_255_2_778
10
58.0669003
20
65.2420282
11
58.0653003
21
65.2841282
0
LINE
8
DEFAULT_255_2_778
10
58.0653003
20
65.2841282
11
58.0642003
21
65.3087282
0
LINE
8
DEFAULT_255_2_778
10
58.0642003
20
65.3087282
11
58.0632003
21
65.3352282
0
LINE
8
DEFAULT_255_2_778
10
58.0632003
20
65.3352282
11
58.0621003
21
65.3635282
0
LINE
8
DEFAULT_255_2_778
10
58.0621003
20
65.3635282
11
58.0610003
21
65.3939282
0
LINE
8
DEFAULT_255_2_778
10
58.0610003
20
65.3939282
11
58.0584003
21
65.4585282
0
LINE
8
DEFAULT_255_2_778
10
58.0584003
20
65.4585282
11
58.0571003
21
65.4923282
0
LINE
8
DEFAULT_255_2_778
10
58.0571003
20
65.4923282
11
58.0557003
21
65.5270282
0
LINE
8
DEFAULT_255_2_778
10
58.0557003
20
65.5270282
11
58.0531003
21
65.5961282
0
LINE
8
DEFAULT_255_2_778
10
58.0531003
20
65.5961282
11
58.0505003
21
65.6649282
0
LINE
8
DEFAULT_255_2_778
10
58.0505003
20
65.6649282
11
58.0478003
21
65.7329282
0
LINE
8
DEFAULT_255_2_778
10
58.0478003
20
65.7329282
11
58.0452003
21
65.7974282
0
LINE
8
DEFAULT_255_2_778
10
58.0452003
20
65.7974282
11
58.0430003
21
65.8546282
0
LINE
8
DEFAULT_255_2_778
10
58.0430003
20
65.8546282
11
58.0420003
21
65.8794282
0
LINE
8
DEFAULT_255_2_778
10
58.0420003
20
65.8794282
11
58.0412003
21
65.9017282
0
LINE
8
DEFAULT_255_2_778
10
58.0412003
20
65.9017282
11
58.0399003
21
65.9371282
0
LINE
8
DEFAULT_255_2_778
10
58.0399003
20
65.9371282
11
58.0393003
21
65.9506282
0
LINE
8
DEFAULT_255_2_778
10
58.0393003
20
65.9506282
11
58.0391003
21
65.9612282
0
LINE
8
DEFAULT_255_2_778
10
58.0391003
20
65.9612282
11
58.0386003
21
65.9742282
0
LINE
8
DEFAULT_255_2_778
10
58.0386003
20
65.9742282
11
58.0386003
21
65.9771282
0
LINE
8
DEFAULT_255_2_778
10
58.0386003
20
65.9771282
11
58.0386003
21
65.9779282
0
LINE
8
DEFAULT_255_2_778
10
58.0386003
20
65.9779282
11
58.0386003
21
65.9779282
0
LINE
8
DEFAULT_255_2_778
10
58.0386003
20
65.9779282
11
57.8687003
21
65.9779282
0
LINE
8
DEFAULT_255_2_778
10
57.8687003
20
65.9779282
11
58.0386003
21
65.9779282
0
LINE
8
DEFAULT_255_2_778
10
57.9944003
20
5.7754282
11
57.9941003
21
5.7754282
0
LINE
8
DEFAULT_255_2_778
10
57.9340003
20
68.5046282
11
57.7642003
21
68.5046282
0
LINE
8
DEFAULT_255_2_778
10
58.3939003
20
17.9824282
11
58.3897003
21
17.8075282
0
LINE
8
DEFAULT_255_2_778
10
58.3897003
20
17.8075282
11
58.2195003
21
17.8075282
0
LINE
8
DEFAULT_255_2_778
10
58.3939188
20
17.9824012
11
58.3420188
21
17.9824012
0
LINE
8
DEFAULT_255_2_778
10
58.5301188
20
24.7788012
11
58.5307188
21
24.8057012
0
LINE
8
DEFAULT_255_2_778
10
58.5307188
20
24.8057012
11
58.5309188
21
24.8203012
0
LINE
8
DEFAULT_255_2_778
10
58.5309188
20
24.8203012
11
58.5312188
21
24.8327012
0
LINE
8
DEFAULT_255_2_778
10
58.5312188
20
24.8327012
11
58.5315188
21
24.8510012
0
LINE
8
DEFAULT_255_2_778
10
58.5315188
20
24.8510012
11
58.5315188
21
24.8571012
0
LINE
8
DEFAULT_255_2_778
10
58.5315188
20
24.8571012
11
58.5315188
21
24.8613012
0
LINE
8
DEFAULT_255_2_778
10
58.5315188
20
24.8613012
11
58.5315188
21
24.8645012
0
LINE
8
DEFAULT_255_2_778
10
58.5315188
20
24.8645012
11
58.5315188
21
24.8645012
0
LINE
8
DEFAULT_255_2_778
10
58.5315188
20
24.8645012
11
58.3616188
21
24.8645012
0
LINE
8
DEFAULT_255_2_778
10
58.3418188
20
23.6492012
11
58.5116188
21
23.6492012
0
LINE
8
DEFAULT_255_2_778
10
58.5116188
20
23.6492012
11
58.5116188
21
23.6492012
0
LINE
8
DEFAULT_255_2_778
10
58.5116188
20
23.6492012
11
58.5116188
21
23.6500012
0
LINE
8
DEFAULT_255_2_778
10
58.5116188
20
23.6500012
11
58.5116188
21
23.6524012
0
LINE
8
DEFAULT_255_2_778
10
58.5116188
20
23.6524012
11
58.5116188
21
23.6625012
0
LINE
8
DEFAULT_255_2_778
10
58.5116188
20
23.6625012
11
58.5116188
21
23.6704012
0
LINE
8
DEFAULT_255_2_778
10
58.5116188
20
23.6704012
11
58.5116188
21
23.6807012
0
LINE
8
DEFAULT_255_2_778
10
58.5116188
20
23.6807012
11
58.5121188
21
23.7077012
0
LINE
8
DEFAULT_255_2_778
10
58.5121188
20
23.7077012
11
58.5127188
21
23.7413012
0
LINE
8
DEFAULT_255_2_778
10
58.5127188
20
23.7413012
11
58.5132188
21
23.7800012
0
LINE
8
DEFAULT_255_2_778
10
58.5132188
20
23.7800012
11
58.5135188
21
23.8011012
0
LINE
8
DEFAULT_255_2_778
10
58.5135188
20
23.8011012
11
58.5137188
21
23.8231012
0
LINE
8
DEFAULT_255_2_778
10
58.5137188
20
23.8231012
11
58.5145188
21
23.8681012
0
LINE
8
DEFAULT_255_2_778
10
58.5145188
20
23.8681012
11
58.5153188
21
23.9144012
0
LINE
8
DEFAULT_255_2_778
10
58.5153188
20
23.9144012
11
58.5161188
21
23.9615012
0
LINE
8
DEFAULT_255_2_778
10
58.5161188
20
23.9615012
11
58.5177188
21
24.0562012
0
LINE
8
DEFAULT_255_2_778
10
58.5177188
20
24.0562012
11
58.5193188
21
24.1512012
0
LINE
8
DEFAULT_255_2_778
10
58.5193188
20
24.1512012
11
58.5209188
21
24.2464012
0
LINE
8
DEFAULT_255_2_778
10
58.5209188
20
24.2464012
11
58.5140188
21
23.8321012
0
LINE
8
DEFAULT_255_2_778
10
58.5140188
20
23.8321012
11
58.5090188
21
23.8321012
0
LINE
8
DEFAULT_255_2_778
10
57.9121188
20
8.0076012
11
58.0822188
21
8.0076012
0
LINE
8
DEFAULT_255_2_778
10
58.0822188
20
8.0076012
11
58.1266188
21
9.2075012
0
LINE
8
DEFAULT_255_2_778
10
58.1266188
20
9.2075012
11
57.9565188
21
9.2075012
0
LINE
8
DEFAULT_255_2_778
10
57.7647188
20
4.3561012
11
57.9348188
21
4.3561012
0
LINE
8
DEFAULT_255_2_778
10
57.9348188
20
4.3561012
11
57.9348188
21
4.3579012
0
LINE
8
DEFAULT_255_2_778
10
57.9348188
20
4.3579012
11
57.9354188
21
4.3683012
0
LINE
8
DEFAULT_255_2_778
10
57.9354188
20
4.3683012
11
57.9356188
21
4.3775012
0
LINE
8
DEFAULT_255_2_778
10
57.9356188
20
4.3775012
11
57.9361188
21
4.3897012
0
LINE
8
DEFAULT_255_2_778
10
57.9361188
20
4.3897012
11
57.9375188
21
4.4207012
0
LINE
8
DEFAULT_255_2_778
10
57.9375188
20
4.4207012
11
57.9383188
21
4.4389012
0
LINE
8
DEFAULT_255_2_778
10
57.9383188
20
4.4389012
11
57.9391188
21
4.4588012
0
LINE
8
DEFAULT_255_2_778
10
57.9391188
20
4.4588012
11
57.9409188
21
4.5019012
0
LINE
8
DEFAULT_255_2_778
10
57.9409188
20
4.5019012
11
57.9428188
21
4.5482012
0
LINE
8
DEFAULT_255_2_778
10
57.9428188
20
4.5482012
11
57.9470188
21
4.6448012
0
LINE
8
DEFAULT_255_2_778
10
57.9470188
20
4.6448012
11
57.9491188
21
4.6942012
0
LINE
8
DEFAULT_255_2_778
10
57.9491188
20
4.6942012
11
57.9512188
21
4.7442012
0
LINE
8
DEFAULT_255_2_778
10
57.9512188
20
4.7442012
11
57.9533188
21
4.7945012
0
LINE
8
DEFAULT_255_2_778
10
57.9533188
20
4.7945012
11
57.9555188
21
4.8448012
0
LINE
8
DEFAULT_255_2_778
10
57.9555188
20
4.8448012
11
57.9597188
21
4.9456012
0
LINE
8
DEFAULT_255_2_778
10
57.9597188
20
4.9456012
11
57.9639188
21
5.0464012
0
LINE
8
DEFAULT_255_2_778
10
57.9639188
20
5.0464012
11
57.9682188
21
5.1472012
0
LINE
8
DEFAULT_255_2_778
10
57.9682188
20
5.1472012
11
57.9724188
21
5.2480012
0
LINE
8
DEFAULT_255_2_778
10
57.9724188
20
5.2480012
11
57.9745188
21
5.2983012
0
LINE
8
DEFAULT_255_2_778
10
57.9745188
20
5.2983012
11
57.9766188
21
5.3485012
0
LINE
8
DEFAULT_255_2_778
10
57.9766188
20
5.3485012
11
57.9809188
21
5.4491012
0
LINE
8
DEFAULT_255_2_778
10
57.9809188
20
5.4491012
11
57.9830188
21
5.4991012
0
LINE
8
DEFAULT_255_2_778
10
57.9830188
20
5.4991012
11
57.9851188
21
5.5483012
0
LINE
8
DEFAULT_255_2_778
10
57.9851188
20
5.5483012
11
57.9869188
21
5.5967012
0
LINE
8
DEFAULT_255_2_778
10
57.9869188
20
5.5967012
11
57.9888188
21
5.6428012
0
LINE
8
DEFAULT_255_2_778
10
57.9888188
20
5.6428012
11
57.9907188
21
5.6856012
0
LINE
8
DEFAULT_255_2_778
10
57.9907188
20
5.6856012
11
57.9922188
21
5.7227012
0
LINE
8
DEFAULT_255_2_778
10
57.9922188
20
5.7227012
11
57.9930188
21
5.7385012
0
LINE
8
DEFAULT_255_2_778
10
57.9930188
20
5.7385012
11
57.9936188
21
5.7520012
0
LINE
8
DEFAULT_255_2_778
10
57.9936188
20
5.7520012
11
57.9944188
21
5.7708012
0
LINE
8
DEFAULT_255_2_778
10
57.9944188
20
5.7708012
11
57.9946188
21
5.7761012
0
LINE
8
DEFAULT_255_2_778
10
57.9946188
20
5.7761012
11
57.9946188
21
5.7790012
0
LINE
8
DEFAULT_255_2_778
10
57.9946188
20
5.7790012
11
57.9946188
21
5.7801012
0
LINE
8
DEFAULT_255_2_778
10
58.2653188
20
19.7493012
11
58.4352188
21
19.7493012
0
LINE
8
DEFAULT_255_2_778
10
58.4354188
20
19.7575012
11
58.4394188
21
19.9324012
0
LINE
8
DEFAULT_255_2_778
10
58.4394188
20
19.9324012
11
58.3981188
21
19.9324012
0
LINE
8
DEFAULT_255_2_778
10
58.2105188
20
61.2185012
11
58.0407188
21
61.2185012
0
LINE
8
DEFAULT_255_2_778
10
58.2105188
20
61.2114012
11
58.2523188
21
59.9167012
0
LINE
8
DEFAULT_255_2_778
10
58.2523188
20
59.9167012
11
58.0825188
21
59.9167012
0
LINE
8
DEFAULT_255_2_778
10
58.0830188
20
59.9059012
11
58.2529188
21
59.9059012
0
LINE
8
DEFAULT_255_2_778
10
58.1965188
20
11.2022012
11
58.0264188
21
11.2022012
0
LINE
8
DEFAULT_255_2_778
10
58.1960188
20
11.1861012
11
58.1962188
21
11.1913012
0
LINE
8
DEFAULT_255_2_778
10
58.1962188
20
11.1913012
11
58.1965188
21
11.2011012
0
LINE
8
DEFAULT_255_2_778
10
58.1965188
20
11.2011012
11
58.1965188
21
11.1998012
0
LINE
8
DEFAULT_255_2_778
10
58.1965188
20
11.1998012
11
58.1960188
21
11.1871012
0
LINE
8
DEFAULT_255_2_778
10
58.1960188
20
11.1871012
11
58.1957188
21
11.1813012
0
LINE
8
DEFAULT_255_2_778
10
58.1957188
20
11.1813012
11
58.1954188
21
11.1739012
0
LINE
8
DEFAULT_255_2_778
10
58.1954188
20
11.1739012
11
58.1949188
21
11.1551012
0
LINE
8
DEFAULT_255_2_778
10
58.1949188
20
11.1551012
11
58.1946188
21
11.1435012
0
LINE
8
DEFAULT_255_2_778
10
58.1946188
20
11.1435012
11
58.1941188
21
11.1302012
0
LINE
8
DEFAULT_255_2_778
10
58.1941188
20
11.1302012
11
58.1931188
21
11.0993012
0
LINE
8
DEFAULT_255_2_778
10
58.1931188
20
11.0993012
11
58.0229188
21
11.0993012
0
LINE
8
DEFAULT_255_2_778
10
57.9303188
20
64.3520012
11
58.1002188
21
64.3520012
0
LINE
8
DEFAULT_255_2_778
10
58.4613188
20
20.9576012
11
58.2915188
21
20.9576012
0
LINE
8
DEFAULT_255_2_778
10
58.4394188
20
19.9324012
11
58.4426188
21
20.0755012
0
LINE
8
DEFAULT_255_2_778
10
58.4426188
20
20.0755012
11
58.4023188
21
20.0755012
0
LINE
8
DEFAULT_255_2_778
10
58.4426188
20
20.0755012
11
58.4452188
21
20.1986012
0
LINE
8
DEFAULT_255_2_778
10
58.4452188
20
20.1986012
11
58.4058188
21
20.1986012
0
LINE
8
DEFAULT_255_2_778
10
57.8980188
20
65.2066012
11
58.0679188
21
65.2066012
0
LINE
8
DEFAULT_255_2_778
10
58.0679188
20
65.2066012
11
58.0692188
21
65.1706012
0
LINE
8
DEFAULT_255_2_778
10
58.0692188
20
65.1706012
11
58.0711188
21
65.1253012
0
LINE
8
DEFAULT_255_2_778
10
58.0711188
20
65.1253012
11
58.0721188
21
65.0981012
0
LINE
8
DEFAULT_255_2_778
10
58.0721188
20
65.0981012
11
58.0732188
21
65.0684012
0
LINE
8
DEFAULT_255_2_778
10
58.0732188
20
65.0684012
11
58.0756188
21
65.0036012
0
LINE
8
DEFAULT_255_2_778
10
58.0756188
20
65.0036012
11
58.0769188
21
64.9687012
0
LINE
8
DEFAULT_255_2_778
10
58.0769188
20
64.9687012
11
58.0782188
21
64.9327012
0
LINE
8
DEFAULT_255_2_778
10
58.0782188
20
64.9327012
11
58.0811188
21
64.8586012
0
LINE
8
DEFAULT_255_2_778
10
58.0811188
20
64.8586012
11
58.0825188
21
64.8211012
0
LINE
8
DEFAULT_255_2_778
10
58.0825188
20
64.8211012
11
58.0838188
21
64.7838012
0
LINE
8
DEFAULT_255_2_778
10
58.0838188
20
64.7838012
11
58.0867188
21
64.7094012
0
LINE
8
DEFAULT_255_2_778
10
58.0867188
20
64.7094012
11
58.0893188
21
64.6356012
0
LINE
8
DEFAULT_255_2_778
10
58.0893188
20
64.6356012
11
58.0907188
21
64.5991012
0
LINE
8
DEFAULT_255_2_778
10
58.0907188
20
64.5991012
11
58.0920188
21
64.5636012
0
LINE
8
DEFAULT_255_2_778
10
58.0920188
20
64.5636012
11
58.0933188
21
64.5298012
0
LINE
8
DEFAULT_255_2_778
10
58.0933188
20
64.5298012
11
58.0946188
21
64.4977012
0
LINE
8
DEFAULT_255_2_778
10
58.0946188
20
64.4977012
11
58.0968188
21
64.4422012
0
LINE
8
DEFAULT_255_2_778
10
58.0968188
20
64.4422012
11
58.0975188
21
64.4194012
0
LINE
8
DEFAULT_255_2_778
10
58.0975188
20
64.4194012
11
58.0983188
21
64.4001012
0
LINE
8
DEFAULT_255_2_778
10
58.0983188
20
64.4001012
11
58.0989188
21
64.3845012
0
LINE
8
DEFAULT_255_2_778
10
58.0989188
20
64.3845012
11
58.0999188
21
64.3525012
0
LINE
8
DEFAULT_255_2_778
10
58.4889188
20
22.3684012
11
58.4955188
21
22.7211012
0
LINE
8
DEFAULT_255_2_778
10
58.4955188
20
22.7211012
11
58.4780188
21
22.7211012
0
LINE
8
DEFAULT_255_2_778
10
58.0354188
20
66.0453012
11
57.8655188
21
66.0453012
0
LINE
8
DEFAULT_255_2_778
10
57.9383188
20
64.1392012
11
58.1081188
21
64.1392012
0
LINE
8
DEFAULT_255_2_778
10
58.1081188
20
64.1392012
11
58.1076188
21
64.1548012
0
LINE
8
DEFAULT_255_2_778
10
58.1076188
20
64.1548012
11
58.1073188
21
64.1625012
0
LINE
8
DEFAULT_255_2_778
10
58.1073188
20
64.1625012
11
58.1071188
21
64.1702012
0
LINE
8
DEFAULT_255_2_778
10
58.1071188
20
64.1702012
11
57.9372188
21
64.1702012
0
LINE
8
DEFAULT_255_2_778
10
57.8316188
20
66.8888012
11
58.0015188
21
66.8888012
0
LINE
8
DEFAULT_255_2_778
10
58.0015188
20
66.8888012
11
57.9351188
21
68.4821012
0
LINE
8
DEFAULT_255_2_778
10
57.9351188
20
68.4821012
11
57.7652188
21
68.4821012
0
ARC
8
DEFAULT_255_2_778
10
32.951245
20
25.8268664
40
26.0038674
50
247.6514868
51
269.9991291
0
ARC
8
DEFAULT_255_2_778
10
21.4501867
20
393.3057914
40
391.5325921
50
270.0000678
51
275.3161029
0
LINE
8
DEFAULT_255_2_778
10
57.8322497
20
66.875299
11
58.0020497
21
66.875299
0
LINE
8
DEFAULT_255_2_778
10
58.4796497
20
21.882399
11
58.4762497
21
21.707499
0
LINE
8
DEFAULT_255_2_778
10
58.4762497
20
21.707499
11
58.3060497
21
21.707499
0
LINE
8
DEFAULT_255_2_778
10
58.2193497
20
17.797699
11
58.3894497
21
17.797699
0
LINE
8
DEFAULT_255_2_778
10
58.3939497
20
17.980599
11
58.3949497
21
18.023399
0
LINE
8
DEFAULT_255_2_778
10
58.3949497
20
18.023399
11
58.3960497
21
18.068699
0
LINE
8
DEFAULT_255_2_778
10
58.3960497
20
18.068699
11
58.3971497
21
18.114699
0
LINE
8
DEFAULT_255_2_778
10
58.3971497
20
18.114699
11
58.3981497
21
18.161299
0
LINE
8
DEFAULT_255_2_778
10
58.3981497
20
18.161299
11
58.3992497
21
18.207799
0
LINE
8
DEFAULT_255_2_778
10
58.3992497
20
18.207799
11
58.4002497
21
18.254399
0
LINE
8
DEFAULT_255_2_778
10
58.4002497
20
18.254399
11
58.4013497
21
18.300999
0
LINE
8
DEFAULT_255_2_778
10
58.4013497
20
18.300999
11
58.4034497
21
18.394099
0
LINE
8
DEFAULT_255_2_778
10
58.4034497
20
18.394099
11
58.4055497
21
18.487499
0
LINE
8
DEFAULT_255_2_778
10
58.4055497
20
18.487499
11
58.4076497
21
18.580899
0
LINE
8
DEFAULT_255_2_778
10
58.4076497
20
18.580899
11
58.4098497
21
18.674299
0
LINE
8
DEFAULT_255_2_778
10
58.4098497
20
18.674299
11
58.4108497
21
18.720899
0
LINE
8
DEFAULT_255_2_778
10
58.4108497
20
18.720899
11
58.4119497
21
18.766899
0
LINE
8
DEFAULT_255_2_778
10
58.4119497
20
18.766899
11
58.4129497
21
18.812099
0
LINE
8
DEFAULT_255_2_778
10
58.4129497
20
18.812099
11
58.4140497
21
18.856099
0
LINE
8
DEFAULT_255_2_778
10
58.4140497
20
18.856099
11
58.4151497
21
18.897299
0
LINE
8
DEFAULT_255_2_778
10
58.4151497
20
18.897299
11
58.4156497
21
18.916699
0
LINE
8
DEFAULT_255_2_778
10
58.4156497
20
18.916699
11
58.4161497
21
18.934599
0
LINE
8
DEFAULT_255_2_778
10
58.4161497
20
18.934599
11
58.4169497
21
18.965899
0
LINE
8
DEFAULT_255_2_778
10
58.4169497
20
18.965899
11
58.4172497
21
18.978799
0
LINE
8
DEFAULT_255_2_778
10
58.4172497
20
18.978799
11
58.4174497
21
18.989899
0
LINE
8
DEFAULT_255_2_778
10
58.4174497
20
18.989899
11
58.4177497
21
18.999199
0
LINE
8
DEFAULT_255_2_778
10
58.4177497
20
18.999199
11
58.4180497
21
19.006399
0
LINE
8
DEFAULT_255_2_778
10
58.4180497
20
19.006399
11
58.4180497
21
19.014799
0
LINE
8
DEFAULT_255_2_778
10
58.4180497
20
19.014799
11
58.4180497
21
19.017499
0
LINE
8
DEFAULT_255_2_778
10
58.4180497
20
19.017499
11
58.4180497
21
19.017499
0
LINE
8
DEFAULT_255_2_778
10
58.4180497
20
19.017499
11
58.2481497
21
19.017499
0
LINE
8
DEFAULT_255_2_778
10
33.0619497
20
1.945199
11
32.9508497
21
-0.177001
0
LINE
8
DEFAULT_255_2_778
10
21.4506497
20
1.773199
11
4.9507497
21
1.773199
0
LINE
8
DEFAULT_255_2_778
10
4.9507497
20
1.773199
11
4.9507497
21
63.973099
0
LINE
8
DEFAULT_255_2_778
10
58.1269497
20
9.212799
11
58.1280497
21
9.243999
0
LINE
8
DEFAULT_255_2_778
10
58.4963497
20
22.767699
11
58.5119497
21
23.655899
0
LINE
8
DEFAULT_255_2_778
10
58.4796497
20
21.885499
11
58.4873497
21
22.285099
0
LINE
8
DEFAULT_255_2_778
10
58.4611497
20
20.957699
11
58.4762497
21
21.707699
0
LINE
8
DEFAULT_255_2_778
10
58.5119497
20
23.657499
11
58.5148497
21
23.832399
0
LINE
8
DEFAULT_255_2_778
10
58.0592497
20
65.434899
11
58.0780497
21
64.944399
0
LINE
8
DEFAULT_255_2_778
10
58.4611497
20
20.957699
11
58.4450497
21
20.198599
0
LINE
8
DEFAULT_255_2_778
10
58.0354497
20
66.045299
11
58.0380497
21
65.978599
0
LINE
8
DEFAULT_255_2_778
10
58.1005497
20
64.351999
11
58.1073497
21
64.169899
0
LINE
8
DEFAULT_255_2_778
10
58.0383497
20
65.967499
11
58.0460497
21
65.770099
0
LINE
8
DEFAULT_255_2_778
10
58.0481497
20
65.719099
11
58.0568497
21
65.494999
0
LINE
8
DEFAULT_255_2_778
10
57.9348497
20
68.486099
11
57.9343497
21
68.499599
0
LINE
8
DEFAULT_255_2_778
10
57.9343497
20
68.499599
11
57.9340497
21
68.503499
0
LINE
8
DEFAULT_255_2_778
10
57.9340497
20
68.503499
11
57.9340497
21
68.504599
0
LINE
8
DEFAULT_255_2_778
10
58.1939497
20
11.121799
11
58.1931497
21
11.095799
0
LINE
8
DEFAULT_255_2_778
10
58.4918497
20
22.518999
11
58.4926497
21
22.556499
0
LINE
8
DEFAULT_255_2_778
10
58.4870497
20
22.263099
11
58.4875497
21
22.285099
0
LINE
8
DEFAULT_255_2_778
10
58.2523497
20
59.916799
11
58.2523497
21
59.913599
0
LINE
8
DEFAULT_255_2_778
10
58.2523497
20
59.913599
11
58.2523497
21
59.910399
0
LINE
8
DEFAULT_255_2_778
10
58.2523497
20
59.910399
11
58.2523497
21
59.907799
0
LINE
8
DEFAULT_255_2_778
10
58.2523497
20
59.907799
11
58.2523497
21
59.906399
0
LINE
8
DEFAULT_255_2_778
10
58.2523497
20
59.906399
11
58.2523497
21
59.905899
0
LINE
8
DEFAULT_255_2_778
10
58.1931497
20
11.100599
11
58.1910497
21
11.034199
0
LINE
8
DEFAULT_255_2_778
10
58.1910497
20
11.034199
11
58.1896497
21
10.996899
0
LINE
8
DEFAULT_255_2_778
10
58.1896497
20
10.996899
11
58.1883497
21
10.958499
0
LINE
8
DEFAULT_255_2_778
10
58.1883497
20
10.958499
11
58.1857497
21
10.880199
0
LINE
8
DEFAULT_255_2_778
10
58.1857497
20
10.880199
11
58.1830497
21
10.800299
0
LINE
8
DEFAULT_255_2_778
10
58.1830497
20
10.800299
11
58.1817497
21
10.760299
0
LINE
8
DEFAULT_255_2_778
10
58.1817497
20
10.760299
11
58.1804497
21
10.720399
0
LINE
8
DEFAULT_255_2_778
10
58.1804497
20
10.720399
11
58.1777497
21
10.640199
0
LINE
8
DEFAULT_255_2_778
10
58.1777497
20
10.640199
11
58.1722497
21
10.479899
0
LINE
8
DEFAULT_255_2_778
10
58.1722497
20
10.479899
11
58.1708497
21
10.439899
0
LINE
8
DEFAULT_255_2_778
10
58.1708497
20
10.439899
11
58.1695497
21
10.399999
0
LINE
8
DEFAULT_255_2_778
10
58.1695497
20
10.399999
11
58.1669497
21
10.320599
0
LINE
8
DEFAULT_255_2_778
10
58.1669497
20
10.320599
11
58.1656497
21
10.281199
0
LINE
8
DEFAULT_255_2_778
10
58.1656497
20
10.281199
11
58.1642497
21
10.241999
0
LINE
8
DEFAULT_255_2_778
10
58.1642497
20
10.241999
11
58.1629497
21
10.203399
0
LINE
8
DEFAULT_255_2_778
10
58.1629497
20
10.203399
11
58.1616497
21
10.165799
0
LINE
8
DEFAULT_255_2_778
10
58.1616497
20
10.165799
11
58.1603497
21
10.129599
0
LINE
8
DEFAULT_255_2_778
10
58.1603497
20
10.129599
11
58.1592497
21
10.095699
0
LINE
8
DEFAULT_255_2_778
10
58.1592497
20
10.095699
11
58.1581497
21
10.065599
0
LINE
8
DEFAULT_255_2_778
10
58.1581497
20
10.065599
11
58.1576497
21
10.052099
0
LINE
8
DEFAULT_255_2_778
10
58.1576497
20
10.052099
11
58.1573497
21
10.040199
0
LINE
8
DEFAULT_255_2_778
10
58.1573497
20
10.040199
11
58.1566497
21
10.019999
0
LINE
8
DEFAULT_255_2_778
10
58.1566497
20
10.019999
11
58.1555497
21
9.989899
0
LINE
8
DEFAULT_255_2_778
10
58.4793497
20
21.872299
11
58.4799497
21
21.906999
0
LINE
8
DEFAULT_255_2_778
10
58.4799497
20
21.906999
11
58.4807497
21
21.941599
0
LINE
8
DEFAULT_255_2_778
10
58.4807497
20
21.941599
11
58.4820497
21
22.010999
0
LINE
8
DEFAULT_255_2_778
10
58.4820497
20
22.010999
11
58.4846497
21
22.150699
0
LINE
8
DEFAULT_255_2_778
10
58.4846497
20
22.150699
11
58.4860497
21
22.221299
0
LINE
8
DEFAULT_255_2_778
10
58.4860497
20
22.221299
11
58.4873497
21
22.293799
0
LINE
8
DEFAULT_255_2_778
10
58.4873497
20
22.293799
11
58.4886497
21
22.368899
0
LINE
8
DEFAULT_255_2_778
10
58.4886497
20
22.368899
11
58.4894497
21
22.407599
0
LINE
8
DEFAULT_255_2_778
10
58.4894497
20
22.407599
11
58.4902497
21
22.447799
0
LINE
8
DEFAULT_255_2_778
10
58.4902497
20
22.447799
11
58.4910497
21
22.489899
0
LINE
8
DEFAULT_255_2_778
10
58.4910497
20
22.489899
11
58.4918497
21
22.533799
0
LINE
8
DEFAULT_255_2_778
10
58.4918497
20
22.533799
11
58.4926497
21
22.579299
0
LINE
8
DEFAULT_255_2_778
10
58.4926497
20
22.579299
11
58.4934497
21
22.625099
0
LINE
8
DEFAULT_255_2_778
10
58.4934497
20
22.625099
11
58.4942497
21
22.670799
0
LINE
8
DEFAULT_255_2_778
10
58.4942497
20
22.670799
11
58.4950497
21
22.715799
0
LINE
8
DEFAULT_255_2_778
10
58.4950497
20
22.715799
11
58.4952497
21
22.737199
0
LINE
8
DEFAULT_255_2_778
10
58.4952497
20
22.737199
11
58.4955497
21
22.757099
0
LINE
8
DEFAULT_255_2_778
10
58.4955497
20
22.757099
11
58.4958497
21
22.775099
0
LINE
8
DEFAULT_255_2_778
10
58.4958497
20
22.775099
11
58.4960497
21
22.790999
0
LINE
8
DEFAULT_255_2_778
10
58.4960497
20
22.790999
11
58.4965497
21
22.814199
0
LINE
8
DEFAULT_255_2_778
10
58.4965497
20
22.814199
11
58.4968497
21
22.827199
0
LINE
8
DEFAULT_255_2_778
10
58.4968497
20
22.827199
11
58.4968497
21
22.830399
0
LINE
8
DEFAULT_255_2_778
10
58.4968497
20
22.830399
11
58.4968497
21
22.831699
0
LINE
8
DEFAULT_255_2_778
10
58.4968497
20
22.831699
11
58.4968497
21
22.828799
0
LINE
8
DEFAULT_255_2_778
10
58.4968497
20
22.828799
11
58.4968497
21
22.823999
0
LINE
8
DEFAULT_255_2_778
10
58.4968497
20
22.823999
11
58.4968497
21
22.816599
0
LINE
8
DEFAULT_255_2_778
10
58.4968497
20
22.816599
11
58.4965497
21
22.806299
0
LINE
8
DEFAULT_255_2_778
10
58.4965497
20
22.806299
11
58.4950497
21
22.722199
0
ARC
8
DEFAULT_255_2_778
10
60.9870144
20
22.6947839
40
2.491577
50
178.512488
51
179.3933825
0
LINE
8
DEFAULT_255_2_778
10
57.9348771
20
68.4842629
11
57.9348771
21
68.4821629
0
LINE
8
DEFAULT_255_2_778
10
58.0015771
20
66.8888629
11
58.0017771
21
66.8848629
0
LINE
8
DEFAULT_255_2_778
10
58.0017771
20
66.8848629
11
58.0017771
21
66.8808629
0
LINE
8
DEFAULT_255_2_778
10
58.0017771
20
66.8808629
11
58.0017771
21
66.8777629
0
LINE
8
DEFAULT_255_2_778
10
58.0017771
20
66.8777629
11
58.0017771
21
66.8758629
0
LINE
8
DEFAULT_255_2_778
10
58.0017771
20
66.8758629
11
58.0017771
21
66.8753629
0
LINE
8
DEFAULT_255_2_778
10
57.7650008
20
68.4842527
11
57.9349008
21
68.4842527
0
LINE
8
DEFAULT_255_2_778
10
57.9349008
20
68.4842527
11
57.7650008
21
68.4842527
0
LINE
8
DEFAULT_255_2_778
10
0.2007008
20
42.8543527
11
0.2007008
21
45.3731527
0
LINE
8
DEFAULT_255_2_778
10
0.2007008
20
45.3731527
11
4.9508008
21
45.3731527
0
LINE
8
DEFAULT_255_2_778
10
0.2007008
20
39.2919527
11
0.2007008
21
36.7731527
0
LINE
8
DEFAULT_255_2_778
10
0.2007008
20
36.7731527
11
4.9508008
21
36.7731527
0
LINE
8
DEFAULT_255_2_778
10
58.2109206
20
61.2129966
11
58.2109206
21
61.2110966
0
LINE
8
DEFAULT_255_2_778
10
4.9508206
20
39.2919966
11
0.2007206
21
39.2919966
0
LINE
8
DEFAULT_255_2_778
10
0.2007206
20
39.2919966
11
0.2007206
21
42.8543966
0
LINE
8
DEFAULT_255_2_778
10
0.2007206
20
42.8543966
11
4.9508206
21
42.8543966
0
LINE
8
DEFAULT_255_2_778
10
58.2109206
20
61.2110966
11
58.0410206
21
61.2110966
0
LINE
8
DEFAULT_255_2_778
10
58.0410031
20
61.2129411
11
58.2109031
21
61.2129411
0
LINE
8
DEFAULT_255_2_778
10
58.2109031
20
61.2129411
11
58.0410031
21
61.2129411
0
LINE
8
DEFAULT_255_2_778
10
58.4791031
20
22.7594411
11
58.4963031
21
22.7594411
0
LINE
8
DEFAULT_255_2_778
10
58.4963031
20
22.7594411
11
58.4971031
21
22.8062411
0
LINE
8
DEFAULT_255_2_778
10
58.4971031
20
22.8062411
11
58.4974031
21
22.8272411
0
LINE
8
DEFAULT_255_2_778
10
58.4974031
20
22.8272411
11
58.4977031
21
22.8465411
0
LINE
8
DEFAULT_255_2_778
10
58.4977031
20
22.8465411
11
58.4982031
21
22.8785411
0
LINE
8
DEFAULT_255_2_778
10
58.4982031
20
22.8785411
11
58.4985031
21
22.8909411
0
LINE
8
DEFAULT_255_2_778
10
58.4985031
20
22.8909411
11
58.4985031
21
22.9004411
0
LINE
8
DEFAULT_255_2_778
10
58.4985031
20
22.9004411
11
58.4987031
21
22.9116411
0
LINE
8
DEFAULT_255_2_778
10
58.4987031
20
22.9116411
11
58.4987031
21
22.9137411
0
LINE
8
DEFAULT_255_2_778
10
58.4987031
20
22.9137411
11
58.4987031
21
22.9139411
0
LINE
8
DEFAULT_255_2_778
10
58.4987031
20
22.9139411
11
58.3289031
21
22.9139411
0
LINE
8
DEFAULT_255_2_778
10
58.4990031
20
22.9105411
11
58.4990031
21
22.9174411
0
LINE
8
DEFAULT_255_2_778
10
58.4990031
20
22.9174411
11
58.3291031
21
22.9174411
0
ENDSEC
0
EOF