0
SECTION
2
HEADER
9
$MEASUREMENT
70
1
0
ENDSEC
0
SECTION
2
TABLES
0
TABLE
2
LTYPE
0
LTYPE
72
65
70
64
2
CONTINUOUS
3
______
73
0
40
0
0
ENDTAB
0
TABLE
2
LAYER
0
LAYER
2
DEFAULT_255_2_778
70
0
62
255
6
CONTINUOUS
0
ENDTAB
0
ENDSEC
0
SECTION
2
ENTITIES
0
ARC
8
DEFAULT_255_2_778
10
32.9515509
20
47.0204265
40
26.0028118
50
90.0017037
51
112.3501316
0
LINE
8
DEFAULT_255_2_778
10
14.9868777
20
69.2315384
11
17.0505777
21
70.4231384
0
LINE
8
DEFAULT_255_2_778
10
17.0505777
20
70.4231384
11
17.2506777
21
70.4231384
0
LINE
8
DEFAULT_255_2_778
10
17.2506777
20
70.4231384
11
17.3530777
21
69.2521384
0
LINE
8
DEFAULT_255_2_778
10
32.9507777
20
73.0232384
11
33.0618777
21
70.9010384
0
LINE
8
DEFAULT_255_2_778
10
57.9334777
20
66.8447384
11
57.9329777
21
66.8579384
0
LINE
8
DEFAULT_255_2_778
10
57.9329777
20
66.8579384
11
57.8329777
21
66.8542384
0
LINE
8
DEFAULT_255_2_778
10
57.9329777
20
66.8412384
11
57.9332777
21
66.8468384
0
LINE
8
DEFAULT_255_2_778
10
57.9694777
20
65.9374384
11
57.9771777
21
65.7400384
0
LINE
8
DEFAULT_255_2_778
10
57.9792777
20
65.6892384
11
57.9879777
21
65.4654384
0
LINE
8
DEFAULT_255_2_778
10
57.9909777
20
65.4053384
11
58.0096777
21
64.9153384
0
LINE
8
DEFAULT_255_2_778
10
57.9316777
20
64.3195384
11
58.0316777
21
64.3232384
0
LINE
8
DEFAULT_255_2_778
10
58.0316777
20
64.3232384
11
58.0073777
21
64.9714384
0
LINE
8
DEFAULT_255_2_778
10
58.0073777
20
64.9714384
11
57.9805777
21
65.6673384
0
LINE
8
DEFAULT_255_2_778
10
57.9805777
20
65.6673384
11
57.9694777
21
65.9485384
0
LINE
8
DEFAULT_255_2_778
10
57.9694777
20
65.9485384
11
57.8694777
21
65.9448384
0
LINE
8
DEFAULT_255_2_778
10
57.8694777
20
65.9448384
11
57.9694777
21
65.9485384
0
LINE
8
DEFAULT_255_2_778
10
58.1049777
20
63.2296384
11
58.2811777
21
63.2363384
0
LINE
8
DEFAULT_255_2_778
10
58.2811777
20
63.2363384
11
58.3218777
21
62.1377384
0
LINE
8
DEFAULT_255_2_778
10
58.3218777
20
62.1377384
11
58.1578777
21
62.1316384
0
LINE
8
DEFAULT_255_2_778
10
58.0417777
20
61.1805384
11
58.1414777
21
61.1860384
0
LINE
8
DEFAULT_255_2_778
10
58.1414777
20
61.1860384
11
58.0414777
21
61.1823384
0
LINE
8
DEFAULT_255_2_778
10
58.1417777
20
61.1863384
11
58.1417777
21
61.1916384
0
LINE
8
DEFAULT_255_2_778
10
58.1417777
20
61.1916384
11
58.0417777
21
61.1879384
0
LINE
8
DEFAULT_255_2_778
10
58.0840777
20
59.8673384
11
58.1840777
21
59.8721384
0
LINE
8
DEFAULT_255_2_778
10
58.1832615
20
59.8922
11
58.1830615
21
59.9012
0
LINE
8
DEFAULT_255_2_778
10
58.0838615
20
59.8758
11
58.1838615
21
59.8795
0
LINE
8
DEFAULT_255_2_778
10
58.1838615
20
59.8795
11
58.1835615
21
59.8904
0
LINE
8
DEFAULT_255_2_778
10
58.1835615
20
59.8904
11
58.0835615
21
59.8866
0
LINE
8
DEFAULT_255_2_778
10
58.1835862
20
59.8903331
11
58.1830862
21
59.8813331
0
LINE
8
DEFAULT_255_2_778
10
4.8507862
20
65.7482331
11
1.3505862
21
65.7482331
0
LINE
8
DEFAULT_255_2_778
10
1.3505862
20
65.7482331
11
1.3505862
21
50.3981331
0
LINE
8
DEFAULT_255_2_778
10
1.3505862
20
50.3981331
11
4.8507862
21
50.3981331
0
ARC
8
DEFAULT_255_2_778
10
21.450269
20
393.3036786
40
391.5303909
50
270.0000676
51
275.316118
0
LINE
8
DEFAULT_255_2_778
10
4.950731
20
49.9732876
11
4.850731
21
49.9732876
0
LINE
8
DEFAULT_255_2_778
10
4.850731
20
49.9732876
11
4.850731
21
66.0731876
0
LINE
8
DEFAULT_255_2_778
10
4.850731
20
66.0731876
11
4.950731
21
66.0731876
0
LINE
8
DEFAULT_255_2_778
10
21.450731
20
1.7732876
11
4.950731
21
1.7732876
0
LINE
8
DEFAULT_255_2_778
10
4.950731
20
1.7732876
11
4.950731
21
69.1438876
0
LINE
8
DEFAULT_255_2_778
10
4.950731
20
69.1438876
11
19.680331
21
69.2724876
0
LINE
8
DEFAULT_255_2_778
10
58.460031
20
24.7806876
11
58.460831
21
24.8377876
0
LINE
8
DEFAULT_255_2_778
10
58.460831
20
24.8377876
11
58.360831
21
24.8407876
0
LINE
8
DEFAULT_255_2_778
10
58.4604188
20
24.782751
11
58.4604188
21
24.780651
0
LINE
8
DEFAULT_255_2_778
10
58.4416188
20
23.622251
11
58.4426188
21
23.680451
0
LINE
8
DEFAULT_255_2_778
10
58.4276188
20
22.831451
11
58.4286188
21
22.887551
0
LINE
8
DEFAULT_255_2_778
10
58.4286188
20
22.887551
11
58.3286188
21
22.890451
0
ARC
8
DEFAULT_255_2_778
10
32.9508132
20
25.8220768
40
25.9990048
50
247.6482111
51
269.9999536
0
LINE
8
DEFAULT_255_2_778
10
58.3285922
20
22.893672
11
58.4285922
21
22.890772
0
LINE
8
DEFAULT_255_2_778
10
58.4285922
20
22.890772
11
58.4285922
21
22.885172
0
LINE
8
DEFAULT_255_2_778
10
58.4057922
20
21.680272
11
58.4055922
21
21.672572
0
LINE
8
DEFAULT_255_2_778
10
58.2907922
20
20.933872
11
58.3907922
21
20.930972
0
LINE
8
DEFAULT_255_2_778
10
58.3907922
20
20.930972
11
58.3896922
21
20.881172
0
LINE
8
DEFAULT_255_2_778
10
58.2647922
20
19.725772
11
58.3647922
21
19.722872
0
LINE
8
DEFAULT_255_2_778
10
58.3647922
20
19.722872
11
58.3650922
21
19.731072
0
LINE
8
DEFAULT_255_2_778
10
58.3650922
20
19.731072
11
58.2650922
21
19.733972
0
LINE
8
DEFAULT_255_2_778
10
58.3465922
20
18.932572
11
58.3478922
21
18.992872
0
LINE
8
DEFAULT_255_2_778
10
58.3478922
20
18.992872
11
58.2478922
21
18.995772
0
LINE
8
DEFAULT_255_2_778
10
58.3602922
20
24.783572
11
58.5367922
21
24.778572
0
LINE
8
DEFAULT_255_2_778
10
58.5367922
20
24.778572
11
58.5052922
21
23.678872
0
LINE
8
DEFAULT_255_2_778
10
58.5052922
20
23.678872
11
58.4423922
21
23.680772
0
LINE
8
DEFAULT_255_2_778
10
58.4423922
20
23.680772
11
58.4415922
21
23.630772
0
LINE
8
DEFAULT_255_2_778
10
58.4415922
20
23.630772
11
58.3415922
21
23.633672
0
LINE
8
DEFAULT_255_2_778
10
58.2467922
20
18.935172
11
58.3692922
21
18.931772
0
LINE
8
DEFAULT_255_2_778
10
58.3692922
20
18.931772
11
58.3377922
21
17.832172
0
LINE
8
DEFAULT_255_2_778
10
58.3377922
20
17.832172
11
58.3200922
21
17.832672
0
LINE
8
DEFAULT_255_2_778
10
57.9541922
20
9.138772
11
58.0885922
21
9.134772
0
LINE
8
DEFAULT_255_2_778
10
58.0885922
20
9.134772
11
58.0570922
21
8.035472
0
LINE
8
DEFAULT_255_2_778
10
58.0570922
20
8.035472
11
57.9134922
21
8.039672
0
LINE
8
DEFAULT_255_2_778
10
58.3274922
20
22.833572
11
58.4809922
21
22.829072
0
LINE
8
DEFAULT_255_2_778
10
58.4809922
20
22.829072
11
58.4494922
21
21.729472
0
LINE
8
DEFAULT_255_2_778
10
58.4494922
20
21.729472
11
58.4065922
21
21.730772
0
LINE
8
DEFAULT_255_2_778
10
58.4065922
20
21.730772
11
58.3904922
21
20.930972
0
LINE
8
DEFAULT_255_2_778
10
58.2896922
20
20.884172
11
58.4251922
21
20.880172
0
LINE
8
DEFAULT_255_2_778
10
58.4251922
20
20.880172
11
58.3936922
21
19.780572
0
LINE
8
DEFAULT_255_2_778
10
58.3936922
20
19.780572
11
58.3658922
21
19.781372
0
LINE
8
DEFAULT_255_2_778
10
58.0554922
20
9.170772
11
58.0557922
21
9.175772
0
LINE
8
DEFAULT_255_2_778
10
57.9562922
20
9.195372
11
58.0562922
21
9.190872
0
LINE
8
DEFAULT_255_2_778
10
58.0562922
20
9.190872
11
57.9562922
21
9.193772
0
LINE
8
DEFAULT_255_2_778
10
57.9112922
20
7.981172
11
58.0113922
21
7.978272
0
LINE
8
DEFAULT_255_2_778
10
58.0113922
20
7.978272
11
58.0115922
21
7.986472
0
LINE
8
DEFAULT_255_2_778
10
57.7641922
20
4.339772
11
57.8641922
21
4.336772
0
LINE
8
DEFAULT_255_2_778
10
57.8641922
20
4.336772
11
57.9237922
21
5.761072
0
LINE
8
DEFAULT_255_2_778
10
33.0618922
20
1.945272
11
32.9507922
21
-0.176928
0
LINE
8
DEFAULT_255_2_778
10
58.0840922
20
59.868672
11
58.1840922
21
59.872372
0
LINE
8
DEFAULT_255_2_778
10
57.8993922
20
65.173272
11
57.9993922
21
65.176972
0
LINE
8
DEFAULT_255_2_778
10
57.8335922
20
66.840972
11
57.9335922
21
66.844672
0
LINE
8
DEFAULT_255_2_778
10
57.7647922
20
68.490872
11
57.8647922
21
68.494572
0
ARC
8
DEFAULT_255_2_778
10
6.4507317
20
92.2717831
40
28.2986549
50
269.9997992
51
284.7502624
0
ARC
8
DEFAULT_255_2_778
10
6.4512236
20
92.2707723
40
28.2975521
50
284.7498203
51
297.8716875
0
ARC
8
DEFAULT_255_2_778
10
21.4516568
20
-320.4208199
40
391.4940481
50
84.683635
51
90.0001792
0
ARC
8
DEFAULT_255_2_778
10
55.8985905
20
62.5732082
40
2.3017658
50
359.9954291
51
26.5327469
0
ARC
8
DEFAULT_255_2_778
10
55.895041
20
62.5730252
40
2.3053155
50
359.3924583
51
359.9999845
0
ARC
8
DEFAULT_255_2_778
10
55.8987899
20
62.572887
40
2.3015652
50
337.4787707
51
359.3949092
0
ARC
8
DEFAULT_255_2_778
10
-691.5316059
20
36.4213375
40
749.9822844
50
0.1002894
51
1.9308962
0
ARC
8
DEFAULT_255_2_778
10
-691.6465316
20
36.4214143
40
750.0972096
50
0.0000088
51
0.1002682
0
ARC
8
DEFAULT_255_2_778
10
-691.4646431
20
36.421247
40
749.9153211
50
357.480646
51
0.0000216
0
LINE
8
DEFAULT_255_2_778
10
57.8697325
20
65.9427282
11
57.8695325
21
65.9427282
0
LINE
8
DEFAULT_255_2_778
10
4.9507325
20
63.9731282
11
6.4506325
21
63.9731282
0
LINE
8
DEFAULT_255_2_778
10
19.6801325
20
67.2558282
11
19.6801325
21
71.0732282
0
LINE
8
DEFAULT_255_2_778
10
19.6801325
20
71.0732282
11
21.4504325
21
71.0732282
0
LINE
8
DEFAULT_255_2_778
10
57.7255325
20
69.3891282
11
57.9579325
21
63.6014282
0
LINE
8
DEFAULT_255_2_778
10
57.9237188
20
5.7597789
11
57.9235188
21
5.7597789
0
LINE
8
DEFAULT_255_2_778
10
57.9703188
20
5.1331789
11
57.8978188
21
5.1353789
0
LINE
8
DEFAULT_255_2_778
10
57.9237188
20
5.7607789
11
57.8237188
21
5.7636789
0
LINE
8
DEFAULT_255_2_778
10
58.0134188
20
8.0367789
11
58.0116188
21
7.9867789
0
LINE
8
DEFAULT_255_2_778
10
58.0116188
20
7.9867789
11
57.9116188
21
7.9896789
0
LINE
8
DEFAULT_255_2_778
10
58.0875188
20
9.0998789
11
58.1254188
21
9.0987789
0
LINE
8
DEFAULT_255_2_778
10
58.3378188
20
17.8321789
11
58.2203188
21
17.8355789
0
LINE
8
DEFAULT_255_2_778
10
58.3936188
20
19.7805789
11
58.2661188
21
19.7842789
0
LINE
8
DEFAULT_255_2_778
10
58.4497188
20
21.7297789
11
58.3069188
21
21.7336789
0
LINE
8
DEFAULT_255_2_778
10
58.3415188
20
23.6251789
11
58.4415188
21
23.6222789
0
LINE
8
DEFAULT_255_2_778
10
58.5056188
20
23.6788789
11
58.3426188
21
23.6836789
0
LINE
8
DEFAULT_255_2_778
10
57.7642188
20
4.3404789
11
57.7650188
21
4.3404789
0
LINE
8
DEFAULT_255_2_778
10
58.4276042
20
22.8307108
11
58.4416042
21
23.6289108
0
LINE
8
DEFAULT_255_2_778
10
58.3191042
20
17.7819108
11
58.3204042
21
17.8327108
0
LINE
8
DEFAULT_255_2_778
10
58.3649042
20
19.7311108
11
58.3659042
21
19.7813108
0
LINE
8
DEFAULT_255_2_778
10
58.1834042
20
59.8903108
11
58.1418042
21
61.1841108
0
LINE
8
DEFAULT_255_2_778
10
57.9333042
20
66.8467108
11
57.8667042
21
68.4499108
0
LINE
8
DEFAULT_255_2_778
10
57.8664042
20
68.4602108
11
57.8648042
21
68.4943108
0
LINE
8
DEFAULT_255_2_778
10
57.7666271
20
68.4461906
11
57.8666271
21
68.4498906
0
LINE
8
DEFAULT_255_2_778
10
57.8666271
20
68.4498906
11
57.8666271
21
68.4527906
0
LINE
8
DEFAULT_255_2_778
10
57.8666271
20
68.4527906
11
57.7666271
21
68.4490906
0
LINE
8
DEFAULT_255_2_778
10
57.8666271
20
68.4530906
11
57.8663271
21
68.4601906
0
LINE
8
DEFAULT_255_2_778
10
57.8663271
20
68.4601906
11
57.7663271
21
68.4564906
0
LINE
8
DEFAULT_255_2_778
10
57.8340271
20
66.8321906
11
57.9340271
21
66.8358906
0
LINE
8
DEFAULT_255_2_778
10
57.9340271
20
66.8358906
11
57.9335271
21
66.8464906
0
LINE
8
DEFAULT_255_2_778
10
57.8340333
20
66.8282698
11
57.9340333
21
66.8319698
0
LINE
8
DEFAULT_255_2_778
10
57.9340333
20
66.8319698
11
57.9335333
21
66.8427698
0
LINE
8
DEFAULT_255_2_778
10
57.8647333
20
68.4953698
11
57.7647333
21
68.4916698
0
LINE
8
DEFAULT_255_2_778
10
57.8647705
20
68.4943627
11
57.8647705
21
68.4988627
0
LINE
8
DEFAULT_255_2_778
10
57.8647705
20
68.4988627
11
57.7646705
21
68.4951627
0
LINE
8
DEFAULT_255_2_778
10
4.9504705
20
6.0733627
11
4.5503705
21
6.0733627
0
LINE
8
DEFAULT_255_2_778
10
4.5503705
20
6.0733627
11
3.5502705
21
7.0734627
0
LINE
8
DEFAULT_255_2_778
10
3.5502705
20
7.0734627
11
3.5502705
21
32.0733627
0
LINE
8
DEFAULT_255_2_778
10
3.5502705
20
32.0733627
11
4.5503705
21
33.0735627
0
LINE
8
DEFAULT_255_2_778
10
4.5503705
20
33.0735627
11
4.9504705
21
33.0735627
0
LINE
8
DEFAULT_255_2_778
10
3.5508678
20
31.1081276
11
2.0506678
21
31.1081276
0
LINE
8
DEFAULT_255_2_778
10
2.0506678
20
31.1081276
11
2.0506678
21
8.0380276
0
LINE
8
DEFAULT_255_2_778
10
2.0506678
20
8.0380276
11
3.5508678
21
8.0380276
0
LINE
8
DEFAULT_255_2_778
10
0.2006678
20
42.8543276
11
4.9507678
21
42.8543276
0
LINE
8
DEFAULT_255_2_778
10
0.2006678
20
39.2920276
11
4.9507678
21
39.2920276
0
LINE
8
DEFAULT_255_2_778
10
4.9508112
20
36.7731985
11
0.2007112
21
36.7731985
0
LINE
8
DEFAULT_255_2_778
10
0.2007112
20
36.7731985
11
0.2007112
21
45.3731985
0
LINE
8
DEFAULT_255_2_778
10
0.2007112
20
45.3731985
11
4.9508112
21
45.3731985
0
LINE
8
DEFAULT_255_2_778
10
58.0542112
20
9.1355985
11
58.0561112
21
9.1855985
0
LINE
8
DEFAULT_255_2_778
10
58.0561112
20
9.1855985
11
57.9561112
21
9.1884985
0
LINE
8
DEFAULT_255_2_778
10
58.0560826
20
9.185579
11
57.9560826
21
9.188779
0
LINE
8
DEFAULT_255_2_778
10
58.0581826
20
9.244079
11
57.9581826
21
9.246979
0
LINE
8
DEFAULT_255_2_778
10
57.9581826
20
9.245679
11
58.0581826
21
9.242779
0
LINE
8
DEFAULT_255_2_778
10
58.0581826
20
9.242779
11
58.0563826
21
9.192779
0
LINE
8
DEFAULT_255_2_778
10
58.3190826
20
17.781679
11
58.2190826
21
17.784579
0
LINE
8
DEFAULT_255_2_778
10
58.2187698
20
17.7741968
11
58.3187698
21
17.7712968
0
LINE
8
DEFAULT_255_2_778
10
58.3187698
20
17.7712968
11
58.3190698
21
17.7815968
0
LINE
8
DEFAULT_255_2_778
10
58.4058698
20
21.6807968
11
58.3057698
21
21.6836968
0
LINE
8
DEFAULT_255_2_778
10
58.3055698
20
21.6754968
11
58.4055698
21
21.6725968
0
ENDSEC
0
EOF