0
SECTION
2
HEADER
9
$MEASUREMENT
70
1
0
ENDSEC
0
SECTION
2
TABLES
0
TABLE
2
LTYPE
0
LTYPE
72
65
70
64
2
CONTINUOUS
3
______
73
0
40
0
0
ENDTAB
0
TABLE
2
LAYER
0
LAYER
2
DEFAULT_255_2_778
70
0
62
255
6
CONTINUOUS
0
ENDTAB
0
ENDSEC
0
SECTION
2
ENTITIES
0
ARC
8
DEFAULT_255_2_778
10
7.1271552
20
22.6507315
40
0.2212586
50
137.3480448
51
156.1930954
0
ARC
8
DEFAULT_255_2_778
10
7.2021571
20
22.6167246
40
0.2812641
50
24.3390977
51
39.134841
0
ARC
8
DEFAULT_255_2_778
10
7.1341723
20
22.5890265
40
0.354633
50
12.1792636
51
23.8895206
0
ARC
8
DEFAULT_255_2_778
10
7.2011288
20
22.5397038
40
0.290808
50
348.8250742
51
355.9853187
0
ARC
8
DEFAULT_255_2_778
10
7.2793207
20
22.5243674
40
0.2111265
50
338.92362
51
348.7956751
0
ARC
8
DEFAULT_255_2_778
10
7.2542496
20
22.061519
40
0.2463019
50
12.0513208
51
20.9148322
0
ARC
8
DEFAULT_255_2_778
10
7.2026582
20
22.0501681
40
0.2991263
50
4.827948
51
12.1143413
0
ARC
8
DEFAULT_255_2_778
10
6.9581994
20
22.0335817
40
0.5432786
50
348.4218955
51
356.4290422
0
ARC
8
DEFAULT_255_2_778
10
7.180776
20
21.9685827
40
0.3107114
50
323.9299124
51
337.9314894
0
ARC
8
DEFAULT_255_2_778
10
7.169552
20
21.9723364
40
0.2368569
50
326.3947693
51
341.4650956
0
ARC
8
DEFAULT_255_2_778
10
6.9251897
20
22.0426986
40
0.4914032
50
349.9972133
51
357.2408721
0
ARC
8
DEFAULT_255_2_778
10
7.234938
20
22.0538067
40
0.1813573
50
8.6695826
51
16.5912317
0
ARC
8
DEFAULT_255_2_778
10
7.2335508
20
22.0532961
40
0.1828327
50
16.6204267
51
18.6103985
0
ARC
8
DEFAULT_255_2_778
10
7.249311
20
22.5344899
40
0.1564211
50
339.0824413
51
349.9315935
0
ARC
8
DEFAULT_255_2_778
10
7.1801189
20
22.5462159
40
0.2265983
50
350.070924
51
357.6295655
0
ARC
8
DEFAULT_255_2_778
10
7.0047626
20
22.5640865
40
0.4022675
50
0.3357481
51
8.7734817
0
ARC
8
DEFAULT_255_2_778
10
7.217951
20
22.6248204
40
0.1790222
50
57.5820741
51
76.7038959
0
ARC
8
DEFAULT_255_2_778
10
17.4466656
20
68.0224309
40
0.3677756
50
16.1524387
51
23.9701719
0
ARC
8
DEFAULT_255_2_778
10
17.4532076
20
68.0788466
40
0.2453143
50
146.8914717
51
158.6532469
0
ARC
8
DEFAULT_255_2_778
10
17.6715415
20
68.0333112
40
0.4688971
50
169.4151254
51
175.6049936
0
ARC
8
DEFAULT_255_2_778
10
17.4144405
20
68.0299491
40
0.2112308
50
183.1223421
51
190.0070264
0
ARC
8
DEFAULT_255_2_778
10
17.6755573
20
67.3259276
40
0.2733004
50
11.0145248
51
21.9629341
0
ARC
8
DEFAULT_255_2_778
10
17.6018762
20
67.3103033
40
0.3486116
50
2.6207924
51
11.2214624
0
ARC
8
DEFAULT_255_2_778
10
17.4848479
20
67.3028142
40
0.4659767
50
343.6248929
51
356.4355481
0
ARC
8
DEFAULT_255_2_778
10
17.4979943
20
67.2847521
40
0.4465733
50
305.2015123
51
318.5513928
0
ARC
8
DEFAULT_255_2_778
10
17.6050202
20
67.2939167
40
0.5430178
50
196.0325946
51
207.1241736
0
ARC
8
DEFAULT_255_2_778
10
17.4651889
20
67.2297205
40
0.2787998
50
191.3308069
51
201.8530114
0
ARC
8
DEFAULT_255_2_778
10
17.5021091
20
67.2652021
40
0.3153479
50
286.2444263
51
304.7647637
0
ARC
8
DEFAULT_255_2_778
10
17.4903446
20
67.2913211
40
0.3434563
50
329.449632
51
337.925071
0
ARC
8
DEFAULT_255_2_778
10
17.424399
20
67.314634
40
0.4133413
50
338.3658364
51
345.4716773
0
ARC
8
DEFAULT_255_2_778
10
17.4172059
20
67.3184076
40
0.4212551
50
345.2202617
51
352.1597855
0
ARC
8
DEFAULT_255_2_778
10
17.5905659
20
67.3071197
40
0.2469045
50
1.1195245
51
13.0196761
0
ARC
8
DEFAULT_255_2_778
10
17.3674615
20
68.0294907
40
0.2806709
50
205.2097142
51
215.7663621
0
ARC
8
DEFAULT_255_2_778
10
17.4036155
20
68.0247061
40
0.3134261
50
182.644718
51
192.0742713
0
ARC
8
DEFAULT_255_2_778
10
17.5496974
20
68.043827
40
0.4588403
50
164.8887679
51
171.3110874
0
ARC
8
DEFAULT_255_2_778
10
17.5227148
20
68.0504893
40
0.4310542
50
157.9026634
51
164.808714
0
ARC
8
DEFAULT_255_2_778
10
17.4910107
20
68.0643521
40
0.396465
50
143.1097496
51
158.0353376
0
ARC
8
DEFAULT_255_2_778
10
17.3770135
20
68.0000687
40
0.5540754
50
16.371614
51
27.1080031
0
ARC
8
DEFAULT_255_2_778
10
3.1334932
20
22.6160089
40
0.2755253
50
143.9523866
51
155.2766552
0
ARC
8
DEFAULT_255_2_778
10
3.068503
20
22.6009697
40
0.3582976
50
1.8031459
51
10.4804039
0
ARC
8
DEFAULT_255_2_778
10
2.9456966
20
22.596519
40
0.4814905
50
348.9269468
51
355.3808688
0
ARC
8
DEFAULT_255_2_778
10
2.9927545
20
22.5849557
40
0.433094
50
342.0308056
51
349.2325641
0
ARC
8
DEFAULT_255_2_778
10
2.9351921
20
22.6031662
40
0.408009
50
331.8450119
51
344.8513784
0
ARC
8
DEFAULT_255_2_778
10
2.9160866
20
22.6042375
40
0.4267488
50
345.3828745
51
351.660665
0
ARC
8
DEFAULT_255_2_778
10
2.9139671
20
22.5994831
40
0.4281857
50
352.3312722
51
358.5895793
0
ARC
8
DEFAULT_255_2_778
10
3.1364903
20
22.6069807
40
0.1988162
50
127.2952158
51
140.7979903
0
ARC
8
DEFAULT_255_2_778
10
3.1467095
20
22.6019441
40
0.2099343
50
141.4956217
51
154.3121733
0
LINE
8
DEFAULT_255_2_778
10
16.6801232
20
26.4230438
11
3.6801232
21
26.4230438
0
LINE
8
DEFAULT_255_2_778
10
3.6801232
20
26.4230438
11
3.6801232
21
29.6228438
0
LINE
8
DEFAULT_255_2_778
10
3.6801232
20
29.6228438
11
4.3802232
21
30.3229438
0
LINE
8
DEFAULT_255_2_778
10
4.3802232
20
30.3229438
11
4.3802232
21
55.0228438
0
LINE
8
DEFAULT_255_2_778
10
4.3802232
20
55.0228438
11
3.6801232
21
55.7229438
0
LINE
8
DEFAULT_255_2_778
10
3.6801232
20
55.7229438
11
3.6801232
21
58.9236438
0
LINE
8
DEFAULT_255_2_778
10
3.6801232
20
58.9236438
11
16.6801232
21
58.9236438
0
LINE
8
DEFAULT_255_2_778
10
16.6801232
20
58.9236438
11
16.6801232
21
55.7229438
0
LINE
8
DEFAULT_255_2_778
10
16.6801232
20
55.7229438
11
15.9801232
21
55.0228438
0
LINE
8
DEFAULT_255_2_778
10
15.9801232
20
55.0228438
11
15.9801232
21
30.3229438
0
LINE
8
DEFAULT_255_2_778
10
15.9801232
20
30.3229438
11
16.6801232
21
29.6228438
0
LINE
8
DEFAULT_255_2_778
10
16.6801232
20
29.6228438
11
16.6801232
21
26.4230438
0
LINE
8
DEFAULT_255_2_778
10
7.2827232
20
24.7198438
11
7.2321232
21
24.6661438
0
LINE
8
DEFAULT_255_2_778
10
7.2321232
20
24.6661438
11
7.1808232
21
24.6132438
0
LINE
8
DEFAULT_255_2_778
10
7.1808232
20
24.6132438
11
7.1546232
21
24.5873438
0
LINE
8
DEFAULT_255_2_778
10
7.1546232
20
24.5873438
11
7.1276232
21
24.5621438
0
LINE
8
DEFAULT_255_2_778
10
7.1276232
20
24.5621438
11
7.0988232
21
24.5391438
0
LINE
8
DEFAULT_255_2_778
10
7.0988232
20
24.5391438
11
7.0826232
21
24.5301438
0
LINE
8
DEFAULT_255_2_778
10
7.0826232
20
24.5301438
11
7.0737232
21
24.5278438
0
LINE
8
DEFAULT_255_2_778
10
7.0737232
20
24.5278438
11
7.0644232
21
24.5267438
0
LINE
8
DEFAULT_255_2_778
10
7.0644232
20
24.5267438
11
7.0591232
21
24.6153438
0
LINE
8
DEFAULT_255_2_778
10
7.0591232
20
24.6153438
11
7.0866232
21
24.6389438
0
LINE
8
DEFAULT_255_2_778
10
7.0866232
20
24.6389438
11
7.1128232
21
24.6640438
0
LINE
8
DEFAULT_255_2_778
10
7.1128232
20
24.6640438
11
7.1631232
21
24.7161438
0
LINE
8
DEFAULT_255_2_778
10
7.1631232
20
24.7161438
11
7.2123232
21
24.7693438
0
LINE
8
DEFAULT_255_2_778
10
7.2123232
20
24.7693438
11
7.2366232
21
24.7960438
0
LINE
8
DEFAULT_255_2_778
10
7.2366232
20
24.7960438
11
7.2607232
21
24.8230438
0
LINE
8
DEFAULT_255_2_778
10
7.2607232
20
24.8230438
11
7.3655232
21
24.8230438
0
LINE
8
DEFAULT_255_2_778
10
7.3655232
20
24.8230438
11
7.3655232
21
23.6279438
0
LINE
8
DEFAULT_255_2_778
10
7.3655232
20
23.6279438
11
7.2821232
21
23.6279438
0
LINE
8
DEFAULT_255_2_778
10
7.2821232
20
23.6279438
11
7.2821232
21
24.7198438
0
LINE
8
DEFAULT_255_2_778
10
6.9644232
20
22.8006438
11
6.9771232
21
22.8138438
0
LINE
8
DEFAULT_255_2_778
10
6.9771232
20
22.8138438
11
6.9906232
21
22.8260438
0
LINE
8
DEFAULT_255_2_778
10
6.9906232
20
22.8260438
11
7.0202232
21
22.8471438
0
LINE
8
DEFAULT_255_2_778
10
7.0202232
20
22.8471438
11
7.0525232
21
22.8641438
0
LINE
8
DEFAULT_255_2_778
10
7.0525232
20
22.8641438
11
7.0866232
21
22.8765438
0
LINE
8
DEFAULT_255_2_778
10
7.0866232
20
22.8765438
11
7.1221232
21
22.8847438
0
LINE
8
DEFAULT_255_2_778
10
7.1221232
20
22.8847438
11
7.1581232
21
22.8889438
0
LINE
8
DEFAULT_255_2_778
10
7.1581232
20
22.8889438
11
7.1940232
21
22.8900438
0
LINE
8
DEFAULT_255_2_778
10
7.1940232
20
22.8900438
11
7.2303232
21
22.8881438
0
LINE
8
DEFAULT_255_2_778
10
7.2303232
20
22.8881438
11
7.2663232
21
22.8831438
0
LINE
8
DEFAULT_255_2_778
10
7.2663232
20
22.8831438
11
7.3015232
21
22.8741438
0
LINE
8
DEFAULT_255_2_778
10
7.3015232
20
22.8741438
11
7.3353232
21
22.8609438
0
LINE
8
DEFAULT_255_2_778
10
7.3353232
20
22.8609438
11
7.3668232
21
22.8429438
0
LINE
8
DEFAULT_255_2_778
10
7.3668232
20
22.8429438
11
7.3951232
21
22.8207438
0
LINE
8
DEFAULT_255_2_778
10
7.3951232
20
22.8207438
11
7.4081232
21
22.8080438
0
LINE
8
DEFAULT_255_2_778
10
7.4081232
20
22.8080438
11
7.4203232
21
22.7942438
0
LINE
8
DEFAULT_255_2_778
10
7.4808232
20
22.6638438
11
7.4872232
21
22.6280438
0
LINE
8
DEFAULT_255_2_778
10
7.4872232
20
22.6280438
11
7.4909232
21
22.5918438
0
LINE
8
DEFAULT_255_2_778
10
7.4909232
20
22.5918438
11
7.4922232
21
22.5555438
0
LINE
8
DEFAULT_255_2_778
10
7.4922232
20
22.5555438
11
7.4912232
21
22.5193438
0
LINE
8
DEFAULT_255_2_778
10
7.4763232
20
22.4484438
11
7.4605232
21
22.4158438
0
LINE
8
DEFAULT_255_2_778
10
7.4605232
20
22.4158438
11
7.4507232
21
22.4005438
0
LINE
8
DEFAULT_255_2_778
10
7.4507232
20
22.4005438
11
7.4396232
21
22.3862438
0
LINE
8
DEFAULT_255_2_778
10
7.4396232
20
22.3862438
11
7.4142232
21
22.3603438
0
LINE
8
DEFAULT_255_2_778
10
7.4142232
20
22.3603438
11
7.4001232
21
22.3486438
0
LINE
8
DEFAULT_255_2_778
10
7.4001232
20
22.3486438
11
7.3853232
21
22.3381438
0
LINE
8
DEFAULT_255_2_778
10
7.3853232
20
22.3381438
11
7.3544232
21
22.3193438
0
LINE
8
DEFAULT_255_2_778
10
7.3544232
20
22.3193438
11
7.3224232
21
22.3021438
0
LINE
8
DEFAULT_255_2_778
10
7.3224232
20
22.3021438
11
7.3557232
21
22.2838438
0
LINE
8
DEFAULT_255_2_778
10
7.3557232
20
22.2838438
11
7.3882232
21
22.2640438
0
LINE
8
DEFAULT_255_2_778
10
7.3882232
20
22.2640438
11
7.4189232
21
22.2415438
0
LINE
8
DEFAULT_255_2_778
10
7.4189232
20
22.2415438
11
7.4459232
21
22.2148438
0
LINE
8
DEFAULT_255_2_778
10
7.4459232
20
22.2148438
11
7.4679232
21
22.1838438
0
LINE
8
DEFAULT_255_2_778
10
7.4679232
20
22.1838438
11
7.4843232
21
22.1494438
0
LINE
8
DEFAULT_255_2_778
10
7.5007232
20
22.0753438
11
7.5017232
21
22.0375438
0
LINE
8
DEFAULT_255_2_778
10
7.5017232
20
22.0375438
11
7.5004232
21
21.9997438
0
LINE
8
DEFAULT_255_2_778
10
7.4904232
20
21.9245438
11
7.4814232
21
21.8877438
0
LINE
8
DEFAULT_255_2_778
10
7.4814232
20
21.8877438
11
7.4687232
21
21.8518438
0
LINE
8
DEFAULT_255_2_778
10
7.4319232
20
21.7856438
11
7.4200232
21
21.7705438
0
LINE
8
DEFAULT_255_2_778
10
7.4200232
20
21.7705438
11
7.4073232
21
21.7565438
0
LINE
8
DEFAULT_255_2_778
10
7.4073232
20
21.7565438
11
7.3792232
21
21.7314438
0
LINE
8
DEFAULT_255_2_778
10
7.3792232
20
21.7314438
11
7.3475232
21
21.7105438
0
LINE
8
DEFAULT_255_2_778
10
7.3475232
20
21.7105438
11
7.3131232
21
21.6943438
0
LINE
8
DEFAULT_255_2_778
10
7.3131232
20
21.6943438
11
7.2771232
21
21.6827438
0
LINE
8
DEFAULT_255_2_778
10
7.2771232
20
21.6827438
11
7.2398232
21
21.6753438
0
LINE
8
DEFAULT_255_2_778
10
7.2398232
20
21.6753438
11
7.1647232
21
21.6710438
0
LINE
8
DEFAULT_255_2_778
10
7.1647232
20
21.6710438
11
7.1268232
21
21.6734438
0
LINE
8
DEFAULT_255_2_778
10
7.1268232
20
21.6734438
11
7.0895232
21
21.6800438
0
LINE
8
DEFAULT_255_2_778
10
7.0895232
20
21.6800438
11
7.0535232
21
21.6917438
0
LINE
8
DEFAULT_255_2_778
10
7.0535232
20
21.6917438
11
7.0361232
21
21.6994438
0
LINE
8
DEFAULT_255_2_778
10
7.0361232
20
21.6994438
11
7.0194232
21
21.7084438
0
LINE
8
DEFAULT_255_2_778
10
7.0194232
20
21.7084438
11
6.9887232
21
21.7300438
0
LINE
8
DEFAULT_255_2_778
10
6.9887232
20
21.7300438
11
6.9750232
21
21.7430438
0
LINE
8
DEFAULT_255_2_778
10
6.9750232
20
21.7430438
11
6.9623232
21
21.7573438
0
LINE
8
DEFAULT_255_2_778
10
6.9623232
20
21.7573438
11
6.9414232
21
21.7888438
0
LINE
8
DEFAULT_255_2_778
10
6.9414232
20
21.7888438
11
6.9242232
21
21.8227438
0
LINE
8
DEFAULT_255_2_778
10
6.9242232
20
21.8227438
11
7.0006232
21
21.8576438
0
LINE
8
DEFAULT_255_2_778
10
7.0006232
20
21.8576438
11
7.0149232
21
21.8301438
0
LINE
8
DEFAULT_255_2_778
10
7.0149232
20
21.8301438
11
7.0334232
21
21.8055438
0
LINE
8
DEFAULT_255_2_778
10
7.0334232
20
21.8055438
11
7.0445232
21
21.7946438
0
LINE
8
DEFAULT_255_2_778
10
7.0445232
20
21.7946438
11
7.0567232
21
21.7851438
0
LINE
8
DEFAULT_255_2_778
10
7.0567232
20
21.7851438
11
7.0699232
21
21.7771438
0
LINE
8
DEFAULT_255_2_778
10
7.0699232
20
21.7771438
11
7.0842232
21
21.7705438
0
LINE
8
DEFAULT_255_2_778
10
7.0842232
20
21.7705438
11
7.1141232
21
21.7618438
0
LINE
8
DEFAULT_255_2_778
10
7.1141232
20
21.7618438
11
7.1451232
21
21.7573438
0
LINE
8
DEFAULT_255_2_778
10
7.1451232
20
21.7573438
11
7.1760232
21
21.7560438
0
LINE
8
DEFAULT_255_2_778
10
7.1760232
20
21.7560438
11
7.2070232
21
21.7573438
0
LINE
8
DEFAULT_255_2_778
10
7.2070232
20
21.7573438
11
7.2377232
21
21.7613438
0
LINE
8
DEFAULT_255_2_778
10
7.2377232
20
21.7613438
11
7.2681232
21
21.7689438
0
LINE
8
DEFAULT_255_2_778
10
7.2681232
20
21.7689438
11
7.2970232
21
21.7803438
0
LINE
8
DEFAULT_255_2_778
10
7.2970232
20
21.7803438
11
7.3107232
21
21.7877438
0
LINE
8
DEFAULT_255_2_778
10
7.3107232
20
21.7877438
11
7.3237232
21
21.7965438
0
LINE
8
DEFAULT_255_2_778
10
7.3237232
20
21.7965438
11
7.3472232
21
21.8168438
0
LINE
8
DEFAULT_255_2_778
10
7.3472232
20
21.8168438
11
7.3576232
21
21.8285438
0
LINE
8
DEFAULT_255_2_778
10
7.3576232
20
21.8285438
11
7.3668232
21
21.8412438
0
LINE
8
DEFAULT_255_2_778
10
7.3941232
20
21.8970438
11
7.4028232
21
21.9269438
0
LINE
8
DEFAULT_255_2_778
10
7.4028232
20
21.9269438
11
7.4091232
21
21.9573438
0
LINE
8
DEFAULT_255_2_778
10
7.4160232
20
22.0190438
11
7.4166232
21
22.0502438
0
LINE
8
DEFAULT_255_2_778
10
7.4166232
20
22.0502438
11
7.4142232
21
22.0811438
0
LINE
8
DEFAULT_255_2_778
10
7.4068232
20
22.1116438
11
7.3938232
21
22.1399438
0
LINE
8
DEFAULT_255_2_778
10
7.3938232
20
22.1399438
11
7.3761232
21
22.1653438
0
LINE
8
DEFAULT_255_2_778
10
7.3761232
20
22.1653438
11
7.3544232
21
22.1878438
0
LINE
8
DEFAULT_255_2_778
10
7.3544232
20
22.1878438
11
7.3295232
21
22.2063438
0
LINE
8
DEFAULT_255_2_778
10
7.3295232
20
22.2063438
11
7.3025232
21
22.2216438
0
LINE
8
DEFAULT_255_2_778
10
7.3025232
20
22.2216438
11
7.2443232
21
22.2433438
0
LINE
8
DEFAULT_255_2_778
10
7.2443232
20
22.2433438
11
7.1835232
21
22.2571438
0
LINE
8
DEFAULT_255_2_778
10
7.1835232
20
22.2571438
11
7.1784232
21
22.3404438
0
LINE
8
DEFAULT_255_2_778
10
7.1784232
20
22.3404438
11
7.2353232
21
22.3576438
0
LINE
8
DEFAULT_255_2_778
10
7.2353232
20
22.3576438
11
7.2911232
21
22.3777438
0
LINE
8
DEFAULT_255_2_778
10
7.2911232
20
22.3777438
11
7.3176232
21
22.3915438
0
LINE
8
DEFAULT_255_2_778
10
7.3176232
20
22.3915438
11
7.3422232
21
22.4082438
0
LINE
8
DEFAULT_255_2_778
10
7.3422232
20
22.4082438
11
7.3639232
21
22.4285438
0
LINE
8
DEFAULT_255_2_778
10
7.3639232
20
22.4285438
11
7.3819232
21
22.4518438
0
LINE
8
DEFAULT_255_2_778
10
7.3819232
20
22.4518438
11
7.3893232
21
22.4648438
0
LINE
8
DEFAULT_255_2_778
10
7.3893232
20
22.4648438
11
7.3954232
21
22.4786438
0
LINE
8
DEFAULT_255_2_778
10
7.4065232
20
22.5368438
11
7.4070232
21
22.5664438
0
LINE
8
DEFAULT_255_2_778
10
7.4023232
20
22.6254438
11
7.3962232
21
22.6545438
0
LINE
8
DEFAULT_255_2_778
10
7.3962232
20
22.6545438
11
7.3867232
21
22.6831438
0
LINE
8
DEFAULT_255_2_778
10
7.3867232
20
22.6831438
11
7.3737232
21
22.7101438
0
LINE
8
DEFAULT_255_2_778
10
7.3737232
20
22.7101438
11
7.3573232
21
22.7352438
0
LINE
8
DEFAULT_255_2_778
10
7.3573232
20
22.7352438
11
7.3374232
21
22.7574438
0
LINE
8
DEFAULT_255_2_778
10
7.3374232
20
22.7574438
11
7.3139232
21
22.7759438
0
LINE
8
DEFAULT_255_2_778
10
7.2591232
20
22.7990438
11
7.2001232
21
22.8064438
0
LINE
8
DEFAULT_255_2_778
10
7.2001232
20
22.8064438
11
7.1702232
21
22.8058438
0
LINE
8
DEFAULT_255_2_778
10
7.1702232
20
22.8058438
11
7.1403232
21
22.8027438
0
LINE
8
DEFAULT_255_2_778
10
7.1403232
20
22.8027438
11
7.1112232
21
22.7961438
0
LINE
8
DEFAULT_255_2_778
10
7.1112232
20
22.7961438
11
7.0832232
21
22.7855438
0
LINE
8
DEFAULT_255_2_778
10
7.0832232
20
22.7855438
11
7.0575232
21
22.7704438
0
LINE
8
DEFAULT_255_2_778
10
7.0575232
20
22.7704438
11
7.0348232
21
22.7508438
0
LINE
8
DEFAULT_255_2_778
10
7.0348232
20
22.7508438
11
7.0160232
21
22.7278438
0
LINE
8
DEFAULT_255_2_778
10
7.0160232
20
22.7278438
11
7.0009232
21
22.7019438
0
LINE
8
DEFAULT_255_2_778
10
7.0009232
20
22.7019438
11
6.9244232
21
22.7402438
0
LINE
8
DEFAULT_255_2_778
10
4.0548232
20
9.2298438
11
4.1233232
21
8.9591438
0
LINE
8
DEFAULT_255_2_778
10
4.1233232
20
8.9591438
11
4.1569232
21
8.8237438
0
LINE
8
DEFAULT_255_2_778
10
4.1569232
20
8.8237438
11
4.1900232
21
8.6879438
0
LINE
8
DEFAULT_255_2_778
10
4.1900232
20
8.6879438
11
4.2564232
21
8.4167438
0
LINE
8
DEFAULT_255_2_778
10
4.2564232
20
8.4167438
11
4.2900232
21
8.2813438
0
LINE
8
DEFAULT_255_2_778
10
4.2900232
20
8.2813438
11
4.3074232
21
8.2138438
0
LINE
8
DEFAULT_255_2_778
10
4.3074232
20
8.2138438
11
4.3244232
21
8.1461438
0
LINE
8
DEFAULT_255_2_778
10
4.3244232
20
8.1461438
11
4.3413232
21
8.2143438
0
LINE
8
DEFAULT_255_2_778
10
4.3413232
20
8.2143438
11
4.3588232
21
8.2826438
0
LINE
8
DEFAULT_255_2_778
10
4.3588232
20
8.2826438
11
4.3940232
21
8.4189438
0
LINE
8
DEFAULT_255_2_778
10
4.3940232
20
8.4189438
11
4.4649232
21
8.6914438
0
LINE
8
DEFAULT_255_2_778
10
4.4649232
20
8.6914438
11
4.5352232
21
8.9639438
0
LINE
8
DEFAULT_255_2_778
10
4.5352232
20
8.9639438
11
4.6056232
21
9.2364438
0
LINE
8
DEFAULT_255_2_778
10
4.6056232
20
9.2364438
11
4.6871232
21
9.2147438
0
LINE
8
DEFAULT_255_2_778
10
4.6871232
20
9.2147438
11
4.3810232
21
8.0297438
0
LINE
8
DEFAULT_255_2_778
10
4.3810232
20
8.0297438
11
4.2662232
21
8.0297438
0
LINE
8
DEFAULT_255_2_778
10
4.2662232
20
8.0297438
11
4.1976232
21
8.3001438
0
LINE
8
DEFAULT_255_2_778
10
4.1976232
20
8.3001438
11
4.1640232
21
8.4355438
0
LINE
8
DEFAULT_255_2_778
10
4.1640232
20
8.4355438
11
4.1310232
21
8.5710438
0
LINE
8
DEFAULT_255_2_778
10
4.1310232
20
8.5710438
11
4.0645232
21
8.8419438
0
LINE
8
DEFAULT_255_2_778
10
4.0645232
20
8.8419438
11
4.0309232
21
8.9774438
0
LINE
8
DEFAULT_255_2_778
10
4.0309232
20
8.9774438
11
4.0143232
21
9.0451438
0
LINE
8
DEFAULT_255_2_778
10
4.0143232
20
9.0451438
11
3.9979232
21
9.1129438
0
LINE
8
DEFAULT_255_2_778
10
3.9979232
20
9.1129438
11
3.7267232
21
8.0294438
0
LINE
8
DEFAULT_255_2_778
10
3.7267232
20
8.0294438
11
3.6134232
21
8.0294438
0
LINE
8
DEFAULT_255_2_778
10
3.6134232
20
8.0294438
11
3.3155232
21
9.2145438
0
LINE
8
DEFAULT_255_2_778
10
3.3155232
20
9.2145438
11
3.3970232
21
9.2343438
0
LINE
8
DEFAULT_255_2_778
10
3.3970232
20
9.2343438
11
3.6701232
21
8.1492438
0
LINE
8
DEFAULT_255_2_778
10
3.6701232
20
8.1492438
11
3.9397232
21
9.2295438
0
LINE
8
DEFAULT_255_2_778
10
3.9397232
20
9.2295438
11
4.0545232
21
9.2295438
0
LINE
8
DEFAULT_255_2_778
10
16.5235232
20
64.1131438
11
17.0442232
21
65.9882438
0
LINE
8
DEFAULT_255_2_778
10
17.0442232
20
65.9882438
11
16.9394232
21
66.0194438
0
LINE
8
DEFAULT_255_2_778
10
16.9394232
20
66.0194438
11
16.4187232
21
64.1438438
0
LINE
8
DEFAULT_255_2_778
10
16.4187232
20
64.1438438
11
16.5235232
21
64.1129438
0
LINE
8
DEFAULT_255_2_778
10
17.7827232
20
68.1718438
11
17.7604232
21
68.2163438
0
LINE
8
DEFAULT_255_2_778
10
17.7604232
20
68.2163438
11
17.7467232
21
68.2372438
0
LINE
8
DEFAULT_255_2_778
10
17.7467232
20
68.2372438
11
17.7313232
21
68.2573438
0
LINE
8
DEFAULT_255_2_778
10
17.7313232
20
68.2573438
11
17.6959232
21
68.2927438
0
LINE
8
DEFAULT_255_2_778
10
17.6959232
20
68.2927438
11
17.6755232
21
68.3078438
0
LINE
8
DEFAULT_255_2_778
10
17.6755232
20
68.3078438
11
17.6538232
21
68.3211438
0
LINE
8
DEFAULT_255_2_778
10
17.6538232
20
68.3211438
11
17.6072232
21
68.3401438
0
LINE
8
DEFAULT_255_2_778
10
17.6072232
20
68.3401438
11
17.5824232
21
68.3454438
0
LINE
8
DEFAULT_255_2_778
10
17.5824232
20
68.3454438
11
17.5572232
21
68.3480438
0
LINE
8
DEFAULT_255_2_778
10
17.5572232
20
68.3480438
11
17.5064232
21
68.3475438
0
LINE
8
DEFAULT_255_2_778
10
17.5064232
20
68.3475438
11
17.4813232
21
68.3451438
0
LINE
8
DEFAULT_255_2_778
10
17.4813232
20
68.3451438
11
17.4562232
21
68.3420438
0
LINE
8
DEFAULT_255_2_778
10
17.4562232
20
68.3420438
11
17.4067232
21
68.3319438
0
LINE
8
DEFAULT_255_2_778
10
17.4067232
20
68.3319438
11
17.3826232
21
68.3237438
0
LINE
8
DEFAULT_255_2_778
10
17.3826232
20
68.3237438
11
17.3593232
21
68.3134438
0
LINE
8
DEFAULT_255_2_778
10
17.3593232
20
68.3134438
11
17.3159232
21
68.2872438
0
LINE
8
DEFAULT_255_2_778
10
17.3159232
20
68.2872438
11
17.2964232
21
68.2710438
0
LINE
8
DEFAULT_255_2_778
10
17.2964232
20
68.2710438
11
17.2786232
21
68.2531438
0
LINE
8
DEFAULT_255_2_778
10
17.2786232
20
68.2531438
11
17.2625232
21
68.2337438
0
LINE
8
DEFAULT_255_2_778
10
17.2625232
20
68.2337438
11
17.2477232
21
68.2128438
0
LINE
8
DEFAULT_255_2_778
10
17.2247232
20
68.1681438
11
17.2165232
21
68.1443438
0
LINE
8
DEFAULT_255_2_778
10
17.2165232
20
68.1443438
11
17.2106232
21
68.1194438
0
LINE
8
DEFAULT_255_2_778
10
17.2040232
20
68.0692438
11
17.2030232
21
68.0438438
0
LINE
8
DEFAULT_255_2_778
10
17.2030232
20
68.0438438
11
17.2035232
21
68.0184438
0
LINE
8
DEFAULT_255_2_778
10
17.2064232
20
67.9932438
11
17.2125232
21
67.9686438
0
LINE
8
DEFAULT_255_2_778
10
17.2125232
20
67.9686438
11
17.2225232
21
67.9451438
0
LINE
8
DEFAULT_255_2_778
10
17.2225232
20
67.9451438
11
17.2358232
21
67.9234438
0
LINE
8
DEFAULT_255_2_778
10
17.2358232
20
67.9234438
11
17.2516232
21
67.9035438
0
LINE
8
DEFAULT_255_2_778
10
17.2516232
20
67.9035438
11
17.2694232
21
67.8853438
0
LINE
8
DEFAULT_255_2_778
10
17.2694232
20
67.8853438
11
17.3091232
21
67.8541438
0
LINE
8
DEFAULT_255_2_778
10
17.3091232
20
67.8541438
11
17.3519232
21
67.8268438
0
LINE
8
DEFAULT_255_2_778
10
17.3519232
20
67.8268438
11
17.3964232
21
67.8025438
0
LINE
8
DEFAULT_255_2_778
10
17.3964232
20
67.8025438
11
17.4416232
21
67.7795438
0
LINE
8
DEFAULT_255_2_778
10
17.4416232
20
67.7795438
11
17.4866232
21
67.7562438
0
LINE
8
DEFAULT_255_2_778
10
17.4866232
20
67.7562438
11
17.5313232
21
67.7326438
0
LINE
8
DEFAULT_255_2_778
10
17.5313232
20
67.7326438
11
17.5760232
21
67.7085438
0
LINE
8
DEFAULT_255_2_778
10
17.5760232
20
67.7085438
11
17.6210232
21
67.6850438
0
LINE
8
DEFAULT_255_2_778
10
17.6210232
20
67.6850438
11
17.6662232
21
67.6622438
0
LINE
8
DEFAULT_255_2_778
10
17.6662232
20
67.6622438
11
17.7112232
21
67.6390438
0
LINE
8
DEFAULT_255_2_778
10
17.7112232
20
67.6390438
11
17.7549232
21
67.6136438
0
LINE
8
DEFAULT_255_2_778
10
17.7549232
20
67.6136438
11
17.7970232
21
67.5852438
0
LINE
8
DEFAULT_255_2_778
10
17.7970232
20
67.5852438
11
17.8369232
21
67.5535438
0
LINE
8
DEFAULT_255_2_778
10
17.8369232
20
67.5535438
11
17.8557232
21
67.5355438
0
LINE
8
DEFAULT_255_2_778
10
17.8557232
20
67.5355438
11
17.8734232
21
67.5162438
0
LINE
8
DEFAULT_255_2_778
10
17.8734232
20
67.5162438
11
17.9046232
21
67.4744438
0
LINE
8
DEFAULT_255_2_778
10
17.9046232
20
67.4744438
11
17.9179232
21
67.4519438
0
LINE
8
DEFAULT_255_2_778
10
17.9179232
20
67.4519438
11
17.9290232
21
67.4281438
0
LINE
8
DEFAULT_255_2_778
10
17.9501232
20
67.3262438
11
17.9507232
21
67.3000438
0
LINE
8
DEFAULT_255_2_778
10
17.9507232
20
67.3000438
11
17.9499232
21
67.2738438
0
LINE
8
DEFAULT_255_2_778
10
17.9319232
20
67.1714438
11
17.9147232
21
67.1220438
0
LINE
8
DEFAULT_255_2_778
10
17.9147232
20
67.1220438
11
17.8925232
21
67.0749438
0
LINE
8
DEFAULT_255_2_778
10
17.8925232
20
67.0749438
11
17.8649232
21
67.0304438
0
LINE
8
DEFAULT_255_2_778
10
17.8649232
20
67.0304438
11
17.8493232
21
67.0093438
0
LINE
8
DEFAULT_255_2_778
10
17.8493232
20
67.0093438
11
17.8327232
21
66.9891438
0
LINE
8
DEFAULT_255_2_778
10
17.7554232
20
66.9198438
11
17.7335232
21
66.9053438
0
LINE
8
DEFAULT_255_2_778
10
17.7335232
20
66.9053438
11
17.7110232
21
66.8920438
0
LINE
8
DEFAULT_255_2_778
10
17.7110232
20
66.8920438
11
17.6641232
21
66.8693438
0
LINE
8
DEFAULT_255_2_778
10
17.6641232
20
66.8693438
11
17.6147232
21
66.8521438
0
LINE
8
DEFAULT_255_2_778
10
17.6147232
20
66.8521438
11
17.5890232
21
66.8457438
0
LINE
8
DEFAULT_255_2_778
10
17.5890232
20
66.8457438
11
17.5633232
21
66.8410438
0
LINE
8
DEFAULT_255_2_778
10
17.5633232
20
66.8410438
11
17.5115232
21
66.8357438
0
LINE
8
DEFAULT_255_2_778
10
17.5115232
20
66.8357438
11
17.4591232
21
66.8354438
0
LINE
8
DEFAULT_255_2_778
10
17.4591232
20
66.8354438
11
17.4070232
21
66.8404438
0
LINE
8
DEFAULT_255_2_778
10
17.4070232
20
66.8404438
11
17.3559232
21
66.8513438
0
LINE
8
DEFAULT_255_2_778
10
17.3559232
20
66.8513438
11
17.3310232
21
66.8592438
0
LINE
8
DEFAULT_255_2_778
10
17.3310232
20
66.8592438
11
17.3064232
21
66.8688438
0
LINE
8
DEFAULT_255_2_778
10
17.3064232
20
66.8688438
11
17.2601232
21
66.8928438
0
LINE
8
DEFAULT_255_2_778
10
17.2601232
20
66.8928438
11
17.2180232
21
66.9233438
0
LINE
8
DEFAULT_255_2_778
10
17.2180232
20
66.9233438
11
17.1805232
21
66.9598438
0
LINE
8
DEFAULT_255_2_778
10
17.1805232
20
66.9598438
11
17.1485232
21
67.0010438
0
LINE
8
DEFAULT_255_2_778
10
17.1485232
20
67.0010438
11
17.1217232
21
67.0463438
0
LINE
8
DEFAULT_255_2_778
10
17.0831232
20
67.1439438
11
17.1918232
21
67.1749438
0
LINE
8
DEFAULT_255_2_778
10
17.2064232
20
67.1259438
11
17.2170232
21
67.1026438
0
LINE
8
DEFAULT_255_2_778
10
17.2170232
20
67.1026438
11
17.2297232
21
67.0802438
0
LINE
8
DEFAULT_255_2_778
10
17.2297232
20
67.0802438
11
17.2601232
21
67.0394438
0
LINE
8
DEFAULT_255_2_778
10
17.2601232
20
67.0394438
11
17.2778232
21
67.0212438
0
LINE
8
DEFAULT_255_2_778
10
17.2778232
20
67.0212438
11
17.2974232
21
67.0045438
0
LINE
8
DEFAULT_255_2_778
10
17.2974232
20
67.0045438
11
17.3403232
21
66.9775438
0
LINE
8
DEFAULT_255_2_778
10
17.3403232
20
66.9775438
11
17.3638232
21
66.9674438
0
LINE
8
DEFAULT_255_2_778
10
17.3638232
20
66.9674438
11
17.3884232
21
66.9598438
0
LINE
8
DEFAULT_255_2_778
10
17.3884232
20
66.9598438
11
17.4384232
21
66.9508438
0
LINE
8
DEFAULT_255_2_778
10
17.4384232
20
66.9508438
11
17.4895232
21
66.9487438
0
LINE
8
DEFAULT_255_2_778
10
17.4895232
20
66.9487438
11
17.5403232
21
66.9521438
0
LINE
8
DEFAULT_255_2_778
10
17.5403232
20
66.9521438
11
17.5654232
21
66.9563438
0
LINE
8
DEFAULT_255_2_778
10
17.5654232
20
66.9563438
11
17.5903232
21
66.9624438
0
LINE
8
DEFAULT_255_2_778
10
17.6819232
20
67.0061438
11
17.7025232
21
67.0212438
0
LINE
8
DEFAULT_255_2_778
10
17.7025232
20
67.0212438
11
17.7221232
21
67.0376438
0
LINE
8
DEFAULT_255_2_778
10
17.7221232
20
67.0376438
11
17.7570232
21
67.0746438
0
LINE
8
DEFAULT_255_2_778
10
17.7570232
20
67.0746438
11
17.7723232
21
67.0952438
0
LINE
8
DEFAULT_255_2_778
10
17.7723232
20
67.0952438
11
17.7861232
21
67.1167438
0
LINE
8
DEFAULT_255_2_778
10
17.8345232
20
67.2609438
11
17.8369232
21
67.2863438
0
LINE
8
DEFAULT_255_2_778
10
17.8369232
20
67.2863438
11
17.8374232
21
67.3119438
0
LINE
8
DEFAULT_255_2_778
10
17.8311232
20
67.3627438
11
17.8234232
21
67.3873438
0
LINE
8
DEFAULT_255_2_778
10
17.8234232
20
67.3873438
11
17.8123232
21
67.4104438
0
LINE
8
DEFAULT_255_2_778
10
17.8123232
20
67.4104438
11
17.7983232
21
67.4315438
0
LINE
8
DEFAULT_255_2_778
10
17.7983232
20
67.4315438
11
17.7819232
21
67.4514438
0
LINE
8
DEFAULT_255_2_778
10
17.7819232
20
67.4514438
11
17.7448232
21
67.4863438
0
LINE
8
DEFAULT_255_2_778
10
17.7448232
20
67.4863438
11
17.7030232
21
67.5159438
0
LINE
8
DEFAULT_255_2_778
10
17.7030232
20
67.5159438
11
17.6588232
21
67.5419438
0
LINE
8
DEFAULT_255_2_778
10
17.6588232
20
67.5419438
11
17.6131232
21
67.5649438
0
LINE
8
DEFAULT_255_2_778
10
17.6131232
20
67.5649438
11
17.5668232
21
67.5871438
0
LINE
8
DEFAULT_255_2_778
10
17.5668232
20
67.5871438
11
17.5210232
21
67.6104438
0
LINE
8
DEFAULT_255_2_778
10
17.5210232
20
67.6104438
11
17.4757232
21
67.6347438
0
LINE
8
DEFAULT_255_2_778
10
17.4757232
20
67.6347438
11
17.4308232
21
67.6596438
0
LINE
8
DEFAULT_255_2_778
10
17.4308232
20
67.6596438
11
17.3855232
21
67.6837438
0
LINE
8
DEFAULT_255_2_778
10
17.3855232
20
67.6837438
11
17.3400232
21
67.7072438
0
LINE
8
DEFAULT_255_2_778
10
17.3400232
20
67.7072438
11
17.2950232
21
67.7318438
0
LINE
8
DEFAULT_255_2_778
10
17.2950232
20
67.7318438
11
17.2516232
21
67.7593438
0
LINE
8
DEFAULT_255_2_778
10
17.2516232
20
67.7593438
11
17.2104232
21
67.7903438
0
LINE
8
DEFAULT_255_2_778
10
17.2104232
20
67.7903438
11
17.1725232
21
67.8255438
0
LINE
8
DEFAULT_255_2_778
10
17.1725232
20
67.8255438
11
17.1397232
21
67.8654438
0
LINE
8
DEFAULT_255_2_778
10
17.1135232
20
67.9099438
11
17.1040232
21
67.9340438
0
LINE
8
DEFAULT_255_2_778
10
17.1040232
20
67.9340438
11
17.0971232
21
67.9591438
0
LINE
8
DEFAULT_255_2_778
10
17.0905232
20
68.0102438
11
17.0900232
21
68.0361438
0
LINE
8
DEFAULT_255_2_778
10
17.0900232
20
68.0361438
11
17.0908232
21
68.0620438
0
LINE
8
DEFAULT_255_2_778
10
17.0908232
20
68.0620438
11
17.0961232
21
68.1131438
0
LINE
8
DEFAULT_255_2_778
10
17.1739232
20
68.3023438
11
17.1903232
21
68.3226438
0
LINE
8
DEFAULT_255_2_778
10
17.1903232
20
68.3226438
11
17.2077232
21
68.3417438
0
LINE
8
DEFAULT_255_2_778
10
17.2077232
20
68.3417438
11
17.2464232
21
68.3756438
0
LINE
8
DEFAULT_255_2_778
10
17.2464232
20
68.3756438
11
17.2675232
21
68.3904438
0
LINE
8
DEFAULT_255_2_778
10
17.2675232
20
68.3904438
11
17.2897232
21
68.4039438
0
LINE
8
DEFAULT_255_2_778
10
17.2897232
20
68.4039438
11
17.3366232
21
68.4261438
0
LINE
8
DEFAULT_255_2_778
10
17.3366232
20
68.4261438
11
17.3855232
21
68.4428438
0
LINE
8
DEFAULT_255_2_778
10
17.3855232
20
68.4428438
11
17.4107232
21
68.4491438
0
LINE
8
DEFAULT_255_2_778
10
17.4107232
20
68.4491438
11
17.4361232
21
68.4541438
0
LINE
8
DEFAULT_255_2_778
10
17.4361232
20
68.4541438
11
17.4871232
21
68.4605438
0
LINE
8
DEFAULT_255_2_778
10
17.4871232
20
68.4605438
11
17.5385232
21
68.4623438
0
LINE
8
DEFAULT_255_2_778
10
17.5385232
20
68.4623438
11
17.5644232
21
68.4615438
0
LINE
8
DEFAULT_255_2_778
10
17.5644232
20
68.4615438
11
17.5903232
21
68.4592438
0
LINE
8
DEFAULT_255_2_778
10
17.5903232
20
68.4592438
11
17.6411232
21
68.4491438
0
LINE
8
DEFAULT_255_2_778
10
17.6411232
20
68.4491438
11
17.6898232
21
68.4317438
0
LINE
8
DEFAULT_255_2_778
10
17.6898232
20
68.4317438
11
17.7131232
21
68.4200438
0
LINE
8
DEFAULT_255_2_778
10
17.7131232
20
68.4200438
11
17.7353232
21
68.4068438
0
LINE
8
DEFAULT_255_2_778
10
17.7353232
20
68.4068438
11
17.7763232
21
68.3756438
0
LINE
8
DEFAULT_255_2_778
10
17.7763232
20
68.3756438
11
17.8128232
21
68.3385438
0
LINE
8
DEFAULT_255_2_778
10
17.8128232
20
68.3385438
11
17.8440232
21
68.2972438
0
LINE
8
DEFAULT_255_2_778
10
17.8440232
20
68.2972438
11
17.8702232
21
68.2525438
0
LINE
8
DEFAULT_255_2_778
10
17.9086232
20
68.1562438
11
17.7999232
21
68.1253438
0
LINE
8
DEFAULT_255_2_778
10
14.6717232
20
20.2640438
11
19.1717232
21
20.2640438
0
LINE
8
DEFAULT_255_2_778
10
19.1717232
20
20.2640438
11
19.1717232
21
24.7622438
0
LINE
8
DEFAULT_255_2_778
10
19.1717232
20
24.7622438
11
14.6717232
21
24.7622438
0
LINE
8
DEFAULT_255_2_778
10
14.6717232
20
24.7622438
11
14.6717232
21
20.2640438
0
LINE
8
DEFAULT_255_2_778
10
19.3247232
20
71.0727438
11
20.1801232
21
71.0727438
0
LINE
8
DEFAULT_255_2_778
10
20.1801232
20
71.0727438
11
20.1801232
21
1.7728438
0
LINE
8
DEFAULT_255_2_778
10
20.1801232
20
1.7728438
11
19.3247232
21
1.7728438
0
LINE
8
DEFAULT_255_2_778
10
1.0356232
20
1.7728438
11
0.1802232
21
1.7728438
0
LINE
8
DEFAULT_255_2_778
10
0.1802232
20
1.7728438
11
0.1802232
21
71.0727438
0
LINE
8
DEFAULT_255_2_778
10
0.1802232
20
71.0727438
11
1.0356232
21
71.0727438
0
LINE
8
DEFAULT_255_2_778
10
18.1351232
20
68.4475438
11
19.1802232
21
68.4475438
0
LINE
8
DEFAULT_255_2_778
10
19.1802232
20
68.4475438
11
19.1802232
21
68.3343438
0
LINE
8
DEFAULT_255_2_778
10
19.1802232
20
68.3343438
11
18.7053232
21
68.3343438
0
LINE
8
DEFAULT_255_2_778
10
18.7053232
20
68.3343438
11
18.7053232
21
66.8497438
0
LINE
8
DEFAULT_255_2_778
10
18.7053232
20
66.8497438
11
18.5920232
21
66.8497438
0
LINE
8
DEFAULT_255_2_778
10
18.5920232
20
66.8497438
11
18.5920232
21
68.3343438
0
LINE
8
DEFAULT_255_2_778
10
18.5920232
20
68.3343438
11
18.1348232
21
68.3343438
0
LINE
8
DEFAULT_255_2_778
10
18.1348232
20
68.3343438
11
18.1348232
21
68.4475438
0
LINE
8
DEFAULT_255_2_778
10
2.9107232
20
22.7781438
11
2.9279232
21
22.7990438
0
LINE
8
DEFAULT_255_2_778
10
2.9279232
20
22.7990438
11
2.9475232
21
22.8183438
0
LINE
8
DEFAULT_255_2_778
10
2.9475232
20
22.8183438
11
2.9914232
21
22.8503438
0
LINE
8
DEFAULT_255_2_778
10
2.9914232
20
22.8503438
11
3.0157232
21
22.8627438
0
LINE
8
DEFAULT_255_2_778
10
3.0157232
20
22.8627438
11
3.0414232
21
22.8723438
0
LINE
8
DEFAULT_255_2_778
10
3.0414232
20
22.8723438
11
3.0946232
21
22.8834438
0
LINE
8
DEFAULT_255_2_778
10
3.0946232
20
22.8834438
11
3.1218232
21
22.8855438
0
LINE
8
DEFAULT_255_2_778
10
3.1218232
20
22.8855438
11
3.1491232
21
22.8857438
0
LINE
8
DEFAULT_255_2_778
10
3.1491232
20
22.8857438
11
3.1761232
21
22.8842438
0
LINE
8
DEFAULT_255_2_778
10
3.1761232
20
22.8842438
11
3.2031232
21
22.8807438
0
LINE
8
DEFAULT_255_2_778
10
3.2031232
20
22.8807438
11
3.2560232
21
22.8667438
0
LINE
8
DEFAULT_255_2_778
10
3.2560232
20
22.8667438
11
3.3057232
21
22.8439438
0
LINE
8
DEFAULT_255_2_778
10
3.3057232
20
22.8439438
11
3.3285232
21
22.8286438
0
LINE
8
DEFAULT_255_2_778
10
3.3285232
20
22.8286438
11
3.3486232
21
22.8103438
0
LINE
8
DEFAULT_255_2_778
10
3.3486232
20
22.8103438
11
3.3668232
21
22.7902438
0
LINE
8
DEFAULT_255_2_778
10
3.3668232
20
22.7902438
11
3.3830232
21
22.7680438
0
LINE
8
DEFAULT_255_2_778
10
3.3830232
20
22.7680438
11
3.3962232
21
22.7442438
0
LINE
8
DEFAULT_255_2_778
10
3.3962232
20
22.7442438
11
3.4071232
21
22.7191438
0
LINE
8
DEFAULT_255_2_778
10
3.4071232
20
22.7191438
11
3.4150232
21
22.6929438
0
LINE
8
DEFAULT_255_2_778
10
3.4150232
20
22.6929438
11
3.4208232
21
22.6661438
0
LINE
8
DEFAULT_255_2_778
10
3.4266232
20
22.6122438
11
3.4256232
21
22.5577438
0
LINE
8
DEFAULT_255_2_778
10
3.4047232
20
22.4513438
11
3.3954232
21
22.4256438
0
LINE
8
DEFAULT_255_2_778
10
3.3954232
20
22.4256438
11
3.3846232
21
22.4005438
0
LINE
8
DEFAULT_255_2_778
10
3.3846232
20
22.4005438
11
3.3594232
21
22.3526438
0
LINE
8
DEFAULT_255_2_778
10
3.3594232
20
22.3526438
11
3.3309232
21
22.3068438
0
LINE
8
DEFAULT_255_2_778
10
3.3309232
20
22.3068438
11
3.3002232
21
22.2624438
0
LINE
8
DEFAULT_255_2_778
10
3.3002232
20
22.2624438
11
3.2682232
21
22.2187438
0
LINE
8
DEFAULT_255_2_778
10
3.2682232
20
22.2187438
11
3.2009232
21
22.1335438
0
LINE
8
DEFAULT_255_2_778
10
3.2009232
20
22.1335438
11
3.1319232
21
22.0499438
0
LINE
8
DEFAULT_255_2_778
10
3.1319232
20
22.0499438
11
3.0618232
21
21.9671438
0
LINE
8
DEFAULT_255_2_778
10
3.0618232
20
21.9671438
11
2.9914232
21
21.8846438
0
LINE
8
DEFAULT_255_2_778
10
2.9914232
20
21.8846438
11
2.9213232
21
21.8017438
0
LINE
8
DEFAULT_255_2_778
10
2.9213232
20
21.8017438
11
2.9213232
21
21.7618438
0
LINE
8
DEFAULT_255_2_778
10
2.9213232
20
21.7618438
11
3.4772232
21
21.7618438
0
LINE
8
DEFAULT_255_2_778
10
3.4772232
20
21.7618438
11
3.4772232
21
21.6785438
0
LINE
8
DEFAULT_255_2_778
10
3.4772232
20
21.6785438
11
2.8379232
21
21.6785438
0
LINE
8
DEFAULT_255_2_778
10
2.8379232
20
21.6785438
11
2.8379232
21
21.8316438
0
LINE
8
DEFAULT_255_2_778
10
2.8379232
20
21.8316438
11
2.8983232
21
21.9015438
0
LINE
8
DEFAULT_255_2_778
10
2.8983232
20
21.9015438
11
2.9586232
21
21.9713438
0
LINE
8
DEFAULT_255_2_778
10
2.9586232
20
21.9713438
11
3.0779232
21
22.1118438
0
LINE
8
DEFAULT_255_2_778
10
3.0779232
20
22.1118438
11
3.1367232
21
22.1830438
0
LINE
8
DEFAULT_255_2_778
10
3.1367232
20
22.1830438
11
3.1930232
21
22.2560438
0
LINE
8
DEFAULT_255_2_778
10
3.1930232
20
22.2560438
11
3.2203232
21
22.2933438
0
LINE
8
DEFAULT_255_2_778
10
3.2203232
20
22.2933438
11
3.2467232
21
22.3312438
0
LINE
8
DEFAULT_255_2_778
10
3.2467232
20
22.3312438
11
3.2719232
21
22.3701438
0
LINE
8
DEFAULT_255_2_778
10
3.2719232
20
22.3701438
11
3.2949232
21
22.4106438
0
LINE
8
DEFAULT_255_2_778
10
3.3420232
20
22.5889438
11
3.3399232
21
22.6355438
0
LINE
8
DEFAULT_255_2_778
10
3.3399232
20
22.6355438
11
3.3359232
21
22.6587438
0
LINE
8
DEFAULT_255_2_778
10
3.3359232
20
22.6587438
11
3.3298232
21
22.6812438
0
LINE
8
DEFAULT_255_2_778
10
3.3298232
20
22.6812438
11
3.3213232
21
22.7032438
0
LINE
8
DEFAULT_255_2_778
10
3.3213232
20
22.7032438
11
3.3102232
21
22.7238438
0
LINE
8
DEFAULT_255_2_778
10
3.3102232
20
22.7238438
11
3.2962232
21
22.7426438
0
LINE
8
DEFAULT_255_2_778
10
3.2962232
20
22.7426438
11
3.2793232
21
22.7590438
0
LINE
8
DEFAULT_255_2_778
10
3.2793232
20
22.7590438
11
3.2602232
21
22.7728438
0
LINE
8
DEFAULT_255_2_778
10
3.2602232
20
22.7728438
11
3.2393232
21
22.7839438
0
LINE
8
DEFAULT_255_2_778
10
3.2393232
20
22.7839438
11
3.1946232
21
22.7976438
0
LINE
8
DEFAULT_255_2_778
10
3.1946232
20
22.7976438
11
3.1713232
21
22.8011438
0
LINE
8
DEFAULT_255_2_778
10
3.1713232
20
22.8011438
11
3.1480232
21
22.8027438
0
LINE
8
DEFAULT_255_2_778
10
3.1480232
20
22.8027438
11
3.1017232
21
22.8000438
0
LINE
8
DEFAULT_255_2_778
10
3.1017232
20
22.8000438
11
3.0787232
21
22.7955438
0
LINE
8
DEFAULT_255_2_778
10
3.0787232
20
22.7955438
11
3.0565232
21
22.7884438
0
LINE
8
DEFAULT_255_2_778
10
3.0565232
20
22.7884438
11
3.0356232
21
22.7781438
0
LINE
8
DEFAULT_255_2_778
10
3.0356232
20
22.7781438
11
3.0160232
21
22.7651438
0
LINE
8
DEFAULT_255_2_778
10
2.9575232
20
22.6929438
11
2.8827232
21
22.7312438
0
LINE
8
DEFAULT_255_2_778
10
8.8397232
20
2.0056438
11
8.8397232
21
-0.1771562
0
LINE
8
DEFAULT_255_2_778
10
8.8397232
20
-0.1771562
11
12.4047232
21
-0.1771562
0
LINE
8
DEFAULT_255_2_778
10
12.4047232
20
-0.1771562
11
12.4047232
21
2.0056438
0
LINE
8
DEFAULT_255_2_778
10
12.4047232
20
70.8399438
11
12.4047232
21
73.0227438
0
LINE
8
DEFAULT_255_2_778
10
12.4047232
20
73.0227438
11
8.8397232
21
73.0227438
0
LINE
8
DEFAULT_255_2_778
10
8.8397232
20
73.0227438
11
8.8397232
21
70.8399438
0
LINE
8
DEFAULT_255_2_778
10
1.1250232
20
62.1375438
11
1.1250232
21
62.1314438
0
LINE
8
DEFAULT_255_2_778
10
1.1250232
20
62.1314438
11
2.2246232
21
62.1314438
0
LINE
8
DEFAULT_255_2_778
10
2.2246232
20
62.1314438
11
2.2246232
21
63.2360438
0
LINE
8
DEFAULT_255_2_778
10
2.2246232
20
63.2360438
11
1.1250232
21
63.2360438
0
LINE
8
DEFAULT_255_2_778
10
1.1250232
20
63.2360438
11
1.1250232
21
62.1375438
0
LINE
8
DEFAULT_255_2_778
10
1.1250232
20
62.1375438
11
2.2246232
21
62.1375438
0
LINE
8
DEFAULT_255_2_778
10
6.7151232
20
21.6798438
11
6.6302232
21
21.6798438
0
LINE
8
DEFAULT_255_2_778
10
6.6302232
20
21.6798438
11
6.6302232
21
21.8544438
0
LINE
8
DEFAULT_255_2_778
10
6.6302232
20
21.8544438
11
6.7151232
21
21.8544438
0
LINE
8
DEFAULT_255_2_778
10
6.7151232
20
21.8544438
11
6.7151232
21
21.6798438
0
LINE
8
DEFAULT_255_2_778
10
6.7151232
20
23.6298438
11
6.6302232
21
23.6298438
0
LINE
8
DEFAULT_255_2_778
10
6.6302232
20
23.6298438
11
6.6302232
21
23.8044438
0
LINE
8
DEFAULT_255_2_778
10
6.6302232
20
23.8044438
11
6.7151232
21
23.8044438
0
LINE
8
DEFAULT_255_2_778
10
6.7151232
20
23.8044438
11
6.7151232
21
23.6298438
0
LINE
8
DEFAULT_255_2_778
10
2.6652232
20
21.6798438
11
2.5802232
21
21.6798438
0
LINE
8
DEFAULT_255_2_778
10
2.5802232
20
21.6798438
11
2.5802232
21
21.8544438
0
LINE
8
DEFAULT_255_2_778
10
2.5802232
20
21.8544438
11
2.6652232
21
21.8544438
0
LINE
8
DEFAULT_255_2_778
10
2.6652232
20
21.8544438
11
2.6652232
21
21.6798438
0
LINE
8
DEFAULT_255_2_778
10
2.5802232
20
23.8044438
11
2.6652232
21
23.8044438
0
LINE
8
DEFAULT_255_2_778
10
2.6652232
20
23.8044438
11
2.6652232
21
23.6298438
0
LINE
8
DEFAULT_255_2_778
10
2.6652232
20
23.6298438
11
2.5802232
21
23.6298438
0
LINE
8
DEFAULT_255_2_778
10
2.5802232
20
23.6298438
11
2.5802232
21
23.8044438
0
LINE
8
DEFAULT_255_2_778
10
15.1866232
20
8.1606438
11
15.2652232
21
8.1606438
0
LINE
8
DEFAULT_255_2_778
10
15.2652232
20
8.1606438
11
15.2652232
21
7.9826438
0
LINE
8
DEFAULT_255_2_778
10
15.2652232
20
7.9826438
11
15.1866232
21
7.9826438
0
LINE
8
DEFAULT_255_2_778
10
15.1866232
20
7.9826438
11
15.1866232
21
8.1606438
0
LINE
8
DEFAULT_255_2_778
10
15.1866232
20
8.8491438
11
15.2652232
21
8.8491438
0
LINE
8
DEFAULT_255_2_778
10
15.2652232
20
8.8491438
11
15.2652232
21
8.6710438
0
LINE
8
DEFAULT_255_2_778
10
15.2652232
20
8.6710438
11
15.1866232
21
8.6710438
0
LINE
8
DEFAULT_255_2_778
10
15.1866232
20
8.6710438
11
15.1866232
21
8.8491438
0
LINE
8
DEFAULT_255_2_778
10
20.1928232
20
60.4026438
11
20.1803232
21
60.4026438
0
LINE
8
DEFAULT_255_2_778
10
20.1928232
20
60.3970438
11
20.1803232
21
60.3970438
0
LINE
8
DEFAULT_255_2_778
10
20.1802409
20
69.3884647
11
0.1801409
21
69.3884647
0
LINE
8
DEFAULT_255_2_778
10
8.0411409
20
70.8399647
11
8.0411409
21
71.0727647
0
LINE
8
DEFAULT_255_2_778
10
8.0411409
20
71.0727647
11
1.0355409
21
71.0727647
0
LINE
8
DEFAULT_255_2_778
10
1.0355409
20
71.0727647
11
1.0355409
21
70.8399647
0
LINE
8
DEFAULT_255_2_778
10
1.0355409
20
70.8399647
11
19.3246409
21
70.8399647
0
LINE
8
DEFAULT_255_2_778
10
19.3246409
20
70.8399647
11
19.3246409
21
71.0727647
0
LINE
8
DEFAULT_255_2_778
10
19.3246409
20
71.0727647
11
13.2331409
21
71.0727647
0
LINE
8
DEFAULT_255_2_778
10
13.2331409
20
71.0727647
11
13.2331409
21
70.8399647
0
LINE
8
DEFAULT_255_2_778
10
2.2245409
20
9.1382647
11
1.1247409
21
9.1382647
0
LINE
8
DEFAULT_255_2_778
10
1.1247409
20
9.1382647
11
1.1247409
21
8.0349647
0
LINE
8
DEFAULT_255_2_778
10
1.1247409
20
8.0349647
11
2.2245409
21
8.0349647
0
LINE
8
DEFAULT_255_2_778
10
2.2245409
20
8.0349647
11
2.2245409
21
9.1382647
0
LINE
8
DEFAULT_255_2_778
10
20.1802409
20
3.4568647
11
0.1801409
21
3.4568647
0
LINE
8
DEFAULT_255_2_778
10
8.0411409
20
2.0056647
11
8.0411409
21
1.7728647
0
LINE
8
DEFAULT_255_2_778
10
8.0411409
20
1.7728647
11
1.0355409
21
1.7728647
0
LINE
8
DEFAULT_255_2_778
10
1.0355409
20
1.7728647
11
1.0355409
21
2.0056647
0
LINE
8
DEFAULT_255_2_778
10
1.0355409
20
2.0056647
11
19.3246409
21
2.0056647
0
LINE
8
DEFAULT_255_2_778
10
19.3246409
20
2.0056647
11
19.3246409
21
1.7728647
0
LINE
8
DEFAULT_255_2_778
10
19.3246409
20
1.7728647
11
13.2331409
21
1.7728647
0
LINE
8
DEFAULT_255_2_778
10
13.2331409
20
1.7728647
11
13.2331409
21
2.0056647
0
LINE
8
DEFAULT_255_2_778
10
20.1802409
20
61.6908647
11
0.1801409
21
61.6908647
0
LINE
8
DEFAULT_255_2_778
10
16.6800409
20
57.4226647
11
3.6800409
21
57.4226647
0
LINE
8
DEFAULT_255_2_778
10
20.1802409
20
63.6009647
11
0.1801409
21
63.6009647
0
ARC
8
DEFAULT_255_2_778
10
1.6185912
20
68.0366193
40
0.2741204
50
300.3995188
51
314.4351759
0
ARC
8
DEFAULT_255_2_778
10
1.5521702
20
67.9239268
40
0.4149702
50
76.8319867
51
90.4234449
0
ARC
8
DEFAULT_255_2_778
10
1.6323198
20
68.0576527
40
0.2513078
50
20.700469
51
32.016141
0
ARC
8
DEFAULT_255_2_778
10
1.5859512
20
68.0348897
40
0.3027688
50
6.1042773
51
21.6283512
0
ARC
8
DEFAULT_255_2_778
10
1.5782785
20
68.0372116
40
0.3102354
50
350.3272383
51
357.8893162
0
ARC
8
DEFAULT_255_2_778
10
1.5708017
20
68.0408834
40
0.3182315
50
342.49929
51
349.9017175
0
ARC
8
DEFAULT_255_2_778
10
1.6162168
20
68.0279758
40
0.2710404
50
333.558429
51
342.2145565
0
ARC
8
DEFAULT_255_2_778
10
1.3955446
20
67.2898496
40
0.5988075
50
9.9178318
51
16.8961398
0
ARC
8
DEFAULT_255_2_778
10
1.5789502
20
67.3437163
40
0.4076669
50
17.1439394
51
27.3938361
0
ARC
8
DEFAULT_255_2_778
10
1.5783861
20
67.362668
40
0.3982074
50
35.5667235
51
46.1599604
0
ARC
8
DEFAULT_255_2_778
10
1.6093032
20
68.0584151
40
0.408168
50
297.0466077
51
309.9880609
0
ARC
8
DEFAULT_255_2_778
10
1.6039561
20
68.0373252
40
0.3973627
50
339.0714103
51
352.3729653
0
ARC
8
DEFAULT_255_2_778
10
1.6090758
20
68.0372959
40
0.392285
50
352.2779676
51
359.0198765
0
ARC
8
DEFAULT_255_2_778
10
1.488211
20
68.0233411
40
0.5139371
50
5.9241692
51
8.4808153
0
ARC
8
DEFAULT_255_2_778
10
1.675503
20
68.0512839
40
0.3245722
50
8.4780252
51
12.5635505
0
ARC
8
DEFAULT_255_2_778
10
1.5483337
20
68.0266884
40
0.4540612
50
12.1022611
51
17.9051006
0
ARC
8
DEFAULT_255_2_778
10
1.5870302
20
68.0338292
40
0.4158637
50
31.3172984
51
43.9948701
0
ARC
8
DEFAULT_255_2_778
10
1.5739111
20
68.0002838
40
0.4494136
50
69.4449538
51
81.182145
0
ARC
8
DEFAULT_255_2_778
10
1.6049862
20
67.3683477
40
0.2627332
50
35.679116
51
49.2167367
0
ARC
8
DEFAULT_255_2_778
10
1.4908115
20
67.3135089
40
0.3895958
50
14.0795844
51
23.1997802
0
ARC
8
DEFAULT_255_2_778
10
1.2782801
20
67.2616129
40
0.6083687
50
9.7561304
51
13.9509899
0
ARC
8
DEFAULT_255_2_778
10
1.2784432
20
67.2615391
40
0.6082205
50
8.0950052
51
9.7655851
0
ARC
8
DEFAULT_255_2_778
10
2.479288
20
67.0827721
40
0.5941943
50
180.3265423
51
186.2304407
0
ARC
8
DEFAULT_255_2_778
10
2.4103851
20
67.0477592
40
0.4109802
50
187.1528071
51
195.5787093
0
ARC
8
DEFAULT_255_2_778
10
2.8081953
20
67.3071222
40
0.4466395
50
309.7015242
51
321.2870843
0
ARC
8
DEFAULT_255_2_778
10
2.6147375
20
67.3698768
40
0.6560011
50
351.5416753
51
359.4068393
0
ARC
8
DEFAULT_255_2_778
10
2.6428446
20
67.9712459
40
0.6277081
50
1.9116825
51
10.0592617
0
ARC
8
DEFAULT_255_2_778
10
2.772871
20
67.9989934
40
0.4943936
50
19.9136464
51
30.2137252
0
ARC
8
DEFAULT_255_2_778
10
2.8320478
20
68.0360724
40
0.4245307
50
42.0266611
51
56.5741948
0
ARC
8
DEFAULT_255_2_778
10
2.8312185
20
67.9789424
40
0.4804784
50
99.0907763
51
111.9517495
0
ARC
8
DEFAULT_255_2_778
10
2.8127655
20
68.0019293
40
0.4514696
50
138.2957397
51
151.9562668
0
ARC
8
DEFAULT_255_2_778
10
2.7986261
20
67.9990613
40
0.4399345
50
157.8001262
51
164.7894417
0
ARC
8
DEFAULT_255_2_778
10
2.8554845
20
67.9841982
40
0.4987009
50
164.8555401
51
171.0147263
0
ARC
8
DEFAULT_255_2_778
10
3.0145908
20
67.3546981
40
0.6588146
50
179.4792691
51
194.0206871
0
ARC
8
DEFAULT_255_2_778
10
2.87686
20
67.3147139
40
0.5147874
50
202.7444841
51
212.0436405
0
ARC
8
DEFAULT_255_2_778
10
2.7786539
20
67.2467386
40
0.3957984
50
235.5934265
51
247.7215337
0
ARC
8
DEFAULT_255_2_778
10
2.6827121
20
67.9757996
40
0.4746689
50
1.567693
51
17.8611065
0
ARC
8
DEFAULT_255_2_778
10
2.8101825
20
67.3061468
40
0.3314083
50
314.995061
51
326.6771338
0
ARC
8
DEFAULT_255_2_778
10
2.7956099
20
67.3108024
40
0.3450753
50
298.3749453
51
316.1596649
0
ARC
8
DEFAULT_255_2_778
10
2.8318058
20
67.2963904
40
0.355487
50
204.0203082
51
212.6533451
0
ARC
8
DEFAULT_255_2_778
10
2.9571042
20
67.3384718
40
0.4880049
50
189.9934442
51
196.2534557
0
ARC
8
DEFAULT_255_2_778
10
2.92528
20
67.9695613
40
0.4573923
50
169.8092792
51
177.0268141
0
ARC
8
DEFAULT_255_2_778
10
2.8626149
20
67.9797781
40
0.3939096
50
161.343764
51
169.6592549
0
ARC
8
DEFAULT_255_2_778
10
2.8173822
20
67.9993162
40
0.3439697
50
133.3636761
51
152.4545609
0
ARC
8
DEFAULT_255_2_778
10
2.8107268
20
68.0102107
40
0.3314901
50
119.1609781
51
133.8203247
0
ARC
8
DEFAULT_255_2_778
10
2.7628635
20
67.9961115
40
0.3925641
50
18.563379
51
31.0151012
0
ARC
8
DEFAULT_255_2_778
10
6.1109792
20
68.0170501
40
0.4426846
50
68.0988554
51
80.6757839
0
ARC
8
DEFAULT_255_2_778
10
6.1091293
20
67.9905534
40
0.4695219
50
92.8720724
51
104.7102195
0
ARC
8
DEFAULT_255_2_778
10
6.099098
20
67.9944879
40
0.4617317
50
127.7679718
51
139.8049586
0
ARC
8
DEFAULT_255_2_778
10
6.110525
20
67.9915636
40
0.4727533
50
158.1273208
51
164.0361123
0
ARC
8
DEFAULT_255_2_778
10
6.1461073
20
67.9821915
40
0.5095416
50
164.1233194
51
175.0017299
0
ARC
8
DEFAULT_255_2_778
10
6.43733
20
67.3574307
40
0.8015266
50
179.9960709
51
187.5234197
0
ARC
8
DEFAULT_255_2_778
10
6.1359783
20
67.2970038
40
0.4928809
50
197.3423456
51
209.5016014
0
ARC
8
DEFAULT_255_2_778
10
6.1076576
20
67.2814772
40
0.4605864
50
209.5554654
51
222.7068543
0
ARC
8
DEFAULT_255_2_778
10
6.0800308
20
67.2596233
40
0.4254713
50
223.0676008
51
241.1146679
0
ARC
8
DEFAULT_255_2_778
10
5.9791768
20
67.3640787
40
0.5768429
50
327.0447736
51
333.6988269
0
ARC
8
DEFAULT_255_2_778
10
6.0548842
20
67.3278269
40
0.4930958
50
341.3921777
51
349.1119363
0
ARC
8
DEFAULT_255_2_778
10
5.8846388
20
67.9657081
40
0.6664284
50
6.2522119
51
7.6759563
0
ARC
8
DEFAULT_255_2_778
10
5.9202882
20
67.970857
40
0.6304108
50
7.6449599
51
12.1820763
0
ARC
8
DEFAULT_255_2_778
10
6.0541721
20
68.000116
40
0.4932404
50
19.8852641
51
27.6200981
0
ARC
8
DEFAULT_255_2_778
10
6.0958201
20
68.0245794
40
0.4450035
50
27.3153008
51
35.831449
0
ARC
8
DEFAULT_255_2_778
10
6.1176145
20
68.0512407
40
0.4102085
50
43.9980862
51
55.5941497
0
ARC
8
DEFAULT_255_2_778
10
6.1230365
20
68.0530475
40
0.4056688
50
56.081775
51
67.7407059
0
ARC
8
DEFAULT_255_2_778
10
6.1282165
20
68.0405652
40
0.2960955
50
35.5896032
51
46.4551211
0
ARC
8
DEFAULT_255_2_778
10
6.0884294
20
68.0161346
40
0.3430535
50
16.2943272
51
25.6782802
0
ARC
8
DEFAULT_255_2_778
10
5.919764
20
67.9758998
40
0.516788
50
2.871137
51
9.0608856
0
ARC
8
DEFAULT_255_2_778
10
6.0133545
20
67.3365467
40
0.4219882
50
344.4028021
51
351.9682277
0
ARC
8
DEFAULT_255_2_778
10
6.0885938
20
67.2734952
40
0.3288835
50
209.0924114
51
223.7457522
0
ARC
8
DEFAULT_255_2_778
10
6.4397456
20
67.3567266
40
0.6933423
50
180.0033879
51
186.953697
0
ARC
8
DEFAULT_255_2_778
10
6.0660937
20
68.0023709
40
0.3159222
50
157.9866576
51
166.1146936
0
ARC
8
DEFAULT_255_2_778
10
6.1061187
20
67.9931684
40
0.3563349
50
137.2856992
51
151.7578676
0
ARC
8
DEFAULT_255_2_778
10
4.2078392
20
65.5618271
40
0.6303566
50
334.2715858
51
340.2467578
0
ARC
8
DEFAULT_255_2_778
10
4.2652288
20
65.5434626
40
0.570141
50
340.03451
51
350.6551894
0
ARC
8
DEFAULT_255_2_778
10
4.2525255
20
65.5549873
40
0.5846211
50
349.7428138
51
355.7031881
0
ARC
8
DEFAULT_255_2_778
10
4.263194
20
65.5620713
40
0.5744915
50
0.968883
51
13.0698021
0
ARC
8
DEFAULT_255_2_778
10
4.4869123
20
65.6123252
40
0.3452081
50
13.3418613
51
31.6733632
0
ARC
8
DEFAULT_255_2_778
10
4.5268259
20
65.5484153
40
0.3273269
50
144.8452815
51
153.7309954
0
ARC
8
DEFAULT_255_2_778
10
4.4968281
20
65.6175558
40
0.2237517
50
27.9376061
51
41.1139452
0
ARC
8
DEFAULT_255_2_778
10
4.3111584
20
65.5692023
40
0.416669
50
0.6165114
51
7.6660676
0
ARC
8
DEFAULT_255_2_778
10
4.2196302
20
65.5642992
40
0.5080052
50
349.4842812
51
355.2673585
0
ARC
8
DEFAULT_255_2_778
10
4.1075901
20
65.5807838
40
0.6211866
50
341.8601904
51
349.875383
0
ARC
8
DEFAULT_255_2_778
10
4.2375401
20
65.5498574
40
0.488192
50
332.9950972
51
340.5610069
0
ARC
8
DEFAULT_255_2_778
10
10.2965745
20
65.5460989
40
0.4807578
50
332.9660428
51
340.6601002
0
ARC
8
DEFAULT_255_2_778
10
10.3170174
20
65.543465
40
0.5701525
50
340.0346721
51
350.6551352
0
ARC
8
DEFAULT_255_2_778
10
10.3043982
20
65.554978
40
0.5845479
50
349.7424458
51
355.7035671
0
ARC
8
DEFAULT_255_2_778
10
10.3149931
20
65.5620711
40
0.5744924
50
0.9688979
51
13.0697972
0
ARC
8
DEFAULT_255_2_778
10
10.5361895
20
65.6112795
40
0.3479043
50
13.4135432
51
31.6017648
0
ARC
8
DEFAULT_255_2_778
10
10.5786504
20
65.5484006
40
0.3273554
50
144.8456572
51
153.7305958
0
ARC
8
DEFAULT_255_2_778
10
10.5486281
20
65.6175558
40
0.2237517
50
27.9376061
51
41.1139452
0
ARC
8
DEFAULT_255_2_778
10
10.3817614
20
65.570563
40
0.3978542
50
0.449705
51
7.8330907
0
ARC
8
DEFAULT_255_2_778
10
10.271426
20
65.5652975
40
0.5081923
50
349.373713
51
355.1561667
0
ARC
8
DEFAULT_255_2_778
10
10.1734939
20
65.5772334
40
0.6066791
50
341.7641338
51
349.9713174
0
LINE
8
DEFAULT_255_2_778
10
1.1247034
20
22.8331856
11
1.1247034
21
21.7292856
0
LINE
8
DEFAULT_255_2_778
10
1.1247034
20
21.7292856
11
2.2246034
21
21.7292856
0
LINE
8
DEFAULT_255_2_778
10
2.2246034
20
21.7292856
11
2.2246034
21
22.8331856
0
LINE
8
DEFAULT_255_2_778
10
2.2246034
20
22.8331856
11
1.1247034
21
22.8331856
0
LINE
8
DEFAULT_255_2_778
10
6.2745034
20
22.8331856
11
5.1747034
21
22.8331856
0
LINE
8
DEFAULT_255_2_778
10
5.1747034
20
22.8331856
11
5.1747034
21
21.7292856
0
LINE
8
DEFAULT_255_2_778
10
5.1747034
20
21.7292856
11
6.2745034
21
21.7292856
0
LINE
8
DEFAULT_255_2_778
10
6.2745034
20
21.7292856
11
6.2745034
21
22.8331856
0
LINE
8
DEFAULT_255_2_778
10
1.1247034
20
24.7830856
11
1.1247034
21
23.6784856
0
LINE
8
DEFAULT_255_2_778
10
1.1247034
20
23.6784856
11
2.2246034
21
23.6784856
0
LINE
8
DEFAULT_255_2_778
10
2.2246034
20
23.6784856
11
2.2246034
21
24.7830856
0
LINE
8
DEFAULT_255_2_778
10
2.2246034
20
24.7830856
11
1.1247034
21
24.7830856
0
LINE
8
DEFAULT_255_2_778
10
6.2745034
20
24.7830856
11
5.1747034
21
24.7830856
0
LINE
8
DEFAULT_255_2_778
10
5.1747034
20
24.7830856
11
5.1747034
21
23.6784856
0
LINE
8
DEFAULT_255_2_778
10
5.1747034
20
23.6784856
11
6.2745034
21
23.6784856
0
LINE
8
DEFAULT_255_2_778
10
6.2745034
20
23.6784856
11
6.2745034
21
24.7830856
0
LINE
8
DEFAULT_255_2_778
10
18.8849034
20
9.1986856
11
18.9433034
21
9.1986856
0
LINE
8
DEFAULT_255_2_778
10
18.9433034
20
9.1986856
11
18.9817034
21
9.1986856
0
LINE
8
DEFAULT_255_2_778
10
18.9817034
20
9.1986856
11
18.9817034
21
9.1949856
0
LINE
8
DEFAULT_255_2_778
10
18.9817034
20
9.1949856
11
18.9817034
21
7.9616856
0
LINE
8
DEFAULT_255_2_778
10
18.9817034
20
7.9616856
11
18.9050034
21
7.9616856
0
LINE
8
DEFAULT_255_2_778
10
18.9050034
20
7.9616856
11
18.9050034
21
9.0882856
0
LINE
8
DEFAULT_255_2_778
10
18.9050034
20
9.0882856
11
18.8089034
21
8.9760856
0
LINE
8
DEFAULT_255_2_778
10
18.8089034
20
8.9760856
11
18.7512034
21
8.9157856
0
LINE
8
DEFAULT_255_2_778
10
18.7512034
20
8.9157856
11
18.7198034
21
8.8927856
0
LINE
8
DEFAULT_255_2_778
10
18.7198034
20
8.8927856
11
18.7036034
21
8.8893856
0
LINE
8
DEFAULT_255_2_778
10
18.7036034
20
8.8893856
11
18.6989034
21
8.9766856
0
LINE
8
DEFAULT_255_2_778
10
18.6989034
20
8.9766856
11
18.6896034
21
8.9731856
0
LINE
8
DEFAULT_255_2_778
10
18.6896034
20
8.9731856
11
18.6896034
21
8.9768856
0
LINE
8
DEFAULT_255_2_778
10
18.6896034
20
8.9768856
11
18.7174034
21
9.0020856
0
LINE
8
DEFAULT_255_2_778
10
18.7174034
20
9.0020856
11
18.7626034
21
9.0507856
0
LINE
8
DEFAULT_255_2_778
10
18.7626034
20
9.0507856
11
18.8171034
21
9.1152856
0
LINE
8
DEFAULT_255_2_778
10
18.8171034
20
9.1152856
11
18.8740034
21
9.1848856
0
LINE
8
DEFAULT_255_2_778
10
5.1011034
20
67.0354856
11
5.0770034
21
67.0799856
0
LINE
8
DEFAULT_255_2_778
10
5.0770034
20
67.0799856
11
5.0524034
21
67.1240856
0
LINE
8
DEFAULT_255_2_778
10
5.0524034
20
67.1240856
11
5.0035034
21
67.2124856
0
LINE
8
DEFAULT_255_2_778
10
5.0035034
20
67.2124856
11
4.9543034
21
67.3008856
0
LINE
8
DEFAULT_255_2_778
10
4.9543034
20
67.3008856
11
4.9294034
21
67.3450856
0
LINE
8
DEFAULT_255_2_778
10
4.9294034
20
67.3450856
11
4.9048034
21
67.3892856
0
LINE
8
DEFAULT_255_2_778
10
4.9048034
20
67.3892856
11
4.8066034
21
67.5662856
0
LINE
8
DEFAULT_255_2_778
10
4.8066034
20
67.5662856
11
4.7085034
21
67.7429856
0
LINE
8
DEFAULT_255_2_778
10
4.7085034
20
67.7429856
11
4.6106034
21
67.9199856
0
LINE
8
DEFAULT_255_2_778
10
4.6106034
20
67.9199856
11
4.5130034
21
68.0969856
0
LINE
8
DEFAULT_255_2_778
10
4.5130034
20
68.0969856
11
4.3177034
21
68.4512856
0
LINE
8
DEFAULT_255_2_778
10
4.3177034
20
68.4512856
11
4.1735034
21
68.4512856
0
LINE
8
DEFAULT_255_2_778
10
4.1735034
20
68.4512856
11
4.1735034
21
66.8513856
0
LINE
8
DEFAULT_255_2_778
10
4.1735034
20
66.8513856
11
4.2844034
21
66.8513856
0
LINE
8
DEFAULT_255_2_778
10
4.2844034
20
66.8513856
11
4.2844034
21
68.2715856
0
LINE
8
DEFAULT_255_2_778
10
4.2844034
20
68.2715856
11
4.3082034
21
68.2268856
0
LINE
8
DEFAULT_255_2_778
10
4.3082034
20
68.2268856
11
4.3328034
21
68.1824856
0
LINE
8
DEFAULT_255_2_778
10
4.3328034
20
68.1824856
11
4.3576034
21
68.1382856
0
LINE
8
DEFAULT_255_2_778
10
4.3576034
20
68.1382856
11
4.3825034
21
68.0940856
0
LINE
8
DEFAULT_255_2_778
10
4.3825034
20
68.0940856
11
4.4320034
21
68.0054856
0
LINE
8
DEFAULT_255_2_778
10
4.4320034
20
68.0054856
11
4.4815034
21
67.9167856
0
LINE
8
DEFAULT_255_2_778
10
4.4815034
20
67.9167856
11
4.5799034
21
67.7389856
0
LINE
8
DEFAULT_255_2_778
10
4.5799034
20
67.7389856
11
4.6788034
21
67.5614856
0
LINE
8
DEFAULT_255_2_778
10
4.6788034
20
67.5614856
11
4.8768034
21
67.2063856
0
LINE
8
DEFAULT_255_2_778
10
4.8768034
20
67.2063856
11
5.0744034
21
66.8513856
0
LINE
8
DEFAULT_255_2_778
10
5.0744034
20
66.8513856
11
5.2141034
21
66.8513856
0
LINE
8
DEFAULT_255_2_778
10
5.2141034
20
66.8513856
11
5.2141034
21
68.4512856
0
LINE
8
DEFAULT_255_2_778
10
5.2141034
20
68.4512856
11
5.1009034
21
68.4512856
0
LINE
8
DEFAULT_255_2_778
10
5.1009034
20
68.4512856
11
5.1009034
21
67.0354856
0
LINE
8
DEFAULT_255_2_778
10
1.7573034
20
67.8001856
11
1.7274034
21
67.7844856
0
LINE
8
DEFAULT_255_2_778
10
1.7274034
20
67.7844856
11
1.6962034
21
67.7717856
0
LINE
8
DEFAULT_255_2_778
10
1.6962034
20
67.7717856
11
1.6308034
21
67.7567856
0
LINE
8
DEFAULT_255_2_778
10
1.6308034
20
67.7567856
11
1.5972034
21
67.7535856
0
LINE
8
DEFAULT_255_2_778
10
1.5972034
20
67.7535856
11
1.5636034
21
67.7527856
0
LINE
8
DEFAULT_255_2_778
10
1.5636034
20
67.7527856
11
1.2938034
21
67.7527856
0
LINE
8
DEFAULT_255_2_778
10
1.2938034
20
67.7527856
11
1.2938034
21
68.3388856
0
LINE
8
DEFAULT_255_2_778
10
1.2938034
20
68.3388856
11
1.5491034
21
68.3388856
0
LINE
8
DEFAULT_255_2_778
10
1.6467034
20
68.3279856
11
1.6705034
21
68.3213856
0
LINE
8
DEFAULT_255_2_778
10
1.6705034
20
68.3213856
11
1.6938034
21
68.3128856
0
LINE
8
DEFAULT_255_2_778
10
1.6938034
20
68.3128856
11
1.7383034
21
68.2914856
0
LINE
8
DEFAULT_255_2_778
10
1.7383034
20
68.2914856
11
1.7793034
21
68.2639856
0
LINE
8
DEFAULT_255_2_778
10
1.7793034
20
68.2639856
11
1.8155034
21
68.2303856
0
LINE
8
DEFAULT_255_2_778
10
1.8155034
20
68.2303856
11
1.8314034
21
68.2112856
0
LINE
8
DEFAULT_255_2_778
10
1.8314034
20
68.2112856
11
1.8454034
21
68.1908856
0
LINE
8
DEFAULT_255_2_778
10
1.8870034
20
68.0670856
11
1.8883034
21
68.0257856
0
LINE
8
DEFAULT_255_2_778
10
1.8589034
20
67.9072856
11
1.8378034
21
67.8726856
0
LINE
8
DEFAULT_255_2_778
10
1.8378034
20
67.8726856
11
1.8105034
21
67.8408856
0
LINE
8
DEFAULT_255_2_778
10
1.9991034
20
67.1730856
11
1.9991034
21
67.2098856
0
LINE
8
DEFAULT_255_2_778
10
1.9991034
20
67.2098856
11
1.9989034
21
67.2466856
0
LINE
8
DEFAULT_255_2_778
10
1.9989034
20
67.2466856
11
1.9949034
21
67.3198856
0
LINE
8
DEFAULT_255_2_778
10
1.9949034
20
67.3198856
11
1.9854034
21
67.3929856
0
LINE
8
DEFAULT_255_2_778
10
1.9409034
20
67.5312856
11
1.9227034
21
67.5635856
0
LINE
8
DEFAULT_255_2_778
10
1.9227034
20
67.5635856
11
1.9023034
21
67.5942856
0
LINE
8
DEFAULT_255_2_778
10
1.8542034
20
67.6498856
11
1.8258034
21
67.6739856
0
LINE
8
DEFAULT_255_2_778
10
1.8258034
20
67.6739856
11
1.7949034
21
67.6948856
0
LINE
8
DEFAULT_255_2_778
10
1.8716034
20
67.7456856
11
1.8888034
21
67.7609856
0
LINE
8
DEFAULT_255_2_778
10
1.8888034
20
67.7609856
11
1.9050034
21
67.7776856
0
LINE
8
DEFAULT_255_2_778
10
1.9050034
20
67.7776856
11
1.9333034
21
67.8136856
0
LINE
8
DEFAULT_255_2_778
10
1.9333034
20
67.8136856
11
1.9454034
21
67.8329856
0
LINE
8
DEFAULT_255_2_778
10
1.9454034
20
67.8329856
11
1.9563034
21
67.8530856
0
LINE
8
DEFAULT_255_2_778
10
1.9563034
20
67.8530856
11
1.9751034
21
67.8953856
0
LINE
8
DEFAULT_255_2_778
10
2.0013034
20
68.0305856
11
1.9994034
21
68.0763856
0
LINE
8
DEFAULT_255_2_778
10
1.9804034
20
68.1662856
11
1.9637034
21
68.2091856
0
LINE
8
DEFAULT_255_2_778
10
1.9637034
20
68.2091856
11
1.9423034
21
68.2499856
0
LINE
8
DEFAULT_255_2_778
10
1.8862034
20
68.3226856
11
1.8520034
21
68.3536856
0
LINE
8
DEFAULT_255_2_778
10
1.8520034
20
68.3536856
11
1.8142034
21
68.3803856
0
LINE
8
DEFAULT_255_2_778
10
1.8142034
20
68.3803856
11
1.7740034
21
68.4025856
0
LINE
8
DEFAULT_255_2_778
10
1.7740034
20
68.4025856
11
1.7531034
21
68.4123856
0
LINE
8
DEFAULT_255_2_778
10
1.7531034
20
68.4123856
11
1.7317034
21
68.4210856
0
LINE
8
DEFAULT_255_2_778
10
1.6428034
20
68.4443856
11
1.5507034
21
68.4515856
0
LINE
8
DEFAULT_255_2_778
10
1.5507034
20
68.4515856
11
1.5044034
21
68.4515856
0
LINE
8
DEFAULT_255_2_778
10
1.5044034
20
68.4515856
11
1.4581034
21
68.4515856
0
LINE
8
DEFAULT_255_2_778
10
1.4581034
20
68.4515856
11
1.3655034
21
68.4515856
0
LINE
8
DEFAULT_255_2_778
10
1.3655034
20
68.4515856
11
1.1803034
21
68.4515856
0
LINE
8
DEFAULT_255_2_778
10
1.1803034
20
68.4515856
11
1.1803034
21
66.8510856
0
LINE
8
DEFAULT_255_2_778
10
1.1803034
20
66.8510856
11
1.2935034
21
66.8510856
0
LINE
8
DEFAULT_255_2_778
10
1.2935034
20
66.8510856
11
1.2935034
21
67.6387856
0
LINE
8
DEFAULT_255_2_778
10
1.2935034
20
67.6387856
11
1.5441034
21
67.6387856
0
LINE
8
DEFAULT_255_2_778
10
1.5441034
20
67.6387856
11
1.5753034
21
67.6384856
0
LINE
8
DEFAULT_255_2_778
10
1.5753034
20
67.6384856
11
1.6065034
21
67.6365856
0
LINE
8
DEFAULT_255_2_778
10
1.6065034
20
67.6365856
11
1.6676034
21
67.6252856
0
LINE
8
DEFAULT_255_2_778
10
1.6676034
20
67.6252856
11
1.6973034
21
67.6151856
0
LINE
8
DEFAULT_255_2_778
10
1.6973034
20
67.6151856
11
1.7256034
21
67.6022856
0
LINE
8
DEFAULT_255_2_778
10
1.7256034
20
67.6022856
11
1.7520034
21
67.5863856
0
LINE
8
DEFAULT_255_2_778
10
1.7520034
20
67.5863856
11
1.7766034
21
67.5672856
0
LINE
8
DEFAULT_255_2_778
10
1.8184034
20
67.5215856
11
1.8351034
21
67.4950856
0
LINE
8
DEFAULT_255_2_778
10
1.8351034
20
67.4950856
11
1.8489034
21
67.4669856
0
LINE
8
DEFAULT_255_2_778
10
1.8806034
20
67.3471856
11
1.8862034
21
67.2854856
0
LINE
8
DEFAULT_255_2_778
10
1.8862034
20
67.2854856
11
1.8872034
21
67.2545856
0
LINE
8
DEFAULT_255_2_778
10
1.8872034
20
67.2545856
11
1.8872034
21
67.2235856
0
LINE
8
DEFAULT_255_2_778
10
1.8872034
20
67.2235856
11
1.8872034
21
67.0997856
0
LINE
8
DEFAULT_255_2_778
10
1.8872034
20
67.0997856
11
1.8851034
21
67.0793856
0
LINE
8
DEFAULT_255_2_778
10
1.8886034
20
67.0182856
11
1.8923034
21
66.9878856
0
LINE
8
DEFAULT_255_2_778
10
1.8923034
20
66.9878856
11
1.8970034
21
66.9576856
0
LINE
8
DEFAULT_255_2_778
10
1.8970034
20
66.9576856
11
1.9108034
21
66.8981856
0
LINE
8
DEFAULT_255_2_778
10
1.9108034
20
66.8981856
11
1.9293034
21
66.8399856
0
LINE
8
DEFAULT_255_2_778
10
1.9293034
20
66.8399856
11
2.0338034
21
66.8798856
0
LINE
8
DEFAULT_255_2_778
10
2.0338034
20
66.8798856
11
2.0145034
21
66.9373856
0
LINE
8
DEFAULT_255_2_778
10
2.0026034
20
66.9965856
11
1.9962034
21
67.0846856
0
LINE
8
DEFAULT_255_2_778
10
1.9962034
20
67.0846856
11
1.9962034
21
67.1066856
0
LINE
8
DEFAULT_255_2_778
10
1.9962034
20
67.1066856
11
1.9962034
21
67.1285856
0
LINE
8
DEFAULT_255_2_778
10
1.9962034
20
67.1285856
11
1.9965034
21
67.1505856
0
LINE
8
DEFAULT_255_2_778
10
1.9965034
20
67.1505856
11
1.9991034
21
67.1730856
0
LINE
8
DEFAULT_255_2_778
10
3.1567034
20
67.0277856
11
3.1832034
21
67.0640856
0
LINE
8
DEFAULT_255_2_778
10
3.1832034
20
67.0640856
11
3.2067034
21
67.1029856
0
LINE
8
DEFAULT_255_2_778
10
3.2067034
20
67.1029856
11
3.2268034
21
67.1434856
0
LINE
8
DEFAULT_255_2_778
10
3.2268034
20
67.1434856
11
3.2430034
21
67.1852856
0
LINE
8
DEFAULT_255_2_778
10
3.2430034
20
67.1852856
11
3.2551034
21
67.2286856
0
LINE
8
DEFAULT_255_2_778
10
3.2551034
20
67.2286856
11
3.2636034
21
67.2733856
0
LINE
8
DEFAULT_255_2_778
10
3.2707034
20
67.3630856
11
3.2707034
21
67.3855856
0
LINE
8
DEFAULT_255_2_778
10
3.2707034
20
67.3855856
11
3.2707034
21
67.4079856
0
LINE
8
DEFAULT_255_2_778
10
3.2707034
20
67.4079856
11
3.2707034
21
67.4529856
0
LINE
8
DEFAULT_255_2_778
10
3.2707034
20
67.4529856
11
3.2707034
21
67.6326856
0
LINE
8
DEFAULT_255_2_778
10
3.2707034
20
67.6326856
11
3.2707034
21
67.8122856
0
LINE
8
DEFAULT_255_2_778
10
3.2707034
20
67.8122856
11
3.2707034
21
67.9022856
0
LINE
8
DEFAULT_255_2_778
10
3.2707034
20
67.9022856
11
3.2707034
21
67.9472856
0
LINE
8
DEFAULT_255_2_778
10
3.2707034
20
67.9472856
11
3.2702034
21
67.9921856
0
LINE
8
DEFAULT_255_2_778
10
3.2609034
20
68.0808856
11
3.2512034
21
68.1244856
0
LINE
8
DEFAULT_255_2_778
10
3.2512034
20
68.1244856
11
3.2377034
21
68.1673856
0
LINE
8
DEFAULT_255_2_778
10
3.2001034
20
68.2477856
11
3.1757034
21
68.2850856
0
LINE
8
DEFAULT_255_2_778
10
3.1757034
20
68.2850856
11
3.1474034
21
68.3202856
0
LINE
8
DEFAULT_255_2_778
10
3.0659034
20
68.3903856
11
3.0429034
21
68.4044856
0
LINE
8
DEFAULT_255_2_778
10
3.0429034
20
68.4044856
11
3.0189034
21
68.4171856
0
LINE
8
DEFAULT_255_2_778
10
3.0189034
20
68.4171856
11
2.9691034
21
68.4374856
0
LINE
8
DEFAULT_255_2_778
10
2.9691034
20
68.4374856
11
2.9170034
21
68.4509856
0
LINE
8
DEFAULT_255_2_778
10
2.9170034
20
68.4509856
11
2.8903034
21
68.4552856
0
LINE
8
DEFAULT_255_2_778
10
2.8903034
20
68.4552856
11
2.8633034
21
68.4578856
0
LINE
8
DEFAULT_255_2_778
10
2.8633034
20
68.4578856
11
2.8093034
21
68.4586856
0
LINE
8
DEFAULT_255_2_778
10
2.8093034
20
68.4586856
11
2.7823034
21
68.4568856
0
LINE
8
DEFAULT_255_2_778
10
2.7823034
20
68.4568856
11
2.7553034
21
68.4533856
0
LINE
8
DEFAULT_255_2_778
10
2.6516034
20
68.4245856
11
2.6267034
21
68.4136856
0
LINE
8
DEFAULT_255_2_778
10
2.6267034
20
68.4136856
11
2.6024034
21
68.4015856
0
LINE
8
DEFAULT_255_2_778
10
2.6024034
20
68.4015856
11
2.5566034
21
68.3731856
0
LINE
8
DEFAULT_255_2_778
10
2.5566034
20
68.3731856
11
2.5143034
21
68.3401856
0
LINE
8
DEFAULT_255_2_778
10
2.5143034
20
68.3401856
11
2.4944034
21
68.3218856
0
LINE
8
DEFAULT_255_2_778
10
2.4944034
20
68.3218856
11
2.4757034
21
68.3022856
0
LINE
8
DEFAULT_255_2_778
10
2.4143034
20
68.2141856
11
2.4021034
21
68.1901856
0
LINE
8
DEFAULT_255_2_778
10
2.4021034
20
68.1901856
11
2.3913034
21
68.1652856
0
LINE
8
DEFAULT_255_2_778
10
2.3629034
20
68.0620856
11
2.3571034
21
68.0083856
0
LINE
8
DEFAULT_255_2_778
10
2.3571034
20
68.0083856
11
2.3561034
21
67.9813856
0
LINE
8
DEFAULT_255_2_778
10
2.3561034
20
67.9813856
11
2.3558034
21
67.9543856
0
LINE
8
DEFAULT_255_2_778
10
2.3558034
20
67.9543856
11
2.3558034
21
67.9003856
0
LINE
8
DEFAULT_255_2_778
10
2.3558034
20
67.9003856
11
2.3558034
21
67.7924856
0
LINE
8
DEFAULT_255_2_778
10
2.3558034
20
67.7924856
11
2.3558034
21
67.3606856
0
LINE
8
DEFAULT_255_2_778
10
2.3754034
20
67.1950856
11
2.3873034
21
67.1547856
0
LINE
8
DEFAULT_255_2_778
10
2.3873034
20
67.1547856
11
2.4021034
21
67.1156856
0
LINE
8
DEFAULT_255_2_778
10
2.4405034
20
67.0415856
11
2.4645034
21
67.0068856
0
LINE
8
DEFAULT_255_2_778
10
2.4645034
20
67.0068856
11
2.4915034
21
66.9748856
0
LINE
8
DEFAULT_255_2_778
10
2.4915034
20
66.9748856
11
2.5217034
21
66.9457856
0
LINE
8
DEFAULT_255_2_778
10
2.5217034
20
66.9457856
11
2.5550034
21
66.9201856
0
LINE
8
DEFAULT_255_2_778
10
2.6286034
20
66.8804856
11
2.6683034
21
66.8666856
0
LINE
8
DEFAULT_255_2_778
10
2.6683034
20
66.8666856
11
2.7093034
21
66.8571856
0
LINE
8
DEFAULT_255_2_778
10
2.7093034
20
66.8571856
11
2.7916034
21
66.8499856
0
LINE
8
DEFAULT_255_2_778
10
2.7916034
20
66.8499856
11
2.8741034
21
66.8499856
0
LINE
8
DEFAULT_255_2_778
10
2.8741034
20
66.8499856
11
3.0390034
21
66.8499856
0
LINE
8
DEFAULT_255_2_778
10
3.0390034
20
66.8499856
11
3.3686034
21
66.8499856
0
LINE
8
DEFAULT_255_2_778
10
3.3686034
20
66.8499856
11
3.3686034
21
66.9634856
0
LINE
8
DEFAULT_255_2_778
10
3.3686034
20
66.9634856
11
3.0935034
21
66.9634856
0
LINE
8
DEFAULT_255_2_778
10
3.1572034
20
67.9887856
11
3.1578034
21
67.9548856
0
LINE
8
DEFAULT_255_2_778
10
3.1578034
20
67.9548856
11
3.1578034
21
67.9210856
0
LINE
8
DEFAULT_255_2_778
10
3.1578034
20
67.9210856
11
3.1578034
21
67.8535856
0
LINE
8
DEFAULT_255_2_778
10
3.1578034
20
67.8535856
11
3.1578034
21
67.5831856
0
LINE
8
DEFAULT_255_2_778
10
3.1578034
20
67.5831856
11
3.1578034
21
67.4479856
0
LINE
8
DEFAULT_255_2_778
10
3.1578034
20
67.4479856
11
3.1578034
21
67.3804856
0
LINE
8
DEFAULT_255_2_778
10
3.1578034
20
67.3804856
11
3.1578034
21
67.3635856
0
LINE
8
DEFAULT_255_2_778
10
3.1578034
20
67.3635856
11
3.1572034
21
67.3466856
0
LINE
8
DEFAULT_255_2_778
10
3.1572034
20
67.3466856
11
3.1546034
21
67.3130856
0
LINE
8
DEFAULT_255_2_778
10
3.1546034
20
67.3130856
11
3.1498034
21
67.2794856
0
LINE
8
DEFAULT_255_2_778
10
3.1498034
20
67.2794856
11
3.1424034
21
67.2466856
0
LINE
8
DEFAULT_255_2_778
10
3.1424034
20
67.2466856
11
3.1324034
21
67.2145856
0
LINE
8
DEFAULT_255_2_778
10
3.1324034
20
67.2145856
11
3.1197034
21
67.1833856
0
LINE
8
DEFAULT_255_2_778
10
3.1197034
20
67.1833856
11
3.1046034
21
67.1529856
0
LINE
8
DEFAULT_255_2_778
10
3.1046034
20
67.1529856
11
3.0871034
21
67.1240856
0
LINE
8
DEFAULT_255_2_778
10
2.9596034
20
67.0071856
11
2.9352034
21
66.9952856
0
LINE
8
DEFAULT_255_2_778
10
2.9352034
20
66.9952856
11
2.9104034
21
66.9851856
0
LINE
8
DEFAULT_255_2_778
10
2.9104034
20
66.9851856
11
2.8588034
21
66.9706856
0
LINE
8
DEFAULT_255_2_778
10
2.8588034
20
66.9706856
11
2.8321034
21
66.9664856
0
LINE
8
DEFAULT_255_2_778
10
2.8321034
20
66.9664856
11
2.8053034
21
66.9642856
0
LINE
8
DEFAULT_255_2_778
10
2.8053034
20
66.9642856
11
2.7519034
21
66.9661856
0
LINE
8
DEFAULT_255_2_778
10
2.7519034
20
66.9661856
11
2.7254034
21
66.9701856
0
LINE
8
DEFAULT_255_2_778
10
2.7254034
20
66.9701856
11
2.6992034
21
66.9764856
0
LINE
8
DEFAULT_255_2_778
10
2.6992034
20
66.9764856
11
2.6495034
21
66.9960856
0
LINE
8
DEFAULT_255_2_778
10
2.6495034
20
66.9960856
11
2.6262034
21
67.0095856
0
LINE
8
DEFAULT_255_2_778
10
2.6262034
20
67.0095856
11
2.6042034
21
67.0251856
0
LINE
8
DEFAULT_255_2_778
10
2.6042034
20
67.0251856
11
2.5651034
21
67.0616856
0
LINE
8
DEFAULT_255_2_778
10
2.5651034
20
67.0616856
11
2.5479034
21
67.0825856
0
LINE
8
DEFAULT_255_2_778
10
2.5479034
20
67.0825856
11
2.5325034
21
67.1045856
0
LINE
8
DEFAULT_255_2_778
10
2.5071034
20
67.1516856
11
2.4971034
21
67.1764856
0
LINE
8
DEFAULT_255_2_778
10
2.4971034
20
67.1764856
11
2.4886034
21
67.2018856
0
LINE
8
DEFAULT_255_2_778
10
2.4765034
20
67.2537856
11
2.4698034
21
67.3069856
0
LINE
8
DEFAULT_255_2_778
10
2.4698034
20
67.3069856
11
2.4677034
21
67.3606856
0
LINE
8
DEFAULT_255_2_778
10
2.4677034
20
67.3606856
11
2.4677034
21
67.8204856
0
LINE
8
DEFAULT_255_2_778
10
2.4677034
20
67.8204856
11
2.4677034
21
67.9355856
0
LINE
8
DEFAULT_255_2_778
10
2.4677034
20
67.9355856
11
2.4677034
21
67.9644856
0
LINE
8
DEFAULT_255_2_778
10
2.4677034
20
67.9644856
11
2.4685034
21
67.9932856
0
LINE
8
DEFAULT_255_2_778
10
2.4894034
20
68.1057856
11
2.5000034
21
68.1324856
0
LINE
8
DEFAULT_255_2_778
10
2.5000034
20
68.1324856
11
2.5124034
21
68.1583856
0
LINE
8
DEFAULT_255_2_778
10
2.6492034
20
68.2996856
11
2.6680034
21
68.3094856
0
LINE
8
DEFAULT_255_2_778
10
2.6680034
20
68.3094856
11
2.6876034
21
68.3181856
0
LINE
8
DEFAULT_255_2_778
10
2.6876034
20
68.3181856
11
2.7278034
21
68.3319856
0
LINE
8
DEFAULT_255_2_778
10
2.7278034
20
68.3319856
11
2.7693034
21
68.3411856
0
LINE
8
DEFAULT_255_2_778
10
2.7693034
20
68.3411856
11
2.8119034
21
68.3456856
0
LINE
8
DEFAULT_255_2_778
10
2.8119034
20
68.3456856
11
2.8543034
21
68.3454856
0
LINE
8
DEFAULT_255_2_778
10
2.8543034
20
68.3454856
11
2.8963034
21
68.3401856
0
LINE
8
DEFAULT_255_2_778
10
2.8963034
20
68.3401856
11
2.9376034
21
68.3292856
0
LINE
8
DEFAULT_255_2_778
10
2.9376034
20
68.3292856
11
2.9765034
21
68.3126856
0
LINE
8
DEFAULT_255_2_778
10
2.9765034
20
68.3126856
11
3.0128034
21
68.2909856
0
LINE
8
DEFAULT_255_2_778
10
3.0128034
20
68.2909856
11
3.0300034
21
68.2782856
0
LINE
8
DEFAULT_255_2_778
10
3.0300034
20
68.2782856
11
3.0461034
21
68.2641856
0
LINE
8
DEFAULT_255_2_778
10
3.0461034
20
68.2641856
11
3.0749034
21
68.2332856
0
LINE
8
DEFAULT_255_2_778
10
3.0749034
20
68.2332856
11
3.0876034
21
68.2162856
0
LINE
8
DEFAULT_255_2_778
10
3.0876034
20
68.2162856
11
3.0993034
21
68.1983856
0
LINE
8
DEFAULT_255_2_778
10
3.1350034
20
68.1210856
11
3.1345034
21
68.1213856
0
LINE
8
DEFAULT_255_2_778
10
6.1827034
20
68.4538856
11
6.1343034
21
68.4591856
0
LINE
8
DEFAULT_255_2_778
10
6.1343034
20
68.4591856
11
6.0856034
21
68.4594856
0
LINE
8
DEFAULT_255_2_778
10
5.9899034
20
68.4446856
11
5.9433034
21
68.4300856
0
LINE
8
DEFAULT_255_2_778
10
5.9433034
20
68.4300856
11
5.8986034
21
68.4110856
0
LINE
8
DEFAULT_255_2_778
10
5.8986034
20
68.4110856
11
5.8562034
21
68.3874856
0
LINE
8
DEFAULT_255_2_778
10
5.8562034
20
68.3874856
11
5.8163034
21
68.3594856
0
LINE
8
DEFAULT_255_2_778
10
5.7464034
20
68.2924856
11
5.7173034
21
68.2533856
0
LINE
8
DEFAULT_255_2_778
10
5.7173034
20
68.2533856
11
5.6925034
21
68.2115856
0
LINE
8
DEFAULT_255_2_778
10
5.6925034
20
68.2115856
11
5.6718034
21
68.1676856
0
LINE
8
DEFAULT_255_2_778
10
5.6385034
20
68.0265856
11
5.6358034
21
67.9789856
0
LINE
8
DEFAULT_255_2_778
10
5.6358034
20
67.9789856
11
5.6358034
21
67.9551856
0
LINE
8
DEFAULT_255_2_778
10
5.6358034
20
67.9551856
11
5.6358034
21
67.9313856
0
LINE
8
DEFAULT_255_2_778
10
5.6358034
20
67.9313856
11
5.6358034
21
67.7400856
0
LINE
8
DEFAULT_255_2_778
10
5.6358034
20
67.7400856
11
5.6358034
21
67.3574856
0
LINE
8
DEFAULT_255_2_778
10
5.6427034
20
67.2524856
11
5.6520034
21
67.2005856
0
LINE
8
DEFAULT_255_2_778
10
5.6520034
20
67.2005856
11
5.6655034
21
67.1500856
0
LINE
8
DEFAULT_255_2_778
10
5.8745034
20
66.8870856
11
5.9047034
21
66.8722856
0
LINE
8
DEFAULT_255_2_778
10
5.9047034
20
66.8722856
11
5.9359034
21
66.8600856
0
LINE
8
DEFAULT_255_2_778
10
5.9359034
20
66.8600856
11
6.0007034
21
66.8439856
0
LINE
8
DEFAULT_255_2_778
10
6.0007034
20
66.8439856
11
6.0340034
21
66.8396856
0
LINE
8
DEFAULT_255_2_778
10
6.0340034
20
66.8396856
11
6.0676034
21
66.8380856
0
LINE
8
DEFAULT_255_2_778
10
6.0676034
20
66.8380856
11
6.1346034
21
66.8420856
0
LINE
8
DEFAULT_255_2_778
10
6.1346034
20
66.8420856
11
6.1679034
21
66.8476856
0
LINE
8
DEFAULT_255_2_778
10
6.1679034
20
66.8476856
11
6.2005034
21
66.8555856
0
LINE
8
DEFAULT_255_2_778
10
6.2005034
20
66.8555856
11
6.2322034
21
66.8656856
0
LINE
8
DEFAULT_255_2_778
10
6.2322034
20
66.8656856
11
6.2634034
21
66.8777856
0
LINE
8
DEFAULT_255_2_778
10
6.2634034
20
66.8777856
11
6.3230034
21
66.9092856
0
LINE
8
DEFAULT_255_2_778
10
6.3230034
20
66.9092856
11
6.3761034
21
66.9492856
0
LINE
8
DEFAULT_255_2_778
10
6.3761034
20
66.9492856
11
6.4005034
21
66.9719856
0
LINE
8
DEFAULT_255_2_778
10
6.4005034
20
66.9719856
11
6.4232034
21
66.9965856
0
LINE
8
DEFAULT_255_2_778
10
6.4232034
20
66.9965856
11
6.4632034
21
67.0502856
0
LINE
8
DEFAULT_255_2_778
10
6.4963034
20
67.1084856
11
6.5103034
21
67.1391856
0
LINE
8
DEFAULT_255_2_778
10
6.5103034
20
67.1391856
11
6.5222034
21
67.1704856
0
LINE
8
DEFAULT_255_2_778
10
6.5391034
20
67.2346856
11
6.5447034
21
67.2677856
0
LINE
8
DEFAULT_255_2_778
10
6.5447034
20
67.2677856
11
6.5484034
21
67.3011856
0
LINE
8
DEFAULT_255_2_778
10
6.5484034
20
67.3011856
11
6.5502034
21
67.3347856
0
LINE
8
DEFAULT_255_2_778
10
6.5502034
20
67.3347856
11
6.5505034
21
67.3683856
0
LINE
8
DEFAULT_255_2_778
10
6.5505034
20
67.3683856
11
6.5505034
21
67.4352856
0
LINE
8
DEFAULT_255_2_778
10
6.5505034
20
67.4352856
11
6.5505034
21
67.5693856
0
LINE
8
DEFAULT_255_2_778
10
6.5505034
20
67.5693856
11
6.5505034
21
67.8374856
0
LINE
8
DEFAULT_255_2_778
10
6.5505034
20
67.8374856
11
6.5505034
21
67.9043856
0
LINE
8
DEFAULT_255_2_778
10
6.5505034
20
67.9043856
11
6.5505034
21
67.9379856
0
LINE
8
DEFAULT_255_2_778
10
6.5505034
20
67.9379856
11
6.5505034
21
67.9715856
0
LINE
8
DEFAULT_255_2_778
10
6.5505034
20
67.9715856
11
6.5471034
21
68.0382856
0
LINE
8
DEFAULT_255_2_778
10
6.5365034
20
68.1038856
11
6.5283034
21
68.1361856
0
LINE
8
DEFAULT_255_2_778
10
6.5283034
20
68.1361856
11
6.5180034
21
68.1678856
0
LINE
8
DEFAULT_255_2_778
10
6.4566034
20
68.2850856
11
6.4357034
21
68.3115856
0
LINE
8
DEFAULT_255_2_778
10
6.4357034
20
68.3115856
11
6.4127034
21
68.3361856
0
LINE
8
DEFAULT_255_2_778
10
6.2767034
20
68.4284856
11
6.2761034
21
68.4277856
0
LINE
8
DEFAULT_255_2_778
10
6.3690034
20
68.2128856
11
6.3844034
21
68.1895856
0
LINE
8
DEFAULT_255_2_778
10
6.3844034
20
68.1895856
11
6.3976034
21
68.1647856
0
LINE
8
DEFAULT_255_2_778
10
6.4177034
20
68.1123856
11
6.4248034
21
68.0850856
0
LINE
8
DEFAULT_255_2_778
10
6.4248034
20
68.0850856
11
6.4301034
21
68.0572856
0
LINE
8
DEFAULT_255_2_778
10
6.4359034
20
68.0017856
11
6.4367034
21
67.9739856
0
LINE
8
DEFAULT_255_2_778
10
6.4367034
20
67.9739856
11
6.4367034
21
67.9461856
0
LINE
8
DEFAULT_255_2_778
10
6.4367034
20
67.9461856
11
6.4367034
21
67.8345856
0
LINE
8
DEFAULT_255_2_778
10
6.4367034
20
67.8345856
11
6.4367034
21
67.3884856
0
LINE
8
DEFAULT_255_2_778
10
6.4367034
20
67.3884856
11
6.4367034
21
67.3606856
0
LINE
8
DEFAULT_255_2_778
10
6.4367034
20
67.3606856
11
6.4362034
21
67.3328856
0
LINE
8
DEFAULT_255_2_778
10
6.4362034
20
67.3328856
11
6.4312034
21
67.2775856
0
LINE
8
DEFAULT_255_2_778
10
6.4198034
20
67.2230856
11
6.4113034
21
67.1963856
0
LINE
8
DEFAULT_255_2_778
10
6.4113034
20
67.1963856
11
6.4010034
21
67.1706856
0
LINE
8
DEFAULT_255_2_778
10
6.4010034
20
67.1706856
11
6.3756034
21
67.1214856
0
LINE
8
DEFAULT_255_2_778
10
6.3756034
20
67.1214856
11
6.3433034
21
67.0759856
0
LINE
8
DEFAULT_255_2_778
10
6.3433034
20
67.0759856
11
6.3050034
21
67.0362856
0
LINE
8
DEFAULT_255_2_778
10
6.3050034
20
67.0362856
11
6.2603034
21
67.0031856
0
LINE
8
DEFAULT_255_2_778
10
6.2603034
20
67.0031856
11
6.2105034
21
66.9780856
0
LINE
8
DEFAULT_255_2_778
10
6.2105034
20
66.9780856
11
6.1576034
21
66.9608856
0
LINE
8
DEFAULT_255_2_778
10
6.1576034
20
66.9608856
11
6.1301034
21
66.9552856
0
LINE
8
DEFAULT_255_2_778
10
6.1301034
20
66.9552856
11
6.1026034
21
66.9518856
0
LINE
8
DEFAULT_255_2_778
10
6.1026034
20
66.9518856
11
6.0470034
21
66.9518856
0
LINE
8
DEFAULT_255_2_778
10
6.0470034
20
66.9518856
11
6.0192034
21
66.9550856
0
LINE
8
DEFAULT_255_2_778
10
6.0192034
20
66.9550856
11
5.9920034
21
66.9605856
0
LINE
8
DEFAULT_255_2_778
10
5.9920034
20
66.9605856
11
5.9396034
21
66.9796856
0
LINE
8
DEFAULT_255_2_778
10
5.9396034
20
66.9796856
11
5.8922034
21
67.0084856
0
LINE
8
DEFAULT_255_2_778
10
5.8922034
20
67.0084856
11
5.8708034
21
67.0262856
0
LINE
8
DEFAULT_255_2_778
10
5.8708034
20
67.0262856
11
5.8510034
21
67.0460856
0
LINE
8
DEFAULT_255_2_778
10
5.8012034
20
67.1135856
11
5.7827034
21
67.1513856
0
LINE
8
DEFAULT_255_2_778
10
5.7827034
20
67.1513856
11
5.7687034
21
67.1907856
0
LINE
8
DEFAULT_255_2_778
10
5.7687034
20
67.1907856
11
5.7583034
21
67.2312856
0
LINE
8
DEFAULT_255_2_778
10
5.7583034
20
67.2312856
11
5.7515034
21
67.2727856
0
LINE
8
DEFAULT_255_2_778
10
5.7464034
20
67.3566856
11
5.7464034
21
67.7180856
0
LINE
8
DEFAULT_255_2_778
10
5.7464034
20
67.7180856
11
5.7464034
21
67.8987856
0
LINE
8
DEFAULT_255_2_778
10
5.7464034
20
67.8987856
11
5.7464034
21
67.9440856
0
LINE
8
DEFAULT_255_2_778
10
5.7464034
20
67.9440856
11
5.7470034
21
67.9892856
0
LINE
8
DEFAULT_255_2_778
10
5.7470034
20
67.9892856
11
5.7509034
21
68.0342856
0
LINE
8
DEFAULT_255_2_778
10
5.7509034
20
68.0342856
11
5.7594034
21
68.0781856
0
LINE
8
DEFAULT_255_2_778
10
5.7732034
20
68.1207856
11
5.7822034
21
68.1416856
0
LINE
8
DEFAULT_255_2_778
10
5.7822034
20
68.1416856
11
5.7922034
21
68.1617856
0
LINE
8
DEFAULT_255_2_778
10
5.8443034
20
68.2348856
11
5.8605034
21
68.2509856
0
LINE
8
DEFAULT_255_2_778
10
5.8605034
20
68.2509856
11
5.8774034
21
68.2657856
0
LINE
8
DEFAULT_255_2_778
10
5.8774034
20
68.2657856
11
5.9139034
21
68.2919856
0
LINE
8
DEFAULT_255_2_778
10
5.9139034
20
68.2919856
11
5.9335034
21
68.3030856
0
LINE
8
DEFAULT_255_2_778
10
5.9335034
20
68.3030856
11
5.9539034
21
68.3131856
0
LINE
8
DEFAULT_255_2_778
10
5.9539034
20
68.3131856
11
5.9962034
21
68.3292856
0
LINE
8
DEFAULT_255_2_778
10
5.9962034
20
68.3292856
11
6.0399034
21
68.3403856
0
LINE
8
DEFAULT_255_2_778
10
6.0399034
20
68.3403856
11
6.0848034
21
68.3459856
0
LINE
8
DEFAULT_255_2_778
10
6.0848034
20
68.3459856
11
6.1298034
21
68.3459856
0
LINE
8
DEFAULT_255_2_778
10
6.1298034
20
68.3459856
11
6.1745034
21
68.3403856
0
LINE
8
DEFAULT_255_2_778
10
6.1745034
20
68.3403856
11
6.1968034
21
68.3350856
0
LINE
8
DEFAULT_255_2_778
10
6.1968034
20
68.3350856
11
6.2185034
21
68.3282856
0
LINE
8
DEFAULT_255_2_778
10
6.2185034
20
68.3282856
11
6.2597034
21
68.3099856
0
LINE
8
DEFAULT_255_2_778
10
6.2597034
20
68.3099856
11
6.2978034
21
68.2853856
0
LINE
8
DEFAULT_255_2_778
10
6.2978034
20
68.2853856
11
6.3322034
21
68.2551856
0
LINE
8
DEFAULT_255_2_778
10
4.1859034
20
64.5057856
11
4.3521034
21
64.7081856
0
LINE
8
DEFAULT_255_2_778
10
4.3521034
20
64.7081856
11
4.4349034
21
64.8095856
0
LINE
8
DEFAULT_255_2_778
10
4.4349034
20
64.8095856
11
4.5169034
21
64.9116856
0
LINE
8
DEFAULT_255_2_778
10
4.5169034
20
64.9116856
11
4.5574034
21
64.9629856
0
LINE
8
DEFAULT_255_2_778
10
4.5574034
20
64.9629856
11
4.5976034
21
65.0148856
0
LINE
8
DEFAULT_255_2_778
10
4.5976034
20
65.0148856
11
4.6746034
21
65.1206856
0
LINE
8
DEFAULT_255_2_778
10
4.6746034
20
65.1206856
11
4.7109034
21
65.1749856
0
LINE
8
DEFAULT_255_2_778
10
4.7109034
20
65.1749856
11
4.7450034
21
65.2304856
0
LINE
8
DEFAULT_255_2_778
10
4.7450034
20
65.2304856
11
4.7757034
21
65.2881856
0
LINE
8
DEFAULT_255_2_778
10
4.8355034
20
65.5111856
11
4.8376034
21
65.5717856
0
LINE
8
DEFAULT_255_2_778
10
4.7807034
20
65.7935856
11
4.7651034
21
65.8165856
0
LINE
8
DEFAULT_255_2_778
10
4.7651034
20
65.8165856
11
4.7474034
21
65.8379856
0
LINE
8
DEFAULT_255_2_778
10
4.7474034
20
65.8379856
11
4.7283034
21
65.8580856
0
LINE
8
DEFAULT_255_2_778
10
4.7283034
20
65.8580856
11
4.7074034
21
65.8763856
0
LINE
8
DEFAULT_255_2_778
10
4.7074034
20
65.8763856
11
4.6601034
21
65.9062856
0
LINE
8
DEFAULT_255_2_778
10
4.6601034
20
65.9062856
11
4.6087034
21
65.9276856
0
LINE
8
DEFAULT_255_2_778
10
4.6087034
20
65.9276856
11
4.5820034
21
65.9358856
0
LINE
8
DEFAULT_255_2_778
10
4.5820034
20
65.9358856
11
4.5548034
21
65.9424856
0
LINE
8
DEFAULT_255_2_778
10
4.5548034
20
65.9424856
11
4.4995034
21
65.9493856
0
LINE
8
DEFAULT_255_2_778
10
4.4995034
20
65.9493856
11
4.4717034
21
65.9504856
0
LINE
8
DEFAULT_255_2_778
10
4.4717034
20
65.9504856
11
4.4436034
21
65.9498856
0
LINE
8
DEFAULT_255_2_778
10
4.4436034
20
65.9498856
11
4.4156034
21
65.9477856
0
LINE
8
DEFAULT_255_2_778
10
4.4156034
20
65.9477856
11
4.3881034
21
65.9437856
0
LINE
8
DEFAULT_255_2_778
10
4.3881034
20
65.9437856
11
4.3344034
21
65.9300856
0
LINE
8
DEFAULT_255_2_778
10
4.3344034
20
65.9300856
11
4.3082034
21
65.9197856
0
LINE
8
DEFAULT_255_2_778
10
4.3082034
20
65.9197856
11
4.2833034
21
65.9072856
0
LINE
8
DEFAULT_255_2_778
10
4.2833034
20
65.9072856
11
4.2375034
21
65.8763856
0
LINE
8
DEFAULT_255_2_778
10
4.2375034
20
65.8763856
11
4.1976034
21
65.8374856
0
LINE
8
DEFAULT_255_2_778
10
4.1976034
20
65.8374856
11
4.1642034
21
65.7929856
0
LINE
8
DEFAULT_255_2_778
10
4.1642034
20
65.7929856
11
4.1367034
21
65.7440856
0
LINE
8
DEFAULT_255_2_778
10
4.1367034
20
65.7440856
11
4.2333034
21
65.6932856
0
LINE
8
DEFAULT_255_2_778
10
4.2592034
20
65.7368856
11
4.2923034
21
65.7752856
0
LINE
8
DEFAULT_255_2_778
10
4.2923034
20
65.7752856
11
4.3119034
21
65.7919856
0
LINE
8
DEFAULT_255_2_778
10
4.3119034
20
65.7919856
11
4.3330034
21
65.8062856
0
LINE
8
DEFAULT_255_2_778
10
4.3330034
20
65.8062856
11
4.3558034
21
65.8178856
0
LINE
8
DEFAULT_255_2_778
10
4.3558034
20
65.8178856
11
4.3799034
21
65.8271856
0
LINE
8
DEFAULT_255_2_778
10
4.3799034
20
65.8271856
11
4.4299034
21
65.8376856
0
LINE
8
DEFAULT_255_2_778
10
4.4299034
20
65.8376856
11
4.4555034
21
65.8395856
0
LINE
8
DEFAULT_255_2_778
10
4.4555034
20
65.8395856
11
4.4809034
21
65.8395856
0
LINE
8
DEFAULT_255_2_778
10
4.4809034
20
65.8395856
11
4.5315034
21
65.8345856
0
LINE
8
DEFAULT_255_2_778
10
4.5315034
20
65.8345856
11
4.5566034
21
65.8289856
0
LINE
8
DEFAULT_255_2_778
10
4.5566034
20
65.8289856
11
4.5812034
21
65.8212856
0
LINE
8
DEFAULT_255_2_778
10
4.5812034
20
65.8212856
11
4.6270034
21
65.7982856
0
LINE
8
DEFAULT_255_2_778
10
4.6270034
20
65.7982856
11
4.6474034
21
65.7826856
0
LINE
8
DEFAULT_255_2_778
10
4.6474034
20
65.7826856
11
4.6654034
21
65.7646856
0
LINE
8
DEFAULT_255_2_778
10
4.6945034
20
65.7223856
11
4.7053034
21
65.6990856
0
LINE
8
DEFAULT_255_2_778
10
4.7053034
20
65.6990856
11
4.7138034
21
65.6747856
0
LINE
8
DEFAULT_255_2_778
10
4.7138034
20
65.6747856
11
4.7199034
21
65.6498856
0
LINE
8
DEFAULT_255_2_778
10
4.7199034
20
65.6498856
11
4.7241034
21
65.6247856
0
LINE
8
DEFAULT_255_2_778
10
4.7278034
20
65.5736856
11
4.7259034
21
65.5223856
0
LINE
8
DEFAULT_255_2_778
10
4.6725034
20
65.3281856
11
4.6415034
21
65.2720856
0
LINE
8
DEFAULT_255_2_778
10
4.6415034
20
65.2720856
11
4.6077034
21
65.2175856
0
LINE
8
DEFAULT_255_2_778
10
4.6077034
20
65.2175856
11
4.5722034
21
65.1640856
0
LINE
8
DEFAULT_255_2_778
10
4.5722034
20
65.1640856
11
4.4973034
21
65.0598856
0
LINE
8
DEFAULT_255_2_778
10
4.4973034
20
65.0598856
11
4.4582034
21
65.0087856
0
LINE
8
DEFAULT_255_2_778
10
4.4582034
20
65.0087856
11
4.4182034
21
64.9584856
0
LINE
8
DEFAULT_255_2_778
10
4.4182034
20
64.9584856
11
4.3373034
21
64.8587856
0
LINE
8
DEFAULT_255_2_778
10
4.3373034
20
64.8587856
11
4.2560034
21
64.7592856
0
LINE
8
DEFAULT_255_2_778
10
4.2560034
20
64.7592856
11
4.2150034
21
64.7097856
0
LINE
8
DEFAULT_255_2_778
10
4.2150034
20
64.7097856
11
4.1738034
21
64.6605856
0
LINE
8
DEFAULT_255_2_778
10
4.1738034
20
64.6605856
11
4.0912034
21
64.5621856
0
LINE
8
DEFAULT_255_2_778
10
4.0912034
20
64.5621856
11
4.0782034
21
64.5462856
0
LINE
8
DEFAULT_255_2_778
10
4.0782034
20
64.5462856
11
4.0782034
21
64.3422856
0
LINE
8
DEFAULT_255_2_778
10
4.0782034
20
64.3422856
11
4.9014034
21
64.3422856
0
LINE
8
DEFAULT_255_2_778
10
4.9014034
20
64.3422856
11
4.9014034
21
64.4531856
0
LINE
8
DEFAULT_255_2_778
10
4.9014034
20
64.4531856
11
4.1859034
21
64.4531856
0
LINE
8
DEFAULT_255_2_778
10
4.1859034
20
64.4531856
11
4.1859034
21
64.5063856
0
LINE
8
DEFAULT_255_2_778
10
2.2963034
20
64.3285856
11
2.2042034
21
64.3883856
0
LINE
8
DEFAULT_255_2_778
10
2.2042034
20
64.3883856
11
2.5257034
21
64.9164856
0
LINE
8
DEFAULT_255_2_778
10
2.5257034
20
64.9164856
11
2.2301034
21
65.4069856
0
LINE
8
DEFAULT_255_2_778
10
2.2301034
20
65.4069856
11
2.3222034
21
65.4667856
0
LINE
8
DEFAULT_255_2_778
10
2.3222034
20
65.4667856
11
2.5900034
21
65.0206856
0
LINE
8
DEFAULT_255_2_778
10
2.5900034
20
65.0206856
11
2.8598034
21
65.4622856
0
LINE
8
DEFAULT_255_2_778
10
2.8598034
20
65.4622856
11
2.9498034
21
65.4024856
0
LINE
8
DEFAULT_255_2_778
10
2.9498034
20
65.4024856
11
2.6521034
21
64.9164856
0
LINE
8
DEFAULT_255_2_778
10
2.6521034
20
64.9164856
11
2.9712034
21
64.3816856
0
LINE
8
DEFAULT_255_2_778
10
2.9712034
20
64.3816856
11
2.8792034
21
64.3240856
0
LINE
8
DEFAULT_255_2_778
10
2.8792034
20
64.3240856
11
2.5878034
21
64.8100856
0
LINE
8
DEFAULT_255_2_778
10
2.5878034
20
64.8100856
11
2.2965034
21
64.3285856
0
LINE
8
DEFAULT_255_2_778
10
10.7248034
20
65.3275856
11
10.6939034
21
65.2714856
0
LINE
8
DEFAULT_255_2_778
10
10.6939034
20
65.2714856
11
10.6600034
21
65.2169856
0
LINE
8
DEFAULT_255_2_778
10
10.6600034
20
65.2169856
11
10.6246034
21
65.1635856
0
LINE
8
DEFAULT_255_2_778
10
10.6246034
20
65.1635856
11
10.5497034
21
65.0592856
0
LINE
8
DEFAULT_255_2_778
10
10.5497034
20
65.0592856
11
10.5105034
21
65.0082856
0
LINE
8
DEFAULT_255_2_778
10
10.5105034
20
65.0082856
11
10.4706034
21
64.9579856
0
LINE
8
DEFAULT_255_2_778
10
10.4706034
20
64.9579856
11
10.3896034
21
64.8582856
0
LINE
8
DEFAULT_255_2_778
10
10.3896034
20
64.8582856
11
10.3084034
21
64.7587856
0
LINE
8
DEFAULT_255_2_778
10
10.3084034
20
64.7587856
11
10.2674034
21
64.7092856
0
LINE
8
DEFAULT_255_2_778
10
10.2674034
20
64.7092856
11
10.2261034
21
64.6600856
0
LINE
8
DEFAULT_255_2_778
10
10.2261034
20
64.6600856
11
10.1436034
21
64.5616856
0
LINE
8
DEFAULT_255_2_778
10
10.1436034
20
64.5616856
11
10.1306034
21
64.5457856
0
LINE
8
DEFAULT_255_2_778
10
10.1306034
20
64.5457856
11
10.1306034
21
64.3417856
0
LINE
8
DEFAULT_255_2_778
10
10.1306034
20
64.3417856
11
10.9537034
21
64.3417856
0
LINE
8
DEFAULT_255_2_778
10
10.9537034
20
64.3417856
11
10.9537034
21
64.4526856
0
LINE
8
DEFAULT_255_2_778
10
10.9537034
20
64.4526856
11
10.2377034
21
64.4526856
0
LINE
8
DEFAULT_255_2_778
10
10.2377034
20
64.4526856
11
10.2377034
21
64.5057856
0
LINE
8
DEFAULT_255_2_778
10
10.2377034
20
64.5057856
11
10.4039034
21
64.7081856
0
LINE
8
DEFAULT_255_2_778
10
10.4039034
20
64.7081856
11
10.4867034
21
64.8095856
0
LINE
8
DEFAULT_255_2_778
10
10.4867034
20
64.8095856
11
10.5687034
21
64.9116856
0
LINE
8
DEFAULT_255_2_778
10
10.5687034
20
64.9116856
11
10.6092034
21
64.9629856
0
LINE
8
DEFAULT_255_2_778
10
10.6092034
20
64.9629856
11
10.6494034
21
65.0148856
0
LINE
8
DEFAULT_255_2_778
10
10.6494034
20
65.0148856
11
10.7264034
21
65.1206856
0
LINE
8
DEFAULT_255_2_778
10
10.7264034
20
65.1206856
11
10.7627034
21
65.1749856
0
LINE
8
DEFAULT_255_2_778
10
10.7627034
20
65.1749856
11
10.7968034
21
65.2304856
0
LINE
8
DEFAULT_255_2_778
10
10.7968034
20
65.2304856
11
10.8275034
21
65.2881856
0
LINE
8
DEFAULT_255_2_778
10
10.8275034
20
65.2881856
11
10.8529034
21
65.3487856
0
LINE
8
DEFAULT_255_2_778
10
10.8873034
20
65.5111856
11
10.8894034
21
65.5717856
0
LINE
8
DEFAULT_255_2_778
10
10.8325034
20
65.7935856
11
10.8169034
21
65.8165856
0
LINE
8
DEFAULT_255_2_778
10
10.8169034
20
65.8165856
11
10.7992034
21
65.8379856
0
LINE
8
DEFAULT_255_2_778
10
10.7992034
20
65.8379856
11
10.7801034
21
65.8580856
0
LINE
8
DEFAULT_255_2_778
10
10.7801034
20
65.8580856
11
10.7592034
21
65.8763856
0
LINE
8
DEFAULT_255_2_778
10
10.7592034
20
65.8763856
11
10.7119034
21
65.9062856
0
LINE
8
DEFAULT_255_2_778
10
10.7119034
20
65.9062856
11
10.6605034
21
65.9276856
0
LINE
8
DEFAULT_255_2_778
10
10.6605034
20
65.9276856
11
10.6338034
21
65.9358856
0
LINE
8
DEFAULT_255_2_778
10
10.6338034
20
65.9358856
11
10.6066034
21
65.9424856
0
LINE
8
DEFAULT_255_2_778
10
10.6066034
20
65.9424856
11
10.5513034
21
65.9493856
0
LINE
8
DEFAULT_255_2_778
10
10.5513034
20
65.9493856
11
10.5235034
21
65.9504856
0
LINE
8
DEFAULT_255_2_778
10
10.5235034
20
65.9504856
11
10.4954034
21
65.9498856
0
LINE
8
DEFAULT_255_2_778
10
10.4954034
20
65.9498856
11
10.4674034
21
65.9477856
0
LINE
8
DEFAULT_255_2_778
10
10.4674034
20
65.9477856
11
10.4399034
21
65.9437856
0
LINE
8
DEFAULT_255_2_778
10
10.4399034
20
65.9437856
11
10.3862034
21
65.9300856
0
LINE
8
DEFAULT_255_2_778
10
10.3862034
20
65.9300856
11
10.3600034
21
65.9197856
0
LINE
8
DEFAULT_255_2_778
10
10.3600034
20
65.9197856
11
10.3351034
21
65.9072856
0
LINE
8
DEFAULT_255_2_778
10
10.3351034
20
65.9072856
11
10.2893034
21
65.8763856
0
LINE
8
DEFAULT_255_2_778
10
10.2893034
20
65.8763856
11
10.2494034
21
65.8374856
0
LINE
8
DEFAULT_255_2_778
10
10.2494034
20
65.8374856
11
10.2160034
21
65.7929856
0
LINE
8
DEFAULT_255_2_778
10
10.2160034
20
65.7929856
11
10.1885034
21
65.7440856
0
LINE
8
DEFAULT_255_2_778
10
10.1885034
20
65.7440856
11
10.2851034
21
65.6932856
0
LINE
8
DEFAULT_255_2_778
10
10.3110034
20
65.7368856
11
10.3441034
21
65.7752856
0
LINE
8
DEFAULT_255_2_778
10
10.3441034
20
65.7752856
11
10.3637034
21
65.7919856
0
LINE
8
DEFAULT_255_2_778
10
10.3637034
20
65.7919856
11
10.3849034
21
65.8062856
0
LINE
8
DEFAULT_255_2_778
10
10.3849034
20
65.8062856
11
10.4076034
21
65.8178856
0
LINE
8
DEFAULT_255_2_778
10
10.4076034
20
65.8178856
11
10.4317034
21
65.8271856
0
LINE
8
DEFAULT_255_2_778
10
10.4317034
20
65.8271856
11
10.4817034
21
65.8376856
0
LINE
8
DEFAULT_255_2_778
10
10.4817034
20
65.8376856
11
10.5074034
21
65.8395856
0
LINE
8
DEFAULT_255_2_778
10
10.5074034
20
65.8395856
11
10.5328034
21
65.8395856
0
LINE
8
DEFAULT_255_2_778
10
10.5328034
20
65.8395856
11
10.5833034
21
65.8345856
0
LINE
8
DEFAULT_255_2_778
10
10.5833034
20
65.8345856
11
10.6084034
21
65.8289856
0
LINE
8
DEFAULT_255_2_778
10
10.6084034
20
65.8289856
11
10.6330034
21
65.8212856
0
LINE
8
DEFAULT_255_2_778
10
10.6330034
20
65.8212856
11
10.6788034
21
65.7982856
0
LINE
8
DEFAULT_255_2_778
10
10.6788034
20
65.7982856
11
10.6992034
21
65.7826856
0
LINE
8
DEFAULT_255_2_778
10
10.6992034
20
65.7826856
11
10.7172034
21
65.7646856
0
LINE
8
DEFAULT_255_2_778
10
10.7463034
20
65.7223856
11
10.7571034
21
65.6990856
0
LINE
8
DEFAULT_255_2_778
10
10.7571034
20
65.6990856
11
10.7656034
21
65.6747856
0
LINE
8
DEFAULT_255_2_778
10
10.7656034
20
65.6747856
11
10.7717034
21
65.6498856
0
LINE
8
DEFAULT_255_2_778
10
10.7717034
20
65.6498856
11
10.7759034
21
65.6247856
0
LINE
8
DEFAULT_255_2_778
10
10.7796034
20
65.5736856
11
10.7778034
21
65.5223856
0
LINE
8
DEFAULT_255_2_778
10
13.4728906
20
64.5698562
11
13.4243906
21
64.7426562
0
LINE
8
DEFAULT_255_2_778
10
13.4243906
20
64.7426562
11
13.3762906
21
64.9156562
0
LINE
8
DEFAULT_255_2_778
10
13.3762906
20
64.9156562
11
13.3521906
21
65.0022562
0
LINE
8
DEFAULT_255_2_778
10
13.3521906
20
65.0022562
11
13.3278906
21
65.0884562
0
LINE
8
DEFAULT_255_2_778
10
13.3278906
20
65.0884562
11
13.2785906
21
65.2612562
0
LINE
8
DEFAULT_255_2_778
10
13.2785906
20
65.2612562
11
13.0851906
21
65.9528562
0
LINE
8
DEFAULT_255_2_778
10
13.0851906
20
65.9528562
11
12.9801906
21
65.9216562
0
LINE
8
DEFAULT_255_2_778
10
12.9801906
20
65.9216562
11
13.4257906
21
64.3415562
0
LINE
8
DEFAULT_255_2_778
10
13.4257906
20
64.3415562
11
13.5754906
21
64.3415562
0
LINE
8
DEFAULT_255_2_778
10
13.5754906
20
64.3415562
11
14.0191906
21
65.9216562
0
LINE
8
DEFAULT_255_2_778
10
14.0191906
20
65.9216562
11
13.9141906
21
65.9528562
0
LINE
8
DEFAULT_255_2_778
10
13.9141906
20
65.9528562
11
13.7207906
21
65.2614562
0
LINE
8
DEFAULT_255_2_778
10
13.7207906
20
65.2614562
11
13.6733906
21
65.0884562
0
LINE
8
DEFAULT_255_2_778
10
13.6733906
20
65.0884562
11
13.6252906
21
64.9154562
0
LINE
8
DEFAULT_255_2_778
10
13.6252906
20
64.9154562
11
13.5759906
21
64.7429562
0
LINE
8
DEFAULT_255_2_778
10
13.5759906
20
64.7429562
11
13.5513906
21
64.6566562
0
LINE
8
DEFAULT_255_2_778
10
13.5513906
20
64.6566562
11
13.5275906
21
64.5701562
0
LINE
8
DEFAULT_255_2_778
10
13.5275906
20
64.5701562
11
13.5143906
21
64.5225562
0
LINE
8
DEFAULT_255_2_778
10
13.5143906
20
64.5225562
11
13.5077906
21
64.4987562
0
LINE
8
DEFAULT_255_2_778
10
13.5077906
20
64.4987562
11
13.5005906
21
64.4751562
0
LINE
8
DEFAULT_255_2_778
10
13.5005906
20
64.4751562
11
13.4934906
21
64.4989562
0
LINE
8
DEFAULT_255_2_778
10
13.4934906
20
64.4989562
11
13.4865906
21
64.5227562
0
LINE
8
DEFAULT_255_2_778
10
13.4865906
20
64.5227562
11
13.4728906
21
64.5704562
0
LINE
8
DEFAULT_255_2_778
10
6.4629906
20
64.5698562
11
6.4144906
21
64.7426562
0
LINE
8
DEFAULT_255_2_778
10
6.4144906
20
64.7426562
11
6.3663906
21
64.9156562
0
LINE
8
DEFAULT_255_2_778
10
6.3663906
20
64.9156562
11
6.3422906
21
65.0022562
0
LINE
8
DEFAULT_255_2_778
10
6.3422906
20
65.0022562
11
6.3179906
21
65.0884562
0
LINE
8
DEFAULT_255_2_778
10
6.3179906
20
65.0884562
11
6.2686906
21
65.2612562
0
LINE
8
DEFAULT_255_2_778
10
6.2686906
20
65.2612562
11
6.0752906
21
65.9528562
0
LINE
8
DEFAULT_255_2_778
10
6.0752906
20
65.9528562
11
5.9702906
21
65.9216562
0
LINE
8
DEFAULT_255_2_778
10
5.9702906
20
65.9216562
11
6.4158906
21
64.3415562
0
LINE
8
DEFAULT_255_2_778
10
6.4158906
20
64.3415562
11
6.5655906
21
64.3415562
0
LINE
8
DEFAULT_255_2_778
10
6.5655906
20
64.3415562
11
7.0092906
21
65.9216562
0
LINE
8
DEFAULT_255_2_778
10
7.0092906
20
65.9216562
11
6.9042906
21
65.9528562
0
LINE
8
DEFAULT_255_2_778
10
6.9042906
20
65.9528562
11
6.7108906
21
65.2614562
0
LINE
8
DEFAULT_255_2_778
10
6.7108906
20
65.2614562
11
6.6634906
21
65.0884562
0
LINE
8
DEFAULT_255_2_778
10
6.6634906
20
65.0884562
11
6.6153906
21
64.9154562
0
LINE
8
DEFAULT_255_2_778
10
6.6153906
20
64.9154562
11
6.5660906
21
64.7429562
0
LINE
8
DEFAULT_255_2_778
10
6.5660906
20
64.7429562
11
6.5414906
21
64.6566562
0
LINE
8
DEFAULT_255_2_778
10
6.5414906
20
64.6566562
11
6.5176906
21
64.5701562
0
LINE
8
DEFAULT_255_2_778
10
6.5176906
20
64.5701562
11
6.5044906
21
64.5225562
0
LINE
8
DEFAULT_255_2_778
10
6.5044906
20
64.5225562
11
6.4978906
21
64.4987562
0
LINE
8
DEFAULT_255_2_778
10
6.4978906
20
64.4987562
11
6.4906906
21
64.4751562
0
LINE
8
DEFAULT_255_2_778
10
6.4906906
20
64.4751562
11
6.4835906
21
64.4989562
0
LINE
8
DEFAULT_255_2_778
10
6.4835906
20
64.4989562
11
6.4766906
21
64.5227562
0
LINE
8
DEFAULT_255_2_778
10
6.4766906
20
64.5227562
11
6.4629906
21
64.5704562
0
ARC
8
DEFAULT_255_2_778
10
17.5139626
20
65.043351
40
0.3471249
50
120.0667123
51
132.7463389
0
ARC
8
DEFAULT_255_2_778
10
17.4198211
20
65.1042246
40
0.1246435
50
146.6940034
51
161.7455434
0
ARC
8
DEFAULT_255_2_778
10
17.4756794
20
65.0751872
40
0.1869038
50
124.6361114
51
138.5678052
0
ARC
8
DEFAULT_255_2_778
10
17.5473314
20
65.139988
40
0.1325531
50
42.6338822
51
60.7744647
0
ARC
8
DEFAULT_255_2_778
10
17.0922577
20
64.9068394
40
0.6531799
50
8.2058417
51
15.5431106
0
ARC
8
DEFAULT_255_2_778
10
17.1325666
20
64.8416237
40
0.6160459
50
351.3778622
51
359.185617
0
ARC
8
DEFAULT_255_2_778
10
17.1835626
20
64.8301162
40
0.5639134
50
343.2149038
51
351.7570779
0
ARC
8
DEFAULT_255_2_778
10
17.3976875
20
64.6410493
40
0.1813254
50
212.6708016
51
226.7082487
0
ARC
8
DEFAULT_255_2_778
10
17.5015014
20
64.6973924
40
0.4094314
50
203.2963391
51
215.9251336
0
ARC
8
DEFAULT_255_2_778
10
17.3308517
20
64.767227
40
0.5134509
50
327.9510611
51
339.7446201
0
ARC
8
DEFAULT_255_2_778
10
17.0906648
20
64.8356332
40
0.7645203
50
349.1230327
51
357.0184914
0
ARC
8
DEFAULT_255_2_778
10
17.0351139
20
64.9053237
40
0.8171575
50
7.1312419
51
14.5538975
0
ARC
8
DEFAULT_255_2_778
10
11.4609149
20
64.8941641
40
0.5638621
50
268.6113594
51
269.9998628
0
ARC
8
DEFAULT_255_2_778
10
11.460909
20
64.892802
40
0.5624998
50
270.0004538
51
278.6955683
0
ARC
8
DEFAULT_255_2_778
10
11.3316861
20
64.7686473
40
0.5421449
50
339.2158022
51
349.6739036
0
ARC
8
DEFAULT_255_2_778
10
11.4877098
20
64.8399125
40
0.3905006
50
4.2228942
51
11.5152549
0
ARC
8
DEFAULT_255_2_778
10
11.5566004
20
64.8550515
40
0.3198004
50
20.2935036
51
29.2407351
0
ARC
8
DEFAULT_255_2_778
10
11.5717108
20
65.465905
40
0.2906595
50
320.1786042
51
336.6424018
0
ARC
8
DEFAULT_255_2_778
10
11.5469622
20
65.4727692
40
0.3168707
50
344.8709154
51
352.4012127
0
ARC
8
DEFAULT_255_2_778
10
11.2657613
20
65.5284605
40
0.5981596
50
6.6054385
51
14.5831195
0
ARC
8
DEFAULT_255_2_778
10
11.4015674
20
65.56393
40
0.4577981
50
14.5664757
51
25.0364353
0
ARC
8
DEFAULT_255_2_778
10
11.5177708
20
65.6243139
40
0.3262338
50
38.7626885
51
53.384531
0
ARC
8
DEFAULT_255_2_778
10
11.4538983
20
65.5678075
40
0.3847796
50
99.264727
51
111.6802993
0
ARC
8
DEFAULT_255_2_778
10
11.4512673
20
65.6044684
40
0.2390943
50
134.4777069
51
155.6451513
0
ARC
8
DEFAULT_255_2_778
10
11.4373763
20
65.6186171
40
0.2192664
50
119.0668195
51
134.4780924
0
ARC
8
DEFAULT_255_2_778
10
11.4633337
20
65.5838024
40
0.2822424
50
20.1799965
51
32.1676259
0
ARC
8
DEFAULT_255_2_778
10
11.2074347
20
65.5164306
40
0.5476969
50
5.2312966
51
11.3872781
0
ARC
8
DEFAULT_255_2_778
10
11.5183474
20
65.49775
40
0.2419172
50
305.9729154
51
320.0676782
0
ARC
8
DEFAULT_255_2_778
10
11.4824161
20
64.8344389
40
0.2860382
50
0.0428782
51
11.051054
0
ARC
8
DEFAULT_255_2_778
10
11.4927174
20
64.8346529
40
0.2757368
50
359.6913788
51
359.999999
0
ARC
8
DEFAULT_255_2_778
10
10.8991725
20
64.840809
40
0.8693113
50
352.5017643
51
359.4963563
0
ARC
8
DEFAULT_255_2_778
10
11.3010452
20
64.7782025
40
0.4621374
50
340.490769
51
347.1174761
0
ARC
8
DEFAULT_255_2_778
10
11.4196433
20
64.7359366
40
0.3362333
50
331.4355493
51
340.5303743
0
ARC
8
DEFAULT_255_2_778
10
11.434739
20
64.6521958
40
0.2148086
50
214.519156
51
228.8012021
0
ARC
8
DEFAULT_255_2_778
10
11.4625907
20
64.6707405
40
0.2482661
50
201.9678219
51
214.4029745
0
ARC
8
DEFAULT_255_2_778
10
8.9220843
20
65.5834272
40
0.2819457
50
20.0452883
51
29.221087
0
ARC
8
DEFAULT_255_2_778
10
8.8380245
20
65.5547814
40
0.3707368
50
12.7287055
51
19.7513301
0
ARC
8
DEFAULT_255_2_778
10
8.885147
20
65.5773868
40
0.4278898
50
11.5646902
51
26.7182648
0
ARC
8
DEFAULT_255_2_778
10
8.9983471
20
65.6358745
40
0.3001489
50
37.3495523
51
48.2399174
0
ARC
8
DEFAULT_255_2_778
10
8.8997781
20
65.3173309
40
0.6319528
50
92.0792073
51
102.3466592
0
ARC
8
DEFAULT_255_2_778
10
8.8484002
20
65.5631252
40
0.3903486
50
145.1525789
51
153.6033236
0
ARC
8
DEFAULT_255_2_778
10
8.9720283
20
65.5023611
40
0.528102
50
153.6612924
51
166.0282736
0
ARC
8
DEFAULT_255_2_778
10
9.1127869
20
64.8158242
40
0.6694009
50
194.1688791
51
202.8792404
0
ARC
8
DEFAULT_255_2_778
10
8.9381215
20
64.7549963
40
0.4226657
50
283.5919351
51
293.8984022
0
ARC
8
DEFAULT_255_2_778
10
8.9730532
20
64.6724518
40
0.3329761
50
307.3254057
51
320.4363462
0
ARC
8
DEFAULT_255_2_778
10
8.8562476
20
64.7433244
40
0.4702513
50
332.1810202
51
341.5200705
0
ARC
8
DEFAULT_255_2_778
10
8.8743497
20
64.7379396
40
0.3438076
50
333.2454003
51
342.0649009
0
ARC
8
DEFAULT_255_2_778
10
9.0624721
20
64.8082898
40
0.5099505
50
198.7030015
51
205.0133511
0
ARC
8
DEFAULT_255_2_778
10
8.9624566
20
65.5067799
40
0.4084119
50
153.9450761
51
161.7222321
0
ARC
8
DEFAULT_255_2_778
10
8.8115889
20
65.5893268
40
0.2358801
50
128.8733757
51
142.301898
0
ARC
8
DEFAULT_255_2_778
10
16.1136946
20
64.8030253
40
0.4966353
50
198.6184068
51
205.0981212
0
ARC
8
DEFAULT_255_2_778
10
16.0260733
20
65.5064739
40
0.4084296
50
153.9453427
51
161.7221605
0
ARC
8
DEFAULT_255_2_778
10
15.8752037
20
65.5890122
40
0.2359007
50
128.8739484
51
142.3012915
0
ARC
8
DEFAULT_255_2_778
10
15.9767218
20
65.5790259
40
0.2919943
50
20.2034929
51
29.0628747
0
ARC
8
DEFAULT_255_2_778
10
15.9292499
20
65.5627391
40
0.3421718
50
12.3918033
51
20.0176297
0
ARC
8
DEFAULT_255_2_778
10
15.9468258
20
65.5761367
40
0.4302567
50
11.6293479
51
26.7161713
0
ARC
8
DEFAULT_255_2_778
10
16.0624646
20
65.6363471
40
0.2994281
50
37.2688873
51
48.1725005
0
ARC
8
DEFAULT_255_2_778
10
15.9656442
20
65.3052422
40
0.6439108
50
92.2245423
51
102.3019461
0
ARC
8
DEFAULT_255_2_778
10
15.9187069
20
65.5584131
40
0.3981847
50
145.1465028
51
153.4380074
0
ARC
8
DEFAULT_255_2_778
10
16.0423555
20
65.5003723
40
0.5347467
50
153.799815
51
166.0189463
0
ARC
8
DEFAULT_255_2_778
10
16.1602585
20
64.8102838
40
0.6521904
50
194.0757948
51
203.008118
0
ARC
8
DEFAULT_255_2_778
10
16.003344
20
64.7528767
40
0.4204667
50
283.4649998
51
293.8340906
0
ARC
8
DEFAULT_255_2_778
10
16.0377272
20
64.6718488
40
0.3321865
50
307.2613884
51
320.3916025
0
ARC
8
DEFAULT_255_2_778
10
15.9058022
20
64.7497702
40
0.4859989
50
332.261401
51
341.3018603
0
ARC
8
DEFAULT_255_2_778
10
15.9380348
20
64.7383558
40
0.3442331
50
333.1475589
51
341.9624954
0
LINE
8
DEFAULT_255_2_778
10
9.4906502
20
64.8961677
11
9.9790502
21
64.8961677
0
LINE
8
DEFAULT_255_2_778
10
9.9790502
20
64.8961677
11
9.9790502
21
65.0096677
0
LINE
8
DEFAULT_255_2_778
10
9.9790502
20
65.0096677
11
9.4906502
21
65.0096677
0
LINE
8
DEFAULT_255_2_778
10
9.4906502
20
65.0096677
11
9.4906502
21
64.8961677
0
LINE
8
DEFAULT_255_2_778
10
3.3486502
20
65.5379677
11
3.3599502
21
65.5393677
0
LINE
8
DEFAULT_255_2_778
10
3.3599502
20
65.5393677
11
3.3710502
21
65.5424677
0
LINE
8
DEFAULT_255_2_778
10
3.3710502
20
65.5424677
11
3.3771502
21
65.5451677
0
LINE
8
DEFAULT_255_2_778
10
3.3771502
20
65.5451677
11
3.3830502
21
65.5483677
0
LINE
8
DEFAULT_255_2_778
10
3.3830502
20
65.5483677
11
3.3941502
21
65.5557677
0
LINE
8
DEFAULT_255_2_778
10
3.3941502
20
65.5557677
11
3.4150502
21
65.5721677
0
LINE
8
DEFAULT_255_2_778
10
3.4150502
20
65.5721677
11
3.4435502
21
65.5980677
0
LINE
8
DEFAULT_255_2_778
10
3.4435502
20
65.5980677
11
3.4711502
21
65.6253677
0
LINE
8
DEFAULT_255_2_778
10
3.4711502
20
65.6253677
11
3.5248502
21
65.6811677
0
LINE
8
DEFAULT_255_2_778
10
3.5248502
20
65.6811677
11
3.6293502
21
65.7954677
0
LINE
8
DEFAULT_255_2_778
10
3.6293502
20
65.7954677
11
3.6293502
21
64.3396677
0
LINE
8
DEFAULT_255_2_778
10
3.6293502
20
64.3396677
11
3.7364502
21
64.3396677
0
LINE
8
DEFAULT_255_2_778
10
3.7364502
20
64.3396677
11
3.7364502
21
65.9332677
0
LINE
8
DEFAULT_255_2_778
10
3.7364502
20
65.9332677
11
3.6015502
21
65.9332677
0
LINE
8
DEFAULT_255_2_778
10
3.6015502
20
65.9332677
11
3.5867502
21
65.9152677
0
LINE
8
DEFAULT_255_2_778
10
3.5867502
20
65.9152677
11
3.5250502
21
65.8454677
0
LINE
8
DEFAULT_255_2_778
10
3.5250502
20
65.8454677
11
3.4941502
21
65.8105677
0
LINE
8
DEFAULT_255_2_778
10
3.4941502
20
65.8105677
11
3.4629502
21
65.7761677
0
LINE
8
DEFAULT_255_2_778
10
3.4629502
20
65.7761677
11
3.4311502
21
65.7419677
0
LINE
8
DEFAULT_255_2_778
10
3.4311502
20
65.7419677
11
3.3988502
21
65.7083677
0
LINE
8
DEFAULT_255_2_778
10
3.3988502
20
65.7083677
11
3.3652502
21
65.6763677
0
LINE
8
DEFAULT_255_2_778
10
3.3652502
20
65.6763677
11
3.3478502
21
65.6610677
0
LINE
8
DEFAULT_255_2_778
10
3.3478502
20
65.6610677
11
3.3388502
21
65.6536677
0
LINE
8
DEFAULT_255_2_778
10
3.3388502
20
65.6536677
11
3.3292502
21
65.6467677
0
LINE
8
DEFAULT_255_2_778
10
3.3292502
20
65.6467677
11
3.3422502
21
65.6512677
0
LINE
8
DEFAULT_255_2_778
10
3.3422502
20
65.6512677
11
3.3488502
21
65.5382677
0
LINE
8
DEFAULT_255_2_778
10
17.2783502
20
65.2982677
11
17.2519502
21
65.2707677
0
LINE
8
DEFAULT_255_2_778
10
17.2519502
20
65.2707677
11
17.2286502
21
65.2403677
0
LINE
8
DEFAULT_255_2_778
10
17.2286502
20
65.2403677
11
17.2286502
21
65.8303677
0
LINE
8
DEFAULT_255_2_778
10
17.2286502
20
65.8303677
11
17.8348502
21
65.8303677
0
LINE
8
DEFAULT_255_2_778
10
17.8348502
20
65.8303677
11
17.8348502
21
65.9412677
0
LINE
8
DEFAULT_255_2_778
10
17.8348502
20
65.9412677
11
17.1214502
21
65.9412677
0
LINE
8
DEFAULT_255_2_778
10
17.1214502
20
65.9412677
11
17.1214502
21
65.0625677
0
LINE
8
DEFAULT_255_2_778
10
17.1214502
20
65.0625677
11
17.2842502
21
65.0625677
0
LINE
8
DEFAULT_255_2_778
10
17.2842502
20
65.0625677
11
17.2929502
21
65.1112677
0
LINE
8
DEFAULT_255_2_778
10
17.2929502
20
65.1112677
11
17.2934502
21
65.1154677
0
LINE
8
DEFAULT_255_2_778
10
17.2934502
20
65.1154677
11
17.2942502
21
65.1194677
0
LINE
8
DEFAULT_255_2_778
10
17.2942502
20
65.1194677
11
17.2963502
21
65.1273677
0
LINE
8
DEFAULT_255_2_778
10
17.2963502
20
65.1273677
11
17.3014502
21
65.1432677
0
LINE
8
DEFAULT_255_2_778
10
17.3156502
20
65.1726677
11
17.3355502
21
65.1988677
0
LINE
8
DEFAULT_255_2_778
10
17.3694502
20
65.2289677
11
17.4085502
21
65.2519677
0
LINE
8
DEFAULT_255_2_778
10
17.4085502
20
65.2519677
11
17.4479502
21
65.2660677
0
LINE
8
DEFAULT_255_2_778
10
17.4479502
20
65.2660677
11
17.4892502
21
65.2731677
0
LINE
8
DEFAULT_255_2_778
10
17.4892502
20
65.2731677
11
17.5310502
21
65.2752677
0
LINE
8
DEFAULT_255_2_778
10
17.5310502
20
65.2752677
11
17.5519502
21
65.2742677
0
LINE
8
DEFAULT_255_2_778
10
17.5519502
20
65.2742677
11
17.5728502
21
65.2707677
0
LINE
8
DEFAULT_255_2_778
10
17.5728502
20
65.2707677
11
17.5929502
21
65.2646677
0
LINE
8
DEFAULT_255_2_778
10
17.5929502
20
65.2646677
11
17.6120502
21
65.2556677
0
LINE
8
DEFAULT_255_2_778
10
17.6448502
20
65.2297677
11
17.6585502
21
65.2136677
0
LINE
8
DEFAULT_255_2_778
10
17.6585502
20
65.2136677
11
17.6710502
21
65.1966677
0
LINE
8
DEFAULT_255_2_778
10
17.6710502
20
65.1966677
11
17.6924502
21
65.1604677
0
LINE
8
DEFAULT_255_2_778
10
17.6924502
20
65.1604677
11
17.7091502
21
65.1218677
0
LINE
8
DEFAULT_255_2_778
10
17.7091502
20
65.1218677
11
17.7157502
21
65.1019677
0
LINE
8
DEFAULT_255_2_778
10
17.7157502
20
65.1019677
11
17.7215502
21
65.0818677
0
LINE
8
DEFAULT_255_2_778
10
17.7387502
20
65.0000677
11
17.7414502
21
64.9791677
0
LINE
8
DEFAULT_255_2_778
10
17.7414502
20
64.9791677
11
17.7432502
21
64.9582677
0
LINE
8
DEFAULT_255_2_778
10
17.7432502
20
64.9582677
11
17.7464502
21
64.9164677
0
LINE
8
DEFAULT_255_2_778
10
17.7464502
20
64.9164677
11
17.7482502
21
64.8746677
0
LINE
8
DEFAULT_255_2_778
10
17.7482502
20
64.8746677
11
17.7485502
21
64.8328677
0
LINE
8
DEFAULT_255_2_778
10
17.7234502
20
64.6672677
11
17.7096502
21
64.6275677
0
LINE
8
DEFAULT_255_2_778
10
17.7096502
20
64.6275677
11
17.6922502
21
64.5892677
0
LINE
8
DEFAULT_255_2_778
10
17.6922502
20
64.5892677
11
17.6707502
21
64.5529677
0
LINE
8
DEFAULT_255_2_778
10
17.6707502
20
64.5529677
11
17.6445502
21
64.5198677
0
LINE
8
DEFAULT_255_2_778
10
17.6445502
20
64.5198677
11
17.6136502
21
64.4913677
0
LINE
8
DEFAULT_255_2_778
10
17.6136502
20
64.4913677
11
17.5966502
21
64.4788677
0
LINE
8
DEFAULT_255_2_778
10
17.5966502
20
64.4788677
11
17.5784502
21
64.4680677
0
LINE
8
DEFAULT_255_2_778
10
17.5784502
20
64.4680677
11
17.5398502
21
64.4518677
0
LINE
8
DEFAULT_255_2_778
10
17.5398502
20
64.4518677
11
17.5194502
21
64.4468677
0
LINE
8
DEFAULT_255_2_778
10
17.5194502
20
64.4468677
11
17.4985502
21
64.4436677
0
LINE
8
DEFAULT_255_2_778
10
17.4985502
20
64.4436677
11
17.4773502
21
64.4423677
0
LINE
8
DEFAULT_255_2_778
10
17.4773502
20
64.4423677
11
17.4564502
21
64.4426677
0
LINE
8
DEFAULT_255_2_778
10
17.4564502
20
64.4426677
11
17.4146502
21
64.4452677
0
LINE
8
DEFAULT_255_2_778
10
17.4146502
20
64.4452677
11
17.3937502
21
64.4476677
0
LINE
8
DEFAULT_255_2_778
10
17.3937502
20
64.4476677
11
17.3731502
21
64.4518677
0
LINE
8
DEFAULT_255_2_778
10
17.3731502
20
64.4518677
11
17.3334502
21
64.4666677
0
LINE
8
DEFAULT_255_2_778
10
17.3334502
20
64.4666677
11
17.3016502
21
64.4854677
0
LINE
8
DEFAULT_255_2_778
10
17.3016502
20
64.4854677
11
17.2733502
21
64.5090677
0
LINE
8
DEFAULT_255_2_778
10
17.2450502
20
64.5431677
11
17.2238502
21
64.5823677
0
LINE
8
DEFAULT_255_2_778
10
17.2238502
20
64.5823677
11
17.1254502
21
64.5354677
0
LINE
8
DEFAULT_255_2_778
10
17.1699502
20
64.4571677
11
17.1998502
21
64.4230677
0
LINE
8
DEFAULT_255_2_778
10
17.1998502
20
64.4230677
11
17.2167502
21
64.4082677
0
LINE
8
DEFAULT_255_2_778
10
17.2167502
20
64.4082677
11
17.2344502
21
64.3944677
0
LINE
8
DEFAULT_255_2_778
10
17.2344502
20
64.3944677
11
17.2725502
21
64.3703677
0
LINE
8
DEFAULT_255_2_778
10
17.2725502
20
64.3703677
11
17.2929502
21
64.3603677
0
LINE
8
DEFAULT_255_2_778
10
17.2929502
20
64.3603677
11
17.3138502
21
64.3521677
0
LINE
8
DEFAULT_255_2_778
10
17.3138502
20
64.3521677
11
17.3569502
21
64.3394677
0
LINE
8
DEFAULT_255_2_778
10
17.3569502
20
64.3394677
11
17.4016502
21
64.3322677
0
LINE
8
DEFAULT_255_2_778
10
17.4016502
20
64.3322677
11
17.4543502
21
64.3293677
0
LINE
8
DEFAULT_255_2_778
10
17.4543502
20
64.3293677
11
17.4805502
21
64.3291677
0
LINE
8
DEFAULT_255_2_778
10
17.4805502
20
64.3291677
11
17.5067502
21
64.3304677
0
LINE
8
DEFAULT_255_2_778
10
17.5067502
20
64.3304677
11
17.5588502
21
64.3391677
0
LINE
8
DEFAULT_255_2_778
10
17.5588502
20
64.3391677
11
17.5845502
21
64.3465677
0
LINE
8
DEFAULT_255_2_778
10
17.5845502
20
64.3465677
11
17.6091502
21
64.3561677
0
LINE
8
DEFAULT_255_2_778
10
17.6091502
20
64.3561677
11
17.6556502
21
64.3812677
0
LINE
8
DEFAULT_255_2_778
10
17.6556502
20
64.3812677
11
17.6776502
21
64.3965677
0
LINE
8
DEFAULT_255_2_778
10
17.6776502
20
64.3965677
11
17.6980502
21
64.4135677
0
LINE
8
DEFAULT_255_2_778
10
17.6980502
20
64.4135677
11
17.7347502
21
64.4516677
0
LINE
8
DEFAULT_255_2_778
10
17.7347502
20
64.4516677
11
17.7512502
21
64.4727677
0
LINE
8
DEFAULT_255_2_778
10
17.7512502
20
64.4727677
11
17.7660502
21
64.4947677
0
LINE
8
DEFAULT_255_2_778
10
17.8125502
20
64.5894677
11
17.8292502
21
64.6400677
0
LINE
8
DEFAULT_255_2_778
10
17.8292502
20
64.6400677
11
17.8414502
21
64.6913677
0
LINE
8
DEFAULT_255_2_778
10
17.8541502
20
64.7958677
11
17.8554502
21
64.8487677
0
LINE
8
DEFAULT_255_2_778
10
17.8554502
20
64.8487677
11
17.8543502
21
64.9016677
0
LINE
8
DEFAULT_255_2_778
10
17.8543502
20
64.9016677
11
17.8459502
21
65.0067677
0
LINE
8
DEFAULT_255_2_778
10
17.8260502
20
65.1106677
11
17.8104502
21
65.1614677
0
LINE
8
DEFAULT_255_2_778
10
17.8104502
20
65.1614677
11
17.7900502
21
65.2107677
0
LINE
8
DEFAULT_255_2_778
10
17.7900502
20
65.2107677
11
17.7644502
21
65.2572677
0
LINE
8
DEFAULT_255_2_778
10
17.7644502
20
65.2572677
11
17.7326502
21
65.2993677
0
LINE
8
DEFAULT_255_2_778
10
17.7326502
20
65.2993677
11
17.7141502
21
65.3183677
0
LINE
8
DEFAULT_255_2_778
10
17.7141502
20
65.3183677
11
17.6937502
21
65.3358677
0
LINE
8
DEFAULT_255_2_778
10
17.6937502
20
65.3358677
11
17.6485502
21
65.3636677
0
LINE
8
DEFAULT_255_2_778
10
17.6485502
20
65.3636677
11
17.6236502
21
65.3736677
0
LINE
8
DEFAULT_255_2_778
10
17.6236502
20
65.3736677
11
17.5980502
21
65.3810677
0
LINE
8
DEFAULT_255_2_778
10
17.5980502
20
65.3810677
11
17.5450502
21
65.3879677
0
LINE
8
DEFAULT_255_2_778
10
17.5450502
20
65.3879677
11
17.5183502
21
65.3879677
0
LINE
8
DEFAULT_255_2_778
10
17.5183502
20
65.3879677
11
17.4919502
21
65.3866677
0
LINE
8
DEFAULT_255_2_778
10
17.4919502
20
65.3866677
11
17.4395502
21
65.3795677
0
LINE
8
DEFAULT_255_2_778
10
17.4395502
20
65.3795677
11
17.4135502
21
65.3731677
0
LINE
8
DEFAULT_255_2_778
10
17.4135502
20
65.3731677
11
17.3879502
21
65.3649677
0
LINE
8
DEFAULT_255_2_778
10
17.3879502
20
65.3649677
11
17.3392502
21
65.3427677
0
LINE
8
DEFAULT_255_2_778
10
11.1358502
20
64.5325677
11
11.1575502
21
64.4883677
0
LINE
8
DEFAULT_255_2_778
10
11.1575502
20
64.4883677
11
11.1699502
21
64.4672677
0
LINE
8
DEFAULT_255_2_778
10
11.1699502
20
64.4672677
11
11.1837502
21
64.4468677
0
LINE
8
DEFAULT_255_2_778
10
11.1837502
20
64.4468677
11
11.1995502
21
64.4278677
0
LINE
8
DEFAULT_255_2_778
10
11.1995502
20
64.4278677
11
11.2173502
21
64.4103677
0
LINE
8
DEFAULT_255_2_778
10
11.2173502
20
64.4103677
11
11.2570502
21
64.3807677
0
LINE
8
DEFAULT_255_2_778
10
11.2570502
20
64.3807677
11
11.3014502
21
64.3582677
0
LINE
8
DEFAULT_255_2_778
10
11.3014502
20
64.3582677
11
11.3485502
21
64.3423677
0
LINE
8
DEFAULT_255_2_778
10
11.3485502
20
64.3423677
11
11.3977502
21
64.3336677
0
LINE
8
DEFAULT_255_2_778
10
11.3977502
20
64.3336677
11
11.4472502
21
64.3304677
0
LINE
8
DEFAULT_255_2_778
10
11.5459502
20
64.3367677
11
11.5946502
21
64.3473677
0
LINE
8
DEFAULT_255_2_778
10
11.5946502
20
64.3473677
11
11.6414502
21
64.3635677
0
LINE
8
DEFAULT_255_2_778
10
11.6414502
20
64.3635677
11
11.6639502
21
64.3740677
0
LINE
8
DEFAULT_255_2_778
10
11.6639502
20
64.3740677
11
11.6858502
21
64.3862677
0
LINE
8
DEFAULT_255_2_778
10
11.6858502
20
64.3862677
11
11.7261502
21
64.4148677
0
LINE
8
DEFAULT_255_2_778
10
11.7261502
20
64.4148677
11
11.7618502
21
64.4489677
0
LINE
8
DEFAULT_255_2_778
10
11.7618502
20
64.4489677
11
11.7779502
21
64.4680677
0
LINE
8
DEFAULT_255_2_778
10
11.7779502
20
64.4680677
11
11.7927502
21
64.4881677
0
LINE
8
DEFAULT_255_2_778
10
11.7927502
20
64.4881677
11
11.8181502
21
64.5307677
0
LINE
8
DEFAULT_255_2_778
10
11.8181502
20
64.5307677
11
11.8385502
21
64.5762677
0
LINE
8
DEFAULT_255_2_778
10
11.8650502
20
64.6714677
11
11.8726502
21
64.7204677
0
LINE
8
DEFAULT_255_2_778
10
11.8726502
20
64.7204677
11
11.8771502
21
64.7699677
0
LINE
8
DEFAULT_255_2_778
10
11.8771502
20
64.7699677
11
11.8787502
21
64.8193677
0
LINE
8
DEFAULT_255_2_778
10
11.8787502
20
64.8193677
11
11.8785502
21
64.8439677
0
LINE
8
DEFAULT_255_2_778
10
11.8785502
20
64.8439677
11
11.8771502
21
64.8686677
0
LINE
8
DEFAULT_255_2_778
10
11.8703502
20
64.9178677
11
11.8642502
21
64.9421677
0
LINE
8
DEFAULT_255_2_778
10
11.8642502
20
64.9421677
11
11.8565502
21
64.9659677
0
LINE
8
DEFAULT_255_2_778
10
11.8356502
20
65.0112677
11
11.8224502
21
65.0326677
0
LINE
8
DEFAULT_255_2_778
10
11.8224502
20
65.0326677
11
11.8076502
21
65.0527677
0
LINE
8
DEFAULT_255_2_778
10
11.8076502
20
65.0527677
11
11.7729502
21
65.0884677
0
LINE
8
DEFAULT_255_2_778
10
11.7729502
20
65.0884677
11
11.7533502
21
65.1043677
0
LINE
8
DEFAULT_255_2_778
10
11.7533502
20
65.1043677
11
11.7329502
21
65.1188677
0
LINE
8
DEFAULT_255_2_778
10
11.7329502
20
65.1188677
11
11.6470502
21
65.1707677
0
LINE
8
DEFAULT_255_2_778
10
11.6470502
20
65.1707677
11
11.6874502
21
65.1932677
0
LINE
8
DEFAULT_255_2_778
10
11.6874502
20
65.1932677
11
11.7073502
21
65.2054677
0
LINE
8
DEFAULT_255_2_778
10
11.7073502
20
65.2054677
11
11.7266502
21
65.2181677
0
LINE
8
DEFAULT_255_2_778
10
11.7266502
20
65.2181677
11
11.7628502
21
65.2466677
0
LINE
8
DEFAULT_255_2_778
10
11.7628502
20
65.2466677
11
11.7949502
21
65.2797677
0
LINE
8
DEFAULT_255_2_778
10
11.8385502
20
65.3506677
11
11.8464502
21
65.3702677
0
LINE
8
DEFAULT_255_2_778
10
11.8464502
20
65.3702677
11
11.8528502
21
65.3900677
0
LINE
8
DEFAULT_255_2_778
10
11.8610502
20
65.4308677
11
11.8647502
21
65.4726677
0
LINE
8
DEFAULT_255_2_778
10
11.8647502
20
65.4726677
11
11.8652502
21
65.5144677
0
LINE
8
DEFAULT_255_2_778
10
11.8652502
20
65.5144677
11
11.8599502
21
65.5972677
0
LINE
8
DEFAULT_255_2_778
10
11.8163502
20
65.7576677
11
11.7962502
21
65.7943677
0
LINE
8
DEFAULT_255_2_778
10
11.7962502
20
65.7943677
11
11.7721502
21
65.8285677
0
LINE
8
DEFAULT_255_2_778
10
11.7123502
20
65.8861677
11
11.6948502
21
65.8980677
0
LINE
8
DEFAULT_255_2_778
10
11.6948502
20
65.8980677
11
11.6768502
21
65.9086677
0
LINE
8
DEFAULT_255_2_778
10
11.6768502
20
65.9086677
11
11.6390502
21
65.9264677
0
LINE
8
DEFAULT_255_2_778
10
11.6390502
20
65.9264677
11
11.5991502
21
65.9396677
0
LINE
8
DEFAULT_255_2_778
10
11.5991502
20
65.9396677
11
11.5581502
21
65.9483677
0
LINE
8
DEFAULT_255_2_778
10
11.5581502
20
65.9483677
11
11.4750502
21
65.9544677
0
LINE
8
DEFAULT_255_2_778
10
11.4750502
20
65.9544677
11
11.4332502
21
65.9525677
0
LINE
8
DEFAULT_255_2_778
10
11.4332502
20
65.9525677
11
11.3919502
21
65.9475677
0
LINE
8
DEFAULT_255_2_778
10
11.3117502
20
65.9253677
11
11.2924502
21
65.9168677
0
LINE
8
DEFAULT_255_2_778
10
11.2924502
20
65.9168677
11
11.2739502
21
65.9073677
0
LINE
8
DEFAULT_255_2_778
10
11.2739502
20
65.9073677
11
11.2390502
21
65.8846677
0
LINE
8
DEFAULT_255_2_778
10
11.2390502
20
65.8846677
11
11.2226502
21
65.8713677
0
LINE
8
DEFAULT_255_2_778
10
11.2226502
20
65.8713677
11
11.2069502
21
65.8570677
0
LINE
8
DEFAULT_255_2_778
10
11.2069502
20
65.8570677
11
11.1789502
21
65.8258677
0
LINE
8
DEFAULT_255_2_778
10
11.1789502
20
65.8258677
11
11.1548502
21
65.7914677
0
LINE
8
DEFAULT_255_2_778
10
11.1548502
20
65.7914677
11
11.1345502
21
65.7544677
0
LINE
8
DEFAULT_255_2_778
10
11.1345502
20
65.7544677
11
11.2334502
21
65.7030677
0
LINE
8
DEFAULT_255_2_778
10
11.3308502
20
65.8102677
11
11.3575502
21
65.8226677
0
LINE
8
DEFAULT_255_2_778
10
11.3575502
20
65.8226677
11
11.3855502
21
65.8316677
0
LINE
8
DEFAULT_255_2_778
10
11.3855502
20
65.8316677
11
11.4144502
21
65.8375677
0
LINE
8
DEFAULT_255_2_778
10
11.4144502
20
65.8375677
11
11.4438502
21
65.8412677
0
LINE
8
DEFAULT_255_2_778
10
11.4438502
20
65.8412677
11
11.5022502
21
65.8420677
0
LINE
8
DEFAULT_255_2_778
10
11.5022502
20
65.8420677
11
11.5313502
21
65.8390677
0
LINE
8
DEFAULT_255_2_778
10
11.5313502
20
65.8390677
11
11.5604502
21
65.8335677
0
LINE
8
DEFAULT_255_2_778
10
11.5604502
20
65.8335677
11
11.6160502
21
65.8134677
0
LINE
8
DEFAULT_255_2_778
10
11.6160502
20
65.8134677
11
11.6414502
21
65.7980677
0
LINE
8
DEFAULT_255_2_778
10
11.6414502
20
65.7980677
11
11.6644502
21
65.7795677
0
LINE
8
DEFAULT_255_2_778
10
11.6644502
20
65.7795677
11
11.6848502
21
65.7581677
0
LINE
8
DEFAULT_255_2_778
10
11.6848502
20
65.7581677
11
11.7022502
21
65.7340677
0
LINE
8
DEFAULT_255_2_778
10
11.7282502
20
65.6811677
11
11.7374502
21
65.6530677
0
LINE
8
DEFAULT_255_2_778
10
11.7374502
20
65.6530677
11
11.7443502
21
65.6245677
0
LINE
8
DEFAULT_255_2_778
10
11.7528502
20
65.5663677
11
11.7557502
21
65.5073677
0
LINE
8
DEFAULT_255_2_778
10
11.7557502
20
65.5073677
11
11.7552502
21
65.4779677
0
LINE
8
DEFAULT_255_2_778
10
11.7552502
20
65.4779677
11
11.7523502
21
65.4485677
0
LINE
8
DEFAULT_255_2_778
10
11.7523502
20
65.4485677
11
11.7462502
21
65.4197677
0
LINE
8
DEFAULT_255_2_778
10
11.7462502
20
65.4197677
11
11.7361502
21
65.3922677
0
LINE
8
DEFAULT_255_2_778
10
11.7361502
20
65.3922677
11
11.7216502
21
65.3662677
0
LINE
8
DEFAULT_255_2_778
10
11.7216502
20
65.3662677
11
11.7038502
21
65.3424677
0
LINE
8
DEFAULT_255_2_778
10
11.6604502
20
65.3019677
11
11.6144502
21
65.2744677
0
LINE
8
DEFAULT_255_2_778
10
11.6144502
20
65.2744677
11
11.5647502
21
65.2540677
0
LINE
8
DEFAULT_255_2_778
10
11.5647502
20
65.2540677
11
11.4623502
21
65.2212677
0
LINE
8
DEFAULT_255_2_778
10
11.4623502
20
65.2212677
11
11.4686502
21
65.1104677
0
LINE
8
DEFAULT_255_2_778
10
11.4686502
20
65.1104677
11
11.5234502
21
65.0987677
0
LINE
8
DEFAULT_255_2_778
10
11.5234502
20
65.0987677
11
11.5504502
21
65.0911677
0
LINE
8
DEFAULT_255_2_778
10
11.5504502
20
65.0911677
11
11.5768502
21
65.0823677
0
LINE
8
DEFAULT_255_2_778
10
11.5768502
20
65.0823677
11
11.6030502
21
65.0720677
0
LINE
8
DEFAULT_255_2_778
10
11.6030502
20
65.0720677
11
11.6284502
21
65.0596677
0
LINE
8
DEFAULT_255_2_778
10
11.6284502
20
65.0596677
11
11.6525502
21
65.0453677
0
LINE
8
DEFAULT_255_2_778
10
11.6525502
20
65.0453677
11
11.6753502
21
65.0289677
0
LINE
8
DEFAULT_255_2_778
10
11.6753502
20
65.0289677
11
11.6964502
21
65.0101677
0
LINE
8
DEFAULT_255_2_778
10
11.6964502
20
65.0101677
11
11.7152502
21
64.9892677
0
LINE
8
DEFAULT_255_2_778
10
11.7152502
20
64.9892677
11
11.7316502
21
64.9667677
0
LINE
8
DEFAULT_255_2_778
10
11.7316502
20
64.9667677
11
11.7454502
21
64.9424677
0
LINE
8
DEFAULT_255_2_778
10
11.7454502
20
64.9424677
11
11.7560502
21
64.9162677
0
LINE
8
DEFAULT_255_2_778
10
11.7560502
20
64.9162677
11
11.7631502
21
64.8892677
0
LINE
8
DEFAULT_255_2_778
10
11.7610502
20
64.7273677
11
11.7515502
21
64.6751677
0
LINE
8
DEFAULT_255_2_778
10
11.7149502
20
64.5751677
11
11.7009502
21
64.5521677
0
LINE
8
DEFAULT_255_2_778
10
11.7009502
20
64.5521677
11
11.6848502
21
64.5309677
0
LINE
8
DEFAULT_255_2_778
10
11.6848502
20
64.5309677
11
11.6665502
21
64.5116677
0
LINE
8
DEFAULT_255_2_778
10
11.6665502
20
64.5116677
11
11.6459502
21
64.4944677
0
LINE
8
DEFAULT_255_2_778
10
11.6459502
20
64.4944677
11
11.5996502
21
64.4682677
0
LINE
8
DEFAULT_255_2_778
10
11.5996502
20
64.4682677
11
11.5745502
21
64.4590677
0
LINE
8
DEFAULT_255_2_778
10
11.5745502
20
64.4590677
11
11.5488502
21
64.4521677
0
LINE
8
DEFAULT_255_2_778
10
11.5488502
20
64.4521677
11
11.4964502
21
64.4442677
0
LINE
8
DEFAULT_255_2_778
10
11.4964502
20
64.4442677
11
11.4430502
21
64.4428677
0
LINE
8
DEFAULT_255_2_778
10
11.4430502
20
64.4428677
11
11.3900502
21
64.4479677
0
LINE
8
DEFAULT_255_2_778
10
11.3900502
20
64.4479677
11
11.3641502
21
64.4537677
0
LINE
8
DEFAULT_255_2_778
10
11.3641502
20
64.4537677
11
11.3387502
21
64.4624677
0
LINE
8
DEFAULT_255_2_778
10
11.3387502
20
64.4624677
11
11.3149502
21
64.4746677
0
LINE
8
DEFAULT_255_2_778
10
11.3149502
20
64.4746677
11
11.2932502
21
64.4905677
0
LINE
8
DEFAULT_255_2_778
10
11.2323502
20
64.5778677
11
11.1339502
21
64.5309677
0
LINE
8
DEFAULT_255_2_778
10
8.7622502
20
65.8208677
11
8.8500502
21
65.8338677
0
LINE
8
DEFAULT_255_2_778
10
8.8500502
20
65.8338677
11
8.8945502
21
65.8361677
0
LINE
8
DEFAULT_255_2_778
10
8.8945502
20
65.8361677
11
8.9389502
21
65.8359677
0
LINE
8
DEFAULT_255_2_778
10
8.9389502
20
65.8359677
11
8.9834502
21
65.8322677
0
LINE
8
DEFAULT_255_2_778
10
8.9834502
20
65.8322677
11
9.0270502
21
65.8240677
0
LINE
8
DEFAULT_255_2_778
10
9.0270502
20
65.8240677
11
9.0691502
21
65.8099677
0
LINE
8
DEFAULT_255_2_778
10
9.0691502
20
65.8099677
11
9.1080502
21
65.7882677
0
LINE
8
DEFAULT_255_2_778
10
9.1080502
20
65.7882677
11
9.1419502
21
65.7581677
0
LINE
8
DEFAULT_255_2_778
10
9.1419502
20
65.7581677
11
9.1559502
21
65.7401677
0
LINE
8
DEFAULT_255_2_778
10
9.1559502
20
65.7401677
11
9.1681502
21
65.7210677
0
LINE
8
DEFAULT_255_2_778
10
9.1996502
20
65.6364677
11
9.3043502
21
65.6631677
0
LINE
8
DEFAULT_255_2_778
10
9.2673502
20
65.7697677
11
9.2533502
21
65.7943677
0
LINE
8
DEFAULT_255_2_778
10
9.2533502
20
65.7943677
11
9.2369502
21
65.8179677
0
LINE
8
DEFAULT_255_2_778
10
9.1982502
20
65.8597677
11
9.1522502
21
65.8935677
0
LINE
8
DEFAULT_255_2_778
10
9.1522502
20
65.8935677
11
9.1011502
21
65.9187677
0
LINE
8
DEFAULT_255_2_778
10
9.1011502
20
65.9187677
11
9.0741502
21
65.9282677
0
LINE
8
DEFAULT_255_2_778
10
9.0741502
20
65.9282677
11
9.0466502
21
65.9356677
0
LINE
8
DEFAULT_255_2_778
10
9.0466502
20
65.9356677
11
8.9908502
21
65.9454677
0
LINE
8
DEFAULT_255_2_778
10
8.9908502
20
65.9454677
11
8.9339502
21
65.9494677
0
LINE
8
DEFAULT_255_2_778
10
8.9339502
20
65.9494677
11
8.8768502
21
65.9488677
0
LINE
8
DEFAULT_255_2_778
10
8.7646502
20
65.9346677
11
8.7098502
21
65.9192677
0
LINE
8
DEFAULT_255_2_778
10
8.7098502
20
65.9192677
11
8.6828502
21
65.9089677
0
LINE
8
DEFAULT_255_2_778
10
8.6828502
20
65.9089677
11
8.6569502
21
65.8967677
0
LINE
8
DEFAULT_255_2_778
10
8.6569502
20
65.8967677
11
8.6082502
21
65.8671677
0
LINE
8
DEFAULT_255_2_778
10
8.6082502
20
65.8671677
11
8.5855502
21
65.8494677
0
LINE
8
DEFAULT_255_2_778
10
8.5855502
20
65.8494677
11
8.5646502
21
65.8298677
0
LINE
8
DEFAULT_255_2_778
10
8.5646502
20
65.8298677
11
8.5280502
21
65.7861677
0
LINE
8
DEFAULT_255_2_778
10
8.4595502
20
65.6298677
11
8.4476502
21
65.5737677
0
LINE
8
DEFAULT_255_2_778
10
8.4476502
20
65.5737677
11
8.4394502
21
65.5176677
0
LINE
8
DEFAULT_255_2_778
10
8.4394502
20
65.5176677
11
8.4323502
21
65.4049677
0
LINE
8
DEFAULT_255_2_778
10
8.4323502
20
65.4049677
11
8.4320502
21
65.3485677
0
LINE
8
DEFAULT_255_2_778
10
8.4320502
20
65.3485677
11
8.4320502
21
65.2921677
0
LINE
8
DEFAULT_255_2_778
10
8.4320502
20
65.2921677
11
8.4320502
21
65.1792677
0
LINE
8
DEFAULT_255_2_778
10
8.4320502
20
65.1792677
11
8.4320502
21
64.9532677
0
LINE
8
DEFAULT_255_2_778
10
8.4320502
20
64.9532677
11
8.4346502
21
64.8519677
0
LINE
8
DEFAULT_255_2_778
10
8.4346502
20
64.8519677
11
8.4439502
21
64.7513677
0
LINE
8
DEFAULT_255_2_778
10
8.4439502
20
64.7513677
11
8.4524502
21
64.7013677
0
LINE
8
DEFAULT_255_2_778
10
8.4524502
20
64.7013677
11
8.4637502
21
64.6519677
0
LINE
8
DEFAULT_255_2_778
10
8.4960502
20
64.5555677
11
8.5066502
21
64.5325677
0
LINE
8
DEFAULT_255_2_778
10
8.5066502
20
64.5325677
11
8.5185502
21
64.5100677
0
LINE
8
DEFAULT_255_2_778
10
8.5185502
20
64.5100677
11
8.5463502
21
64.4674677
0
LINE
8
DEFAULT_255_2_778
10
8.5463502
20
64.4674677
11
8.5799502
21
64.4291677
0
LINE
8
DEFAULT_255_2_778
10
8.5799502
20
64.4291677
11
8.5992502
21
64.4124677
0
LINE
8
DEFAULT_255_2_778
10
8.5992502
20
64.4124677
11
8.6199502
21
64.3976677
0
LINE
8
DEFAULT_255_2_778
10
8.6199502
20
64.3976677
11
8.6638502
21
64.3719677
0
LINE
8
DEFAULT_255_2_778
10
8.6638502
20
64.3719677
11
8.6871502
21
64.3613677
0
LINE
8
DEFAULT_255_2_778
10
8.6871502
20
64.3613677
11
8.7109502
21
64.3526677
0
LINE
8
DEFAULT_255_2_778
10
8.7109502
20
64.3526677
11
8.7598502
21
64.3399677
0
LINE
8
DEFAULT_255_2_778
10
8.7598502
20
64.3399677
11
8.8104502
21
64.3333677
0
LINE
8
DEFAULT_255_2_778
10
8.8104502
20
64.3333677
11
8.8863502
21
64.3301677
0
LINE
8
DEFAULT_255_2_778
10
8.8863502
20
64.3301677
11
8.9241502
21
64.3301677
0
LINE
8
DEFAULT_255_2_778
10
8.9241502
20
64.3301677
11
8.9620502
21
64.3322677
0
LINE
8
DEFAULT_255_2_778
10
8.9620502
20
64.3322677
11
8.9998502
21
64.3367677
0
LINE
8
DEFAULT_255_2_778
10
8.9998502
20
64.3367677
11
9.0374502
21
64.3441677
0
LINE
8
DEFAULT_255_2_778
10
9.1093502
20
64.3685677
11
9.1432502
21
64.3862677
0
LINE
8
DEFAULT_255_2_778
10
9.1432502
20
64.3862677
11
9.1749502
21
64.4076677
0
LINE
8
DEFAULT_255_2_778
10
9.2297502
20
64.4603677
11
9.2525502
21
64.4910677
0
LINE
8
DEFAULT_255_2_778
10
9.2525502
20
64.4910677
11
9.2721502
21
64.5238677
0
LINE
8
DEFAULT_255_2_778
10
9.3022502
20
64.5942677
11
9.2014502
21
64.6320677
0
LINE
8
DEFAULT_255_2_778
10
9.1813502
20
64.5831677
11
9.1683502
21
64.5600677
0
LINE
8
DEFAULT_255_2_778
10
9.1683502
20
64.5600677
11
9.1530502
21
64.5386677
0
LINE
8
DEFAULT_255_2_778
10
9.1530502
20
64.5386677
11
9.1353502
21
64.5190677
0
LINE
8
DEFAULT_255_2_778
10
9.1353502
20
64.5190677
11
9.1157502
21
64.5010677
0
LINE
8
DEFAULT_255_2_778
10
9.1157502
20
64.5010677
11
9.0718502
21
64.4719677
0
LINE
8
DEFAULT_255_2_778
10
9.0718502
20
64.4719677
11
9.0313502
21
64.4558677
0
LINE
8
DEFAULT_255_2_778
10
9.0313502
20
64.4558677
11
8.9889502
21
64.4465677
0
LINE
8
DEFAULT_255_2_778
10
8.9889502
20
64.4465677
11
8.9329502
21
64.4412677
0
LINE
8
DEFAULT_255_2_778
10
8.9329502
20
64.4412677
11
8.8768502
21
64.4412677
0
LINE
8
DEFAULT_255_2_778
10
8.8768502
20
64.4412677
11
8.8207502
21
64.4444677
0
LINE
8
DEFAULT_255_2_778
10
8.8207502
20
64.4444677
11
8.7926502
21
64.4471677
0
LINE
8
DEFAULT_255_2_778
10
8.7926502
20
64.4471677
11
8.7648502
21
64.4510677
0
LINE
8
DEFAULT_255_2_778
10
8.7648502
20
64.4510677
11
8.7376502
21
64.4584677
0
LINE
8
DEFAULT_255_2_778
10
8.7376502
20
64.4584677
11
8.7117502
21
64.4696677
0
LINE
8
DEFAULT_255_2_778
10
8.7117502
20
64.4696677
11
8.6876502
21
64.4841677
0
LINE
8
DEFAULT_255_2_778
10
8.6876502
20
64.4841677
11
8.6654502
21
64.5016677
0
LINE
8
DEFAULT_255_2_778
10
8.6654502
20
64.5016677
11
8.6455502
21
64.5214677
0
LINE
8
DEFAULT_255_2_778
10
8.6455502
20
64.5214677
11
8.6283502
21
64.5436677
0
LINE
8
DEFAULT_255_2_778
10
8.6283502
20
64.5436677
11
8.6132502
21
64.5677677
0
LINE
8
DEFAULT_255_2_778
10
8.6132502
20
64.5677677
11
8.6003502
21
64.5926677
0
LINE
8
DEFAULT_255_2_778
10
8.5794502
20
64.6447677
11
8.5709502
21
64.6714677
0
LINE
8
DEFAULT_255_2_778
10
8.5709502
20
64.6714677
11
8.5640502
21
64.6987677
0
LINE
8
DEFAULT_255_2_778
10
8.5640502
20
64.6987677
11
8.5540502
21
64.7535677
0
LINE
8
DEFAULT_255_2_778
10
8.5540502
20
64.7535677
11
8.5476502
21
64.8085677
0
LINE
8
DEFAULT_255_2_778
10
8.5476502
20
64.8085677
11
8.5421502
21
64.9188677
0
LINE
8
DEFAULT_255_2_778
10
8.5421502
20
64.9188677
11
8.5418502
21
64.9741677
0
LINE
8
DEFAULT_255_2_778
10
8.5418502
20
64.9741677
11
8.5418502
21
65.0294677
0
LINE
8
DEFAULT_255_2_778
10
8.5418502
20
65.0294677
11
8.5418502
21
65.2509677
0
LINE
8
DEFAULT_255_2_778
10
8.5418502
20
65.2509677
11
8.5418502
21
65.3615677
0
LINE
8
DEFAULT_255_2_778
10
8.5418502
20
65.3615677
11
8.5418502
21
65.3893677
0
LINE
8
DEFAULT_255_2_778
10
8.5418502
20
65.3893677
11
8.5423502
21
65.4170677
0
LINE
8
DEFAULT_255_2_778
10
8.5423502
20
65.4170677
11
8.5450502
21
65.4723677
0
LINE
8
DEFAULT_255_2_778
10
8.5450502
20
65.4723677
11
8.5505502
21
65.5274677
0
LINE
8
DEFAULT_255_2_778
10
8.5505502
20
65.5274677
11
8.5598502
21
65.5816677
0
LINE
8
DEFAULT_255_2_778
10
8.5598502
20
65.5816677
11
8.5664502
21
65.6083677
0
LINE
8
DEFAULT_255_2_778
10
8.5664502
20
65.6083677
11
8.5746502
21
65.6348677
0
LINE
8
DEFAULT_255_2_778
10
8.5955502
20
65.6861677
11
8.6090502
21
65.7105677
0
LINE
8
DEFAULT_255_2_778
10
8.6090502
20
65.7105677
11
8.6249502
21
65.7335677
0
LINE
8
DEFAULT_255_2_778
10
8.6635502
20
65.7729677
11
8.6860502
21
65.7890677
0
LINE
8
DEFAULT_255_2_778
10
8.6860502
20
65.7890677
11
8.7101502
21
65.8025677
0
LINE
8
DEFAULT_255_2_778
10
8.7101502
20
65.8025677
11
8.7357502
21
65.8131677
0
LINE
8
DEFAULT_255_2_778
10
8.7357502
20
65.8131677
11
8.7625502
21
65.8208677
0
LINE
8
DEFAULT_255_2_778
10
16.0525502
20
64.4463677
11
15.9964502
21
64.4410677
0
LINE
8
DEFAULT_255_2_778
10
15.9964502
20
64.4410677
11
15.9403502
21
64.4410677
0
LINE
8
DEFAULT_255_2_778
10
15.9403502
20
64.4410677
11
15.8843502
21
64.4442677
0
LINE
8
DEFAULT_255_2_778
10
15.8843502
20
64.4442677
11
15.8562502
21
64.4468677
0
LINE
8
DEFAULT_255_2_778
10
15.8562502
20
64.4468677
11
15.8284502
21
64.4508677
0
LINE
8
DEFAULT_255_2_778
10
15.8284502
20
64.4508677
11
15.8012502
21
64.4582677
0
LINE
8
DEFAULT_255_2_778
10
15.8012502
20
64.4582677
11
15.7752502
21
64.4693677
0
LINE
8
DEFAULT_255_2_778
10
15.7752502
20
64.4693677
11
15.7512502
21
64.4838677
0
LINE
8
DEFAULT_255_2_778
10
15.7512502
20
64.4838677
11
15.7289502
21
64.5013677
0
LINE
8
DEFAULT_255_2_778
10
15.7289502
20
64.5013677
11
15.7091502
21
64.5212677
0
LINE
8
DEFAULT_255_2_778
10
15.7091502
20
64.5212677
11
15.6919502
21
64.5434677
0
LINE
8
DEFAULT_255_2_778
10
15.6919502
20
64.5434677
11
15.6768502
21
64.5675677
0
LINE
8
DEFAULT_255_2_778
10
15.6768502
20
64.5675677
11
15.6639502
21
64.5923677
0
LINE
8
DEFAULT_255_2_778
10
15.6430502
20
64.6444677
11
15.6345502
21
64.6712677
0
LINE
8
DEFAULT_255_2_778
10
15.6345502
20
64.6712677
11
15.6276502
21
64.6984677
0
LINE
8
DEFAULT_255_2_778
10
15.6276502
20
64.6984677
11
15.6176502
21
64.7532677
0
LINE
8
DEFAULT_255_2_778
10
15.6176502
20
64.7532677
11
15.6112502
21
64.8082677
0
LINE
8
DEFAULT_255_2_778
10
15.6112502
20
64.8082677
11
15.6056502
21
64.9186677
0
LINE
8
DEFAULT_255_2_778
10
15.6056502
20
64.9186677
11
15.6054502
21
64.9739677
0
LINE
8
DEFAULT_255_2_778
10
15.6054502
20
64.9739677
11
15.6054502
21
65.0292677
0
LINE
8
DEFAULT_255_2_778
10
15.6054502
20
65.0292677
11
15.6054502
21
65.2506677
0
LINE
8
DEFAULT_255_2_778
10
15.6054502
20
65.2506677
11
15.6054502
21
65.3612677
0
LINE
8
DEFAULT_255_2_778
10
15.6054502
20
65.3612677
11
15.6054502
21
65.3890677
0
LINE
8
DEFAULT_255_2_778
10
15.6054502
20
65.3890677
11
15.6059502
21
65.4168677
0
LINE
8
DEFAULT_255_2_778
10
15.6059502
20
65.4168677
11
15.6086502
21
65.4721677
0
LINE
8
DEFAULT_255_2_778
10
15.6086502
20
65.4721677
11
15.6141502
21
65.5271677
0
LINE
8
DEFAULT_255_2_778
10
15.6141502
20
65.5271677
11
15.6234502
21
65.5813677
0
LINE
8
DEFAULT_255_2_778
10
15.6234502
20
65.5813677
11
15.6300502
21
65.6081677
0
LINE
8
DEFAULT_255_2_778
10
15.6300502
20
65.6081677
11
15.6382502
21
65.6345677
0
LINE
8
DEFAULT_255_2_778
10
15.6591502
20
65.6858677
11
15.6726502
21
65.7102677
0
LINE
8
DEFAULT_255_2_778
10
15.6726502
20
65.7102677
11
15.6885502
21
65.7332677
0
LINE
8
DEFAULT_255_2_778
10
15.7271502
20
65.7726677
11
15.7496502
21
65.7888677
0
LINE
8
DEFAULT_255_2_778
10
15.7496502
20
65.7888677
11
15.7737502
21
65.8023677
0
LINE
8
DEFAULT_255_2_778
10
15.7737502
20
65.8023677
11
15.7993502
21
65.8128677
0
LINE
8
DEFAULT_255_2_778
10
15.7993502
20
65.8128677
11
15.8260502
21
65.8205677
0
LINE
8
DEFAULT_255_2_778
10
15.8260502
20
65.8205677
11
15.9139502
21
65.8335677
0
LINE
8
DEFAULT_255_2_778
10
15.9139502
20
65.8335677
11
15.9583502
21
65.8359677
0
LINE
8
DEFAULT_255_2_778
10
15.9583502
20
65.8359677
11
16.0028502
21
65.8356677
0
LINE
8
DEFAULT_255_2_778
10
16.0028502
20
65.8356677
11
16.0472502
21
65.8319677
0
LINE
8
DEFAULT_255_2_778
10
16.0472502
20
65.8319677
11
16.0909502
21
65.8237677
0
LINE
8
DEFAULT_255_2_778
10
16.0909502
20
65.8237677
11
16.1330502
21
65.8097677
0
LINE
8
DEFAULT_255_2_778
10
16.1330502
20
65.8097677
11
16.1719502
21
65.7880677
0
LINE
8
DEFAULT_255_2_778
10
16.1719502
20
65.7880677
11
16.2057502
21
65.7578677
0
LINE
8
DEFAULT_255_2_778
10
16.2057502
20
65.7578677
11
16.2197502
21
65.7398677
0
LINE
8
DEFAULT_255_2_778
10
16.2197502
20
65.7398677
11
16.2319502
21
65.7208677
0
LINE
8
DEFAULT_255_2_778
10
16.2634502
20
65.6361677
11
16.3682502
21
65.6628677
0
LINE
8
DEFAULT_255_2_778
10
16.3311502
20
65.7695677
11
16.3171502
21
65.7941677
0
LINE
8
DEFAULT_255_2_778
10
16.3171502
20
65.7941677
11
16.3007502
21
65.8176677
0
LINE
8
DEFAULT_255_2_778
10
16.2621502
20
65.8594677
11
16.2160502
21
65.8933677
0
LINE
8
DEFAULT_255_2_778
10
16.2160502
20
65.8933677
11
16.1650502
21
65.9184677
0
LINE
8
DEFAULT_255_2_778
10
16.1650502
20
65.9184677
11
16.1380502
21
65.9279677
0
LINE
8
DEFAULT_255_2_778
10
16.1380502
20
65.9279677
11
16.1105502
21
65.9354677
0
LINE
8
DEFAULT_255_2_778
10
16.1105502
20
65.9354677
11
16.0546502
21
65.9451677
0
LINE
8
DEFAULT_255_2_778
10
16.0546502
20
65.9451677
11
15.9978502
21
65.9491677
0
LINE
8
DEFAULT_255_2_778
10
15.9978502
20
65.9491677
11
15.9406502
21
65.9486677
0
LINE
8
DEFAULT_255_2_778
10
15.8284502
20
65.9343677
11
15.7737502
21
65.9189677
0
LINE
8
DEFAULT_255_2_778
10
15.7737502
20
65.9189677
11
15.7467502
21
65.9086677
0
LINE
8
DEFAULT_255_2_778
10
15.7467502
20
65.9086677
11
15.7207502
21
65.8965677
0
LINE
8
DEFAULT_255_2_778
10
15.7207502
20
65.8965677
11
15.6721502
21
65.8668677
0
LINE
8
DEFAULT_255_2_778
10
15.6721502
20
65.8668677
11
15.6493502
21
65.8491677
0
LINE
8
DEFAULT_255_2_778
10
15.6493502
20
65.8491677
11
15.6284502
21
65.8295677
0
LINE
8
DEFAULT_255_2_778
10
15.6284502
20
65.8295677
11
15.5919502
21
65.7859677
0
LINE
8
DEFAULT_255_2_778
10
15.5234502
20
65.6295677
11
15.5115502
21
65.5734677
0
LINE
8
DEFAULT_255_2_778
10
15.5115502
20
65.5734677
11
15.5033502
21
65.5173677
0
LINE
8
DEFAULT_255_2_778
10
15.5033502
20
65.5173677
11
15.4961502
21
65.4046677
0
LINE
8
DEFAULT_255_2_778
10
15.4961502
20
65.4046677
11
15.4958502
21
65.3482677
0
LINE
8
DEFAULT_255_2_778
10
15.4958502
20
65.3482677
11
15.4958502
21
65.2919677
0
LINE
8
DEFAULT_255_2_778
10
15.4958502
20
65.2919677
11
15.4958502
21
65.1789677
0
LINE
8
DEFAULT_255_2_778
10
15.4958502
20
65.1789677
11
15.4958502
21
64.9530677
0
LINE
8
DEFAULT_255_2_778
10
15.4958502
20
64.9530677
11
15.4985502
21
64.8516677
0
LINE
8
DEFAULT_255_2_778
10
15.4985502
20
64.8516677
11
15.5078502
21
64.7511677
0
LINE
8
DEFAULT_255_2_778
10
15.5078502
20
64.7511677
11
15.5162502
21
64.7011677
0
LINE
8
DEFAULT_255_2_778
10
15.5162502
20
64.7011677
11
15.5276502
21
64.6516677
0
LINE
8
DEFAULT_255_2_778
10
15.5599502
20
64.5553677
11
15.5705502
21
64.5323677
0
LINE
8
DEFAULT_255_2_778
10
15.5705502
20
64.5323677
11
15.5824502
21
64.5098677
0
LINE
8
DEFAULT_255_2_778
10
15.5824502
20
64.5098677
11
15.6101502
21
64.4672677
0
LINE
8
DEFAULT_255_2_778
10
15.6101502
20
64.4672677
11
15.6437502
21
64.4288677
0
LINE
8
DEFAULT_255_2_778
10
15.6437502
20
64.4288677
11
15.6631502
21
64.4121677
0
LINE
8
DEFAULT_255_2_778
10
15.6631502
20
64.4121677
11
15.6837502
21
64.3973677
0
LINE
8
DEFAULT_255_2_778
10
15.6837502
20
64.3973677
11
15.7276502
21
64.3717677
0
LINE
8
DEFAULT_255_2_778
10
15.7276502
20
64.3717677
11
15.7509502
21
64.3611677
0
LINE
8
DEFAULT_255_2_778
10
15.7509502
20
64.3611677
11
15.7747502
21
64.3523677
0
LINE
8
DEFAULT_255_2_778
10
15.7747502
20
64.3523677
11
15.8237502
21
64.3396677
0
LINE
8
DEFAULT_255_2_778
10
15.8237502
20
64.3396677
11
15.8742502
21
64.3330677
0
LINE
8
DEFAULT_255_2_778
10
15.8742502
20
64.3330677
11
15.9501502
21
64.3299677
0
LINE
8
DEFAULT_255_2_778
10
15.9501502
20
64.3299677
11
15.9880502
21
64.3299677
0
LINE
8
DEFAULT_255_2_778
10
15.9880502
20
64.3299677
11
16.0258502
21
64.3320677
0
LINE
8
DEFAULT_255_2_778
10
16.0258502
20
64.3320677
11
16.0636502
21
64.3365677
0
LINE
8
DEFAULT_255_2_778
10
16.0636502
20
64.3365677
11
16.1012502
21
64.3439677
0
LINE
8
DEFAULT_255_2_778
10
16.1732502
20
64.3682677
11
16.2070502
21
64.3860677
0
LINE
8
DEFAULT_255_2_778
10
16.2070502
20
64.3860677
11
16.2388502
21
64.4074677
0
LINE
8
DEFAULT_255_2_778
10
16.2936502
20
64.4600677
11
16.3163502
21
64.4907677
0
LINE
8
DEFAULT_255_2_778
10
16.3163502
20
64.4907677
11
16.3359502
21
64.5235677
0
LINE
8
DEFAULT_255_2_778
10
16.3661502
20
64.5939677
11
16.2653502
21
64.6317677
0
LINE
8
DEFAULT_255_2_778
10
16.2451502
20
64.5828677
11
16.2322502
21
64.5598677
0
LINE
8
DEFAULT_255_2_778
10
16.2322502
20
64.5598677
11
16.2168502
21
64.5384677
0
LINE
8
DEFAULT_255_2_778
10
16.2168502
20
64.5384677
11
16.1991502
21
64.5188677
0
LINE
8
DEFAULT_255_2_778
10
16.1991502
20
64.5188677
11
16.1795502
21
64.5008677
0
LINE
8
DEFAULT_255_2_778
10
16.1795502
20
64.5008677
11
16.1356502
21
64.4717677
0
LINE
8
DEFAULT_255_2_778
10
16.1356502
20
64.4717677
11
16.0951502
21
64.4555677
0
LINE
8
DEFAULT_255_2_778
10
16.0951502
20
64.4555677
11
16.0528502
21
64.4463677
0
LINE
8
DEFAULT_255_2_778
10
1.6132502
20
65.9398677
11
1.8682502
21
65.9398677
0
LINE
8
DEFAULT_255_2_778
10
1.8682502
20
65.9398677
11
1.8682502
21
64.8746677
0
LINE
8
DEFAULT_255_2_778
10
1.8682502
20
64.8746677
11
2.0952502
21
64.8746677
0
LINE
8
DEFAULT_255_2_778
10
2.0952502
20
64.8746677
11
2.0952502
21
64.7638677
0
LINE
8
DEFAULT_255_2_778
10
2.0952502
20
64.7638677
11
1.8682502
21
64.7638677
0
LINE
8
DEFAULT_255_2_778
10
1.8682502
20
64.7638677
11
1.8682502
21
64.3399677
0
LINE
8
DEFAULT_255_2_778
10
1.8682502
20
64.3399677
11
1.7589502
21
64.3399677
0
LINE
8
DEFAULT_255_2_778
10
1.7589502
20
64.3399677
11
1.7589502
21
64.7638677
0
LINE
8
DEFAULT_255_2_778
10
1.7589502
20
64.7638677
11
1.1803502
21
64.7638677
0
LINE
8
DEFAULT_255_2_778
10
1.1803502
20
64.7638677
11
1.1803502
21
64.9281677
0
LINE
8
DEFAULT_255_2_778
10
1.1803502
20
64.9281677
11
1.6132502
21
65.9398677
0
LINE
8
DEFAULT_255_2_778
10
1.6838502
20
65.8290677
11
1.6595502
21
65.7710677
0
LINE
8
DEFAULT_255_2_778
10
1.6595502
20
65.7710677
11
1.6349502
21
65.7131677
0
LINE
8
DEFAULT_255_2_778
10
1.6349502
20
65.7131677
11
1.5856502
21
65.5972677
0
LINE
8
DEFAULT_255_2_778
10
1.5856502
20
65.5972677
11
1.5364502
21
65.4813677
0
LINE
8
DEFAULT_255_2_778
10
1.5364502
20
65.4813677
11
1.4867502
21
65.3657677
0
LINE
8
DEFAULT_255_2_778
10
1.4867502
20
65.3657677
11
1.4369502
21
65.2501677
0
LINE
8
DEFAULT_255_2_778
10
1.4369502
20
65.2501677
11
1.3875502
21
65.1345677
0
LINE
8
DEFAULT_255_2_778
10
1.3875502
20
65.1345677
11
1.3377502
21
65.0188677
0
LINE
8
DEFAULT_255_2_778
10
1.3377502
20
65.0188677
11
1.3126502
21
64.9612677
0
LINE
8
DEFAULT_255_2_778
10
1.3126502
20
64.9612677
11
1.3002502
21
64.9323677
0
LINE
8
DEFAULT_255_2_778
10
1.3002502
20
64.9323677
11
1.2875502
21
64.9035677
0
LINE
8
DEFAULT_255_2_778
10
1.2875502
20
64.9035677
11
1.2875502
21
64.8746677
0
LINE
8
DEFAULT_255_2_778
10
1.2875502
20
64.8746677
11
1.7587502
21
64.8746677
0
LINE
8
DEFAULT_255_2_778
10
1.7587502
20
64.8746677
11
1.7587502
21
65.8290677
0
LINE
8
DEFAULT_255_2_778
10
1.7587502
20
65.8290677
11
1.6838502
21
65.8290677
0
ARC
8
DEFAULT_255_2_778
10
5.4114999
20
64.7066485
40
0.4017226
50
315.9931872
51
335.5309221
0
ARC
8
DEFAULT_255_2_778
10
5.3441262
20
65.545018
40
0.477878
50
18.4119311
51
26.6217136
0
ARC
8
DEFAULT_255_2_778
10
5.4853221
20
65.6423067
40
0.3038405
50
48.0987101
51
61.0399057
0
ARC
8
DEFAULT_255_2_778
10
5.4980839
20
65.5738606
40
0.4097437
50
148.924942
51
158.5417812
0
ARC
8
DEFAULT_255_2_778
10
5.8121066
20
65.452642
40
0.7463471
50
158.6999499
51
171.508151
0
ARC
8
DEFAULT_255_2_778
10
6.459571
20
64.9294487
40
1.4022511
50
181.4054969
51
188.2244796
0
ARC
8
DEFAULT_255_2_778
10
5.7590152
20
64.8106449
40
0.6907728
50
193.7161747
51
200.6308541
0
ARC
8
DEFAULT_255_2_778
10
5.4700476
20
64.6956193
40
0.3796959
50
212.3667569
51
224.9743227
0
ARC
8
DEFAULT_255_2_778
10
5.4223277
20
64.6367197
40
0.3044116
50
223.4798867
51
236.4390533
0
ARC
8
DEFAULT_255_2_778
10
5.4808744
20
64.6358756
40
0.3030917
50
303.4048131
51
316.5034176
0
ARC
8
DEFAULT_255_2_778
10
5.4114915
20
65.572963
40
0.2948627
50
31.5970913
51
42.6279042
0
ARC
8
DEFAULT_255_2_778
10
5.3429451
20
65.5315992
40
0.3749201
50
22.8111978
51
31.4927793
0
ARC
8
DEFAULT_255_2_778
10
5.3792157
20
64.7283063
40
0.330871
50
329.1733774
51
338.9668763
0
ARC
8
DEFAULT_255_2_778
10
5.4812061
20
64.6997874
40
0.2794943
50
209.2891135
51
220.9914541
0
ARC
8
DEFAULT_255_2_778
10
5.9001124
20
64.8496907
40
0.7251766
50
188.360111
51
198.8531726
0
ARC
8
DEFAULT_255_2_778
10
5.8044696
20
65.4614904
40
0.6284338
50
160.8972029
51
167.0002869
0
ARC
8
DEFAULT_255_2_778
10
5.5428691
20
65.541794
40
0.3550917
50
149.1740856
51
159.326884
0
ARC
8
DEFAULT_255_2_778
10
5.4807169
20
65.5758619
40
0.2842743
50
135.9667382
51
148.651331
0
ARC
8
DEFAULT_255_2_778
10
5.4118099
20
65.6468084
40
0.1854475
50
122.0714142
51
136.9277628
0
ARC
8
DEFAULT_255_2_778
10
7.6647137
20
64.8637202
40
0.5063742
50
284.3997606
51
296.1698542
0
ARC
8
DEFAULT_255_2_778
10
7.7444407
20
64.7102097
40
0.3334599
50
295.5081618
51
307.6959658
0
ARC
8
DEFAULT_255_2_778
10
7.49754
20
64.8951169
40
0.6426736
50
327.7792161
51
334.0958588
0
ARC
8
DEFAULT_255_2_778
10
7.4298131
20
64.9255279
40
0.7168847
50
334.2742564
51
339.9247302
0
ARC
8
DEFAULT_255_2_778
10
7.5020062
20
65.3808603
40
0.6448687
50
18.0204123
51
24.3215602
0
ARC
8
DEFAULT_255_2_778
10
7.5317848
20
65.394554
40
0.6120932
50
24.3015433
51
30.9289194
0
ARC
8
DEFAULT_255_2_778
10
7.5649905
20
65.4127394
40
0.5742642
50
31.0753117
51
38.1092657
0
ARC
8
DEFAULT_255_2_778
10
7.6712352
20
65.4791347
40
0.3451832
50
56.1635083
51
71.5388013
0
ARC
8
DEFAULT_255_2_778
10
7.469779
20
65.362699
40
0.5738879
50
18.0119647
51
27.1699376
0
ARC
8
DEFAULT_255_2_778
10
7.4959339
20
64.9075315
40
0.5418477
50
330.8688141
51
340.5443206
0
ARC
8
DEFAULT_255_2_778
10
7.5401609
20
65.3503581
40
0.8937213
50
272.8656504
51
281.3627441
0
ARC
8
DEFAULT_255_2_778
10
12.4228602
20
64.7054508
40
0.3996246
50
315.9413564
51
335.5826827
0
ARC
8
DEFAULT_255_2_778
10
12.3537262
20
65.545018
40
0.477878
50
18.4119311
51
26.6217136
0
ARC
8
DEFAULT_255_2_778
10
12.496879
20
65.6450573
40
0.3004866
50
48.0261726
51
61.1124423
0
ARC
8
DEFAULT_255_2_778
10
12.4995633
20
65.5773118
40
0.4009235
50
148.7409784
51
158.5762554
0
ARC
8
DEFAULT_255_2_778
10
12.8217066
20
65.452642
40
0.7463471
50
158.6999499
51
171.508151
0
ARC
8
DEFAULT_255_2_778
10
13.469171
20
64.9294487
40
1.4022511
50
181.4054969
51
188.2244796
0
ARC
8
DEFAULT_255_2_778
10
12.7686152
20
64.8106449
40
0.6907728
50
193.7161747
51
200.6308541
0
ARC
8
DEFAULT_255_2_778
10
12.4796476
20
64.6956193
40
0.3796959
50
212.3667569
51
224.9743227
0
ARC
8
DEFAULT_255_2_778
10
12.4319307
20
64.6367238
40
0.3044165
50
223.4800475
51
236.4389995
0
ARC
8
DEFAULT_255_2_778
10
12.4904744
20
64.6358756
40
0.3030917
50
303.4048131
51
316.5034176
0
ARC
8
DEFAULT_255_2_778
10
12.9069146
20
64.8480223
40
0.722029
50
188.351235
51
198.8824234
0
ARC
8
DEFAULT_255_2_778
10
12.7632481
20
65.4750978
40
0.5753211
50
160.6150966
51
167.282217
0
ARC
8
DEFAULT_255_2_778
10
12.541689
20
65.5460389
40
0.3428399
50
148.9922623
51
159.508889
0
ARC
8
DEFAULT_255_2_778
10
12.4881476
20
65.5774689
40
0.280759
50
136.0131379
51
148.8609436
0
ARC
8
DEFAULT_255_2_778
10
12.421285
20
65.6453643
40
0.1855142
50
121.9038002
51
136.7590619
0
ARC
8
DEFAULT_255_2_778
10
12.4202771
20
65.5729521
40
0.2948806
50
31.5974338
51
42.6275739
0
ARC
8
DEFAULT_255_2_778
10
12.3618083
20
65.5367603
40
0.3636441
50
22.6763229
51
31.6276472
0
ARC
8
DEFAULT_255_2_778
10
12.3797372
20
64.7317563
40
0.3398362
50
329.3977515
51
338.9248932
0
ARC
8
DEFAULT_255_2_778
10
12.4900061
20
64.6997874
40
0.2794943
50
209.2891135
51
220.9914541
0
LINE
8
DEFAULT_255_2_778
10
5.7771418
20
64.5402541
11
5.7903418
21
64.5722541
0
LINE
8
DEFAULT_255_2_778
10
5.7903418
20
64.5722541
11
5.8017418
21
64.6048541
0
LINE
8
DEFAULT_255_2_778
10
5.8017418
20
64.6048541
11
5.8195418
21
64.6712541
0
LINE
8
DEFAULT_255_2_778
10
5.8195418
20
64.6712541
11
5.8258418
21
64.7048541
0
LINE
8
DEFAULT_255_2_778
10
5.8258418
20
64.7048541
11
5.8308418
21
64.7386541
0
LINE
8
DEFAULT_255_2_778
10
5.8308418
20
64.7386541
11
5.8385418
21
64.8072541
0
LINE
8
DEFAULT_255_2_778
10
5.8385418
20
64.8072541
11
5.8430418
21
64.8760541
0
LINE
8
DEFAULT_255_2_778
10
5.8430418
20
64.8760541
11
5.8446418
21
64.9447541
0
LINE
8
DEFAULT_255_2_778
10
5.8446418
20
64.9447541
11
5.8459418
21
65.2197541
0
LINE
8
DEFAULT_255_2_778
10
5.8459418
20
65.2197541
11
5.8443418
21
65.3572541
0
LINE
8
DEFAULT_255_2_778
10
5.8443418
20
65.3572541
11
5.8419418
21
65.4260541
0
LINE
8
DEFAULT_255_2_778
10
5.8419418
20
65.4260541
11
5.8369418
21
65.4946541
0
LINE
8
DEFAULT_255_2_778
10
5.8369418
20
65.4946541
11
5.8287418
21
65.5628541
0
LINE
8
DEFAULT_255_2_778
10
5.8287418
20
65.5628541
11
5.8160418
21
65.6303541
0
LINE
8
DEFAULT_255_2_778
10
5.8160418
20
65.6303541
11
5.7975418
21
65.6959541
0
LINE
8
DEFAULT_255_2_778
10
5.7713418
20
65.7591541
11
5.7544418
21
65.7893541
0
LINE
8
DEFAULT_255_2_778
10
5.7544418
20
65.7893541
11
5.7348418
21
65.8176541
0
LINE
8
DEFAULT_255_2_778
10
5.7348418
20
65.8176541
11
5.7128418
21
65.8441541
0
LINE
8
DEFAULT_255_2_778
10
5.7128418
20
65.8441541
11
5.6882418
21
65.8684541
0
LINE
8
DEFAULT_255_2_778
10
5.6324418
20
65.9081541
11
5.6014418
21
65.9232541
0
LINE
8
DEFAULT_255_2_778
10
5.6014418
20
65.9232541
11
5.5689418
21
65.9346541
0
LINE
8
DEFAULT_255_2_778
10
5.5689418
20
65.9346541
11
5.5014418
21
65.9478541
0
LINE
8
DEFAULT_255_2_778
10
5.5014418
20
65.9478541
11
5.4326418
21
65.9499541
0
LINE
8
DEFAULT_255_2_778
10
5.4326418
20
65.9499541
11
5.3646418
21
65.9420541
0
LINE
8
DEFAULT_255_2_778
10
5.3646418
20
65.9420541
11
5.3310418
21
65.9335541
0
LINE
8
DEFAULT_255_2_778
10
5.3310418
20
65.9335541
11
5.2988418
21
65.9216541
0
LINE
8
DEFAULT_255_2_778
10
5.2988418
20
65.9216541
11
5.2678418
21
65.9062541
0
LINE
8
DEFAULT_255_2_778
10
5.2678418
20
65.9062541
11
5.2387418
21
65.8875541
0
LINE
8
DEFAULT_255_2_778
10
5.2387418
20
65.8875541
11
5.2122418
21
65.8655541
0
LINE
8
DEFAULT_255_2_778
10
5.2122418
20
65.8655541
11
5.1882418
21
65.8409541
0
LINE
8
DEFAULT_255_2_778
10
5.1882418
20
65.8409541
11
5.1665418
21
65.8139541
0
LINE
8
DEFAULT_255_2_778
10
5.1665418
20
65.8139541
11
5.1471418
21
65.7853541
0
LINE
8
DEFAULT_255_2_778
10
5.0739418
20
65.5628541
11
5.0635418
21
65.4800541
0
LINE
8
DEFAULT_255_2_778
10
5.0635418
20
65.4800541
11
5.0582418
21
65.3967541
0
LINE
8
DEFAULT_255_2_778
10
5.0582418
20
65.3967541
11
5.0572418
21
65.3549541
0
LINE
8
DEFAULT_255_2_778
10
5.0572418
20
65.3549541
11
5.0567418
21
65.3130541
0
LINE
8
DEFAULT_255_2_778
10
5.0567418
20
65.3130541
11
5.0559418
21
65.2294541
0
LINE
8
DEFAULT_255_2_778
10
5.0559418
20
65.2294541
11
5.0556418
21
65.1458541
0
LINE
8
DEFAULT_255_2_778
10
5.0556418
20
65.1458541
11
5.0556418
21
65.0622541
0
LINE
8
DEFAULT_255_2_778
10
5.0556418
20
65.0622541
11
5.0561418
21
64.9786541
0
LINE
8
DEFAULT_255_2_778
10
5.0561418
20
64.9786541
11
5.0567418
21
64.9368541
0
LINE
8
DEFAULT_255_2_778
10
5.0567418
20
64.9368541
11
5.0577418
21
64.8950541
0
LINE
8
DEFAULT_255_2_778
10
5.0717418
20
64.7288541
11
5.0879418
21
64.6468541
0
LINE
8
DEFAULT_255_2_778
10
5.1125418
20
64.5672541
11
5.1202418
21
64.5479541
0
LINE
8
DEFAULT_255_2_778
10
5.1202418
20
64.5479541
11
5.1289418
21
64.5288541
0
LINE
8
DEFAULT_255_2_778
10
5.1289418
20
64.5288541
11
5.1493418
21
64.4923541
0
LINE
8
DEFAULT_255_2_778
10
5.2540418
20
64.3830541
11
5.2839418
21
64.3658541
0
LINE
8
DEFAULT_255_2_778
10
5.2839418
20
64.3658541
11
5.3157418
21
64.3521541
0
LINE
8
DEFAULT_255_2_778
10
5.3157418
20
64.3521541
11
5.3824418
21
64.3349541
0
LINE
8
DEFAULT_255_2_778
10
5.3824418
20
64.3349541
11
5.4509418
21
64.3296541
0
LINE
8
DEFAULT_255_2_778
10
5.4509418
20
64.3296541
11
5.5194418
21
64.3346541
0
LINE
8
DEFAULT_255_2_778
10
5.5194418
20
64.3346541
11
5.5533418
21
64.3415541
0
LINE
8
DEFAULT_255_2_778
10
5.5533418
20
64.3415541
11
5.5861418
21
64.3516541
0
LINE
8
DEFAULT_255_2_778
10
5.5861418
20
64.3516541
11
5.6176418
21
64.3653541
0
LINE
8
DEFAULT_255_2_778
10
5.6176418
20
64.3653541
11
5.6477418
21
64.3828541
0
LINE
8
DEFAULT_255_2_778
10
5.7007418
20
64.4272541
11
5.7004418
21
64.4275541
0
LINE
8
DEFAULT_255_2_778
10
5.6885418
20
65.6769541
11
5.6985418
21
65.6501541
0
LINE
8
DEFAULT_255_2_778
10
5.6985418
20
65.6501541
11
5.7070418
21
65.6231541
0
LINE
8
DEFAULT_255_2_778
10
5.7070418
20
65.6231541
11
5.7197418
21
65.5681541
0
LINE
8
DEFAULT_255_2_778
10
5.7197418
20
65.5681541
11
5.7242418
21
65.5401541
0
LINE
8
DEFAULT_255_2_778
10
5.7242418
20
65.5401541
11
5.7276418
21
65.5118541
0
LINE
8
DEFAULT_255_2_778
10
5.7276418
20
65.5118541
11
5.7329418
21
65.4551541
0
LINE
8
DEFAULT_255_2_778
10
5.7329418
20
65.4551541
11
5.7364418
21
65.3985541
0
LINE
8
DEFAULT_255_2_778
10
5.7364418
20
65.3985541
11
5.7380418
21
65.3419541
0
LINE
8
DEFAULT_255_2_778
10
5.7380418
20
65.3419541
11
5.7395418
21
65.2284541
0
LINE
8
DEFAULT_255_2_778
10
5.7395418
20
65.2284541
11
5.7398418
21
65.1149541
0
LINE
8
DEFAULT_255_2_778
10
5.7398418
20
65.1149541
11
5.7390418
21
65.0014541
0
LINE
8
DEFAULT_255_2_778
10
5.7390418
20
65.0014541
11
5.7380418
21
64.9447541
0
LINE
8
DEFAULT_255_2_778
10
5.7380418
20
64.9447541
11
5.7361418
21
64.8881541
0
LINE
8
DEFAULT_255_2_778
10
5.7361418
20
64.8881541
11
5.7268418
21
64.7749541
0
LINE
8
DEFAULT_255_2_778
10
5.7268418
20
64.7749541
11
5.7184418
21
64.7188541
0
LINE
8
DEFAULT_255_2_778
10
5.7184418
20
64.7188541
11
5.7057418
21
64.6635541
0
LINE
8
DEFAULT_255_2_778
10
5.7057418
20
64.6635541
11
5.6975418
21
64.6362541
0
LINE
8
DEFAULT_255_2_778
10
5.6975418
20
64.6362541
11
5.6880418
21
64.6095541
0
LINE
8
DEFAULT_255_2_778
10
5.6633418
20
64.5587541
11
5.6475418
21
64.5349541
0
LINE
8
DEFAULT_255_2_778
10
5.6475418
20
64.5349541
11
5.6295418
21
64.5129541
0
LINE
8
DEFAULT_255_2_778
10
5.6295418
20
64.5129541
11
5.6091418
21
64.4931541
0
LINE
8
DEFAULT_255_2_778
10
5.6091418
20
64.4931541
11
5.5858418
21
64.4764541
0
LINE
8
DEFAULT_255_2_778
10
5.5858418
20
64.4764541
11
5.5604418
21
64.4637541
0
LINE
8
DEFAULT_255_2_778
10
5.5604418
20
64.4637541
11
5.5334418
21
64.4545541
0
LINE
8
DEFAULT_255_2_778
10
5.5334418
20
64.4545541
11
5.4773418
21
64.4452541
0
LINE
8
DEFAULT_255_2_778
10
5.4773418
20
64.4452541
11
5.4490418
21
64.4444541
0
LINE
8
DEFAULT_255_2_778
10
5.4490418
20
64.4444541
11
5.4205418
21
64.4457541
0
LINE
8
DEFAULT_255_2_778
10
5.4205418
20
64.4457541
11
5.3649418
21
64.4558541
0
LINE
8
DEFAULT_255_2_778
10
5.3649418
20
64.4558541
11
5.3382418
21
64.4656541
0
LINE
8
DEFAULT_255_2_778
10
5.3382418
20
64.4656541
11
5.3130418
21
64.4788541
0
LINE
8
DEFAULT_255_2_778
10
5.3130418
20
64.4788541
11
5.2903418
21
64.4958541
0
LINE
8
DEFAULT_255_2_778
10
5.2903418
20
64.4958541
11
5.2800418
21
64.5058541
0
LINE
8
DEFAULT_255_2_778
10
5.2800418
20
64.5058541
11
5.2702418
21
64.5164541
0
LINE
8
DEFAULT_255_2_778
10
5.2374418
20
64.5630541
11
5.2244418
21
64.5886541
0
LINE
8
DEFAULT_255_2_778
10
5.2244418
20
64.5886541
11
5.2138418
21
64.6153541
0
LINE
8
DEFAULT_255_2_778
10
5.1826418
20
64.7442541
11
5.1781418
21
64.7767541
0
LINE
8
DEFAULT_255_2_778
10
5.1781418
20
64.7767541
11
5.1744418
21
64.8095541
0
LINE
8
DEFAULT_255_2_778
10
5.1744418
20
64.8095541
11
5.1694418
21
64.8754541
0
LINE
8
DEFAULT_255_2_778
10
5.1694418
20
64.8754541
11
5.1678418
21
64.9085541
0
LINE
8
DEFAULT_255_2_778
10
5.1678418
20
64.9085541
11
5.1670418
21
64.9416541
0
LINE
8
DEFAULT_255_2_778
10
5.1670418
20
64.9416541
11
5.1659418
21
65.0080541
0
LINE
8
DEFAULT_255_2_778
10
5.1659418
20
65.0080541
11
5.1651418
21
65.1408541
0
LINE
8
DEFAULT_255_2_778
10
5.1651418
20
65.1408541
11
5.1657418
21
65.2736541
0
LINE
8
DEFAULT_255_2_778
10
5.1657418
20
65.2736541
11
5.1667418
21
65.3400541
0
LINE
8
DEFAULT_255_2_778
10
5.1667418
20
65.3400541
11
5.1688418
21
65.4062541
0
LINE
8
DEFAULT_255_2_778
10
5.1688418
20
65.4062541
11
5.1731418
21
65.4721541
0
LINE
8
DEFAULT_255_2_778
10
5.1731418
20
65.4721541
11
5.1802418
21
65.5377541
0
LINE
8
DEFAULT_255_2_778
10
5.1802418
20
65.5377541
11
5.1921418
21
65.6028541
0
LINE
8
DEFAULT_255_2_778
10
5.3133418
20
65.8039541
11
5.3345418
21
65.8152541
0
LINE
8
DEFAULT_255_2_778
10
5.3345418
20
65.8152541
11
5.3570418
21
65.8240541
0
LINE
8
DEFAULT_255_2_778
10
5.3570418
20
65.8240541
11
5.3802418
21
65.8303541
0
LINE
8
DEFAULT_255_2_778
10
5.3802418
20
65.8303541
11
5.4041418
21
65.8345541
0
LINE
8
DEFAULT_255_2_778
10
5.4041418
20
65.8345541
11
5.4517418
21
65.8377541
0
LINE
8
DEFAULT_255_2_778
10
5.4517418
20
65.8377541
11
5.4993418
21
65.8345541
0
LINE
8
DEFAULT_255_2_778
10
5.4993418
20
65.8345541
11
5.5231418
21
65.8303541
0
LINE
8
DEFAULT_255_2_778
10
5.5231418
20
65.8303541
11
5.5461418
21
65.8240541
0
LINE
8
DEFAULT_255_2_778
10
5.5461418
20
65.8240541
11
5.5684418
21
65.8152541
0
LINE
8
DEFAULT_255_2_778
10
5.5684418
20
65.8152541
11
5.5898418
21
65.8039541
0
LINE
8
DEFAULT_255_2_778
10
5.5898418
20
65.8039541
11
5.6284418
21
65.7726541
0
LINE
8
DEFAULT_255_2_778
10
7.2900418
20
64.3516541
11
7.3141418
21
64.3492541
0
LINE
8
DEFAULT_255_2_778
10
7.3141418
20
64.3492541
11
7.3382418
21
64.3468541
0
LINE
8
DEFAULT_255_2_778
10
7.3382418
20
64.3468541
11
7.3810418
21
64.3428541
0
LINE
8
DEFAULT_255_2_778
10
7.3810418
20
64.3428541
11
7.4324418
21
64.3394541
0
LINE
8
DEFAULT_255_2_778
10
7.4324418
20
64.3394541
11
7.4837418
21
64.3383541
0
LINE
8
DEFAULT_255_2_778
10
7.4837418
20
64.3383541
11
7.5350418
21
64.3391541
0
LINE
8
DEFAULT_255_2_778
10
7.5350418
20
64.3391541
11
7.5863418
21
64.3415541
0
LINE
8
DEFAULT_255_2_778
10
7.5863418
20
64.3415541
11
7.6885418
21
64.3523541
0
LINE
8
DEFAULT_255_2_778
10
7.6885418
20
64.3523541
11
7.7906418
21
64.3732541
0
LINE
8
DEFAULT_255_2_778
10
7.9483418
20
64.4463541
11
7.9753418
21
64.4693541
0
LINE
8
DEFAULT_255_2_778
10
7.9753418
20
64.4693541
11
7.9999418
21
64.4952541
0
LINE
8
DEFAULT_255_2_778
10
7.9999418
20
64.4952541
11
8.0216418
21
64.5230541
0
LINE
8
DEFAULT_255_2_778
10
8.0216418
20
64.5230541
11
8.0412418
21
64.5524541
0
LINE
8
DEFAULT_255_2_778
10
8.1031418
20
64.6794541
11
8.1144418
21
64.7127541
0
LINE
8
DEFAULT_255_2_778
10
8.1144418
20
64.7127541
11
8.1248418
21
64.7463541
0
LINE
8
DEFAULT_255_2_778
10
8.1248418
20
64.7463541
11
8.1420418
21
64.8146541
0
LINE
8
DEFAULT_255_2_778
10
8.1420418
20
64.8146541
11
8.1549418
21
64.8842541
0
LINE
8
DEFAULT_255_2_778
10
8.1549418
20
64.8842541
11
8.1597418
21
64.9191541
0
LINE
8
DEFAULT_255_2_778
10
8.1597418
20
64.9191541
11
8.1637418
21
64.9540541
0
LINE
8
DEFAULT_255_2_778
10
8.1637418
20
64.9540541
11
8.1695418
21
65.0239541
0
LINE
8
DEFAULT_255_2_778
10
8.1695418
20
65.0239541
11
8.1721418
21
65.0937541
0
LINE
8
DEFAULT_255_2_778
10
8.1721418
20
65.0937541
11
8.1721418
21
65.1286541
0
LINE
8
DEFAULT_255_2_778
10
8.1721418
20
65.1286541
11
8.1719418
21
65.1636541
0
LINE
8
DEFAULT_255_2_778
10
8.1719418
20
65.1636541
11
8.1703418
21
65.2334541
0
LINE
8
DEFAULT_255_2_778
10
8.1703418
20
65.2334541
11
8.1666418
21
65.3033541
0
LINE
8
DEFAULT_255_2_778
10
8.1666418
20
65.3033541
11
8.1597418
21
65.3731541
0
LINE
8
DEFAULT_255_2_778
10
8.1597418
20
65.3731541
11
8.1488418
21
65.4427541
0
LINE
8
DEFAULT_255_2_778
10
8.1488418
20
65.4427541
11
8.1340418
21
65.5120541
0
LINE
8
DEFAULT_255_2_778
10
8.1340418
20
65.5120541
11
8.1253418
21
65.5464541
0
LINE
8
DEFAULT_255_2_778
10
8.1253418
20
65.5464541
11
8.1152418
21
65.5803541
0
LINE
8
DEFAULT_255_2_778
10
8.0168418
20
65.7671541
11
7.9938418
21
65.7941541
0
LINE
8
DEFAULT_255_2_778
10
7.9938418
20
65.7941541
11
7.9689418
21
65.8195541
0
LINE
8
DEFAULT_255_2_778
10
7.9689418
20
65.8195541
11
7.9422418
21
65.8427541
0
LINE
8
DEFAULT_255_2_778
10
7.9422418
20
65.8427541
11
7.9136418
21
65.8634541
0
LINE
8
DEFAULT_255_2_778
10
7.9136418
20
65.8634541
11
7.8832418
21
65.8814541
0
LINE
8
DEFAULT_255_2_778
10
7.8832418
20
65.8814541
11
7.8512418
21
65.8970541
0
LINE
8
DEFAULT_255_2_778
10
7.8512418
20
65.8970541
11
7.7845418
21
65.9208541
0
LINE
8
DEFAULT_255_2_778
10
7.7845418
20
65.9208541
11
7.7155418
21
65.9356541
0
LINE
8
DEFAULT_255_2_778
10
7.7155418
20
65.9356541
11
7.6803418
21
65.9398541
0
LINE
8
DEFAULT_255_2_778
10
7.6803418
20
65.9398541
11
7.6448418
21
65.9428541
0
LINE
8
DEFAULT_255_2_778
10
7.6448418
20
65.9428541
11
7.5739418
21
65.9462541
0
LINE
8
DEFAULT_255_2_778
10
7.5739418
20
65.9462541
11
7.5384418
21
65.9467541
0
LINE
8
DEFAULT_255_2_778
10
7.5384418
20
65.9467541
11
7.5030418
21
65.9465541
0
LINE
8
DEFAULT_255_2_778
10
7.5030418
20
65.9465541
11
7.4318418
21
65.9459541
0
LINE
8
DEFAULT_255_2_778
10
7.4318418
20
65.9459541
11
7.2897418
21
65.9446541
0
LINE
8
DEFAULT_255_2_778
10
7.2897418
20
65.9446541
11
7.2900418
21
64.3516541
0
LINE
8
DEFAULT_255_2_778
10
7.5848418
20
64.4569541
11
7.5384418
21
64.4553541
0
LINE
8
DEFAULT_255_2_778
10
7.5384418
20
64.4553541
11
7.5152418
21
64.4550541
0
LINE
8
DEFAULT_255_2_778
10
7.5152418
20
64.4550541
11
7.4919418
21
64.4550541
0
LINE
8
DEFAULT_255_2_778
10
7.4919418
20
64.4550541
11
7.4456418
21
64.4550541
0
LINE
8
DEFAULT_255_2_778
10
7.4456418
20
64.4550541
11
7.3993418
21
64.4571541
0
LINE
8
DEFAULT_255_2_778
10
7.3993418
20
64.4571541
11
7.3993418
21
65.8332541
0
LINE
8
DEFAULT_255_2_778
10
7.3993418
20
65.8332541
11
7.5683418
21
65.8332541
0
LINE
8
DEFAULT_255_2_778
10
7.5683418
20
65.8332541
11
7.6758418
21
65.8282541
0
LINE
8
DEFAULT_255_2_778
10
7.6758418
20
65.8282541
11
7.7025418
21
65.8253541
0
LINE
8
DEFAULT_255_2_778
10
7.7025418
20
65.8253541
11
7.7289418
21
65.8208541
0
LINE
8
DEFAULT_255_2_778
10
7.7289418
20
65.8208541
11
7.7805418
21
65.8065541
0
LINE
8
DEFAULT_255_2_778
10
7.8634418
20
65.7658541
11
7.8821418
21
65.7520541
0
LINE
8
DEFAULT_255_2_778
10
7.8821418
20
65.7520541
11
7.8996418
21
65.7369541
0
LINE
8
DEFAULT_255_2_778
10
7.8996418
20
65.7369541
11
7.9306418
21
65.7028541
0
LINE
8
DEFAULT_255_2_778
10
7.9306418
20
65.7028541
11
7.9443418
21
65.6840541
0
LINE
8
DEFAULT_255_2_778
10
7.9443418
20
65.6840541
11
7.9573418
21
65.6647541
0
LINE
8
DEFAULT_255_2_778
10
7.9573418
20
65.6647541
11
7.9803418
21
65.6247541
0
LINE
8
DEFAULT_255_2_778
10
8.0155418
20
65.5401541
11
8.0285418
21
65.4956541
0
LINE
8
DEFAULT_255_2_778
10
8.0285418
20
65.4956541
11
8.0390418
21
65.4509541
0
LINE
8
DEFAULT_255_2_778
10
8.0390418
20
65.4509541
11
8.0533418
21
65.3607541
0
LINE
8
DEFAULT_255_2_778
10
8.0533418
20
65.3607541
11
8.0576418
21
65.3154541
0
LINE
8
DEFAULT_255_2_778
10
8.0576418
20
65.3154541
11
8.0607418
21
65.2699541
0
LINE
8
DEFAULT_255_2_778
10
8.0607418
20
65.2699541
11
8.0647418
21
65.1789541
0
LINE
8
DEFAULT_255_2_778
10
8.0647418
20
65.1789541
11
8.0655418
21
65.1331541
0
LINE
8
DEFAULT_255_2_778
10
8.0655418
20
65.1331541
11
8.0655418
21
65.0874541
0
LINE
8
DEFAULT_255_2_778
10
8.0655418
20
65.0874541
11
8.0610418
21
64.9958541
0
LINE
8
DEFAULT_255_2_778
10
8.0610418
20
64.9958541
11
8.0504418
21
64.9051541
0
LINE
8
DEFAULT_255_2_778
10
8.0504418
20
64.9051541
11
8.0327418
21
64.8151541
0
LINE
8
DEFAULT_255_2_778
10
8.0327418
20
64.8151541
11
8.0208418
21
64.7707541
0
LINE
8
DEFAULT_255_2_778
10
8.0208418
20
64.7707541
11
8.0068418
21
64.7270541
0
LINE
8
DEFAULT_255_2_778
10
7.9692418
20
64.6437541
11
7.9448418
21
64.6045541
0
LINE
8
DEFAULT_255_2_778
10
7.9448418
20
64.6045541
11
7.9160418
21
64.5688541
0
LINE
8
DEFAULT_255_2_778
10
7.9160418
20
64.5688541
11
7.8819418
21
64.5376541
0
LINE
8
DEFAULT_255_2_778
10
7.8819418
20
64.5376541
11
7.8427418
21
64.5132541
0
LINE
8
DEFAULT_255_2_778
10
7.8427418
20
64.5132541
11
7.7808418
21
64.4897541
0
LINE
8
DEFAULT_255_2_778
10
7.7808418
20
64.4897541
11
7.7488418
21
64.4812541
0
LINE
8
DEFAULT_255_2_778
10
7.7488418
20
64.4812541
11
7.7162418
21
64.4741541
0
LINE
8
DEFAULT_255_2_778
10
7.5848418
20
64.4577541
11
7.5848418
21
64.4569541
0
LINE
8
DEFAULT_255_2_778
10
12.7867418
20
64.5402541
11
12.8000418
21
64.5722541
0
LINE
8
DEFAULT_255_2_778
10
12.8000418
20
64.5722541
11
12.8113418
21
64.6048541
0
LINE
8
DEFAULT_255_2_778
10
12.8113418
20
64.6048541
11
12.8291418
21
64.6712541
0
LINE
8
DEFAULT_255_2_778
10
12.8291418
20
64.6712541
11
12.8354418
21
64.7048541
0
LINE
8
DEFAULT_255_2_778
10
12.8354418
20
64.7048541
11
12.8404418
21
64.7386541
0
LINE
8
DEFAULT_255_2_778
10
12.8404418
20
64.7386541
11
12.8481418
21
64.8072541
0
LINE
8
DEFAULT_255_2_778
10
12.8481418
20
64.8072541
11
12.8526418
21
64.8760541
0
LINE
8
DEFAULT_255_2_778
10
12.8526418
20
64.8760541
11
12.8542418
21
64.9447541
0
LINE
8
DEFAULT_255_2_778
10
12.8542418
20
64.9447541
11
12.8555418
21
65.2197541
0
LINE
8
DEFAULT_255_2_778
10
12.8555418
20
65.2197541
11
12.8539418
21
65.3572541
0
LINE
8
DEFAULT_255_2_778
10
12.8539418
20
65.3572541
11
12.8515418
21
65.4260541
0
LINE
8
DEFAULT_255_2_778
10
12.8515418
20
65.4260541
11
12.8465418
21
65.4946541
0
LINE
8
DEFAULT_255_2_778
10
12.8465418
20
65.4946541
11
12.8383418
21
65.5628541
0
LINE
8
DEFAULT_255_2_778
10
12.8383418
20
65.5628541
11
12.8256418
21
65.6303541
0
LINE
8
DEFAULT_255_2_778
10
12.8256418
20
65.6303541
11
12.8071418
21
65.6959541
0
LINE
8
DEFAULT_255_2_778
10
12.7809418
20
65.7591541
11
12.7640418
21
65.7893541
0
LINE
8
DEFAULT_255_2_778
10
12.7640418
20
65.7893541
11
12.7444418
21
65.8176541
0
LINE
8
DEFAULT_255_2_778
10
12.7444418
20
65.8176541
11
12.7224418
21
65.8441541
0
LINE
8
DEFAULT_255_2_778
10
12.7224418
20
65.8441541
11
12.6978418
21
65.8684541
0
LINE
8
DEFAULT_255_2_778
10
12.6420418
20
65.9081541
11
12.6110418
21
65.9232541
0
LINE
8
DEFAULT_255_2_778
10
12.6110418
20
65.9232541
11
12.5785418
21
65.9346541
0
LINE
8
DEFAULT_255_2_778
10
12.5785418
20
65.9346541
11
12.5110418
21
65.9478541
0
LINE
8
DEFAULT_255_2_778
10
12.5110418
20
65.9478541
11
12.4422418
21
65.9499541
0
LINE
8
DEFAULT_255_2_778
10
12.4422418
20
65.9499541
11
12.3742418
21
65.9420541
0
LINE
8
DEFAULT_255_2_778
10
12.3742418
20
65.9420541
11
12.3406418
21
65.9335541
0
LINE
8
DEFAULT_255_2_778
10
12.3406418
20
65.9335541
11
12.3084418
21
65.9216541
0
LINE
8
DEFAULT_255_2_778
10
12.3084418
20
65.9216541
11
12.2774418
21
65.9062541
0
LINE
8
DEFAULT_255_2_778
10
12.2774418
20
65.9062541
11
12.2483418
21
65.8875541
0
LINE
8
DEFAULT_255_2_778
10
12.2483418
20
65.8875541
11
12.2218418
21
65.8655541
0
LINE
8
DEFAULT_255_2_778
10
12.2218418
20
65.8655541
11
12.1978418
21
65.8409541
0
LINE
8
DEFAULT_255_2_778
10
12.1978418
20
65.8409541
11
12.1761418
21
65.8139541
0
LINE
8
DEFAULT_255_2_778
10
12.1761418
20
65.8139541
11
12.1568418
21
65.7853541
0
LINE
8
DEFAULT_255_2_778
10
12.0835418
20
65.5628541
11
12.0731418
21
65.4800541
0
LINE
8
DEFAULT_255_2_778
10
12.0731418
20
65.4800541
11
12.0679418
21
65.3967541
0
LINE
8
DEFAULT_255_2_778
10
12.0679418
20
65.3967541
11
12.0668418
21
65.3549541
0
LINE
8
DEFAULT_255_2_778
10
12.0668418
20
65.3549541
11
12.0663418
21
65.3130541
0
LINE
8
DEFAULT_255_2_778
10
12.0663418
20
65.3130541
11
12.0655418
21
65.2294541
0
LINE
8
DEFAULT_255_2_778
10
12.0655418
20
65.2294541
11
12.0652418
21
65.1458541
0
LINE
8
DEFAULT_255_2_778
10
12.0652418
20
65.1458541
11
12.0652418
21
65.0622541
0
LINE
8
DEFAULT_255_2_778
10
12.0652418
20
65.0622541
11
12.0657418
21
64.9786541
0
LINE
8
DEFAULT_255_2_778
10
12.0657418
20
64.9786541
11
12.0663418
21
64.9368541
0
LINE
8
DEFAULT_255_2_778
10
12.0663418
20
64.9368541
11
12.0673418
21
64.8950541
0
LINE
8
DEFAULT_255_2_778
10
12.0813418
20
64.7288541
11
12.0975418
21
64.6468541
0
LINE
8
DEFAULT_255_2_778
10
12.1221418
20
64.5672541
11
12.1298418
21
64.5479541
0
LINE
8
DEFAULT_255_2_778
10
12.1298418
20
64.5479541
11
12.1385418
21
64.5288541
0
LINE
8
DEFAULT_255_2_778
10
12.1385418
20
64.5288541
11
12.1589418
21
64.4923541
0
LINE
8
DEFAULT_255_2_778
10
12.2636418
20
64.3830541
11
12.2935418
21
64.3658541
0
LINE
8
DEFAULT_255_2_778
10
12.2935418
20
64.3658541
11
12.3253418
21
64.3521541
0
LINE
8
DEFAULT_255_2_778
10
12.3253418
20
64.3521541
11
12.3920418
21
64.3349541
0
LINE
8
DEFAULT_255_2_778
10
12.3920418
20
64.3349541
11
12.4605418
21
64.3296541
0
LINE
8
DEFAULT_255_2_778
10
12.4605418
20
64.3296541
11
12.5290418
21
64.3346541
0
LINE
8
DEFAULT_255_2_778
10
12.5290418
20
64.3346541
11
12.5629418
21
64.3415541
0
LINE
8
DEFAULT_255_2_778
10
12.5629418
20
64.3415541
11
12.5957418
21
64.3516541
0
LINE
8
DEFAULT_255_2_778
10
12.5957418
20
64.3516541
11
12.6272418
21
64.3653541
0
LINE
8
DEFAULT_255_2_778
10
12.6272418
20
64.3653541
11
12.6573418
21
64.3828541
0
LINE
8
DEFAULT_255_2_778
10
12.7103418
20
64.4272541
11
12.7100418
21
64.4275541
0
LINE
8
DEFAULT_255_2_778
10
12.1925418
20
64.7431541
11
12.1880418
21
64.7757541
0
LINE
8
DEFAULT_255_2_778
10
12.1880418
20
64.7757541
11
12.1843418
21
64.8085541
0
LINE
8
DEFAULT_255_2_778
10
12.1843418
20
64.8085541
11
12.1792418
21
64.8744541
0
LINE
8
DEFAULT_255_2_778
10
12.1792418
20
64.8744541
11
12.1777418
21
64.9074541
0
LINE
8
DEFAULT_255_2_778
10
12.1777418
20
64.9074541
11
12.1769418
21
64.9405541
0
LINE
8
DEFAULT_255_2_778
10
12.1769418
20
64.9405541
11
12.1758418
21
65.0069541
0
LINE
8
DEFAULT_255_2_778
10
12.1758418
20
65.0069541
11
12.1750418
21
65.1397541
0
LINE
8
DEFAULT_255_2_778
10
12.1750418
20
65.1397541
11
12.1755418
21
65.2726541
0
LINE
8
DEFAULT_255_2_778
10
12.1755418
20
65.2726541
11
12.1766418
21
65.3390541
0
LINE
8
DEFAULT_255_2_778
10
12.1766418
20
65.3390541
11
12.1787418
21
65.4051541
0
LINE
8
DEFAULT_255_2_778
10
12.1787418
20
65.4051541
11
12.1829418
21
65.4710541
0
LINE
8
DEFAULT_255_2_778
10
12.1829418
20
65.4710541
11
12.1901418
21
65.5366541
0
LINE
8
DEFAULT_255_2_778
10
12.1901418
20
65.5366541
11
12.2020418
21
65.6017541
0
LINE
8
DEFAULT_255_2_778
10
12.3232418
20
65.8028541
11
12.3443418
21
65.8142541
0
LINE
8
DEFAULT_255_2_778
10
12.3443418
20
65.8142541
11
12.3668418
21
65.8229541
0
LINE
8
DEFAULT_255_2_778
10
12.3668418
20
65.8229541
11
12.3901418
21
65.8293541
0
LINE
8
DEFAULT_255_2_778
10
12.3901418
20
65.8293541
11
12.4139418
21
65.8335541
0
LINE
8
DEFAULT_255_2_778
10
12.4139418
20
65.8335541
11
12.4616418
21
65.8367541
0
LINE
8
DEFAULT_255_2_778
10
12.4616418
20
65.8367541
11
12.5092418
21
65.8335541
0
LINE
8
DEFAULT_255_2_778
10
12.5092418
20
65.8335541
11
12.5330418
21
65.8293541
0
LINE
8
DEFAULT_255_2_778
10
12.5330418
20
65.8293541
11
12.5560418
21
65.8229541
0
LINE
8
DEFAULT_255_2_778
10
12.5560418
20
65.8229541
11
12.5782418
21
65.8142541
0
LINE
8
DEFAULT_255_2_778
10
12.5782418
20
65.8142541
11
12.5997418
21
65.8028541
0
LINE
8
DEFAULT_255_2_778
10
12.5997418
20
65.8028541
11
12.6372418
21
65.7726541
0
LINE
8
DEFAULT_255_2_778
10
12.6973418
20
65.6769541
11
12.7073418
21
65.6501541
0
LINE
8
DEFAULT_255_2_778
10
12.7073418
20
65.6501541
11
12.7158418
21
65.6231541
0
LINE
8
DEFAULT_255_2_778
10
12.7158418
20
65.6231541
11
12.7285418
21
65.5681541
0
LINE
8
DEFAULT_255_2_778
10
12.7285418
20
65.5681541
11
12.7330418
21
65.5401541
0
LINE
8
DEFAULT_255_2_778
10
12.7330418
20
65.5401541
11
12.7365418
21
65.5118541
0
LINE
8
DEFAULT_255_2_778
10
12.7365418
20
65.5118541
11
12.7417418
21
65.4551541
0
LINE
8
DEFAULT_255_2_778
10
12.7417418
20
65.4551541
11
12.7452418
21
65.3985541
0
LINE
8
DEFAULT_255_2_778
10
12.7452418
20
65.3985541
11
12.7468418
21
65.3419541
0
LINE
8
DEFAULT_255_2_778
10
12.7468418
20
65.3419541
11
12.7484418
21
65.2284541
0
LINE
8
DEFAULT_255_2_778
10
12.7484418
20
65.2284541
11
12.7486418
21
65.1149541
0
LINE
8
DEFAULT_255_2_778
10
12.7486418
20
65.1149541
11
12.7478418
21
65.0014541
0
LINE
8
DEFAULT_255_2_778
10
12.7478418
20
65.0014541
11
12.7468418
21
64.9447541
0
LINE
8
DEFAULT_255_2_778
10
12.7468418
20
64.9447541
11
12.7449418
21
64.8881541
0
LINE
8
DEFAULT_255_2_778
10
12.7449418
20
64.8881541
11
12.7357418
21
64.7749541
0
LINE
8
DEFAULT_255_2_778
10
12.7357418
20
64.7749541
11
12.7272418
21
64.7188541
0
LINE
8
DEFAULT_255_2_778
10
12.7272418
20
64.7188541
11
12.7145418
21
64.6635541
0
LINE
8
DEFAULT_255_2_778
10
12.7145418
20
64.6635541
11
12.7063418
21
64.6362541
0
LINE
8
DEFAULT_255_2_778
10
12.7063418
20
64.6362541
11
12.6968418
21
64.6095541
0
LINE
8
DEFAULT_255_2_778
10
12.6722418
20
64.5587541
11
12.6563418
21
64.5349541
0
LINE
8
DEFAULT_255_2_778
10
12.6563418
20
64.5349541
11
12.6383418
21
64.5129541
0
LINE
8
DEFAULT_255_2_778
10
12.6383418
20
64.5129541
11
12.6179418
21
64.4931541
0
LINE
8
DEFAULT_255_2_778
10
12.6179418
20
64.4931541
11
12.5946418
21
64.4764541
0
LINE
8
DEFAULT_255_2_778
10
12.5946418
20
64.4764541
11
12.5692418
21
64.4637541
0
LINE
8
DEFAULT_255_2_778
10
12.5692418
20
64.4637541
11
12.5422418
21
64.4545541
0
LINE
8
DEFAULT_255_2_778
10
12.5422418
20
64.4545541
11
12.4862418
21
64.4452541
0
LINE
8
DEFAULT_255_2_778
10
12.4862418
20
64.4452541
11
12.4578418
21
64.4444541
0
LINE
8
DEFAULT_255_2_778
10
12.4578418
20
64.4444541
11
12.4293418
21
64.4457541
0
LINE
8
DEFAULT_255_2_778
10
12.4293418
20
64.4457541
11
12.3737418
21
64.4558541
0
LINE
8
DEFAULT_255_2_778
10
12.3737418
20
64.4558541
11
12.3470418
21
64.4656541
0
LINE
8
DEFAULT_255_2_778
10
12.3470418
20
64.4656541
11
12.3219418
21
64.4788541
0
LINE
8
DEFAULT_255_2_778
10
12.3219418
20
64.4788541
11
12.2991418
21
64.4958541
0
LINE
8
DEFAULT_255_2_778
10
12.2991418
20
64.4958541
11
12.2888418
21
64.5058541
0
LINE
8
DEFAULT_255_2_778
10
12.2888418
20
64.5058541
11
12.2790418
21
64.5164541
0
LINE
8
DEFAULT_255_2_778
10
12.2462418
20
64.5630541
11
12.2332418
21
64.5886541
0
LINE
8
DEFAULT_255_2_778
10
12.2332418
20
64.5886541
11
12.2237418
21
64.6143541
0
LINE
8
DEFAULT_255_2_778
10
15.0606542
20
64.7630146
11
15.1278542
21
64.5463146
0
LINE
8
DEFAULT_255_2_778
10
15.1278542
20
64.5463146
11
15.1452542
21
64.4923146
0
LINE
8
DEFAULT_255_2_778
10
15.1452542
20
64.4923146
11
15.1542542
21
64.4653146
0
LINE
8
DEFAULT_255_2_778
10
15.1542542
20
64.4653146
11
15.1632542
21
64.4386146
0
LINE
8
DEFAULT_255_2_778
10
15.1632542
20
64.4386146
11
15.1974542
21
64.3304146
0
LINE
8
DEFAULT_255_2_778
10
15.1974542
20
64.3304146
11
15.3024542
21
64.3658146
0
LINE
8
DEFAULT_255_2_778
10
15.3024542
20
64.3658146
11
14.8034542
21
65.9438146
0
LINE
8
DEFAULT_255_2_778
10
14.8034542
20
65.9438146
11
14.6661542
21
65.9438146
0
LINE
8
DEFAULT_255_2_778
10
14.6661542
20
65.9438146
11
14.1541542
21
64.3658146
0
LINE
8
DEFAULT_255_2_778
10
14.1541542
20
64.3658146
11
14.2568542
21
64.3304146
0
LINE
8
DEFAULT_255_2_778
10
14.2568542
20
64.3304146
11
14.3980542
21
64.7627146
0
LINE
8
DEFAULT_255_2_778
10
14.3980542
20
64.7627146
11
15.0606542
21
64.7630146
0
LINE
8
DEFAULT_255_2_778
10
14.4348542
20
64.8765146
11
14.5097542
21
65.1080146
0
LINE
8
DEFAULT_255_2_778
10
14.5097542
20
65.1080146
11
14.5848542
21
65.3392146
0
LINE
8
DEFAULT_255_2_778
10
14.5848542
20
65.3392146
11
14.6229542
21
65.4549146
0
LINE
8
DEFAULT_255_2_778
10
14.6229542
20
65.4549146
11
14.6608542
21
65.5705146
0
LINE
8
DEFAULT_255_2_778
10
14.6608542
20
65.5705146
11
14.6978542
21
65.6864146
0
LINE
8
DEFAULT_255_2_778
10
14.6978542
20
65.6864146
11
14.7163542
21
65.7443146
0
LINE
8
DEFAULT_255_2_778
10
14.7163542
20
65.7443146
11
14.7256542
21
65.7731146
0
LINE
8
DEFAULT_255_2_778
10
14.7256542
20
65.7731146
11
14.7351542
21
65.8020146
0
LINE
8
DEFAULT_255_2_778
10
14.7351542
20
65.8020146
11
14.7425542
21
65.7784146
0
LINE
8
DEFAULT_255_2_778
10
14.7425542
20
65.7784146
11
14.7576542
21
65.7298146
0
LINE
8
DEFAULT_255_2_778
10
14.7576542
20
65.7298146
11
14.7727542
21
65.6811146
0
LINE
8
DEFAULT_255_2_778
10
14.7727542
20
65.6811146
11
14.8354542
21
65.4797146
0
LINE
8
DEFAULT_255_2_778
10
14.8354542
20
65.4797146
11
14.8984542
21
65.2786146
0
LINE
8
DEFAULT_255_2_778
10
14.8984542
20
65.2786146
11
14.9619542
21
65.0776146
0
LINE
8
DEFAULT_255_2_778
10
14.9619542
20
65.0776146
11
15.0246542
21
64.8762146
0
LINE
8
DEFAULT_255_2_778
10
15.0246542
20
64.8762146
11
14.4348542
21
64.8765146
0
LINE
8
DEFAULT_255_2_778
10
18.9381542
20
64.7630146
11
19.0053542
21
64.5463146
0
LINE
8
DEFAULT_255_2_778
10
19.0053542
20
64.5463146
11
19.0227542
21
64.4923146
0
LINE
8
DEFAULT_255_2_778
10
19.0227542
20
64.4923146
11
19.0317542
21
64.4653146
0
LINE
8
DEFAULT_255_2_778
10
19.0317542
20
64.4653146
11
19.0407542
21
64.4386146
0
LINE
8
DEFAULT_255_2_778
10
19.0407542
20
64.4386146
11
19.0749542
21
64.3304146
0
LINE
8
DEFAULT_255_2_778
10
19.0749542
20
64.3304146
11
19.1799542
21
64.3658146
0
LINE
8
DEFAULT_255_2_778
10
19.1799542
20
64.3658146
11
18.6809542
21
65.9438146
0
LINE
8
DEFAULT_255_2_778
10
18.6809542
20
65.9438146
11
18.5436542
21
65.9438146
0
LINE
8
DEFAULT_255_2_778
10
18.5436542
20
65.9438146
11
18.0316542
21
64.3658146
0
LINE
8
DEFAULT_255_2_778
10
18.0316542
20
64.3658146
11
18.1343542
21
64.3304146
0
LINE
8
DEFAULT_255_2_778
10
18.1343542
20
64.3304146
11
18.2756542
21
64.7627146
0
LINE
8
DEFAULT_255_2_778
10
18.2756542
20
64.7627146
11
18.9381542
21
64.7630146
0
LINE
8
DEFAULT_255_2_778
10
18.3123542
20
64.8765146
11
18.3872542
21
65.1080146
0
LINE
8
DEFAULT_255_2_778
10
18.3872542
20
65.1080146
11
18.4624542
21
65.3392146
0
LINE
8
DEFAULT_255_2_778
10
18.4624542
20
65.3392146
11
18.5004542
21
65.4549146
0
LINE
8
DEFAULT_255_2_778
10
18.5004542
20
65.4549146
11
18.5383542
21
65.5705146
0
LINE
8
DEFAULT_255_2_778
10
18.5383542
20
65.5705146
11
18.5753542
21
65.6864146
0
LINE
8
DEFAULT_255_2_778
10
18.5753542
20
65.6864146
11
18.5938542
21
65.7443146
0
LINE
8
DEFAULT_255_2_778
10
18.5938542
20
65.7443146
11
18.6031542
21
65.7731146
0
LINE
8
DEFAULT_255_2_778
10
18.6031542
20
65.7731146
11
18.6126542
21
65.8020146
0
LINE
8
DEFAULT_255_2_778
10
18.6126542
20
65.8020146
11
18.6201542
21
65.7784146
0
LINE
8
DEFAULT_255_2_778
10
18.6201542
20
65.7784146
11
18.6351542
21
65.7298146
0
LINE
8
DEFAULT_255_2_778
10
18.6351542
20
65.7298146
11
18.6502542
21
65.6811146
0
LINE
8
DEFAULT_255_2_778
10
18.6502542
20
65.6811146
11
18.7129542
21
65.4797146
0
LINE
8
DEFAULT_255_2_778
10
18.7129542
20
65.4797146
11
18.7759542
21
65.2786146
0
LINE
8
DEFAULT_255_2_778
10
18.7759542
20
65.2786146
11
18.8394542
21
65.0776146
0
LINE
8
DEFAULT_255_2_778
10
18.8394542
20
65.0776146
11
18.9021542
21
64.8762146
0
LINE
8
DEFAULT_255_2_778
10
18.9021542
20
64.8762146
11
18.3123542
21
64.8765146
0
ARC
8
DEFAULT_255_2_778
10
3.932578
20
60.8147451
40
0.4546461
50
13.0673057
51
21.3057752
0
ARC
8
DEFAULT_255_2_778
10
4.1736795
20
60.8637704
40
0.2320132
50
65.3486618
51
81.5055257
0
ARC
8
DEFAULT_255_2_778
10
4.3093059
20
60.7786442
40
0.465309
50
158.1080018
51
166.0855346
0
ARC
8
DEFAULT_255_2_778
10
4.4052751
20
60.3340115
40
0.5649126
50
188.8255944
51
195.3639195
0
ARC
8
DEFAULT_255_2_778
10
4.3203881
20
60.3236929
40
0.5709143
50
193.4150772
51
201.4044193
0
ARC
8
DEFAULT_255_2_778
10
4.5318248
20
60.3767202
40
0.7888887
50
187.8085926
51
193.5985607
0
ARC
8
DEFAULT_255_2_778
10
3.9341181
20
60.8157965
40
0.5427051
50
13.1690842
51
21.6748476
0
ARC
8
DEFAULT_255_2_778
10
1.3737509
20
60.7150148
40
0.5302175
50
20.6659401
51
28.0124422
0
ARC
8
DEFAULT_255_2_778
10
1.3078262
20
60.3680812
40
0.5959132
50
333.6559444
51
340.2118257
0
ARC
8
DEFAULT_255_2_778
10
1.4924042
20
60.2577931
40
0.3803807
50
315.6808645
51
325.9184892
0
ARC
8
DEFAULT_255_2_778
10
1.5206481
20
60.243704
40
0.2592385
50
312.1603617
51
324.3301645
0
ARC
8
DEFAULT_255_2_778
10
1.4172917
20
60.3180059
40
0.3865308
50
324.3162982
51
332.4686973
0
ARC
8
DEFAULT_255_2_778
10
1.2978604
20
60.3773869
40
0.5198916
50
332.7495579
51
338.7949415
0
ARC
8
DEFAULT_255_2_778
10
0.9803771
20
60.4696766
40
0.8504878
50
344.4541977
51
351.8385299
0
ARC
8
DEFAULT_255_2_778
10
1.3044428
20
60.685741
40
0.5146869
50
17.4099298
51
23.5809442
0
ARC
8
DEFAULT_255_2_778
10
1.4427886
20
60.7588994
40
0.3576908
50
30.5738869
51
39.3589206
0
LINE
8
DEFAULT_255_2_778
10
4.3561511
20
60.9799385
11
4.3421511
21
61.0096385
0
LINE
8
DEFAULT_255_2_778
10
4.3421511
20
61.0096385
11
4.3230511
21
61.0360385
0
LINE
8
DEFAULT_255_2_778
10
4.3230511
20
61.0360385
11
4.3114511
21
61.0477385
0
LINE
8
DEFAULT_255_2_778
10
4.3114511
20
61.0477385
11
4.2987511
21
61.0580385
0
LINE
8
DEFAULT_255_2_778
10
4.2987511
20
61.0580385
11
4.2849511
21
61.0670385
0
LINE
8
DEFAULT_255_2_778
10
4.2849511
20
61.0670385
11
4.2704511
21
61.0746385
0
LINE
8
DEFAULT_255_2_778
10
4.2079511
20
61.0932385
11
4.1754511
21
61.0966385
0
LINE
8
DEFAULT_255_2_778
10
4.1754511
20
61.0966385
11
4.1428511
21
61.0977385
0
LINE
8
DEFAULT_255_2_778
10
4.1428511
20
61.0977385
11
4.0780511
21
61.0945385
0
LINE
8
DEFAULT_255_2_778
10
4.0780511
20
61.0945385
11
4.0457511
21
61.0897385
0
LINE
8
DEFAULT_255_2_778
10
4.0457511
20
61.0897385
11
4.0140511
21
61.0823385
0
LINE
8
DEFAULT_255_2_778
10
4.0140511
20
61.0823385
11
3.9833511
21
61.0712385
0
LINE
8
DEFAULT_255_2_778
10
3.9833511
20
61.0712385
11
3.9547511
21
61.0553385
0
LINE
8
DEFAULT_255_2_778
10
3.9547511
20
61.0553385
11
3.9296511
21
61.0344385
0
LINE
8
DEFAULT_255_2_778
10
3.9296511
20
61.0344385
11
3.9084511
21
61.0096385
0
LINE
8
DEFAULT_255_2_778
10
3.9084511
20
61.0096385
11
3.8912511
21
60.9818385
0
LINE
8
DEFAULT_255_2_778
10
3.8912511
20
60.9818385
11
3.8775511
21
60.9521385
0
LINE
8
DEFAULT_255_2_778
10
3.8576511
20
60.8905385
11
3.8505511
21
60.8587385
0
LINE
8
DEFAULT_255_2_778
10
3.8505511
20
60.8587385
11
3.8449511
21
60.8267385
0
LINE
8
DEFAULT_255_2_778
10
3.8449511
20
60.8267385
11
3.8370511
21
60.7627385
0
LINE
8
DEFAULT_255_2_778
10
3.8370511
20
60.7627385
11
3.8322511
21
60.6984385
0
LINE
8
DEFAULT_255_2_778
10
3.8322511
20
60.6984385
11
3.8288511
21
60.5696385
0
LINE
8
DEFAULT_255_2_778
10
3.8288511
20
60.5696385
11
3.8306511
21
60.4404385
0
LINE
8
DEFAULT_255_2_778
10
3.8306511
20
60.4404385
11
3.8388511
21
60.3113385
0
LINE
8
DEFAULT_255_2_778
10
3.8388511
20
60.3113385
11
3.8470511
21
60.2473385
0
LINE
8
DEFAULT_255_2_778
10
3.8605511
20
60.1843385
11
3.8708511
21
60.1539385
0
LINE
8
DEFAULT_255_2_778
10
3.8708511
20
60.1539385
11
3.8849511
21
60.1245385
0
LINE
8
DEFAULT_255_2_778
10
3.8849511
20
60.1245385
11
3.9018511
21
60.0967385
0
LINE
8
DEFAULT_255_2_778
10
3.9018511
20
60.0967385
11
3.9203511
21
60.0703385
0
LINE
8
DEFAULT_255_2_778
10
3.9203511
20
60.0703385
11
3.9412511
21
60.0457385
0
LINE
8
DEFAULT_255_2_778
10
3.9412511
20
60.0457385
11
3.9648511
21
60.0229385
0
LINE
8
DEFAULT_255_2_778
10
3.9648511
20
60.0229385
11
3.9910511
21
60.0033385
0
LINE
8
DEFAULT_255_2_778
10
3.9910511
20
60.0033385
11
4.0193511
21
59.9877385
0
LINE
8
DEFAULT_255_2_778
10
4.0193511
20
59.9877385
11
4.0497511
21
59.9758385
0
LINE
8
DEFAULT_255_2_778
10
4.0497511
20
59.9758385
11
4.0815511
21
59.9674385
0
LINE
8
DEFAULT_255_2_778
10
4.0815511
20
59.9674385
11
4.1137511
21
59.9621385
0
LINE
8
DEFAULT_255_2_778
10
4.1137511
20
59.9621385
11
4.1465511
21
59.9605385
0
LINE
8
DEFAULT_255_2_778
10
4.1465511
20
59.9605385
11
4.2116511
21
59.9663385
0
LINE
8
DEFAULT_255_2_778
10
4.2116511
20
59.9663385
11
4.2436511
21
59.9732385
0
LINE
8
DEFAULT_255_2_778
10
4.2436511
20
59.9732385
11
4.2754511
21
59.9816385
0
LINE
8
DEFAULT_255_2_778
10
4.2754511
20
59.9816385
11
4.3066511
21
59.9914385
0
LINE
8
DEFAULT_255_2_778
10
4.3066511
20
59.9914385
11
4.3373511
21
60.0028385
0
LINE
8
DEFAULT_255_2_778
10
4.3373511
20
60.0028385
11
4.3672511
21
60.0160385
0
LINE
8
DEFAULT_255_2_778
10
4.3672511
20
60.0160385
11
4.3966511
21
60.0309385
0
LINE
8
DEFAULT_255_2_778
10
4.3966511
20
60.0309385
11
4.3966511
21
60.5177385
0
LINE
8
DEFAULT_255_2_778
10
4.3966511
20
60.5177385
11
4.1677511
21
60.5177385
0
LINE
8
DEFAULT_255_2_778
10
4.1677511
20
60.5177385
11
4.1677511
21
60.6079385
0
LINE
8
DEFAULT_255_2_778
10
4.1677511
20
60.6079385
11
4.4868511
21
60.6079385
0
LINE
8
DEFAULT_255_2_778
10
4.4868511
20
60.6079385
11
4.4868511
21
59.9787385
0
LINE
8
DEFAULT_255_2_778
10
4.4868511
20
59.9787385
11
4.4651511
21
59.9660385
0
LINE
8
DEFAULT_255_2_778
10
4.4651511
20
59.9660385
11
4.4299511
21
59.9473385
0
LINE
8
DEFAULT_255_2_778
10
4.4299511
20
59.9473385
11
4.3939511
21
59.9303385
0
LINE
8
DEFAULT_255_2_778
10
4.3939511
20
59.9303385
11
4.3206511
21
59.8999385
0
LINE
8
DEFAULT_255_2_778
10
4.3206511
20
59.8999385
11
4.2828511
21
59.8877385
0
LINE
8
DEFAULT_255_2_778
10
4.2828511
20
59.8877385
11
4.2436511
21
59.8787385
0
LINE
8
DEFAULT_255_2_778
10
4.2436511
20
59.8787385
11
4.2040511
21
59.8732385
0
LINE
8
DEFAULT_255_2_778
10
4.2040511
20
59.8732385
11
4.1643511
21
59.8705385
0
LINE
8
DEFAULT_255_2_778
10
4.1643511
20
59.8705385
11
4.1243511
21
59.8708385
0
LINE
8
DEFAULT_255_2_778
10
4.1243511
20
59.8708385
11
4.0844511
21
59.8748385
0
LINE
8
DEFAULT_255_2_778
10
4.0844511
20
59.8748385
11
4.0452511
21
59.8827385
0
LINE
8
DEFAULT_255_2_778
10
4.0452511
20
59.8827385
11
4.0068511
21
59.8941385
0
LINE
8
DEFAULT_255_2_778
10
4.0068511
20
59.8941385
11
3.9881511
21
59.9012385
0
LINE
8
DEFAULT_255_2_778
10
3.9881511
20
59.9012385
11
3.9695511
21
59.9094385
0
LINE
8
DEFAULT_255_2_778
10
3.9695511
20
59.9094385
11
3.9349511
21
59.9293385
0
LINE
8
DEFAULT_255_2_778
10
3.9349511
20
59.9293385
11
3.9034511
21
59.9536385
0
LINE
8
DEFAULT_255_2_778
10
3.9034511
20
59.9536385
11
3.8748511
21
59.9816385
0
LINE
8
DEFAULT_255_2_778
10
3.8748511
20
59.9816385
11
3.8492511
21
60.0121385
0
LINE
8
DEFAULT_255_2_778
10
3.8492511
20
60.0121385
11
3.8259511
21
60.0444385
0
LINE
8
DEFAULT_255_2_778
10
3.8259511
20
60.0444385
11
3.8058511
21
60.0788385
0
LINE
8
DEFAULT_255_2_778
10
3.8058511
20
60.0788385
11
3.7888511
21
60.1153385
0
LINE
8
DEFAULT_255_2_778
10
3.7502511
20
60.2695385
11
3.7423511
21
60.3492385
0
LINE
8
DEFAULT_255_2_778
10
3.7423511
20
60.3492385
11
3.7383511
21
60.4291385
0
LINE
8
DEFAULT_255_2_778
10
3.7383511
20
60.4291385
11
3.7364511
21
60.5090385
0
LINE
8
DEFAULT_255_2_778
10
3.7364511
20
60.5090385
11
3.7362511
21
60.5889385
0
LINE
8
DEFAULT_255_2_778
10
3.7362511
20
60.5889385
11
3.7433511
21
60.7484385
0
LINE
8
DEFAULT_255_2_778
10
3.7433511
20
60.7484385
11
3.7528511
21
60.8275385
0
LINE
8
DEFAULT_255_2_778
10
3.7528511
20
60.8275385
11
3.7687511
21
60.9058385
0
LINE
8
DEFAULT_255_2_778
10
3.7687511
20
60.9058385
11
3.7801511
21
60.9445385
0
LINE
8
DEFAULT_255_2_778
10
3.7801511
20
60.9445385
11
3.7941511
21
60.9818385
0
LINE
8
DEFAULT_255_2_778
10
3.7941511
20
60.9818385
11
3.8118511
21
61.0175385
0
LINE
8
DEFAULT_255_2_778
10
3.8118511
20
61.0175385
11
3.8338511
21
61.0514385
0
LINE
8
DEFAULT_255_2_778
10
3.8338511
20
61.0514385
11
3.8589511
21
61.0823385
0
LINE
8
DEFAULT_255_2_778
10
3.8589511
20
61.0823385
11
3.8873511
21
61.1104385
0
LINE
8
DEFAULT_255_2_778
10
3.8873511
20
61.1104385
11
3.9198511
21
61.1344385
0
LINE
8
DEFAULT_255_2_778
10
3.9198511
20
61.1344385
11
3.9550511
21
61.1538385
0
LINE
8
DEFAULT_255_2_778
10
3.9550511
20
61.1538385
11
3.9923511
21
61.1686385
0
LINE
8
DEFAULT_255_2_778
10
3.9923511
20
61.1686385
11
4.0312511
21
61.1792385
0
LINE
8
DEFAULT_255_2_778
10
4.0312511
20
61.1792385
11
4.1103511
21
61.1895385
0
LINE
8
DEFAULT_255_2_778
10
4.1103511
20
61.1895385
11
4.1505511
21
61.1900385
0
LINE
8
DEFAULT_255_2_778
10
4.1505511
20
61.1900385
11
4.1907511
21
61.1881385
0
LINE
8
DEFAULT_255_2_778
10
4.1907511
20
61.1881385
11
4.2304511
21
61.1834385
0
LINE
8
DEFAULT_255_2_778
10
4.2304511
20
61.1834385
11
4.2696511
21
61.1752385
0
LINE
8
DEFAULT_255_2_778
10
4.2696511
20
61.1752385
11
4.2889511
21
61.1691385
0
LINE
8
DEFAULT_255_2_778
10
4.2889511
20
61.1691385
11
4.3074511
21
61.1614385
0
LINE
8
DEFAULT_255_2_778
10
4.3074511
20
61.1614385
11
4.3423511
21
61.1418385
0
LINE
8
DEFAULT_255_2_778
10
4.3423511
20
61.1418385
11
4.3585511
21
61.1297385
0
LINE
8
DEFAULT_255_2_778
10
4.3585511
20
61.1297385
11
4.3733511
21
61.1162385
0
LINE
8
DEFAULT_255_2_778
10
4.3733511
20
61.1162385
11
4.3995511
21
61.0860385
0
LINE
8
DEFAULT_255_2_778
10
4.3995511
20
61.0860385
11
4.4109511
21
61.0694385
0
LINE
8
DEFAULT_255_2_778
10
4.4109511
20
61.0694385
11
4.4212511
21
61.0522385
0
LINE
8
DEFAULT_255_2_778
10
4.4212511
20
61.0522385
11
4.4384511
21
61.0162385
0
LINE
8
DEFAULT_255_2_778
10
4.4625511
20
60.9394385
11
4.3741511
21
60.9177385
0
LINE
8
DEFAULT_255_2_778
10
2.1955511
20
61.1762385
11
2.2857511
21
61.1762385
0
LINE
8
DEFAULT_255_2_778
10
2.2857511
20
61.1762385
11
2.2857511
21
59.8798385
0
LINE
8
DEFAULT_255_2_778
10
2.2857511
20
59.8798385
11
2.1955511
21
59.8798385
0
LINE
8
DEFAULT_255_2_778
10
2.1955511
20
59.8798385
11
2.1955511
21
61.1762385
0
LINE
8
DEFAULT_255_2_778
10
1.3787511
20
61.1852385
11
1.4126511
21
61.1850385
0
LINE
8
DEFAULT_255_2_778
10
1.4126511
20
61.1850385
11
1.4465511
21
61.1837385
0
LINE
8
DEFAULT_255_2_778
10
1.4465511
20
61.1837385
11
1.5139511
21
61.1789385
0
LINE
8
DEFAULT_255_2_778
10
1.5139511
20
61.1789385
11
1.5809511
21
61.1680385
0
LINE
8
DEFAULT_255_2_778
10
1.5809511
20
61.1680385
11
1.6140511
21
61.1588385
0
LINE
8
DEFAULT_255_2_778
10
1.6140511
20
61.1588385
11
1.6462511
21
61.1471385
0
LINE
8
DEFAULT_255_2_778
10
1.6462511
20
61.1471385
11
1.7068511
21
61.1162385
0
LINE
8
DEFAULT_255_2_778
10
1.7068511
20
61.1162385
11
1.7349511
21
61.0961385
0
LINE
8
DEFAULT_255_2_778
10
1.7349511
20
61.0961385
11
1.7605511
21
61.0733385
0
LINE
8
DEFAULT_255_2_778
10
1.7605511
20
61.0733385
11
1.7841511
21
61.0484385
0
LINE
8
DEFAULT_255_2_778
10
1.7841511
20
61.0484385
11
1.8055511
21
61.0220385
0
LINE
8
DEFAULT_255_2_778
10
1.8055511
20
61.0220385
11
1.8248511
21
60.9937385
0
LINE
8
DEFAULT_255_2_778
10
1.8248511
20
60.9937385
11
1.8418511
21
60.9640385
0
LINE
8
DEFAULT_255_2_778
10
1.8698511
20
60.9021385
11
1.8807511
21
60.8699385
0
LINE
8
DEFAULT_255_2_778
10
1.8807511
20
60.8699385
11
1.8899511
21
60.8368385
0
LINE
8
DEFAULT_255_2_778
10
1.8899511
20
60.8368385
11
1.8978511
21
60.8034385
0
LINE
8
DEFAULT_255_2_778
10
1.8978511
20
60.8034385
11
1.9045511
21
60.7701385
0
LINE
8
DEFAULT_255_2_778
10
1.9045511
20
60.7701385
11
1.9140511
21
60.7032385
0
LINE
8
DEFAULT_255_2_778
10
1.9140511
20
60.7032385
11
1.9198511
21
60.6357385
0
LINE
8
DEFAULT_255_2_778
10
1.9198511
20
60.6357385
11
1.9222511
21
60.5680385
0
LINE
8
DEFAULT_255_2_778
10
1.9222511
20
60.5680385
11
1.9230511
21
60.5002385
0
LINE
8
DEFAULT_255_2_778
10
1.9230511
20
60.5002385
11
1.9206511
21
60.4322385
0
LINE
8
DEFAULT_255_2_778
10
1.9206511
20
60.4322385
11
1.9143511
21
60.3645385
0
LINE
8
DEFAULT_255_2_778
10
1.9143511
20
60.3645385
11
1.9039511
21
60.2976385
0
LINE
8
DEFAULT_255_2_778
10
1.9039511
20
60.2976385
11
1.8889511
21
60.2314385
0
LINE
8
DEFAULT_255_2_778
10
1.8889511
20
60.2314385
11
1.8685511
21
60.1663385
0
LINE
8
DEFAULT_255_2_778
10
1.8418511
20
60.1036385
11
1.8256511
21
60.0737385
0
LINE
8
DEFAULT_255_2_778
10
1.8256511
20
60.0737385
11
1.8074511
21
60.0446385
0
LINE
8
DEFAULT_255_2_778
10
1.7645511
20
59.9920385
11
1.7388511
21
59.9692385
0
LINE
8
DEFAULT_255_2_778
10
1.7388511
20
59.9692385
11
1.7108511
21
59.9502385
0
LINE
8
DEFAULT_255_2_778
10
1.7108511
20
59.9502385
11
1.6809511
21
59.9343385
0
LINE
8
DEFAULT_255_2_778
10
1.6809511
20
59.9343385
11
1.6494511
21
59.9211385
0
LINE
8
DEFAULT_255_2_778
10
1.6494511
20
59.9211385
11
1.5843511
21
59.9023385
0
LINE
8
DEFAULT_255_2_778
10
1.5843511
20
59.9023385
11
1.5182511
21
59.8898385
0
LINE
8
DEFAULT_255_2_778
10
1.5182511
20
59.8898385
11
1.4512511
21
59.8822385
0
LINE
8
DEFAULT_255_2_778
10
1.4512511
20
59.8822385
11
1.3835511
21
59.8785385
0
LINE
8
DEFAULT_255_2_778
10
1.3835511
20
59.8785385
11
1.3152511
21
59.8785385
0
LINE
8
DEFAULT_255_2_778
10
1.3152511
20
59.8785385
11
1.2814511
21
59.8798385
0
LINE
8
DEFAULT_255_2_778
10
1.2814511
20
59.8798385
11
1.2475511
21
59.8824385
0
LINE
8
DEFAULT_255_2_778
10
1.2475511
20
59.8824385
11
1.2139511
21
59.8856385
0
LINE
8
DEFAULT_255_2_778
10
1.2139511
20
59.8856385
11
1.1803511
21
59.8888385
0
LINE
8
DEFAULT_255_2_778
10
1.1803511
20
59.8888385
11
1.1803511
21
61.1834385
0
LINE
8
DEFAULT_255_2_778
10
1.1803511
20
61.1834385
11
1.3787511
21
61.1852385
0
LINE
8
DEFAULT_255_2_778
10
1.2724511
20
59.9737385
11
1.3271511
21
59.9719385
0
LINE
8
DEFAULT_255_2_778
10
1.3271511
20
59.9719385
11
1.3816511
21
59.9721385
0
LINE
8
DEFAULT_255_2_778
10
1.3816511
20
59.9721385
11
1.4359511
21
59.9742385
0
LINE
8
DEFAULT_255_2_778
10
1.4359511
20
59.9742385
11
1.4901511
21
59.9793385
0
LINE
8
DEFAULT_255_2_778
10
1.4901511
20
59.9793385
11
1.5441511
21
59.9880385
0
LINE
8
DEFAULT_255_2_778
10
1.5441511
20
59.9880385
11
1.5708511
21
59.9938385
0
LINE
8
DEFAULT_255_2_778
10
1.5708511
20
59.9938385
11
1.5975511
21
60.0010385
0
LINE
8
DEFAULT_255_2_778
10
1.5975511
20
60.0010385
11
1.6237511
21
60.0097385
0
LINE
8
DEFAULT_255_2_778
10
1.6237511
20
60.0097385
11
1.6491511
21
60.0203385
0
LINE
8
DEFAULT_255_2_778
10
1.6491511
20
60.0203385
11
1.6730511
21
60.0343385
0
LINE
8
DEFAULT_255_2_778
10
1.6730511
20
60.0343385
11
1.6946511
21
60.0515385
0
LINE
8
DEFAULT_255_2_778
10
1.7825511
20
60.1893385
11
1.7997511
21
60.2417385
0
LINE
8
DEFAULT_255_2_778
10
1.8222511
20
60.3489385
11
1.8285511
21
60.4031385
0
LINE
8
DEFAULT_255_2_778
10
1.8285511
20
60.4031385
11
1.8322511
21
60.4579385
0
LINE
8
DEFAULT_255_2_778
10
1.8322511
20
60.4579385
11
1.8333511
21
60.5129385
0
LINE
8
DEFAULT_255_2_778
10
1.8333511
20
60.5129385
11
1.8322511
21
60.5680385
0
LINE
8
DEFAULT_255_2_778
10
1.8322511
20
60.5680385
11
1.8299511
21
60.6227385
0
LINE
8
DEFAULT_255_2_778
10
1.8299511
20
60.6227385
11
1.8261511
21
60.6775385
0
LINE
8
DEFAULT_255_2_778
10
1.8261511
20
60.6775385
11
1.8198511
21
60.7320385
0
LINE
8
DEFAULT_255_2_778
10
1.8198511
20
60.7320385
11
1.8097511
21
60.7862385
0
LINE
8
DEFAULT_255_2_778
10
1.8097511
20
60.7862385
11
1.7955511
21
60.8397385
0
LINE
8
DEFAULT_255_2_778
10
1.7761511
20
60.8916385
11
1.7507511
21
60.9408385
0
LINE
8
DEFAULT_255_2_778
10
1.7193511
20
60.9857385
11
1.7005511
21
61.0061385
0
LINE
8
DEFAULT_255_2_778
10
1.7005511
20
61.0061385
11
1.6793511
21
61.0244385
0
LINE
8
DEFAULT_255_2_778
10
1.6793511
20
61.0244385
11
1.6322511
21
61.0532385
0
LINE
8
DEFAULT_255_2_778
10
1.6322511
20
61.0532385
11
1.6065511
21
61.0643385
0
LINE
8
DEFAULT_255_2_778
10
1.6065511
20
61.0643385
11
1.5803511
21
61.0733385
0
LINE
8
DEFAULT_255_2_778
10
1.5803511
20
61.0733385
11
1.5264511
21
61.0844385
0
LINE
8
DEFAULT_255_2_778
10
1.5264511
20
61.0844385
11
1.4711511
21
61.0892385
0
LINE
8
DEFAULT_255_2_778
10
1.4711511
20
61.0892385
11
1.4155511
21
61.0908385
0
LINE
8
DEFAULT_255_2_778
10
1.4155511
20
61.0908385
11
1.2732511
21
61.0908385
0
LINE
8
DEFAULT_255_2_778
10
1.2732511
20
61.0908385
11
1.2724511
21
59.9737385
0
ARC
8
DEFAULT_255_2_778
10
3.227465
20
24.5226421
40
0.3573873
50
151.609463
51
159.3852035
0
ARC
8
DEFAULT_255_2_778
10
2.9912749
20
24.4886323
40
0.4636389
50
10.2171349
51
22.1944107
0
ARC
8
DEFAULT_255_2_778
10
2.5548901
20
24.4037163
40
0.908187
50
4.5126798
51
10.6060118
0
ARC
8
DEFAULT_255_2_778
10
2.6617493
20
24.043488
40
0.8008695
50
349.5604619
51
356.4266084
0
ARC
8
DEFAULT_255_2_778
10
3.0981345
20
23.9276036
40
0.3481405
50
331.4226168
51
339.375202
0
ARC
8
DEFAULT_255_2_778
10
3.3283142
20
23.971654
40
0.467177
50
191.3425602
51
203.1521333
0
ARC
8
DEFAULT_255_2_778
10
3.3453511
20
23.9733294
40
0.3970443
50
191.6324617
51
203.2541451
0
ARC
8
DEFAULT_255_2_778
10
3.6780089
20
24.0463484
40
0.7376061
50
185.7091613
51
191.977707
0
ARC
8
DEFAULT_255_2_778
10
4.6593416
20
24.1303323
40
1.7224829
50
180.0036639
51
185.2416551
0
ARC
8
DEFAULT_255_2_778
10
4.4955383
20
24.1305013
40
1.5586796
50
179.8871188
51
180.0102619
0
ARC
8
DEFAULT_255_2_778
10
3.270874
20
24.5050838
40
0.3211753
50
160.3716762
51
167.541425
0
ARC
8
DEFAULT_255_2_778
10
2.7979592
20
24.4427082
40
0.5775529
50
6.4650319
51
11.7246772
0
ARC
8
DEFAULT_255_2_778
10
2.3620659
20
24.3898142
40
1.016636
50
5.1727013
51
6.6610139
0
ARC
8
DEFAULT_255_2_778
10
2.9004203
20
8.9171277
40
0.2105836
50
348.4800339
51
0.1074372
0
ARC
8
DEFAULT_255_2_778
10
2.8835746
20
8.9175015
40
0.2274291
50
0.0053071
51
1.1011616
0
ARC
8
DEFAULT_255_2_778
10
2.905044
20
8.9264934
40
0.2035911
50
25.1981013
51
38.3707554
0
ARC
8
DEFAULT_255_2_778
10
2.8938045
20
8.9206015
40
0.3016484
50
36.7943452
51
48.8594135
0
ARC
8
DEFAULT_255_2_778
10
2.8791501
20
8.9148982
40
0.3171549
50
12.9313404
51
24.4507712
0
ARC
8
DEFAULT_255_2_778
10
2.8617618
20
8.91158
40
0.3348455
50
7.3422996
51
12.8188964
0
ARC
8
DEFAULT_255_2_778
10
2.9512355
20
8.9092869
40
0.2443211
50
348.163582
51
355.6774658
0
ARC
8
DEFAULT_255_2_778
10
2.9038476
20
8.9157248
40
0.292042
50
336.3499191
51
348.8343935
0
ARC
8
DEFAULT_255_2_778
10
2.889874
20
8.9405548
40
0.3179766
50
298.6358953
51
310.1403977
0
ARC
8
DEFAULT_255_2_778
10
5.9248185
20
8.2018252
40
0.5224472
50
193.7584271
51
200.2178694
0
ARC
8
DEFAULT_255_2_778
10
5.9346809
20
8.2073845
40
0.5333577
50
187.8029706
51
194.0865321
0
ARC
8
DEFAULT_255_2_778
10
5.9269096
20
8.20707
40
0.5256162
50
181.4497053
51
187.8840114
0
ARC
8
DEFAULT_255_2_778
10
4.9034598
20
8.3327542
40
0.4993759
50
4.5503412
51
11.3546656
0
ARC
8
DEFAULT_255_2_778
10
5.1680628
20
8.4027144
40
0.2246091
50
22.3078478
51
37.5400123
0
ARC
8
DEFAULT_255_2_778
10
5.1857784
20
8.9226815
40
0.3009264
50
31.8259401
51
45.0548431
0
ARC
8
DEFAULT_255_2_778
10
5.1758312
20
8.9186046
40
0.3116642
50
5.8687301
51
18.6891194
0
ARC
8
DEFAULT_255_2_778
10
5.1871567
20
8.9190115
40
0.3003112
50
339.5064875
51
352.7422344
0
ARC
8
DEFAULT_255_2_778
10
5.2166504
20
8.9042681
40
0.2678267
50
310.5201702
51
325.3448293
0
ARC
8
DEFAULT_255_2_778
10
5.2068711
20
8.913959
40
0.2815497
50
296.5372269
51
310.7516729
0
ARC
8
DEFAULT_255_2_778
10
5.0494075
20
8.3583154
40
0.4334296
50
13.9456067
51
19.4263988
0
ARC
8
DEFAULT_255_2_778
10
4.8836041
20
8.329454
40
0.6014202
50
4.971406
51
12.8072745
0
ARC
8
DEFAULT_255_2_778
10
4.7286334
20
8.3124136
40
0.7572928
50
359.7938439
51
5.2397471
0
ARC
8
DEFAULT_255_2_778
10
4.4723097
20
8.3097828
40
1.0136117
50
359.3775984
51
359.994687
0
ARC
8
DEFAULT_255_2_778
10
6.0540511
20
8.2153361
40
0.5696895
50
179.9863101
51
188.322938
0
ARC
8
DEFAULT_255_2_778
10
5.8637508
20
8.1923037
40
0.3780893
50
189.0437716
51
195.3571775
0
ARC
8
DEFAULT_255_2_778
10
5.8441816
20
8.1863155
40
0.3576335
50
195.2623737
51
202.116063
0
ARC
8
DEFAULT_255_2_778
10
5.1977387
20
8.9139683
40
0.2047005
50
332.3497113
51
342.3116441
0
ARC
8
DEFAULT_255_2_778
10
5.196324
20
8.9148254
40
0.2063092
50
342.2042263
51
352.0727502
0
ARC
8
DEFAULT_255_2_778
10
5.1495527
20
8.9157983
40
0.2533892
50
1.4413875
51
4.1179948
0
ARC
8
DEFAULT_255_2_778
10
5.1771478
20
8.918027
40
0.2257053
50
4.0567591
51
10.0907288
0
ARC
8
DEFAULT_255_2_778
10
5.1774909
20
8.9197597
40
0.2250698
50
9.671747
51
18.7140203
0
ARC
8
DEFAULT_255_2_778
10
5.1982652
20
8.9268376
40
0.203123
50
18.7031995
51
38.7120964
0
ARC
8
DEFAULT_255_2_778
10
14.531467
20
8.330383
40
0.2906918
50
183.3152876
51
191.1494698
0
ARC
8
DEFAULT_255_2_778
10
14.5467609
20
8.3410572
40
0.3088787
50
200.028091
51
207.4917839
0
ARC
8
DEFAULT_255_2_778
10
14.5048633
20
8.3405944
40
0.277322
50
253.2977921
51
269.979002
0
ARC
8
DEFAULT_255_2_778
10
14.5037332
20
8.3409782
40
0.277708
50
270.2121861
51
286.8349322
0
ARC
8
DEFAULT_255_2_778
10
14.5097014
20
8.3195948
40
0.2563228
50
331.8767932
51
340.864697
0
ARC
8
DEFAULT_255_2_778
10
14.4917522
20
8.3252584
40
0.2751374
50
340.975723
51
349.3630699
0
ARC
8
DEFAULT_255_2_778
10
14.4415766
20
8.3335206
40
0.3259778
50
349.5636847
51
356.5443801
0
ARC
8
DEFAULT_255_2_778
10
14.2467093
20
8.3413052
40
0.6059524
50
359.1711379
51
0.0063371
0
ARC
8
DEFAULT_255_2_778
10
14.4078289
20
8.3369008
40
0.444791
50
352.6465667
51
359.4381942
0
ARC
8
DEFAULT_255_2_778
10
14.4864231
20
8.3248403
40
0.3653045
50
343.2682265
51
352.9448955
0
ARC
8
DEFAULT_255_2_778
10
14.4978156
20
8.325498
40
0.3545007
50
322.7401037
51
332.6755838
0
ARC
8
DEFAULT_255_2_778
10
14.468383
20
8.2971514
40
0.3038463
50
209.5126067
51
221.0845348
0
ARC
8
DEFAULT_255_2_778
10
14.502362
20
8.320367
40
0.3450747
50
189.641621
51
199.8361665
0
ARC
8
DEFAULT_255_2_778
10
14.6169888
20
8.340911
40
0.4615243
50
183.6457091
51
189.7726617
0
ARC
8
DEFAULT_255_2_778
10
14.6407489
20
8.3427986
40
0.4853565
50
182.234814
51
183.6897421
0
LINE
8
DEFAULT_255_2_778
10
3.0591617
20
61.0661722
11
3.0279617
21
60.9720722
0
LINE
8
DEFAULT_255_2_778
10
3.0279617
20
60.9720722
11
2.9964617
21
60.8780722
0
LINE
8
DEFAULT_255_2_778
10
2.9964617
20
60.8780722
11
2.9326617
21
60.6902722
0
LINE
8
DEFAULT_255_2_778
10
2.9326617
20
60.6902722
11
2.8694617
21
60.5023722
0
LINE
8
DEFAULT_255_2_778
10
2.8694617
20
60.5023722
11
2.8064617
21
60.3142722
0
LINE
8
DEFAULT_255_2_778
10
2.8064617
20
60.3142722
11
3.3022617
21
60.3142722
0
LINE
8
DEFAULT_255_2_778
10
3.3022617
20
60.3142722
11
3.2416617
21
60.5023722
0
LINE
8
DEFAULT_255_2_778
10
3.2416617
20
60.5023722
11
3.1803617
21
60.6902722
0
LINE
8
DEFAULT_255_2_778
10
3.1803617
20
60.6902722
11
3.1191617
21
60.8780722
0
LINE
8
DEFAULT_255_2_778
10
3.1191617
20
60.8780722
11
3.0890617
21
60.9722722
0
LINE
8
DEFAULT_255_2_778
10
3.0890617
20
60.9722722
11
3.0591617
21
61.0661722
0
LINE
8
DEFAULT_255_2_778
10
3.4486617
20
59.8708722
11
3.4345617
21
59.9149722
0
LINE
8
DEFAULT_255_2_778
10
3.4345617
20
59.9149722
11
3.4194617
21
59.9586722
0
LINE
8
DEFAULT_255_2_778
10
3.4194617
20
59.9586722
11
3.3895617
21
60.0462722
0
LINE
8
DEFAULT_255_2_778
10
3.3895617
20
60.0462722
11
3.3607617
21
60.1340722
0
LINE
8
DEFAULT_255_2_778
10
3.3607617
20
60.1340722
11
3.3329617
21
60.2224722
0
LINE
8
DEFAULT_255_2_778
10
3.3329617
20
60.2224722
11
2.7760617
21
60.2224722
0
LINE
8
DEFAULT_255_2_778
10
2.7760617
20
60.2224722
11
2.6569617
21
59.8708722
0
LINE
8
DEFAULT_255_2_778
10
2.6569617
20
59.8708722
11
2.5704617
21
59.8996722
0
LINE
8
DEFAULT_255_2_778
10
2.5704617
20
59.8996722
11
3.0014617
21
61.1815722
0
LINE
8
DEFAULT_255_2_778
10
3.0014617
20
61.1815722
11
3.1168617
21
61.1815722
0
LINE
8
DEFAULT_255_2_778
10
3.1168617
20
61.1815722
11
3.5369617
21
59.8996722
0
LINE
8
DEFAULT_255_2_778
10
3.5369617
20
59.8996722
11
3.4486617
21
59.8708722
0
LINE
8
DEFAULT_255_2_778
10
2.8532617
20
24.0726722
11
2.8522617
21
24.1695722
0
LINE
8
DEFAULT_255_2_778
10
2.8522617
20
24.1695722
11
2.8522617
21
24.2663722
0
LINE
8
DEFAULT_255_2_778
10
2.8522617
20
24.2663722
11
2.8524617
21
24.3147722
0
LINE
8
DEFAULT_255_2_778
10
2.8524617
20
24.3147722
11
2.8527617
21
24.3631722
0
LINE
8
DEFAULT_255_2_778
10
2.8527617
20
24.3631722
11
2.8564617
21
24.4595722
0
LINE
8
DEFAULT_255_2_778
10
2.8564617
20
24.4595722
11
2.8683617
21
24.5547722
0
LINE
8
DEFAULT_255_2_778
10
2.8683617
20
24.5547722
11
2.8784617
21
24.6018722
0
LINE
8
DEFAULT_255_2_778
10
2.8784617
20
24.6018722
11
2.8850617
21
24.6251722
0
LINE
8
DEFAULT_255_2_778
10
2.8850617
20
24.6251722
11
2.8929617
21
24.6484722
0
LINE
8
DEFAULT_255_2_778
10
2.9130617
20
24.6925722
11
2.9395617
21
24.7336722
0
LINE
8
DEFAULT_255_2_778
10
2.9395617
20
24.7336722
11
2.9726617
21
24.7693722
0
LINE
8
DEFAULT_255_2_778
10
2.9726617
20
24.7693722
11
2.9914617
21
24.7846722
0
LINE
8
DEFAULT_255_2_778
10
2.9914617
20
24.7846722
11
3.0117617
21
24.7981722
0
LINE
8
DEFAULT_255_2_778
10
3.0117617
20
24.7981722
11
3.0559617
21
24.8182722
0
LINE
8
DEFAULT_255_2_778
10
3.0559617
20
24.8182722
11
3.1033617
21
24.8299722
0
LINE
8
DEFAULT_255_2_778
10
3.1033617
20
24.8299722
11
3.1517617
21
24.8341722
0
LINE
8
DEFAULT_255_2_778
10
3.1517617
20
24.8341722
11
3.1760617
21
24.8338722
0
LINE
8
DEFAULT_255_2_778
10
3.1760617
20
24.8338722
11
3.2004617
21
24.8320722
0
LINE
8
DEFAULT_255_2_778
10
3.2004617
20
24.8320722
11
3.2480617
21
24.8230722
0
LINE
8
DEFAULT_255_2_778
10
3.2480617
20
24.8230722
11
3.2713617
21
24.8156722
0
LINE
8
DEFAULT_255_2_778
10
3.2713617
20
24.8156722
11
3.2938617
21
24.8058722
0
LINE
8
DEFAULT_255_2_778
10
3.2938617
20
24.8058722
11
3.3345617
21
24.7799722
0
LINE
8
DEFAULT_255_2_778
10
3.3345617
20
24.7799722
11
3.3528617
21
24.7640722
0
LINE
8
DEFAULT_255_2_778
10
3.3528617
20
24.7640722
11
3.3697617
21
24.7463722
0
LINE
8
DEFAULT_255_2_778
10
3.3697617
20
24.7463722
11
3.3983617
21
24.7071722
0
LINE
8
DEFAULT_255_2_778
10
3.3983617
20
24.7071722
11
3.4102617
21
24.6857722
0
LINE
8
DEFAULT_255_2_778
10
3.4102617
20
24.6857722
11
3.4205617
21
24.6637722
0
LINE
8
DEFAULT_255_2_778
10
3.4602617
20
24.4751722
11
3.4644617
21
24.3788722
0
LINE
8
DEFAULT_255_2_778
10
3.4644617
20
24.3788722
11
3.4655617
21
24.1861722
0
LINE
8
DEFAULT_255_2_778
10
3.4655617
20
24.1861722
11
3.4647617
21
24.0898722
0
LINE
8
DEFAULT_255_2_778
10
3.4647617
20
24.0898722
11
3.4610617
21
23.9935722
0
LINE
8
DEFAULT_255_2_778
10
3.4493617
20
23.8983722
11
3.4388617
21
23.8512722
0
LINE
8
DEFAULT_255_2_778
10
3.4388617
20
23.8512722
11
3.4239617
21
23.8049722
0
LINE
8
DEFAULT_255_2_778
10
3.4038617
20
23.7610722
11
3.3774617
21
23.7202722
0
LINE
8
DEFAULT_255_2_778
10
3.3774617
20
23.7202722
11
3.3448617
21
23.6848722
0
LINE
8
DEFAULT_255_2_778
10
3.3448617
20
23.6848722
11
3.3059617
21
23.6556722
0
LINE
8
DEFAULT_255_2_778
10
3.3059617
20
23.6556722
11
3.2625617
21
23.6350722
0
LINE
8
DEFAULT_255_2_778
10
3.2625617
20
23.6350722
11
3.2393617
21
23.6279722
0
LINE
8
DEFAULT_255_2_778
10
3.2393617
20
23.6279722
11
3.2155617
21
23.6231722
0
LINE
8
DEFAULT_255_2_778
10
3.2155617
20
23.6231722
11
3.1673617
21
23.6189722
0
LINE
8
DEFAULT_255_2_778
10
3.1673617
20
23.6189722
11
3.1432617
21
23.6189722
0
LINE
8
DEFAULT_255_2_778
10
3.1432617
20
23.6189722
11
3.1189617
21
23.6205722
0
LINE
8
DEFAULT_255_2_778
10
3.1189617
20
23.6205722
11
3.0715617
21
23.6295722
0
LINE
8
DEFAULT_255_2_778
10
3.0715617
20
23.6295722
11
3.0488617
21
23.6374722
0
LINE
8
DEFAULT_255_2_778
10
3.0488617
20
23.6374722
11
3.0265617
21
23.6474722
0
LINE
8
DEFAULT_255_2_778
10
3.0265617
20
23.6474722
11
2.9858617
21
23.6734722
0
LINE
8
DEFAULT_255_2_778
10
2.9858617
20
23.6734722
11
2.9503617
21
23.7064722
0
LINE
8
DEFAULT_255_2_778
10
2.9503617
20
23.7064722
11
2.9215617
21
23.7451722
0
LINE
8
DEFAULT_255_2_778
10
2.9215617
20
23.7451722
11
2.9093617
21
23.7662722
0
LINE
8
DEFAULT_255_2_778
10
2.9093617
20
23.7662722
11
2.8987617
21
23.7879722
0
LINE
8
DEFAULT_255_2_778
10
2.8702617
20
23.8797722
11
2.8622617
21
23.9274722
0
LINE
8
DEFAULT_255_2_778
10
2.8622617
20
23.9274722
11
2.8569617
21
23.9753722
0
LINE
8
DEFAULT_255_2_778
10
2.8569617
20
23.9753722
11
2.8522617
21
24.0718722
0
LINE
8
DEFAULT_255_2_778
10
2.8522617
20
24.0718722
11
2.8532617
21
24.0726722
0
LINE
8
DEFAULT_255_2_778
10
2.9368617
20
24.1335722
11
2.9366617
21
24.2944722
0
LINE
8
DEFAULT_255_2_778
10
2.9366617
20
24.2944722
11
2.9376617
21
24.3748722
0
LINE
8
DEFAULT_255_2_778
10
2.9376617
20
24.3748722
11
2.9411617
21
24.4552722
0
LINE
8
DEFAULT_255_2_778
10
2.9411617
20
24.4552722
11
2.9498617
21
24.5349722
0
LINE
8
DEFAULT_255_2_778
10
2.9498617
20
24.5349722
11
2.9572617
21
24.5743722
0
LINE
8
DEFAULT_255_2_778
10
2.9683617
20
24.6129722
11
2.9842617
21
24.6497722
0
LINE
8
DEFAULT_255_2_778
10
2.9842617
20
24.6497722
11
3.0059617
21
24.6833722
0
LINE
8
DEFAULT_255_2_778
10
3.0059617
20
24.6833722
11
3.0191617
21
24.6984722
0
LINE
8
DEFAULT_255_2_778
10
3.0191617
20
24.6984722
11
3.0339617
21
24.7121722
0
LINE
8
DEFAULT_255_2_778
10
3.0339617
20
24.7121722
11
3.0678617
21
24.7333722
0
LINE
8
DEFAULT_255_2_778
10
3.0678617
20
24.7333722
11
3.0866617
21
24.7404722
0
LINE
8
DEFAULT_255_2_778
10
3.0866617
20
24.7404722
11
3.1059617
21
24.7452722
0
LINE
8
DEFAULT_255_2_778
10
3.1059617
20
24.7452722
11
3.1258617
21
24.7484722
0
LINE
8
DEFAULT_255_2_778
10
3.1258617
20
24.7484722
11
3.1459617
21
24.7500722
0
LINE
8
DEFAULT_255_2_778
10
3.1459617
20
24.7500722
11
3.1858617
21
24.7489722
0
LINE
8
DEFAULT_255_2_778
10
3.1858617
20
24.7489722
11
3.2252617
21
24.7418722
0
LINE
8
DEFAULT_255_2_778
10
3.2252617
20
24.7418722
11
3.2623617
21
24.7267722
0
LINE
8
DEFAULT_255_2_778
10
3.2623617
20
24.7267722
11
3.2792617
21
24.7156722
0
LINE
8
DEFAULT_255_2_778
10
3.2792617
20
24.7156722
11
3.2946617
21
24.7026722
0
LINE
8
DEFAULT_255_2_778
10
3.2946617
20
24.7026722
11
3.3081617
21
24.6878722
0
LINE
8
DEFAULT_255_2_778
10
3.3081617
20
24.6878722
11
3.3200617
21
24.6714722
0
LINE
8
DEFAULT_255_2_778
10
3.3200617
20
24.6714722
11
3.3390617
21
24.6362722
0
LINE
8
DEFAULT_255_2_778
10
3.3390617
20
24.6362722
11
3.3533617
21
24.5986722
0
LINE
8
DEFAULT_255_2_778
10
3.3533617
20
24.5986722
11
3.3634617
21
24.5600722
0
LINE
8
DEFAULT_255_2_778
10
3.3745617
20
24.4814722
11
3.3795617
21
24.4018722
0
LINE
8
DEFAULT_255_2_778
10
3.3795617
20
24.4018722
11
3.3811617
21
24.3219722
0
LINE
8
DEFAULT_255_2_778
10
3.3811617
20
24.3219722
11
3.3811617
21
24.1623722
0
LINE
8
DEFAULT_255_2_778
10
3.3811617
20
24.1623722
11
3.3800617
21
24.0824722
0
LINE
8
DEFAULT_255_2_778
10
3.3800617
20
24.0824722
11
3.3763617
21
24.0028722
0
LINE
8
DEFAULT_255_2_778
10
3.3763617
20
24.0028722
11
3.3668617
21
23.9234722
0
LINE
8
DEFAULT_255_2_778
10
3.3668617
20
23.9234722
11
3.3589617
21
23.8842722
0
LINE
8
DEFAULT_255_2_778
10
3.3589617
20
23.8842722
11
3.3477617
21
23.8459722
0
LINE
8
DEFAULT_255_2_778
10
3.3477617
20
23.8459722
11
3.3324617
21
23.8091722
0
LINE
8
DEFAULT_255_2_778
10
3.3324617
20
23.8091722
11
3.3229617
21
23.7916722
0
LINE
8
DEFAULT_255_2_778
10
3.3229617
20
23.7916722
11
3.3118617
21
23.7750722
0
LINE
8
DEFAULT_255_2_778
10
3.3118617
20
23.7750722
11
3.2848617
21
23.7456722
0
LINE
8
DEFAULT_255_2_778
10
3.2848617
20
23.7456722
11
3.2684617
21
23.7337722
0
LINE
8
DEFAULT_255_2_778
10
3.2684617
20
23.7337722
11
3.2509617
21
23.7242722
0
LINE
8
DEFAULT_255_2_778
10
3.2509617
20
23.7242722
11
3.2131617
21
23.7109722
0
LINE
8
DEFAULT_255_2_778
10
3.2131617
20
23.7109722
11
3.1736617
21
23.7054722
0
LINE
8
DEFAULT_255_2_778
10
3.1736617
20
23.7054722
11
3.1535617
21
23.7051722
0
LINE
8
DEFAULT_255_2_778
10
3.1535617
20
23.7051722
11
3.1337617
21
23.7064722
0
LINE
8
DEFAULT_255_2_778
10
3.1337617
20
23.7064722
11
3.0945617
21
23.7139722
0
LINE
8
DEFAULT_255_2_778
10
3.0945617
20
23.7139722
11
3.0755617
21
23.7202722
0
LINE
8
DEFAULT_255_2_778
10
3.0755617
20
23.7202722
11
3.0572617
21
23.7284722
0
LINE
8
DEFAULT_255_2_778
10
3.0572617
20
23.7284722
11
3.0244617
21
23.7512722
0
LINE
8
DEFAULT_255_2_778
10
3.0244617
20
23.7512722
11
3.0107617
21
23.7657722
0
LINE
8
DEFAULT_255_2_778
10
3.0107617
20
23.7657722
11
2.9988617
21
23.7819722
0
LINE
8
DEFAULT_255_2_778
10
2.9988617
20
23.7819722
11
2.9884617
21
23.7991722
0
LINE
8
DEFAULT_255_2_778
10
2.9884617
20
23.7991722
11
2.9839617
21
23.8080722
0
LINE
8
DEFAULT_255_2_778
10
2.9839617
20
23.8080722
11
2.9805617
21
23.8165722
0
LINE
8
DEFAULT_255_2_778
10
2.8564617
20
8.7038722
11
2.9032617
21
8.7064722
0
LINE
8
DEFAULT_255_2_778
10
2.9032617
20
8.7064722
11
2.9490617
21
8.7152722
0
LINE
8
DEFAULT_255_2_778
10
2.9490617
20
8.7152722
11
2.9932617
21
8.7321722
0
LINE
8
DEFAULT_255_2_778
10
2.9932617
20
8.7321722
11
3.0334617
21
8.7567722
0
LINE
8
DEFAULT_255_2_778
10
3.0334617
20
8.7567722
11
3.0514617
21
8.7723722
0
LINE
8
DEFAULT_255_2_778
10
3.0514617
20
8.7723722
11
3.0673617
21
8.7898722
0
LINE
8
DEFAULT_255_2_778
10
3.0673617
20
8.7898722
11
3.0810617
21
8.8091722
0
LINE
8
DEFAULT_255_2_778
10
3.0810617
20
8.8091722
11
3.0922617
21
8.8300722
0
LINE
8
DEFAULT_255_2_778
10
3.0922617
20
8.8300722
11
3.1006617
21
8.8519722
0
LINE
8
DEFAULT_255_2_778
10
3.1006617
20
8.8519722
11
3.1067617
21
8.8750722
0
LINE
8
DEFAULT_255_2_778
10
3.1109617
20
8.9218722
11
3.1091617
21
8.9453722
0
LINE
8
DEFAULT_255_2_778
10
3.1091617
20
8.9453722
11
3.1049617
21
8.9686722
0
LINE
8
DEFAULT_255_2_778
10
3.1049617
20
8.9686722
11
3.0982617
21
8.9911722
0
LINE
8
DEFAULT_255_2_778
10
3.0982617
20
8.9911722
11
3.0892617
21
9.0131722
0
LINE
8
DEFAULT_255_2_778
10
3.0646617
20
9.0528722
11
3.0318617
21
9.0866722
0
LINE
8
DEFAULT_255_2_778
10
3.0318617
20
9.0866722
11
2.9927617
21
9.1131722
0
LINE
8
DEFAULT_255_2_778
10
2.9927617
20
9.1131722
11
2.9495617
21
9.1319722
0
LINE
8
DEFAULT_255_2_778
10
2.9495617
20
9.1319722
11
2.9268617
21
9.1382722
0
LINE
8
DEFAULT_255_2_778
10
2.9268617
20
9.1382722
11
2.9035617
21
9.1425722
0
LINE
8
DEFAULT_255_2_778
10
2.9035617
20
9.1425722
11
2.8564617
21
9.1456722
0
LINE
8
DEFAULT_255_2_778
10
2.8564617
20
9.1456722
11
2.6651617
21
9.1456722
0
LINE
8
DEFAULT_255_2_778
10
2.6651617
20
9.1456722
11
2.6651617
21
8.7046722
0
LINE
8
DEFAULT_255_2_778
10
2.6651617
20
8.7046722
11
2.8564617
21
8.7038722
0
LINE
8
DEFAULT_255_2_778
10
2.8564617
20
9.2298722
11
2.9199617
21
9.2253722
0
LINE
8
DEFAULT_255_2_778
10
2.9199617
20
9.2253722
11
2.9816617
21
9.2107722
0
LINE
8
DEFAULT_255_2_778
10
2.9816617
20
9.2107722
11
3.0115617
21
9.1988722
0
LINE
8
DEFAULT_255_2_778
10
3.0115617
20
9.1988722
11
3.0398617
21
9.1845722
0
LINE
8
DEFAULT_255_2_778
10
3.0398617
20
9.1845722
11
3.0668617
21
9.1676722
0
LINE
8
DEFAULT_255_2_778
10
3.0668617
20
9.1676722
11
3.0922617
21
9.1477722
0
LINE
8
DEFAULT_255_2_778
10
3.1353617
20
9.1012722
11
3.1530617
21
9.0747722
0
LINE
8
DEFAULT_255_2_778
10
3.1530617
20
9.0747722
11
3.1678617
21
9.0461722
0
LINE
8
DEFAULT_255_2_778
10
3.1938617
20
8.9543722
11
3.1959617
21
8.9226722
0
LINE
8
DEFAULT_255_2_778
10
3.1959617
20
8.9226722
11
3.1948617
21
8.8908722
0
LINE
8
DEFAULT_255_2_778
10
3.1713617
20
8.7985722
11
3.1567617
21
8.7699722
0
LINE
8
DEFAULT_255_2_778
10
3.1567617
20
8.7699722
11
3.1387617
21
8.7435722
0
LINE
8
DEFAULT_255_2_778
10
3.1387617
20
8.7435722
11
3.1181617
21
8.7194722
0
LINE
8
DEFAULT_255_2_778
10
3.1181617
20
8.7194722
11
3.0948617
21
8.6974722
0
LINE
8
DEFAULT_255_2_778
10
3.0422617
20
8.6614722
11
3.0133617
21
8.6477722
0
LINE
8
DEFAULT_255_2_778
10
3.0133617
20
8.6477722
11
2.9831617
21
8.6368722
0
LINE
8
DEFAULT_255_2_778
10
2.9831617
20
8.6368722
11
2.9207617
21
8.6233722
0
LINE
8
DEFAULT_255_2_778
10
2.9207617
20
8.6233722
11
2.8567617
21
8.6194722
0
LINE
8
DEFAULT_255_2_778
10
2.8567617
20
8.6194722
11
2.6654617
21
8.6194722
0
LINE
8
DEFAULT_255_2_778
10
2.6654617
20
8.6194722
11
2.6654617
21
8.0301722
0
LINE
8
DEFAULT_255_2_778
10
2.6654617
20
8.0301722
11
2.5805617
21
8.0301722
0
LINE
8
DEFAULT_255_2_778
10
2.5805617
20
8.0301722
11
2.5805617
21
9.2300722
0
LINE
8
DEFAULT_255_2_778
10
2.5805617
20
9.2300722
11
2.8564617
21
9.2298722
0
LINE
8
DEFAULT_255_2_778
10
5.4014617
20
8.1937722
11
5.4025617
21
8.2532722
0
LINE
8
DEFAULT_255_2_778
10
5.4025617
20
8.2532722
11
5.4036617
21
8.3127722
0
LINE
8
DEFAULT_255_2_778
10
5.4036617
20
8.3127722
11
5.4012617
21
8.3723722
0
LINE
8
DEFAULT_255_2_778
10
5.3930617
20
8.4310722
11
5.3858617
21
8.4598722
0
LINE
8
DEFAULT_255_2_778
10
5.3858617
20
8.4598722
11
5.3758617
21
8.4879722
0
LINE
8
DEFAULT_255_2_778
10
5.3461617
20
8.5395722
11
5.3263617
21
8.5614722
0
LINE
8
DEFAULT_255_2_778
10
5.3263617
20
8.5614722
11
5.3033617
21
8.5800722
0
LINE
8
DEFAULT_255_2_778
10
5.3033617
20
8.5800722
11
5.2776617
21
8.5950722
0
LINE
8
DEFAULT_255_2_778
10
5.2776617
20
8.5950722
11
5.2501617
21
8.6064722
0
LINE
8
DEFAULT_255_2_778
10
5.2501617
20
8.6064722
11
5.2213617
21
8.6143722
0
LINE
8
DEFAULT_255_2_778
10
5.2213617
20
8.6143722
11
5.1919617
21
8.6186722
0
LINE
8
DEFAULT_255_2_778
10
5.1919617
20
8.6186722
11
5.1625617
21
8.6202722
0
LINE
8
DEFAULT_255_2_778
10
5.1625617
20
8.6202722
11
5.1332617
21
8.6204722
0
LINE
8
DEFAULT_255_2_778
10
5.1332617
20
8.6204722
11
5.1038617
21
8.6204722
0
LINE
8
DEFAULT_255_2_778
10
5.1038617
20
8.6204722
11
5.0744617
21
8.6204722
0
LINE
8
DEFAULT_255_2_778
10
5.0744617
20
8.6204722
11
4.9569617
21
8.6204722
0
LINE
8
DEFAULT_255_2_778
10
4.9569617
20
8.6204722
11
4.9569617
21
8.0296722
0
LINE
8
DEFAULT_255_2_778
10
4.9569617
20
8.0296722
11
4.8720617
21
8.0296722
0
LINE
8
DEFAULT_255_2_778
10
4.8720617
20
8.0296722
11
4.8720617
21
9.2295722
0
LINE
8
DEFAULT_255_2_778
10
4.8720617
20
9.2295722
11
5.0091617
21
9.2295722
0
LINE
8
DEFAULT_255_2_778
10
5.0091617
20
9.2295722
11
5.0776617
21
9.2295722
0
LINE
8
DEFAULT_255_2_778
10
5.0776617
20
9.2295722
11
5.1461617
21
9.2295722
0
LINE
8
DEFAULT_255_2_778
10
5.1461617
20
9.2295722
11
5.2141617
21
9.2247722
0
LINE
8
DEFAULT_255_2_778
10
5.2141617
20
9.2247722
11
5.2808617
21
9.2083722
0
LINE
8
DEFAULT_255_2_778
10
5.2808617
20
9.2083722
11
5.3131617
21
9.1948722
0
LINE
8
DEFAULT_255_2_778
10
5.3131617
20
9.1948722
11
5.3435617
21
9.1784722
0
LINE
8
DEFAULT_255_2_778
10
5.3435617
20
9.1784722
11
5.3721617
21
9.1586722
0
LINE
8
DEFAULT_255_2_778
10
5.3721617
20
9.1586722
11
5.3983617
21
9.1356722
0
LINE
8
DEFAULT_255_2_778
10
5.4414617
20
9.0813722
11
5.4581617
21
9.0506722
0
LINE
8
DEFAULT_255_2_778
10
5.4581617
20
9.0506722
11
5.4710617
21
9.0184722
0
LINE
8
DEFAULT_255_2_778
10
5.4858617
20
8.9504722
11
5.4850617
21
8.8810722
0
LINE
8
DEFAULT_255_2_778
10
5.4684617
20
8.8138722
11
5.4544617
21
8.7818722
0
LINE
8
DEFAULT_255_2_778
10
5.4544617
20
8.7818722
11
5.4369617
21
8.7519722
0
LINE
8
DEFAULT_255_2_778
10
5.3326617
20
8.6620722
11
5.3663617
21
8.6379722
0
LINE
8
DEFAULT_255_2_778
10
5.3663617
20
8.6379722
11
5.3956617
21
8.6091722
0
LINE
8
DEFAULT_255_2_778
10
5.3956617
20
8.6091722
11
5.4208617
21
8.5760722
0
LINE
8
DEFAULT_255_2_778
10
5.4208617
20
8.5760722
11
5.4417617
21
8.5405722
0
LINE
8
DEFAULT_255_2_778
10
5.4417617
20
8.5405722
11
5.4581617
21
8.5024722
0
LINE
8
DEFAULT_255_2_778
10
5.4858617
20
8.2987722
11
5.4848617
21
8.2569722
0
LINE
8
DEFAULT_255_2_778
10
5.4848617
20
8.2569722
11
5.4843617
21
8.2154722
0
LINE
8
DEFAULT_255_2_778
10
5.5128617
20
8.0516722
11
5.4345617
21
8.0212722
0
LINE
8
DEFAULT_255_2_778
10
4.9569617
20
8.7054722
11
5.0281617
21
8.7054722
0
LINE
8
DEFAULT_255_2_778
10
5.0281617
20
8.7054722
11
5.0993617
21
8.7054722
0
LINE
8
DEFAULT_255_2_778
10
5.0993617
20
8.7054722
11
5.1705617
21
8.7056722
0
LINE
8
DEFAULT_255_2_778
10
5.1705617
20
8.7056722
11
5.2059617
21
8.7080722
0
LINE
8
DEFAULT_255_2_778
10
5.2059617
20
8.7080722
11
5.2408617
21
8.7146722
0
LINE
8
DEFAULT_255_2_778
10
5.2408617
20
8.7146722
11
5.2744617
21
8.7260722
0
LINE
8
DEFAULT_255_2_778
10
5.2744617
20
8.7260722
11
5.3059617
21
8.7421722
0
LINE
8
DEFAULT_255_2_778
10
5.3059617
20
8.7421722
11
5.3207617
21
8.7522722
0
LINE
8
DEFAULT_255_2_778
10
5.3207617
20
8.7522722
11
5.3348617
21
8.7633722
0
LINE
8
DEFAULT_255_2_778
10
5.3348617
20
8.7633722
11
5.3594617
21
8.7890722
0
LINE
8
DEFAULT_255_2_778
10
5.3594617
20
8.7890722
11
5.3700617
21
8.8035722
0
LINE
8
DEFAULT_255_2_778
10
5.3700617
20
8.8035722
11
5.3790617
21
8.8189722
0
LINE
8
DEFAULT_255_2_778
10
5.4006617
20
8.8863722
11
5.4028617
21
8.9221722
0
LINE
8
DEFAULT_255_2_778
10
5.3567617
20
9.0538722
11
5.3448617
21
9.0673722
0
LINE
8
DEFAULT_255_2_778
10
5.3448617
20
9.0673722
11
5.3321617
21
9.0798722
0
LINE
8
DEFAULT_255_2_778
10
5.3321617
20
9.0798722
11
5.3038617
21
9.1014722
0
LINE
8
DEFAULT_255_2_778
10
5.3038617
20
9.1014722
11
5.2726617
21
9.1189722
0
LINE
8
DEFAULT_255_2_778
10
5.2726617
20
9.1189722
11
5.2395617
21
9.1321722
0
LINE
8
DEFAULT_255_2_778
10
5.2395617
20
9.1321722
11
5.2223617
21
9.1369722
0
LINE
8
DEFAULT_255_2_778
10
5.2223617
20
9.1369722
11
5.2049617
21
9.1406722
0
LINE
8
DEFAULT_255_2_778
10
5.2049617
20
9.1406722
11
5.1697617
21
9.1446722
0
LINE
8
DEFAULT_255_2_778
10
5.1697617
20
9.1446722
11
5.1342617
21
9.1454722
0
LINE
8
DEFAULT_255_2_778
10
5.1342617
20
9.1454722
11
5.0988617
21
9.1454722
0
LINE
8
DEFAULT_255_2_778
10
5.0988617
20
9.1454722
11
4.9567617
21
9.1454722
0
LINE
8
DEFAULT_255_2_778
10
4.9567617
20
9.1454722
11
4.9569617
21
8.7054722
0
LINE
8
DEFAULT_255_2_778
10
16.8926617
20
10.2675722
11
16.8989617
21
10.2246722
0
LINE
8
DEFAULT_255_2_778
10
16.8989617
20
10.2246722
11
16.9090617
21
10.1809722
0
LINE
8
DEFAULT_255_2_778
10
16.9090617
20
10.1809722
11
16.9280617
21
10.1294722
0
LINE
8
DEFAULT_255_2_778
10
16.9280617
20
10.1294722
11
16.9640617
21
10.0714722
0
LINE
8
DEFAULT_255_2_778
10
16.9640617
20
10.0714722
11
17.0368617
21
10.0211722
0
LINE
8
DEFAULT_255_2_778
10
17.0368617
20
10.0211722
11
17.2582617
21
10.0158722
0
LINE
8
DEFAULT_255_2_778
10
17.2582617
20
10.0158722
11
17.3482617
21
10.0661722
0
LINE
8
DEFAULT_255_2_778
10
17.3482617
20
10.0661722
11
17.3892617
21
10.1254722
0
LINE
8
DEFAULT_255_2_778
10
17.3892617
20
10.1254722
11
17.3990617
21
10.1503722
0
LINE
8
DEFAULT_255_2_778
10
17.3990617
20
10.1503722
11
17.4773617
21
10.1219722
0
LINE
8
DEFAULT_255_2_778
10
17.4773617
20
10.1219722
11
17.4643617
21
10.0868722
0
LINE
8
DEFAULT_255_2_778
10
17.4643617
20
10.0868722
11
17.4305617
21
10.0323722
0
LINE
8
DEFAULT_255_2_778
10
17.4305617
20
10.0323722
11
17.3476617
21
9.9632722
0
LINE
8
DEFAULT_255_2_778
10
17.3476617
20
9.9632722
11
17.2249617
21
9.9267722
0
LINE
8
DEFAULT_255_2_778
10
17.2249617
20
9.9267722
11
17.0370617
21
9.9354722
0
LINE
8
DEFAULT_255_2_778
10
17.0370617
20
9.9354722
11
16.9235617
21
9.9918722
0
LINE
8
DEFAULT_255_2_778
10
16.9235617
20
9.9918722
11
16.8772617
21
10.0455722
0
LINE
8
DEFAULT_255_2_778
10
16.8772617
20
10.0455722
11
16.8471617
21
10.1034722
0
LINE
8
DEFAULT_255_2_778
10
16.8471617
20
10.1034722
11
16.8288617
21
10.1569722
0
LINE
8
DEFAULT_255_2_778
10
16.8288617
20
10.1569722
11
16.8164617
21
10.2095722
0
LINE
8
DEFAULT_255_2_778
10
16.8164617
20
10.2095722
11
16.8090617
21
10.2564722
0
LINE
8
DEFAULT_255_2_778
10
16.8090617
20
10.2564722
11
16.8111617
21
10.8403722
0
LINE
8
DEFAULT_255_2_778
10
16.8111617
20
10.8403722
11
16.8206617
21
10.8887722
0
LINE
8
DEFAULT_255_2_778
10
16.8206617
20
10.8887722
11
16.8362617
21
10.9400722
0
LINE
8
DEFAULT_255_2_778
10
16.8362617
20
10.9400722
11
16.8674617
21
11.0033722
0
LINE
8
DEFAULT_255_2_778
10
16.8674617
20
11.0033722
11
16.9180617
21
11.0615722
0
LINE
8
DEFAULT_255_2_778
10
16.9180617
20
11.0615722
11
17.0188617
21
11.1168722
0
LINE
8
DEFAULT_255_2_778
10
17.0188617
20
11.1168722
11
17.1979617
21
11.1387722
0
LINE
8
DEFAULT_255_2_778
10
17.1979617
20
11.1387722
11
17.3291617
21
11.1128722
0
LINE
8
DEFAULT_255_2_778
10
17.3291617
20
11.1128722
11
17.4056617
21
11.0628722
0
LINE
8
DEFAULT_255_2_778
10
17.4056617
20
11.0628722
11
17.4490617
21
11.0096722
0
LINE
8
DEFAULT_255_2_778
10
17.4490617
20
11.0096722
11
17.4683617
21
10.9694722
0
LINE
8
DEFAULT_255_2_778
10
17.4683617
20
10.9694722
11
17.4773617
21
10.9358722
0
LINE
8
DEFAULT_255_2_778
10
17.4773617
20
10.9358722
11
17.4791617
21
10.9244722
0
LINE
8
DEFAULT_255_2_778
10
17.4791617
20
10.9244722
11
17.3976617
21
10.9043722
0
LINE
8
DEFAULT_255_2_778
10
17.3976617
20
10.9043722
11
17.3852617
21
10.9435722
0
LINE
8
DEFAULT_255_2_778
10
17.3852617
20
10.9435722
11
17.3529617
21
10.9959722
0
LINE
8
DEFAULT_255_2_778
10
17.3529617
20
10.9959722
11
17.2791617
21
11.0408722
0
LINE
8
DEFAULT_255_2_778
10
17.2791617
20
11.0408722
11
17.1008617
21
11.0498722
0
LINE
8
DEFAULT_255_2_778
10
17.1008617
20
11.0498722
11
16.9918617
21
11.0146722
0
LINE
8
DEFAULT_255_2_778
10
16.9918617
20
11.0146722
11
16.9370617
21
10.9570722
0
LINE
8
DEFAULT_255_2_778
10
16.9370617
20
10.9570722
11
16.9106617
21
10.8988722
0
LINE
8
DEFAULT_255_2_778
10
16.9106617
20
10.8988722
11
16.9005617
21
10.8615722
0
LINE
8
DEFAULT_255_2_778
10
16.9005617
20
10.8615722
11
16.8952617
21
10.8321722
0
LINE
8
DEFAULT_255_2_778
10
16.8952617
20
10.8321722
11
16.8931617
21
10.2675722
0
LINE
8
DEFAULT_255_2_778
10
16.0438617
20
10.2675722
11
16.0501617
21
10.2246722
0
LINE
8
DEFAULT_255_2_778
10
16.0501617
20
10.2246722
11
16.0602617
21
10.1809722
0
LINE
8
DEFAULT_255_2_778
10
16.0602617
20
10.1809722
11
16.0792617
21
10.1294722
0
LINE
8
DEFAULT_255_2_778
10
16.0792617
20
10.1294722
11
16.1152617
21
10.0714722
0
LINE
8
DEFAULT_255_2_778
10
16.1152617
20
10.0714722
11
16.1880617
21
10.0211722
0
LINE
8
DEFAULT_255_2_778
10
16.1880617
20
10.0211722
11
16.4094617
21
10.0158722
0
LINE
8
DEFAULT_255_2_778
10
16.4094617
20
10.0158722
11
16.4994617
21
10.0661722
0
LINE
8
DEFAULT_255_2_778
10
16.4994617
20
10.0661722
11
16.5404617
21
10.1254722
0
LINE
8
DEFAULT_255_2_778
10
16.5404617
20
10.1254722
11
16.5502617
21
10.1503722
0
LINE
8
DEFAULT_255_2_778
10
16.5502617
20
10.1503722
11
16.6285617
21
10.1219722
0
LINE
8
DEFAULT_255_2_778
10
16.6285617
20
10.1219722
11
16.6155617
21
10.0868722
0
LINE
8
DEFAULT_255_2_778
10
16.6155617
20
10.0868722
11
16.5817617
21
10.0323722
0
LINE
8
DEFAULT_255_2_778
10
16.5817617
20
10.0323722
11
16.4989617
21
9.9632722
0
LINE
8
DEFAULT_255_2_778
10
16.4989617
20
9.9632722
11
16.3761617
21
9.9267722
0
LINE
8
DEFAULT_255_2_778
10
16.3761617
20
9.9267722
11
16.1882617
21
9.9354722
0
LINE
8
DEFAULT_255_2_778
10
16.1882617
20
9.9354722
11
16.0747617
21
9.9918722
0
LINE
8
DEFAULT_255_2_778
10
16.0747617
20
9.9918722
11
16.0284617
21
10.0455722
0
LINE
8
DEFAULT_255_2_778
10
16.0284617
20
10.0455722
11
15.9983617
21
10.1034722
0
LINE
8
DEFAULT_255_2_778
10
15.9983617
20
10.1034722
11
15.9800617
21
10.1569722
0
LINE
8
DEFAULT_255_2_778
10
15.9800617
20
10.1569722
11
15.9676617
21
10.2095722
0
LINE
8
DEFAULT_255_2_778
10
15.9676617
20
10.2095722
11
15.9602617
21
10.2564722
0
LINE
8
DEFAULT_255_2_778
10
15.9602617
20
10.2564722
11
15.9623617
21
10.8403722
0
LINE
8
DEFAULT_255_2_778
10
15.9623617
20
10.8403722
11
15.9718617
21
10.8887722
0
LINE
8
DEFAULT_255_2_778
10
15.9718617
20
10.8887722
11
15.9874617
21
10.9400722
0
LINE
8
DEFAULT_255_2_778
10
15.9874617
20
10.9400722
11
16.0186617
21
11.0033722
0
LINE
8
DEFAULT_255_2_778
10
16.0186617
20
11.0033722
11
16.0692617
21
11.0615722
0
LINE
8
DEFAULT_255_2_778
10
16.0692617
20
11.0615722
11
16.1700617
21
11.1168722
0
LINE
8
DEFAULT_255_2_778
10
16.1700617
20
11.1168722
11
16.3491617
21
11.1387722
0
LINE
8
DEFAULT_255_2_778
10
16.3491617
20
11.1387722
11
16.4803617
21
11.1128722
0
LINE
8
DEFAULT_255_2_778
10
16.4803617
20
11.1128722
11
16.5568617
21
11.0628722
0
LINE
8
DEFAULT_255_2_778
10
16.5568617
20
11.0628722
11
16.6002617
21
11.0096722
0
LINE
8
DEFAULT_255_2_778
10
16.6002617
20
11.0096722
11
16.6195617
21
10.9694722
0
LINE
8
DEFAULT_255_2_778
10
16.6195617
20
10.9694722
11
16.6288617
21
10.9358722
0
LINE
8
DEFAULT_255_2_778
10
16.6288617
20
10.9358722
11
16.6306617
21
10.9244722
0
LINE
8
DEFAULT_255_2_778
10
16.6306617
20
10.9244722
11
16.5491617
21
10.9043722
0
LINE
8
DEFAULT_255_2_778
10
16.5491617
20
10.9043722
11
16.5367617
21
10.9435722
0
LINE
8
DEFAULT_255_2_778
10
16.5367617
20
10.9435722
11
16.5042617
21
10.9959722
0
LINE
8
DEFAULT_255_2_778
10
16.5042617
20
10.9959722
11
16.4303617
21
11.0408722
0
LINE
8
DEFAULT_255_2_778
10
16.4303617
20
11.0408722
11
16.2520617
21
11.0498722
0
LINE
8
DEFAULT_255_2_778
10
16.2520617
20
11.0498722
11
16.1430617
21
11.0146722
0
LINE
8
DEFAULT_255_2_778
10
16.1430617
20
11.0146722
11
16.0882617
21
10.9570722
0
LINE
8
DEFAULT_255_2_778
10
16.0882617
20
10.9570722
11
16.0618617
21
10.8988722
0
LINE
8
DEFAULT_255_2_778
10
16.0618617
20
10.8988722
11
16.0517617
21
10.8615722
0
LINE
8
DEFAULT_255_2_778
10
16.0517617
20
10.8615722
11
16.0464617
21
10.8321722
0
LINE
8
DEFAULT_255_2_778
10
16.0464617
20
10.8321722
11
16.0443617
21
10.2675722
0
LINE
8
DEFAULT_255_2_778
10
18.0276617
20
9.9240722
11
18.0276617
21
10.2370722
0
LINE
8
DEFAULT_255_2_778
10
18.0276617
20
10.2370722
11
17.5784617
21
10.2370722
0
LINE
8
DEFAULT_255_2_778
10
17.5784617
20
10.2370722
11
17.5784617
21
10.3585722
0
LINE
8
DEFAULT_255_2_778
10
17.5784617
20
10.3585722
11
17.9146617
21
11.1062722
0
LINE
8
DEFAULT_255_2_778
10
17.9146617
20
11.1062722
11
18.1126617
21
11.1062722
0
LINE
8
DEFAULT_255_2_778
10
18.1126617
20
11.1062722
11
18.1126617
21
10.3191722
0
LINE
8
DEFAULT_255_2_778
10
18.1126617
20
10.3191722
11
18.2890617
21
10.3191722
0
LINE
8
DEFAULT_255_2_778
10
18.2890617
20
10.3191722
11
18.2890617
21
10.2370722
0
LINE
8
DEFAULT_255_2_778
10
18.2890617
20
10.2370722
11
18.1126617
21
10.2370722
0
LINE
8
DEFAULT_255_2_778
10
18.1126617
20
10.2370722
11
18.1126617
21
9.9238722
0
LINE
8
DEFAULT_255_2_778
10
18.1126617
20
9.9238722
11
18.0276617
21
9.9240722
0
LINE
8
DEFAULT_255_2_778
10
17.6829617
20
10.3865722
11
17.6575617
21
10.3323722
0
LINE
8
DEFAULT_255_2_778
10
17.6575617
20
10.3323722
11
17.6575617
21
10.3206722
0
LINE
8
DEFAULT_255_2_778
10
17.6575617
20
10.3206722
11
18.0274617
21
10.3206722
0
LINE
8
DEFAULT_255_2_778
10
18.0274617
20
10.3206722
11
18.0274617
21
11.0258722
0
LINE
8
DEFAULT_255_2_778
10
18.0274617
20
11.0258722
11
17.9691617
21
11.0258722
0
LINE
8
DEFAULT_255_2_778
10
17.9691617
20
11.0258722
11
17.6879617
21
10.4043722
0
LINE
8
DEFAULT_255_2_778
10
19.1553617
20
10.4971722
11
19.1534617
21
10.6866722
0
LINE
8
DEFAULT_255_2_778
10
19.1534617
20
10.6866722
11
19.1524617
21
10.7128722
0
LINE
8
DEFAULT_255_2_778
10
19.1524617
20
10.7128722
11
19.1510617
21
10.7390722
0
LINE
8
DEFAULT_255_2_778
10
19.1510617
20
10.7390722
11
19.1492617
21
10.7638722
0
LINE
8
DEFAULT_255_2_778
10
19.1492617
20
10.7638722
11
19.1468617
21
10.7887722
0
LINE
8
DEFAULT_255_2_778
10
19.1468617
20
10.7887722
11
19.1439617
21
10.8125722
0
LINE
8
DEFAULT_255_2_778
10
19.1439617
20
10.8125722
11
19.1405617
21
10.8361722
0
LINE
8
DEFAULT_255_2_778
10
19.1405617
20
10.8361722
11
19.1365617
21
10.8585722
0
LINE
8
DEFAULT_255_2_778
10
19.1365617
20
10.8585722
11
19.1280617
21
10.8951722
0
LINE
8
DEFAULT_255_2_778
10
19.1280617
20
10.8951722
11
19.1100617
21
10.9496722
0
LINE
8
DEFAULT_255_2_778
10
19.1100617
20
10.9496722
11
19.0854617
21
10.9990722
0
LINE
8
DEFAULT_255_2_778
10
19.0854617
20
10.9990722
11
19.0431617
21
11.0533722
0
LINE
8
DEFAULT_255_2_778
10
19.0431617
20
11.0533722
11
18.9724617
21
11.1054722
0
LINE
8
DEFAULT_255_2_778
10
18.9724617
20
11.1054722
11
18.8632617
21
11.1366722
0
LINE
8
DEFAULT_255_2_778
10
18.8632617
20
11.1366722
11
18.7177617
21
11.1282722
0
LINE
8
DEFAULT_255_2_778
10
18.7177617
20
11.1282722
11
18.6280617
21
11.0890722
0
LINE
8
DEFAULT_255_2_778
10
18.6280617
20
11.0890722
11
18.5753617
21
11.0430722
0
LINE
8
DEFAULT_255_2_778
10
18.5753617
20
11.0430722
11
18.5425617
21
10.9990722
0
LINE
8
DEFAULT_255_2_778
10
18.5425617
20
10.9990722
11
18.5179617
21
10.9496722
0
LINE
8
DEFAULT_255_2_778
10
18.5179617
20
10.9496722
11
18.4996617
21
10.8951722
0
LINE
8
DEFAULT_255_2_778
10
18.4996617
20
10.8951722
11
18.4906617
21
10.8585722
0
LINE
8
DEFAULT_255_2_778
10
18.4906617
20
10.8585722
11
18.4864617
21
10.8361722
0
LINE
8
DEFAULT_255_2_778
10
18.4864617
20
10.8361722
11
18.4827617
21
10.8125722
0
LINE
8
DEFAULT_255_2_778
10
18.4827617
20
10.8125722
11
18.4795617
21
10.7887722
0
LINE
8
DEFAULT_255_2_778
10
18.4795617
20
10.7887722
11
18.4769617
21
10.7638722
0
LINE
8
DEFAULT_255_2_778
10
18.4769617
20
10.7638722
11
18.4769617
21
10.2505722
0
LINE
8
DEFAULT_255_2_778
10
18.4769617
20
10.2505722
11
18.4795617
21
10.2257722
0
LINE
8
DEFAULT_255_2_778
10
18.4795617
20
10.2257722
11
18.4827617
21
10.2021722
0
LINE
8
DEFAULT_255_2_778
10
18.4827617
20
10.2021722
11
18.4864617
21
10.1786722
0
LINE
8
DEFAULT_255_2_778
10
18.4864617
20
10.1786722
11
18.4959617
21
10.1339722
0
LINE
8
DEFAULT_255_2_778
10
18.4959617
20
10.1339722
11
18.5129617
21
10.0786722
0
LINE
8
DEFAULT_255_2_778
10
18.5129617
20
10.0786722
11
18.5359617
21
10.0278722
0
LINE
8
DEFAULT_255_2_778
10
18.5359617
20
10.0278722
11
18.5674617
21
9.9822722
0
LINE
8
DEFAULT_255_2_778
10
18.5674617
20
9.9822722
11
18.6383617
21
9.9201722
0
LINE
8
DEFAULT_255_2_778
10
18.6383617
20
9.9201722
11
18.7290617
21
9.8841722
0
LINE
8
DEFAULT_255_2_778
10
18.7290617
20
9.8841722
11
18.8746617
21
9.8799722
0
LINE
8
DEFAULT_255_2_778
10
18.8746617
20
9.8799722
11
18.9793617
21
9.9145722
0
LINE
8
DEFAULT_255_2_778
10
18.9793617
20
9.9145722
11
19.0397617
21
9.9616722
0
LINE
8
DEFAULT_255_2_778
10
19.0397617
20
9.9616722
11
19.0825617
21
10.0158722
0
LINE
8
DEFAULT_255_2_778
10
19.0825617
20
10.0158722
11
19.1079617
21
10.0653722
0
LINE
8
DEFAULT_255_2_778
10
19.1079617
20
10.0653722
11
19.1270617
21
10.1198722
0
LINE
8
DEFAULT_255_2_778
10
19.1270617
20
10.1198722
11
19.1375617
21
10.1637722
0
LINE
8
DEFAULT_255_2_778
10
19.1375617
20
10.1637722
11
19.1442617
21
10.2024722
0
LINE
8
DEFAULT_255_2_778
10
19.1442617
20
10.2024722
11
19.1473617
21
10.2259722
0
LINE
8
DEFAULT_255_2_778
10
19.1473617
20
10.2259722
11
19.1500617
21
10.2508722
0
LINE
8
DEFAULT_255_2_778
10
19.1500617
20
10.2508722
11
19.1521617
21
10.2757722
0
LINE
8
DEFAULT_255_2_778
10
19.1521617
20
10.2757722
11
19.1534617
21
10.3016722
0
LINE
8
DEFAULT_255_2_778
10
19.1534617
20
10.3016722
11
19.1553617
21
10.3818722
0
LINE
8
DEFAULT_255_2_778
10
19.1553617
20
10.3818722
11
19.1553617
21
10.4971722
0
LINE
8
DEFAULT_255_2_778
10
18.5647617
20
10.4971722
11
18.5666617
21
10.3447722
0
LINE
8
DEFAULT_255_2_778
10
18.5666617
20
10.3447722
11
18.5687617
21
10.2974722
0
LINE
8
DEFAULT_255_2_778
10
18.5687617
20
10.2974722
11
18.5703617
21
10.2749722
0
LINE
8
DEFAULT_255_2_778
10
18.5703617
20
10.2749722
11
18.5724617
21
10.2524722
0
LINE
8
DEFAULT_255_2_778
10
18.5724617
20
10.2524722
11
18.5777617
21
10.2098722
0
LINE
8
DEFAULT_255_2_778
10
18.5777617
20
10.2098722
11
18.5851617
21
10.1696722
0
LINE
8
DEFAULT_255_2_778
10
18.5851617
20
10.1696722
11
18.5983617
21
10.1204722
0
LINE
8
DEFAULT_255_2_778
10
18.5983617
20
10.1204722
11
18.6161617
21
10.0759722
0
LINE
8
DEFAULT_255_2_778
10
18.6161617
20
10.0759722
11
18.6512617
21
10.0243722
0
LINE
8
DEFAULT_255_2_778
10
18.6512617
20
10.0243722
11
18.7110617
21
9.9817722
0
LINE
8
DEFAULT_255_2_778
10
18.7110617
20
9.9817722
11
18.8436617
21
9.9650722
0
LINE
8
DEFAULT_255_2_778
10
18.8436617
20
9.9650722
11
18.9367617
21
9.9931722
0
LINE
8
DEFAULT_255_2_778
10
18.9367617
20
9.9931722
11
18.9904617
21
10.0439722
0
LINE
8
DEFAULT_255_2_778
10
18.9904617
20
10.0439722
11
19.0153617
21
10.0862722
0
LINE
8
DEFAULT_255_2_778
10
19.0153617
20
10.0862722
11
19.0325617
21
10.1317722
0
LINE
8
DEFAULT_255_2_778
10
19.0325617
20
10.1317722
11
19.0423617
21
10.1693722
0
LINE
8
DEFAULT_255_2_778
10
19.0423617
20
10.1693722
11
19.0497617
21
10.2095722
0
LINE
8
DEFAULT_255_2_778
10
19.0497617
20
10.2095722
11
19.0486617
21
10.8202722
0
LINE
8
DEFAULT_255_2_778
10
19.0486617
20
10.8202722
11
19.0410617
21
10.8591722
0
LINE
8
DEFAULT_255_2_778
10
19.0410617
20
10.8591722
11
19.0264617
21
10.9062722
0
LINE
8
DEFAULT_255_2_778
10
19.0264617
20
10.9062722
11
19.0066617
21
10.9482722
0
LINE
8
DEFAULT_255_2_778
10
19.0066617
20
10.9482722
11
18.9608617
21
11.0051722
0
LINE
8
DEFAULT_255_2_778
10
18.9608617
20
11.0051722
11
18.8833617
21
11.0432722
0
LINE
8
DEFAULT_255_2_778
10
18.8833617
20
11.0432722
11
18.7301617
21
11.0395722
0
LINE
8
DEFAULT_255_2_778
10
18.7301617
20
11.0395722
11
18.6616617
21
11.0004722
0
LINE
8
DEFAULT_255_2_778
10
18.6616617
20
11.0004722
11
18.6198617
21
10.9480722
0
LINE
8
DEFAULT_255_2_778
10
18.6198617
20
10.9480722
11
18.6004617
21
10.9059722
0
LINE
8
DEFAULT_255_2_778
10
18.6004617
20
10.9059722
11
18.5864617
21
10.8588722
0
LINE
8
DEFAULT_255_2_778
10
18.5864617
20
10.8588722
11
18.5787617
21
10.8199722
0
LINE
8
DEFAULT_255_2_778
10
18.5787617
20
10.8199722
11
18.5743617
21
10.7853722
0
LINE
8
DEFAULT_255_2_778
10
18.5743617
20
10.7853722
11
18.5721617
21
10.7638722
0
LINE
8
DEFAULT_255_2_778
10
18.5721617
20
10.7638722
11
18.5703617
21
10.7413722
0
LINE
8
DEFAULT_255_2_778
10
18.5703617
20
10.7413722
11
18.5687617
21
10.7188722
0
LINE
8
DEFAULT_255_2_778
10
18.5687617
20
10.7188722
11
18.5668617
21
10.6715722
0
LINE
8
DEFAULT_255_2_778
10
18.5668617
20
10.6715722
11
18.5647617
21
10.4971722
0
LINE
8
DEFAULT_255_2_778
10
14.2404617
20
9.1866722
11
14.2404617
21
8.5516722
0
LINE
8
DEFAULT_255_2_778
10
14.2404617
20
8.5516722
11
14.2404617
21
8.3929722
0
LINE
8
DEFAULT_255_2_778
10
14.2404617
20
8.3929722
11
14.2404617
21
8.3532722
0
LINE
8
DEFAULT_255_2_778
10
14.2404617
20
8.3532722
11
14.2404617
21
8.3334722
0
LINE
8
DEFAULT_255_2_778
10
14.2404617
20
8.3334722
11
14.2412617
21
8.3135722
0
LINE
8
DEFAULT_255_2_778
10
14.2462617
20
8.2741722
11
14.2507617
21
8.2545722
0
LINE
8
DEFAULT_255_2_778
10
14.2507617
20
8.2545722
11
14.2565617
21
8.2352722
0
LINE
8
DEFAULT_255_2_778
10
14.2727617
20
8.1984722
11
14.2827617
21
8.1810722
0
LINE
8
DEFAULT_255_2_778
10
14.2827617
20
8.1810722
11
14.2941617
21
8.1643722
0
LINE
8
DEFAULT_255_2_778
10
14.2941617
20
8.1643722
11
14.3205617
21
8.1341722
0
LINE
8
DEFAULT_255_2_778
10
14.3205617
20
8.1341722
11
14.3356617
21
8.1209722
0
LINE
8
DEFAULT_255_2_778
10
14.3356617
20
8.1209722
11
14.3520617
21
8.1087722
0
LINE
8
DEFAULT_255_2_778
10
14.3520617
20
8.1087722
11
14.3872617
21
8.0889722
0
LINE
8
DEFAULT_255_2_778
10
14.3872617
20
8.0889722
11
14.4251617
21
8.0749722
0
LINE
8
DEFAULT_255_2_778
10
14.5841617
20
8.0751722
11
14.6034617
21
8.0815722
0
LINE
8
DEFAULT_255_2_778
10
14.6034617
20
8.0815722
11
14.6219617
21
8.0892722
0
LINE
8
DEFAULT_255_2_778
10
14.6219617
20
8.0892722
11
14.6566617
21
8.1090722
0
LINE
8
DEFAULT_255_2_778
10
14.6566617
20
8.1090722
11
14.6878617
21
8.1344722
0
LINE
8
DEFAULT_255_2_778
10
14.6878617
20
8.1344722
11
14.7142617
21
8.1646722
0
LINE
8
DEFAULT_255_2_778
10
14.7142617
20
8.1646722
11
14.7357617
21
8.1987722
0
LINE
8
DEFAULT_255_2_778
10
14.7669617
20
8.3138722
11
14.7677617
21
8.3336722
0
LINE
8
DEFAULT_255_2_778
10
14.7677617
20
8.3336722
11
14.7677617
21
8.3535722
0
LINE
8
DEFAULT_255_2_778
10
14.7677617
20
8.3535722
11
14.7677617
21
8.3932722
0
LINE
8
DEFAULT_255_2_778
10
14.7677617
20
8.3932722
11
14.7677617
21
8.5519722
0
LINE
8
DEFAULT_255_2_778
10
14.7677617
20
8.5519722
11
14.7677617
21
9.1869722
0
LINE
8
DEFAULT_255_2_778
10
14.7677617
20
9.1869722
11
14.8526617
21
9.1869722
0
LINE
8
DEFAULT_255_2_778
10
14.8526617
20
9.1869722
11
14.8526617
21
8.3413722
0
LINE
8
DEFAULT_255_2_778
10
14.8362617
20
8.2196722
11
14.8256617
21
8.1905722
0
LINE
8
DEFAULT_255_2_778
10
14.8256617
20
8.1905722
11
14.8127617
21
8.1627722
0
LINE
8
DEFAULT_255_2_778
10
14.7799617
20
8.1108722
11
14.7600617
21
8.0870722
0
LINE
8
DEFAULT_255_2_778
10
14.7600617
20
8.0870722
11
14.7381617
21
8.0656722
0
LINE
8
DEFAULT_255_2_778
10
14.7381617
20
8.0656722
11
14.6888617
21
8.0291722
0
LINE
8
DEFAULT_255_2_778
10
14.6888617
20
8.0291722
11
14.6616617
21
8.0143722
0
LINE
8
DEFAULT_255_2_778
10
14.6616617
20
8.0143722
11
14.6333617
21
8.0021722
0
LINE
8
DEFAULT_255_2_778
10
14.6333617
20
8.0021722
11
14.6042617
21
7.9923722
0
LINE
8
DEFAULT_255_2_778
10
14.6042617
20
7.9923722
11
14.5740617
21
7.9852722
0
LINE
8
DEFAULT_255_2_778
10
14.5740617
20
7.9852722
11
14.5129617
21
7.9786722
0
LINE
8
DEFAULT_255_2_778
10
14.5129617
20
7.9786722
11
14.4822617
21
7.9791722
0
LINE
8
DEFAULT_255_2_778
10
14.4822617
20
7.9791722
11
14.4515617
21
7.9823722
0
LINE
8
DEFAULT_255_2_778
10
14.4515617
20
7.9823722
11
14.3917617
21
7.9965722
0
LINE
8
DEFAULT_255_2_778
10
14.3917617
20
7.9965722
11
14.3629617
21
8.0074722
0
LINE
8
DEFAULT_255_2_778
10
14.3629617
20
8.0074722
11
14.3351617
21
8.0209722
0
LINE
8
DEFAULT_255_2_778
10
14.3351617
20
8.0209722
11
14.2840617
21
8.0548722
0
LINE
8
DEFAULT_255_2_778
10
14.2840617
20
8.0548722
11
14.2607617
21
8.0749722
0
LINE
8
DEFAULT_255_2_778
10
14.2607617
20
8.0749722
11
14.2393617
21
8.0974722
0
LINE
8
DEFAULT_255_2_778
10
14.2039617
20
8.1474722
11
14.1896617
21
8.1746722
0
LINE
8
DEFAULT_255_2_778
10
14.1896617
20
8.1746722
11
14.1777617
21
8.2032722
0
LINE
8
DEFAULT_255_2_778
10
14.1557617
20
8.3238722
11
14.1554617
21
8.3548722
0
LINE
8
DEFAULT_255_2_778
10
14.1554617
20
8.3548722
11
14.1554617
21
8.3857722
0
LINE
8
DEFAULT_255_2_778
10
14.1554617
20
8.3857722
11
14.1554617
21
8.4474722
0
LINE
8
DEFAULT_255_2_778
10
14.1554617
20
8.4474722
11
14.1554617
21
8.6940722
0
LINE
8
DEFAULT_255_2_778
10
14.1554617
20
8.6940722
11
14.1554617
21
9.1872722
0
LINE
8
DEFAULT_255_2_778
10
14.1554617
20
9.1872722
11
14.2404617
21
9.1872722
0
ARC
8
DEFAULT_255_2_778
10
13.5407464
20
8.3116429
40
0.2351106
50
335.00011
51
348.1296661
0
ARC
8
DEFAULT_255_2_778
10
13.447688
20
8.35819
40
0.3312806
50
2.1782097
51
11.4902104
0
ARC
8
DEFAULT_255_2_778
10
13.5334263
20
8.3779515
40
0.2433347
50
10.951858
51
23.7056269
0
ARC
8
DEFAULT_255_2_778
10
13.6162035
20
8.4129786
40
0.1538931
50
44.4673987
51
66.4752409
0
ARC
8
DEFAULT_255_2_778
10
13.4572927
20
8.7237559
40
0.4590086
50
71.5538345
51
84.8081007
0
ARC
8
DEFAULT_255_2_778
10
13.4677657
20
8.7611814
40
0.4201964
50
59.8636721
51
71.2938071
0
ARC
8
DEFAULT_255_2_778
10
13.5464878
20
8.8684982
40
0.2841048
50
11.8586683
51
20.3681681
0
ARC
8
DEFAULT_255_2_778
10
13.4953086
20
8.8591302
40
0.3361196
50
359.811264
51
11.6286848
0
ARC
8
DEFAULT_255_2_778
10
13.4466369
20
8.858102
40
0.3847895
50
357.7479064
51
359.9882259
0
ARC
8
DEFAULT_255_2_778
10
13.4670441
20
8.8559524
40
0.364316
50
355.7508784
51
357.9596076
0
ARC
8
DEFAULT_255_2_778
10
13.4902021
20
8.8540519
40
0.341081
50
351.0486696
51
355.7810116
0
ARC
8
DEFAULT_255_2_778
10
13.5330133
20
8.8465627
40
0.297627
50
343.1280444
51
351.1905107
0
ARC
8
DEFAULT_255_2_778
10
13.5916538
20
8.8277585
40
0.236055
50
333.1332781
51
343.3647754
0
ARC
8
DEFAULT_255_2_778
10
13.6132616
20
8.4027743
40
0.246725
50
45.9424908
51
63.8162772
0
ARC
8
DEFAULT_255_2_778
10
13.5502071
20
8.3803148
40
0.3122481
50
12.1775905
51
19.1763749
0
ARC
8
DEFAULT_255_2_778
10
13.6194543
20
8.2760915
40
0.2354567
50
336.4675922
51
345.8122998
0
ARC
8
DEFAULT_255_2_778
10
13.511685
20
8.8497081
40
0.2341824
50
343.8529693
51
354.602861
0
ARC
8
DEFAULT_255_2_778
10
13.4788458
20
8.8571679
40
0.2674614
50
3.0462341
51
7.7058921
0
ARC
8
DEFAULT_255_2_778
10
13.5272065
20
8.8635767
40
0.2186779
50
7.7409152
51
13.5148728
0
ARC
8
DEFAULT_255_2_778
10
13.548219
20
8.8686714
40
0.1970567
50
13.5023578
51
26.3972567
0
ARC
8
DEFAULT_255_2_778
10
13.5361309
20
8.8655678
40
0.2092803
50
25.6869762
51
43.1441568
0
LINE
8
DEFAULT_255_2_778
10
13.2651292
20
8.0680812
11
13.3733292
21
8.0680812
0
LINE
8
DEFAULT_255_2_778
10
13.3733292
20
8.0680812
11
13.4276292
21
8.0680812
0
LINE
8
DEFAULT_255_2_778
10
13.4276292
20
8.0680812
11
13.4546292
21
8.0680812
0
LINE
8
DEFAULT_255_2_778
10
13.4546292
20
8.0680812
11
13.4816292
21
8.0690812
0
LINE
8
DEFAULT_255_2_778
10
13.4816292
20
8.0690812
11
13.5355292
21
8.0735812
0
LINE
8
DEFAULT_255_2_778
10
13.5355292
20
8.0735812
11
13.5623292
21
8.0772812
0
LINE
8
DEFAULT_255_2_778
10
13.5623292
20
8.0772812
11
13.5887292
21
8.0828812
0
LINE
8
DEFAULT_255_2_778
10
13.5887292
20
8.0828812
11
13.6398292
21
8.1008812
0
LINE
8
DEFAULT_255_2_778
10
13.6398292
20
8.1008812
11
13.6636292
21
8.1132812
0
LINE
8
DEFAULT_255_2_778
10
13.6636292
20
8.1132812
11
13.6861292
21
8.1283812
0
LINE
8
DEFAULT_255_2_778
10
13.6861292
20
8.1283812
11
13.7067292
21
8.1463812
0
LINE
8
DEFAULT_255_2_778
10
13.7067292
20
8.1463812
11
13.7247292
21
8.1664812
0
LINE
8
DEFAULT_255_2_778
10
13.7247292
20
8.1664812
11
13.7403292
21
8.1884812
0
LINE
8
DEFAULT_255_2_778
10
13.7403292
20
8.1884812
11
13.7538292
21
8.2122812
0
LINE
8
DEFAULT_255_2_778
10
13.7708292
20
8.2632812
11
13.7755292
21
8.2900812
0
LINE
8
DEFAULT_255_2_778
10
13.7755292
20
8.2900812
11
13.7782292
21
8.3170812
0
LINE
8
DEFAULT_255_2_778
10
13.7782292
20
8.3170812
11
13.7787292
21
8.3707812
0
LINE
8
DEFAULT_255_2_778
10
13.7562292
20
8.4757812
11
13.7430292
21
8.4995812
0
LINE
8
DEFAULT_255_2_778
10
13.7430292
20
8.4995812
11
13.7260292
21
8.5207812
0
LINE
8
DEFAULT_255_2_778
10
13.6776292
20
8.5540812
11
13.6496292
21
8.5641812
0
LINE
8
DEFAULT_255_2_778
10
13.6496292
20
8.5641812
11
13.6207292
21
8.5707812
0
LINE
8
DEFAULT_255_2_778
10
13.6207292
20
8.5707812
11
13.5617292
21
8.5757812
0
LINE
8
DEFAULT_255_2_778
10
13.5617292
20
8.5757812
11
13.5469292
21
8.5757812
0
LINE
8
DEFAULT_255_2_778
10
13.5469292
20
8.5757812
11
13.5321292
21
8.5757812
0
LINE
8
DEFAULT_255_2_778
10
13.5321292
20
8.5757812
11
13.5025292
21
8.5757812
0
LINE
8
DEFAULT_255_2_778
10
13.5025292
20
8.5757812
11
13.2649292
21
8.5757812
0
LINE
8
DEFAULT_255_2_778
10
13.2649292
20
8.5757812
11
13.2651292
21
8.0680812
0
LINE
8
DEFAULT_255_2_778
10
13.1802292
20
9.1832812
11
13.3927292
21
9.1832812
0
LINE
8
DEFAULT_255_2_778
10
13.3927292
20
9.1832812
11
13.4458292
21
9.1832812
0
LINE
8
DEFAULT_255_2_778
10
13.4458292
20
9.1832812
11
13.4988292
21
9.1808812
0
LINE
8
DEFAULT_255_2_778
10
13.6787292
20
9.1245812
11
13.7136292
21
9.1009812
0
LINE
8
DEFAULT_255_2_778
10
13.7136292
20
9.1009812
11
13.7300292
21
9.0874812
0
LINE
8
DEFAULT_255_2_778
10
13.7300292
20
9.0874812
11
13.7453292
21
9.0729812
0
LINE
8
DEFAULT_255_2_778
10
13.7453292
20
9.0729812
11
13.7726292
21
9.0411812
0
LINE
8
DEFAULT_255_2_778
10
13.7726292
20
9.0411812
11
13.7954292
21
9.0054812
0
LINE
8
DEFAULT_255_2_778
10
13.7954292
20
9.0054812
11
13.8128292
21
8.9673812
0
LINE
8
DEFAULT_255_2_778
10
13.8022292
20
8.7210812
11
13.7922292
21
8.7022812
0
LINE
8
DEFAULT_255_2_778
10
13.7922292
20
8.7022812
11
13.7808292
21
8.6845812
0
LINE
8
DEFAULT_255_2_778
10
13.7808292
20
8.6845812
11
13.7541292
21
8.6522812
0
LINE
8
DEFAULT_255_2_778
10
13.7541292
20
8.6522812
11
13.7221292
21
8.6241812
0
LINE
8
DEFAULT_255_2_778
10
13.7848292
20
8.5800812
11
13.7980292
21
8.5659812
0
LINE
8
DEFAULT_255_2_778
10
13.7980292
20
8.5659812
11
13.8099292
21
8.5508812
0
LINE
8
DEFAULT_255_2_778
10
13.8099292
20
8.5508812
11
13.8300292
21
8.5183812
0
LINE
8
DEFAULT_255_2_778
10
13.8300292
20
8.5183812
11
13.8382292
21
8.5008812
0
LINE
8
DEFAULT_255_2_778
10
13.8382292
20
8.5008812
11
13.8451292
21
8.4828812
0
LINE
8
DEFAULT_255_2_778
10
13.8554292
20
8.4461812
11
13.8618292
21
8.4082812
0
LINE
8
DEFAULT_255_2_778
10
13.8618292
20
8.4082812
11
13.8647292
21
8.3699812
0
LINE
8
DEFAULT_255_2_778
10
13.8647292
20
8.3699812
11
13.8649292
21
8.3318812
0
LINE
8
DEFAULT_255_2_778
10
13.8649292
20
8.3318812
11
13.8620292
21
8.2937812
0
LINE
8
DEFAULT_255_2_778
10
13.8620292
20
8.2937812
11
13.8562292
21
8.2558812
0
LINE
8
DEFAULT_255_2_778
10
13.8562292
20
8.2558812
11
13.8522292
21
8.2371812
0
LINE
8
DEFAULT_255_2_778
10
13.8522292
20
8.2371812
11
13.8477292
21
8.2183812
0
LINE
8
DEFAULT_255_2_778
10
13.8353292
20
8.1820812
11
13.8178292
21
8.1479812
0
LINE
8
DEFAULT_255_2_778
10
13.8178292
20
8.1479812
11
13.7959292
21
8.1164812
0
LINE
8
DEFAULT_255_2_778
10
13.7959292
20
8.1164812
11
13.7700292
21
8.0881812
0
LINE
8
DEFAULT_255_2_778
10
13.7700292
20
8.0881812
11
13.7403292
21
8.0635812
0
LINE
8
DEFAULT_255_2_778
10
13.7403292
20
8.0635812
11
13.7081292
21
8.0428812
0
LINE
8
DEFAULT_255_2_778
10
13.7081292
20
8.0428812
11
13.6739292
21
8.0256812
0
LINE
8
DEFAULT_255_2_778
10
13.6739292
20
8.0256812
11
13.6382292
21
8.0114812
0
LINE
8
DEFAULT_255_2_778
10
13.6382292
20
8.0114812
11
13.5641292
21
7.9934812
0
LINE
8
DEFAULT_255_2_778
10
13.5641292
20
7.9934812
11
13.4882292
21
7.9857812
0
LINE
8
DEFAULT_255_2_778
10
13.4882292
20
7.9857812
11
13.4498292
21
7.9846812
0
LINE
8
DEFAULT_255_2_778
10
13.4498292
20
7.9846812
11
13.4114292
21
7.9846812
0
LINE
8
DEFAULT_255_2_778
10
13.4114292
20
7.9846812
11
13.3347292
21
7.9846812
0
LINE
8
DEFAULT_255_2_778
10
13.3347292
20
7.9846812
11
13.1813292
21
7.9846812
0
LINE
8
DEFAULT_255_2_778
10
13.1813292
20
7.9846812
11
13.1802292
21
9.1832812
0
LINE
8
DEFAULT_255_2_778
10
13.2651292
20
8.6591812
11
13.4416292
21
8.6591812
0
LINE
8
DEFAULT_255_2_778
10
13.4416292
20
8.6591812
11
13.5300292
21
8.6591812
0
LINE
8
DEFAULT_255_2_778
10
13.5300292
20
8.6591812
11
13.5519292
21
8.6591812
0
LINE
8
DEFAULT_255_2_778
10
13.5519292
20
8.6591812
11
13.5739292
21
8.6596812
0
LINE
8
DEFAULT_255_2_778
10
13.5739292
20
8.6596812
11
13.6173292
21
8.6665812
0
LINE
8
DEFAULT_255_2_778
10
13.6173292
20
8.6665812
11
13.6382292
21
8.6733812
0
LINE
8
DEFAULT_255_2_778
10
13.6382292
20
8.6733812
11
13.6580292
21
8.6829812
0
LINE
8
DEFAULT_255_2_778
10
13.6580292
20
8.6829812
11
13.6927292
21
8.7093812
0
LINE
8
DEFAULT_255_2_778
10
13.6927292
20
8.7093812
11
13.7072292
21
8.7257812
0
LINE
8
DEFAULT_255_2_778
10
13.7072292
20
8.7257812
11
13.7194292
21
8.7440812
0
LINE
8
DEFAULT_255_2_778
10
13.7194292
20
8.7440812
11
13.7292292
21
8.7638812
0
LINE
8
DEFAULT_255_2_778
10
13.7292292
20
8.7638812
11
13.7366292
21
8.7845812
0
LINE
8
DEFAULT_255_2_778
10
13.7448292
20
8.8276812
11
13.7461292
21
8.8496812
0
LINE
8
DEFAULT_255_2_778
10
13.7461292
20
8.8496812
11
13.7459292
21
8.8713812
0
LINE
8
DEFAULT_255_2_778
10
13.6888292
20
9.0086812
11
13.6652292
21
9.0305812
0
LINE
8
DEFAULT_255_2_778
10
13.6652292
20
9.0305812
11
13.6393292
21
9.0491812
0
LINE
8
DEFAULT_255_2_778
10
13.6393292
20
9.0491812
11
13.6112292
21
9.0644812
0
LINE
8
DEFAULT_255_2_778
10
13.6112292
20
9.0644812
11
13.5818292
21
9.0766812
0
LINE
8
DEFAULT_255_2_778
10
13.5818292
20
9.0766812
11
13.5202292
21
9.0927812
0
LINE
8
DEFAULT_255_2_778
10
13.5202292
20
9.0927812
11
13.4884292
21
9.0967812
0
LINE
8
DEFAULT_255_2_778
10
13.4884292
20
9.0967812
11
13.4567292
21
9.0983812
0
LINE
8
DEFAULT_255_2_778
10
13.4567292
20
9.0983812
11
13.4408292
21
9.0983812
0
LINE
8
DEFAULT_255_2_778
10
13.4408292
20
9.0983812
11
13.4249292
21
9.0983812
0
LINE
8
DEFAULT_255_2_778
10
13.4249292
20
9.0983812
11
13.3932292
21
9.0983812
0
LINE
8
DEFAULT_255_2_778
10
13.3932292
20
9.0983812
11
13.2657292
21
9.0983812
0
LINE
8
DEFAULT_255_2_778
10
13.2657292
20
9.0983812
11
13.2651292
21
8.6591812
0
ARC
8
DEFAULT_255_2_778
10
16.0236654
20
8.3094951
40
0.2295636
50
334.9459904
51
348.3863183
0
ARC
8
DEFAULT_255_2_778
10
15.925488
20
8.35819
40
0.3312806
50
2.1782097
51
11.4902104
0
ARC
8
DEFAULT_255_2_778
10
16.0055539
20
8.3761816
40
0.2492409
50
11.1035776
51
23.5539136
0
ARC
8
DEFAULT_255_2_778
10
16.0933425
20
8.4120176
40
0.1550381
50
44.5497384
51
66.3930327
0
ARC
8
DEFAULT_255_2_778
10
15.935129
20
8.7245973
40
0.4581673
50
71.5367136
51
84.8031037
0
ARC
8
DEFAULT_255_2_778
10
15.9466004
20
8.7630744
40
0.4180398
50
59.8560633
51
71.3579064
0
ARC
8
DEFAULT_255_2_778
10
16.0111054
20
8.8646892
40
0.2977905
50
12.0546678
51
20.1724224
0
ARC
8
DEFAULT_255_2_778
10
15.9705999
20
8.859045
40
0.3385943
50
359.7368109
51
11.5572351
0
ARC
8
DEFAULT_255_2_778
10
15.9007523
20
8.857592
40
0.4084382
50
357.9499643
51
359.9856435
0
ARC
8
DEFAULT_255_2_778
10
15.9664446
20
8.8553066
40
0.3427063
50
355.5906989
51
357.9389277
0
ARC
8
DEFAULT_255_2_778
10
15.9243863
20
8.8587797
40
0.3849072
50
351.3636751
51
355.5565511
0
ARC
8
DEFAULT_255_2_778
10
16.0108133
20
8.8465627
40
0.297627
50
343.1280444
51
351.1905107
0
ARC
8
DEFAULT_255_2_778
10
16.0694538
20
8.8277585
40
0.236055
50
333.1332781
51
343.3647754
0
ARC
8
DEFAULT_255_2_778
10
16.0910616
20
8.4027743
40
0.246725
50
45.9424908
51
63.8162772
0
ARC
8
DEFAULT_255_2_778
10
16.0280071
20
8.3803148
40
0.3122481
50
12.1775905
51
19.1763749
0
ARC
8
DEFAULT_255_2_778
10
16.0866695
20
8.2797073
40
0.2466066
50
336.6792715
51
345.6005987
0
ARC
8
DEFAULT_255_2_778
10
15.989485
20
8.8497081
40
0.2341824
50
343.8529693
51
354.602861
0
ARC
8
DEFAULT_255_2_778
10
15.9620984
20
8.8572302
40
0.2620131
50
3.0959794
51
7.8533588
0
ARC
8
DEFAULT_255_2_778
10
15.9857435
20
8.8603717
40
0.2381606
50
7.8819367
51
13.1815469
0
ARC
8
DEFAULT_255_2_778
10
16.026019
20
8.8686714
40
0.1970567
50
13.5023578
51
26.3972567
0
ARC
8
DEFAULT_255_2_778
10
16.013732
20
8.8651395
40
0.2096453
50
25.768896
51
43.2110827
0
LINE
8
DEFAULT_255_2_778
10
15.7429292
20
8.0680812
11
15.8511292
21
8.0680812
0
LINE
8
DEFAULT_255_2_778
10
15.8511292
20
8.0680812
11
15.9054292
21
8.0680812
0
LINE
8
DEFAULT_255_2_778
10
15.9054292
20
8.0680812
11
15.9324292
21
8.0680812
0
LINE
8
DEFAULT_255_2_778
10
15.9324292
20
8.0680812
11
15.9594292
21
8.0690812
0
LINE
8
DEFAULT_255_2_778
10
15.9594292
20
8.0690812
11
16.0133292
21
8.0735812
0
LINE
8
DEFAULT_255_2_778
10
16.0133292
20
8.0735812
11
16.0401292
21
8.0772812
0
LINE
8
DEFAULT_255_2_778
10
16.0401292
20
8.0772812
11
16.0665292
21
8.0828812
0
LINE
8
DEFAULT_255_2_778
10
16.0665292
20
8.0828812
11
16.1176292
21
8.1008812
0
LINE
8
DEFAULT_255_2_778
10
16.1176292
20
8.1008812
11
16.1414292
21
8.1132812
0
LINE
8
DEFAULT_255_2_778
10
16.1414292
20
8.1132812
11
16.1639292
21
8.1283812
0
LINE
8
DEFAULT_255_2_778
10
16.1639292
20
8.1283812
11
16.1845292
21
8.1463812
0
LINE
8
DEFAULT_255_2_778
10
16.1845292
20
8.1463812
11
16.2025292
21
8.1664812
0
LINE
8
DEFAULT_255_2_778
10
16.2025292
20
8.1664812
11
16.2181292
21
8.1884812
0
LINE
8
DEFAULT_255_2_778
10
16.2181292
20
8.1884812
11
16.2316292
21
8.2122812
0
LINE
8
DEFAULT_255_2_778
10
16.2485292
20
8.2632812
11
16.2533292
21
8.2900812
0
LINE
8
DEFAULT_255_2_778
10
16.2533292
20
8.2900812
11
16.2559292
21
8.3170812
0
LINE
8
DEFAULT_255_2_778
10
16.2559292
20
8.3170812
11
16.2565292
21
8.3707812
0
LINE
8
DEFAULT_255_2_778
10
16.2340292
20
8.4757812
11
16.2208292
21
8.4995812
0
LINE
8
DEFAULT_255_2_778
10
16.2208292
20
8.4995812
11
16.2038292
21
8.5207812
0
LINE
8
DEFAULT_255_2_778
10
16.1554292
20
8.5540812
11
16.1274292
21
8.5641812
0
LINE
8
DEFAULT_255_2_778
10
16.1274292
20
8.5641812
11
16.0985292
21
8.5707812
0
LINE
8
DEFAULT_255_2_778
10
16.0985292
20
8.5707812
11
16.0395292
21
8.5757812
0
LINE
8
DEFAULT_255_2_778
10
16.0395292
20
8.5757812
11
16.0247292
21
8.5757812
0
LINE
8
DEFAULT_255_2_778
10
16.0247292
20
8.5757812
11
16.0099292
21
8.5757812
0
LINE
8
DEFAULT_255_2_778
10
16.0099292
20
8.5757812
11
15.9803292
21
8.5757812
0
LINE
8
DEFAULT_255_2_778
10
15.9803292
20
8.5757812
11
15.7426292
21
8.5757812
0
LINE
8
DEFAULT_255_2_778
10
15.7426292
20
8.5757812
11
15.7429292
21
8.0680812
0
LINE
8
DEFAULT_255_2_778
10
15.6580292
20
9.1832812
11
15.8705292
21
9.1832812
0
LINE
8
DEFAULT_255_2_778
10
15.8705292
20
9.1832812
11
15.9236292
21
9.1832812
0
LINE
8
DEFAULT_255_2_778
10
15.9236292
20
9.1832812
11
15.9766292
21
9.1808812
0
LINE
8
DEFAULT_255_2_778
10
16.1565292
20
9.1245812
11
16.1914292
21
9.1009812
0
LINE
8
DEFAULT_255_2_778
10
16.1914292
20
9.1009812
11
16.2078292
21
9.0874812
0
LINE
8
DEFAULT_255_2_778
10
16.2078292
20
9.0874812
11
16.2231292
21
9.0729812
0
LINE
8
DEFAULT_255_2_778
10
16.2231292
20
9.0729812
11
16.2504292
21
9.0411812
0
LINE
8
DEFAULT_255_2_778
10
16.2504292
20
9.0411812
11
16.2732292
21
9.0054812
0
LINE
8
DEFAULT_255_2_778
10
16.2732292
20
9.0054812
11
16.2906292
21
8.9673812
0
LINE
8
DEFAULT_255_2_778
10
16.2800292
20
8.7210812
11
16.2700292
21
8.7022812
0
LINE
8
DEFAULT_255_2_778
10
16.2700292
20
8.7022812
11
16.2586292
21
8.6845812
0
LINE
8
DEFAULT_255_2_778
10
16.2586292
20
8.6845812
11
16.2319292
21
8.6522812
0
LINE
8
DEFAULT_255_2_778
10
16.2319292
20
8.6522812
11
16.1999292
21
8.6241812
0
LINE
8
DEFAULT_255_2_778
10
16.2626292
20
8.5800812
11
16.2758292
21
8.5659812
0
LINE
8
DEFAULT_255_2_778
10
16.2758292
20
8.5659812
11
16.2877292
21
8.5508812
0
LINE
8
DEFAULT_255_2_778
10
16.2877292
20
8.5508812
11
16.3078292
21
8.5183812
0
LINE
8
DEFAULT_255_2_778
10
16.3078292
20
8.5183812
11
16.3160292
21
8.5008812
0
LINE
8
DEFAULT_255_2_778
10
16.3160292
20
8.5008812
11
16.3229292
21
8.4828812
0
LINE
8
DEFAULT_255_2_778
10
16.3332292
20
8.4461812
11
16.3396292
21
8.4082812
0
LINE
8
DEFAULT_255_2_778
10
16.3396292
20
8.4082812
11
16.3425292
21
8.3699812
0
LINE
8
DEFAULT_255_2_778
10
16.3425292
20
8.3699812
11
16.3427292
21
8.3318812
0
LINE
8
DEFAULT_255_2_778
10
16.3427292
20
8.3318812
11
16.3398292
21
8.2937812
0
LINE
8
DEFAULT_255_2_778
10
16.3398292
20
8.2937812
11
16.3340292
21
8.2558812
0
LINE
8
DEFAULT_255_2_778
10
16.3340292
20
8.2558812
11
16.3300292
21
8.2371812
0
LINE
8
DEFAULT_255_2_778
10
16.3300292
20
8.2371812
11
16.3255292
21
8.2183812
0
LINE
8
DEFAULT_255_2_778
10
16.3131292
20
8.1820812
11
16.2956292
21
8.1479812
0
LINE
8
DEFAULT_255_2_778
10
16.2956292
20
8.1479812
11
16.2737292
21
8.1164812
0
LINE
8
DEFAULT_255_2_778
10
16.2737292
20
8.1164812
11
16.2478292
21
8.0881812
0
LINE
8
DEFAULT_255_2_778
10
16.2478292
20
8.0881812
11
16.2181292
21
8.0635812
0
LINE
8
DEFAULT_255_2_778
10
16.2181292
20
8.0635812
11
16.1858292
21
8.0428812
0
LINE
8
DEFAULT_255_2_778
10
16.1858292
20
8.0428812
11
16.1517292
21
8.0256812
0
LINE
8
DEFAULT_255_2_778
10
16.1517292
20
8.0256812
11
16.1160292
21
8.0114812
0
LINE
8
DEFAULT_255_2_778
10
16.1160292
20
8.0114812
11
16.0419292
21
7.9934812
0
LINE
8
DEFAULT_255_2_778
10
16.0419292
20
7.9934812
11
15.9660292
21
7.9857812
0
LINE
8
DEFAULT_255_2_778
10
15.9660292
20
7.9857812
11
15.9276292
21
7.9846812
0
LINE
8
DEFAULT_255_2_778
10
15.9276292
20
7.9846812
11
15.8892292
21
7.9846812
0
LINE
8
DEFAULT_255_2_778
10
15.8892292
20
7.9846812
11
15.8125292
21
7.9846812
0
LINE
8
DEFAULT_255_2_778
10
15.8125292
20
7.9846812
11
15.6591292
21
7.9846812
0
LINE
8
DEFAULT_255_2_778
10
15.6591292
20
7.9846812
11
15.6580292
21
9.1832812
0
LINE
8
DEFAULT_255_2_778
10
15.7429292
20
8.6591812
11
15.9194292
21
8.6591812
0
LINE
8
DEFAULT_255_2_778
10
15.9194292
20
8.6591812
11
16.0078292
21
8.6591812
0
LINE
8
DEFAULT_255_2_778
10
16.0078292
20
8.6591812
11
16.0297292
21
8.6591812
0
LINE
8
DEFAULT_255_2_778
10
16.0297292
20
8.6591812
11
16.0517292
21
8.6596812
0
LINE
8
DEFAULT_255_2_778
10
16.0517292
20
8.6596812
11
16.0951292
21
8.6665812
0
LINE
8
DEFAULT_255_2_778
10
16.0951292
20
8.6665812
11
16.1160292
21
8.6733812
0
LINE
8
DEFAULT_255_2_778
10
16.1160292
20
8.6733812
11
16.1358292
21
8.6829812
0
LINE
8
DEFAULT_255_2_778
10
16.1358292
20
8.6829812
11
16.1705292
21
8.7093812
0
LINE
8
DEFAULT_255_2_778
10
16.1705292
20
8.7093812
11
16.1850292
21
8.7257812
0
LINE
8
DEFAULT_255_2_778
10
16.1850292
20
8.7257812
11
16.1972292
21
8.7440812
0
LINE
8
DEFAULT_255_2_778
10
16.1972292
20
8.7440812
11
16.2070292
21
8.7638812
0
LINE
8
DEFAULT_255_2_778
10
16.2070292
20
8.7638812
11
16.2144292
21
8.7845812
0
LINE
8
DEFAULT_255_2_778
10
16.2226292
20
8.8276812
11
16.2239292
21
8.8496812
0
LINE
8
DEFAULT_255_2_778
10
16.2239292
20
8.8496812
11
16.2237292
21
8.8713812
0
LINE
8
DEFAULT_255_2_778
10
16.1665292
20
9.0086812
11
16.1430292
21
9.0305812
0
LINE
8
DEFAULT_255_2_778
10
16.1430292
20
9.0305812
11
16.1171292
21
9.0491812
0
LINE
8
DEFAULT_255_2_778
10
16.1171292
20
9.0491812
11
16.0890292
21
9.0644812
0
LINE
8
DEFAULT_255_2_778
10
16.0890292
20
9.0644812
11
16.0596292
21
9.0766812
0
LINE
8
DEFAULT_255_2_778
10
16.0596292
20
9.0766812
11
15.9980292
21
9.0927812
0
LINE
8
DEFAULT_255_2_778
10
15.9980292
20
9.0927812
11
15.9662292
21
9.0967812
0
LINE
8
DEFAULT_255_2_778
10
15.9662292
20
9.0967812
11
15.9345292
21
9.0983812
0
LINE
8
DEFAULT_255_2_778
10
15.9345292
20
9.0983812
11
15.9186292
21
9.0983812
0
LINE
8
DEFAULT_255_2_778
10
15.9186292
20
9.0983812
11
15.9027292
21
9.0983812
0
LINE
8
DEFAULT_255_2_778
10
15.9027292
20
9.0983812
11
15.8710292
21
9.0983812
0
LINE
8
DEFAULT_255_2_778
10
15.8710292
20
9.0983812
11
15.7435292
21
9.0983812
0
LINE
8
DEFAULT_255_2_778
10
15.7435292
20
9.0983812
11
15.7429292
21
8.6591812
0
ARC
8
DEFAULT_255_2_778
10
11.0525243
20
-10.8279561
40
19.9945149
50
71.6110054
51
71.8385469
0
LINE
8
DEFAULT_255_2_778
10
17.2847293
20
8.1704714
11
17.1773293
21
7.7730714
0
LINE
8
DEFAULT_255_2_778
10
17.3601293
20
8.1458714
11
17.2521293
21
7.7500714
0
ARC
8
DEFAULT_255_2_778
10
13.1185359
20
-5.6129007
40
13.9876952
50
72.8114942
51
73.1332192
0
ARC
8
DEFAULT_255_2_778
10
16.7922565
20
8.8929312
40
0.2091397
50
134.8618749
51
147.931144
0
ARC
8
DEFAULT_255_2_778
10
16.8205079
20
8.8758719
40
0.2421382
50
148.0597544
51
159.3481278
0
ARC
8
DEFAULT_255_2_778
10
16.9790353
20
8.8176791
40
0.4110053
50
159.551308
51
168.6065321
0
ARC
8
DEFAULT_255_2_778
10
17.0919546
20
8.3482463
40
0.5263607
50
190.5723303
51
197.6707326
0
ARC
8
DEFAULT_255_2_778
10
16.7784664
20
8.2911827
40
0.2466346
50
255.623616
51
269.9750907
0
ARC
8
DEFAULT_255_2_778
10
16.7783589
20
8.2893847
40
0.2448366
50
270.0000528
51
270.7887515
0
ARC
8
DEFAULT_255_2_778
10
16.455097
20
8.3534373
40
0.5432011
50
345.0573084
51
352.4825586
0
ARC
8
DEFAULT_255_2_778
10
16.2805198
20
8.7577887
40
0.719992
50
7.0751853
51
8.4817783
0
ARC
8
DEFAULT_255_2_778
10
16.4742784
20
8.7884677
40
0.5238306
50
8.2887207
51
14.0989469
0
ARC
8
DEFAULT_255_2_778
10
16.7422161
20
8.875199
40
0.2410938
50
26.3664654
51
43.1779542
0
ARC
8
DEFAULT_255_2_778
10
16.7819437
20
8.23868
40
0.2824192
50
209.2064522
51
226.1325406
0
ARC
8
DEFAULT_255_2_778
10
17.1935
20
8.7676427
40
0.716468
50
167.3478789
51
174.0211189
0
ARC
8
DEFAULT_255_2_778
10
16.7783076
20
8.8402751
40
0.3367049
50
89.9964696
51
103.8636
0
ARC
8
DEFAULT_255_2_778
10
16.7782998
20
8.8338638
40
0.3431161
50
89.5942931
51
89.9952244
0
ARC
8
DEFAULT_255_2_778
10
16.7831729
20
8.8377013
40
0.3392788
50
89.9999973
51
90.4126637
0
ARC
8
DEFAULT_255_2_778
10
16.7831823
20
8.8363225
40
0.3406577
50
88.8534954
51
90.00157
0
ARC
8
DEFAULT_255_2_778
10
16.7833026
20
8.8371864
40
0.3397917
50
76.3432062
51
88.8708751
0
ARC
8
DEFAULT_255_2_778
10
16.4773831
20
8.3516976
40
0.6037699
50
343.3468968
51
351.2520447
0
ARC
8
DEFAULT_255_2_778
10
16.7515399
20
8.1970209
40
0.2312801
50
224.376183
51
237.6338861
0
ARC
8
DEFAULT_255_2_778
10
18.2252056
20
8.2865886
40
0.2289374
50
334.8441353
51
348.3532551
0
ARC
8
DEFAULT_255_2_778
10
18.1260881
20
8.3351788
40
0.3312806
50
2.1784311
51
11.490427
0
ARC
8
DEFAULT_255_2_778
10
18.206171
20
8.3531769
40
0.2492233
50
11.1031632
51
23.5543825
0
ARC
8
DEFAULT_255_2_778
10
18.2939427
20
8.3893077
40
0.1550381
50
44.5497384
51
66.3930327
0
ARC
8
DEFAULT_255_2_778
10
18.1345935
20
8.6960681
40
0.4638577
50
71.6234749
51
84.7385726
0
ARC
8
DEFAULT_255_2_778
10
18.1439455
20
8.734664
40
0.4242943
50
59.8538474
51
71.178842
0
ARC
8
DEFAULT_255_2_778
10
18.2091986
20
8.8415275
40
0.3001969
50
12.0057306
51
20.0346231
0
ARC
8
DEFAULT_255_2_778
10
18.1723677
20
8.8357808
40
0.3374239
50
359.9894759
51
11.6593029
0
ARC
8
DEFAULT_255_2_778
10
18.1721878
20
8.8357189
40
0.3376036
50
359.3889235
51
359.9999917
0
ARC
8
DEFAULT_255_2_778
10
18.1710244
20
8.8357291
40
0.338767
50
357.3508639
51
359.3892991
0
ARC
8
DEFAULT_255_2_778
10
18.1396228
20
8.8330983
40
0.3700359
50
351.4323325
51
357.9825074
0
ARC
8
DEFAULT_255_2_778
10
18.2342861
20
8.8195765
40
0.2744155
50
350.0362687
51
351.2795383
0
ARC
8
DEFAULT_255_2_778
10
18.2098614
20
8.8242092
40
0.2992737
50
343.1123491
51
349.9718127
0
ARC
8
DEFAULT_255_2_778
10
18.260196
20
8.8093493
40
0.2467933
50
333.2768623
51
343.018797
0
ARC
8
DEFAULT_255_2_778
10
18.2955295
20
8.3860939
40
0.2395651
50
45.6050408
51
64.0315454
0
ARC
8
DEFAULT_255_2_778
10
18.2285832
20
8.357599
40
0.3122728
50
12.1777294
51
19.1759587
0
ARC
8
DEFAULT_255_2_778
10
18.2843125
20
8.2583772
40
0.2494742
50
336.6931477
51
345.4899303
0
ARC
8
DEFAULT_255_2_778
10
18.1815489
20
8.8283221
40
0.2428349
50
344.0450559
51
354.4108459
0
ARC
8
DEFAULT_255_2_778
10
18.1441349
20
8.8332162
40
0.2805041
50
3.0971066
51
6.6515816
0
ARC
8
DEFAULT_255_2_778
10
18.1882862
20
8.8384563
40
0.236043
50
6.6295568
51
13.0540485
0
ARC
8
DEFAULT_255_2_778
10
18.2255326
20
8.845155
40
0.1982552
50
13.5994588
51
26.3887469
0
ARC
8
DEFAULT_255_2_778
10
18.2105296
20
8.8395173
40
0.2142067
50
25.9559705
51
43.0239427
0
ARC
8
DEFAULT_255_2_778
10
7.6327176
20
5.5190202
40
0.2291985
50
41.5934041
51
60.6868205
0
ARC
8
DEFAULT_255_2_778
10
7.5986204
20
5.486112
40
0.2765518
50
26.213875
51
42.0028185
0
ARC
8
DEFAULT_255_2_778
10
7.3141753
20
5.3834669
40
0.5806231
50
7.8702167
51
15.3709848
0
ARC
8
DEFAULT_255_2_778
10
7.5749377
20
5.328085
40
0.3205135
50
343.2979963
51
350.152981
0
ARC
8
DEFAULT_255_2_778
10
7.532269
20
4.7790209
40
0.3724562
50
4.3962936
51
16.6391814
0
ARC
8
DEFAULT_255_2_778
10
7.2533098
20
4.7278268
40
0.649834
50
345.995783
51
353.021263
0
ARC
8
DEFAULT_255_2_778
10
7.6052798
20
4.6401674
40
0.3119999
50
270.2845551
51
284.9806105
0
ARC
8
DEFAULT_255_2_778
10
7.661603
20
4.6197998
40
0.2343088
50
198.4435698
51
214.2080744
0
ARC
8
DEFAULT_255_2_778
10
7.4587376
20
4.6877461
40
0.359855
50
336.9362917
51
347.2572274
0
ARC
8
DEFAULT_255_2_778
10
7.5831264
20
4.7788469
40
0.2428161
50
5.4885289
51
11.6114523
0
ARC
8
DEFAULT_255_2_778
10
7.6311522
20
4.7879081
40
0.193951
50
11.8449676
51
13.7694015
0
ARC
8
DEFAULT_255_2_778
10
7.6093029
20
5.3360729
40
0.2092875
50
301.5237517
51
318.4914323
0
ARC
8
DEFAULT_255_2_778
10
7.6199714
20
5.3288098
40
0.1957356
50
345.2185896
51
354.2711647
0
ARC
8
DEFAULT_255_2_778
10
7.6006165
20
5.4658894
40
0.1996226
50
25.6088758
51
43.369891
0
ARC
8
DEFAULT_255_2_778
10
7.6664282
20
5.442185
40
0.2433676
50
144.3662668
51
158.9315938
0
LINE
8
DEFAULT_255_2_778
10
17.3601293
20
8.1455714
11
17.3601293
21
8.1493714
0
LINE
8
DEFAULT_255_2_778
10
17.3601293
20
8.1493714
11
17.2847293
21
8.1741714
0
LINE
8
DEFAULT_255_2_778
10
17.2847293
20
8.1741714
11
17.2847293
21
8.1704714
0
LINE
8
DEFAULT_255_2_778
10
17.1773293
20
7.7730714
11
17.1773293
21
7.7767714
0
LINE
8
DEFAULT_255_2_778
10
17.1773293
20
7.7767714
11
17.2847293
21
8.1744714
0
LINE
8
DEFAULT_255_2_778
10
16.5761293
20
8.8988714
11
16.5706293
21
8.8671714
0
LINE
8
DEFAULT_255_2_778
10
16.5706293
20
8.8671714
11
16.5666293
21
8.8351714
0
LINE
8
DEFAULT_255_2_778
10
16.5666293
20
8.8351714
11
16.5613293
21
8.7702714
0
LINE
8
DEFAULT_255_2_778
10
16.5613293
20
8.7702714
11
16.5600293
21
8.7377714
0
LINE
8
DEFAULT_255_2_778
10
16.5600293
20
8.7377714
11
16.5592293
21
8.7051714
0
LINE
8
DEFAULT_255_2_778
10
16.5592293
20
8.7051714
11
16.5581293
21
8.5752714
0
LINE
8
DEFAULT_255_2_778
10
16.5581293
20
8.5752714
11
16.5589293
21
8.4453714
0
LINE
8
DEFAULT_255_2_778
10
16.5589293
20
8.4453714
11
16.5608293
21
8.3805714
0
LINE
8
DEFAULT_255_2_778
10
16.5608293
20
8.3805714
11
16.5655293
21
8.3159714
0
LINE
8
DEFAULT_255_2_778
10
16.5655293
20
8.3159714
11
16.5745293
21
8.2516714
0
LINE
8
DEFAULT_255_2_778
10
16.5904293
20
8.1884714
11
16.6018293
21
8.1580714
0
LINE
8
DEFAULT_255_2_778
10
16.6018293
20
8.1580714
11
16.6169293
21
8.1292714
0
LINE
8
DEFAULT_255_2_778
10
16.6169293
20
8.1292714
11
16.6359293
21
8.1030714
0
LINE
8
DEFAULT_255_2_778
10
16.6359293
20
8.1030714
11
16.6592293
21
8.0802714
0
LINE
8
DEFAULT_255_2_778
10
16.6592293
20
8.0802714
11
16.6867293
21
8.0633714
0
LINE
8
DEFAULT_255_2_778
10
16.6867293
20
8.0633714
11
16.7018293
21
8.0569714
0
LINE
8
DEFAULT_255_2_778
10
16.7018293
20
8.0569714
11
16.7172293
21
8.0522714
0
LINE
8
DEFAULT_255_2_778
10
16.7817293
20
8.0445714
11
16.8172293
21
8.0466714
0
LINE
8
DEFAULT_255_2_778
10
16.8172293
20
8.0466714
11
16.8518293
21
8.0540714
0
LINE
8
DEFAULT_255_2_778
10
16.8518293
20
8.0540714
11
16.8846293
21
8.0680714
0
LINE
8
DEFAULT_255_2_778
10
16.8846293
20
8.0680714
11
16.9132293
21
8.0895714
0
LINE
8
DEFAULT_255_2_778
10
16.9132293
20
8.0895714
11
16.9365293
21
8.1165714
0
LINE
8
DEFAULT_255_2_778
10
16.9365293
20
8.1165714
11
16.9550293
21
8.1469714
0
LINE
8
DEFAULT_255_2_778
10
16.9550293
20
8.1469714
11
16.9690293
21
8.1794714
0
LINE
8
DEFAULT_255_2_778
10
16.9690293
20
8.1794714
11
16.9799293
21
8.2133714
0
LINE
8
DEFAULT_255_2_778
10
16.9936293
20
8.2823714
11
17.0008293
21
8.3522714
0
LINE
8
DEFAULT_255_2_778
10
17.0008293
20
8.3522714
11
17.0026293
21
8.3874714
0
LINE
8
DEFAULT_255_2_778
10
17.0026293
20
8.3874714
11
17.0034293
21
8.4228714
0
LINE
8
DEFAULT_255_2_778
10
17.0034293
20
8.4228714
11
17.0045293
21
8.4935714
0
LINE
8
DEFAULT_255_2_778
10
17.0045293
20
8.4935714
11
17.0048293
21
8.5641714
0
LINE
8
DEFAULT_255_2_778
10
17.0048293
20
8.5641714
11
17.0045293
21
8.6347714
0
LINE
8
DEFAULT_255_2_778
10
17.0045293
20
8.6347714
11
17.0037293
21
8.7054714
0
LINE
8
DEFAULT_255_2_778
10
17.0037293
20
8.7054714
11
17.0010293
21
8.7760714
0
LINE
8
DEFAULT_255_2_778
10
17.0010293
20
8.7760714
11
16.9950293
21
8.8464714
0
LINE
8
DEFAULT_255_2_778
10
16.9823293
20
8.9160714
11
16.9719293
21
8.9496714
0
LINE
8
DEFAULT_255_2_778
10
16.9719293
20
8.9496714
11
16.9582293
21
8.9822714
0
LINE
8
DEFAULT_255_2_778
10
16.9180293
20
9.0401714
11
16.8889293
21
9.0628714
0
LINE
8
DEFAULT_255_2_778
10
16.8889293
20
9.0628714
11
16.8550293
21
9.0779714
0
LINE
8
DEFAULT_255_2_778
10
16.8550293
20
9.0779714
11
16.8188293
21
9.0859714
0
LINE
8
DEFAULT_255_2_778
10
16.8188293
20
9.0859714
11
16.7817293
21
9.0883714
0
LINE
8
DEFAULT_255_2_778
10
16.7817293
20
9.0883714
11
16.7449293
21
9.0861714
0
LINE
8
DEFAULT_255_2_778
10
16.7449293
20
9.0861714
11
16.7087293
21
9.0782714
0
LINE
8
DEFAULT_255_2_778
10
16.7087293
20
9.0782714
11
16.6748293
21
9.0631714
0
LINE
8
DEFAULT_255_2_778
10
16.6748293
20
9.0631714
11
16.6447293
21
9.0411714
0
LINE
8
DEFAULT_255_2_778
10
16.5354293
20
8.1008714
11
16.5259293
21
8.1196714
0
LINE
8
DEFAULT_255_2_778
10
16.5259293
20
8.1196714
11
16.5177293
21
8.1389714
0
LINE
8
DEFAULT_255_2_778
10
16.5177293
20
8.1389714
11
16.5042293
21
8.1784714
0
LINE
8
DEFAULT_255_2_778
10
16.5042293
20
8.1784714
11
16.4936293
21
8.2186714
0
LINE
8
DEFAULT_255_2_778
10
16.4936293
20
8.2186714
11
16.4859293
21
8.2596714
0
LINE
8
DEFAULT_255_2_778
10
16.4859293
20
8.2596714
11
16.4766293
21
8.3426714
0
LINE
8
DEFAULT_255_2_778
10
16.4766293
20
8.3426714
11
16.4745293
21
8.3842714
0
LINE
8
DEFAULT_255_2_778
10
16.4745293
20
8.3842714
11
16.4737293
21
8.4257714
0
LINE
8
DEFAULT_255_2_778
10
16.4737293
20
8.4257714
11
16.4729293
21
8.5091714
0
LINE
8
DEFAULT_255_2_778
10
16.4729293
20
8.5091714
11
16.4727293
21
8.5924714
0
LINE
8
DEFAULT_255_2_778
10
16.4727293
20
8.5924714
11
16.4732293
21
8.6758714
0
LINE
8
DEFAULT_255_2_778
10
16.4732293
20
8.6758714
11
16.4737293
21
8.7173714
0
LINE
8
DEFAULT_255_2_778
10
16.4737293
20
8.7173714
11
16.4748293
21
8.7589714
0
LINE
8
DEFAULT_255_2_778
10
16.4748293
20
8.7589714
11
16.4809293
21
8.8422714
0
LINE
8
DEFAULT_255_2_778
10
16.4944293
20
8.9245714
11
16.5052293
21
8.9650714
0
LINE
8
DEFAULT_255_2_778
10
16.5052293
20
8.9650714
11
16.5190293
21
9.0041714
0
LINE
8
DEFAULT_255_2_778
10
16.5190293
20
9.0041714
11
16.5370293
21
9.0417714
0
LINE
8
DEFAULT_255_2_778
10
16.5370293
20
9.0417714
11
16.5603293
21
9.0766714
0
LINE
8
DEFAULT_255_2_778
10
16.5603293
20
9.0766714
11
16.5883293
21
9.1076714
0
LINE
8
DEFAULT_255_2_778
10
16.5883293
20
9.1076714
11
16.6211293
21
9.1338714
0
LINE
8
DEFAULT_255_2_778
10
16.6211293
20
9.1338714
11
16.6579293
21
9.1536714
0
LINE
8
DEFAULT_255_2_778
10
16.6579293
20
9.1536714
11
16.6775293
21
9.1610714
0
LINE
8
DEFAULT_255_2_778
10
16.6775293
20
9.1610714
11
16.6976293
21
9.1671714
0
LINE
8
DEFAULT_255_2_778
10
16.8635293
20
9.1673714
11
16.9034293
21
9.1539714
0
LINE
8
DEFAULT_255_2_778
10
16.9034293
20
9.1539714
11
16.9402293
21
9.1340714
0
LINE
8
DEFAULT_255_2_778
10
16.9402293
20
9.1340714
11
16.9571293
21
9.1216714
0
LINE
8
DEFAULT_255_2_778
10
16.9571293
20
9.1216714
11
16.9730293
21
9.1078714
0
LINE
8
DEFAULT_255_2_778
10
16.9730293
20
9.1078714
11
17.0010293
21
9.0769714
0
LINE
8
DEFAULT_255_2_778
10
17.0010293
20
9.0769714
11
17.0135293
21
9.0597714
0
LINE
8
DEFAULT_255_2_778
10
17.0135293
20
9.0597714
11
17.0246293
21
9.0419714
0
LINE
8
DEFAULT_255_2_778
10
17.0246293
20
9.0419714
11
17.0426293
21
9.0044714
0
LINE
8
DEFAULT_255_2_778
10
17.0426293
20
9.0044714
11
17.0563293
21
8.9647714
0
LINE
8
DEFAULT_255_2_778
10
17.0563293
20
8.9647714
11
17.0667293
21
8.9245714
0
LINE
8
DEFAULT_255_2_778
10
17.0667293
20
8.9245714
11
17.0741293
21
8.8837714
0
LINE
8
DEFAULT_255_2_778
10
17.0741293
20
8.8837714
11
17.0794293
21
8.8427714
0
LINE
8
DEFAULT_255_2_778
10
17.0794293
20
8.8427714
11
17.0852293
21
8.7599714
0
LINE
8
DEFAULT_255_2_778
10
17.0852293
20
8.7599714
11
17.0860293
21
8.7181714
0
LINE
8
DEFAULT_255_2_778
10
17.0860293
20
8.7181714
11
17.0865293
21
8.6763714
0
LINE
8
DEFAULT_255_2_778
10
17.0865293
20
8.6763714
11
17.0870293
21
8.5093714
0
LINE
8
DEFAULT_255_2_778
10
17.0870293
20
8.5093714
11
17.0862293
21
8.4260714
0
LINE
8
DEFAULT_255_2_778
10
17.0862293
20
8.4260714
11
17.0852293
21
8.3842714
0
LINE
8
DEFAULT_255_2_778
10
17.0852293
20
8.3842714
11
17.0831293
21
8.3426714
0
LINE
8
DEFAULT_255_2_778
10
17.0831293
20
8.3426714
11
17.0741293
21
8.2598714
0
LINE
8
DEFAULT_255_2_778
10
17.0558293
20
8.1786714
11
17.0421293
21
8.1395714
0
LINE
8
DEFAULT_255_2_778
10
17.0421293
20
8.1395714
11
17.0243293
21
8.1019714
0
LINE
8
DEFAULT_255_2_778
10
17.0243293
20
8.1019714
11
17.0016293
21
8.0667714
0
LINE
8
DEFAULT_255_2_778
10
17.0016293
20
8.0667714
11
16.9741293
21
8.0352714
0
LINE
8
DEFAULT_255_2_778
10
16.9741293
20
8.0352714
11
16.9328293
21
8.0019714
0
LINE
8
DEFAULT_255_2_778
10
16.9328293
20
8.0019714
11
16.8849293
21
7.9786714
0
LINE
8
DEFAULT_255_2_778
10
16.8849293
20
7.9786714
11
16.8333293
21
7.9659714
0
LINE
8
DEFAULT_255_2_778
10
16.8333293
20
7.9659714
11
16.7804293
21
7.9622714
0
LINE
8
DEFAULT_255_2_778
10
16.7804293
20
7.9622714
11
16.7275293
21
7.9659714
0
LINE
8
DEFAULT_255_2_778
10
16.7275293
20
7.9659714
11
16.7013293
21
7.9709714
0
LINE
8
DEFAULT_255_2_778
10
16.7013293
20
7.9709714
11
16.6759293
21
7.9786714
0
LINE
8
DEFAULT_255_2_778
10
16.6759293
20
7.9786714
11
16.6513293
21
7.9887714
0
LINE
8
DEFAULT_255_2_778
10
16.6513293
20
7.9887714
11
16.6277293
21
8.0016714
0
LINE
8
DEFAULT_255_2_778
10
16.5862293
20
8.0352714
11
16.5862293
21
8.0350714
0
LINE
8
DEFAULT_255_2_778
10
17.9438293
20
8.0450714
11
18.0520293
21
8.0450714
0
LINE
8
DEFAULT_255_2_778
10
18.0520293
20
8.0450714
11
18.1062293
21
8.0450714
0
LINE
8
DEFAULT_255_2_778
10
18.1062293
20
8.0450714
11
18.1332293
21
8.0450714
0
LINE
8
DEFAULT_255_2_778
10
18.1332293
20
8.0450714
11
18.1602293
21
8.0461714
0
LINE
8
DEFAULT_255_2_778
10
18.1602293
20
8.0461714
11
18.2142293
21
8.0506714
0
LINE
8
DEFAULT_255_2_778
10
18.2142293
20
8.0506714
11
18.2409293
21
8.0543714
0
LINE
8
DEFAULT_255_2_778
10
18.2409293
20
8.0543714
11
18.2673293
21
8.0598714
0
LINE
8
DEFAULT_255_2_778
10
18.2673293
20
8.0598714
11
18.3184293
21
8.0778714
0
LINE
8
DEFAULT_255_2_778
10
18.3184293
20
8.0778714
11
18.3422293
21
8.0903714
0
LINE
8
DEFAULT_255_2_778
10
18.3422293
20
8.0903714
11
18.3647293
21
8.1053714
0
LINE
8
DEFAULT_255_2_778
10
18.3647293
20
8.1053714
11
18.3853293
21
8.1233714
0
LINE
8
DEFAULT_255_2_778
10
18.3853293
20
8.1233714
11
18.4033293
21
8.1434714
0
LINE
8
DEFAULT_255_2_778
10
18.4033293
20
8.1434714
11
18.4190293
21
8.1654714
0
LINE
8
DEFAULT_255_2_778
10
18.4190293
20
8.1654714
11
18.4324293
21
8.1892714
0
LINE
8
DEFAULT_255_2_778
10
18.4494293
20
8.2403714
11
18.4539293
21
8.2670714
0
LINE
8
DEFAULT_255_2_778
10
18.4539293
20
8.2670714
11
18.4565293
21
8.2940714
0
LINE
8
DEFAULT_255_2_778
10
18.4565293
20
8.2940714
11
18.4571293
21
8.3477714
0
LINE
8
DEFAULT_255_2_778
10
18.4346293
20
8.4527714
11
18.4213293
21
8.4765714
0
LINE
8
DEFAULT_255_2_778
10
18.4213293
20
8.4765714
11
18.4044293
21
8.4980714
0
LINE
8
DEFAULT_255_2_778
10
18.3560293
20
8.5313714
11
18.3279293
21
8.5414714
0
LINE
8
DEFAULT_255_2_778
10
18.3279293
20
8.5414714
11
18.2991293
21
8.5480714
0
LINE
8
DEFAULT_255_2_778
10
18.2991293
20
8.5480714
11
18.2401293
21
8.5530714
0
LINE
8
DEFAULT_255_2_778
10
18.2401293
20
8.5530714
11
18.2253293
21
8.5530714
0
LINE
8
DEFAULT_255_2_778
10
18.2253293
20
8.5530714
11
18.2105293
21
8.5530714
0
LINE
8
DEFAULT_255_2_778
10
18.2105293
20
8.5530714
11
18.1808293
21
8.5530714
0
LINE
8
DEFAULT_255_2_778
10
18.1808293
20
8.5530714
11
17.9432293
21
8.5530714
0
LINE
8
DEFAULT_255_2_778
10
17.9432293
20
8.5530714
11
17.9438293
21
8.0450714
0
LINE
8
DEFAULT_255_2_778
10
17.8586293
20
9.1602714
11
18.0710293
21
9.1602714
0
LINE
8
DEFAULT_255_2_778
10
18.0710293
20
9.1602714
11
18.1242293
21
9.1602714
0
LINE
8
DEFAULT_255_2_778
10
18.1242293
20
9.1602714
11
18.1771293
21
9.1579714
0
LINE
8
DEFAULT_255_2_778
10
18.3570293
20
9.1015714
11
18.3920293
21
9.0779714
0
LINE
8
DEFAULT_255_2_778
10
18.3920293
20
9.0779714
11
18.4084293
21
9.0645714
0
LINE
8
DEFAULT_255_2_778
10
18.4084293
20
9.0645714
11
18.4237293
21
9.0499714
0
LINE
8
DEFAULT_255_2_778
10
18.4237293
20
9.0499714
11
18.4510293
21
9.0182714
0
LINE
8
DEFAULT_255_2_778
10
18.4510293
20
9.0182714
11
18.4737293
21
8.9824714
0
LINE
8
DEFAULT_255_2_778
10
18.4737293
20
8.9824714
11
18.4912293
21
8.9443714
0
LINE
8
DEFAULT_255_2_778
10
18.4806293
20
8.6983714
11
18.4705293
21
8.6795714
0
LINE
8
DEFAULT_255_2_778
10
18.4705293
20
8.6795714
11
18.4592293
21
8.6618714
0
LINE
8
DEFAULT_255_2_778
10
18.4592293
20
8.6618714
11
18.4324293
21
8.6295714
0
LINE
8
DEFAULT_255_2_778
10
18.4324293
20
8.6295714
11
18.4004293
21
8.6014714
0
LINE
8
DEFAULT_255_2_778
10
18.4631293
20
8.5572714
11
18.4764293
21
8.5432714
0
LINE
8
DEFAULT_255_2_778
10
18.4764293
20
8.5432714
11
18.4883293
21
8.5281714
0
LINE
8
DEFAULT_255_2_778
10
18.4883293
20
8.5281714
11
18.5084293
21
8.4956714
0
LINE
8
DEFAULT_255_2_778
10
18.5084293
20
8.4956714
11
18.5166293
21
8.4781714
0
LINE
8
DEFAULT_255_2_778
10
18.5166293
20
8.4781714
11
18.5235293
21
8.4601714
0
LINE
8
DEFAULT_255_2_778
10
18.5338293
20
8.4234714
11
18.5401293
21
8.3855714
0
LINE
8
DEFAULT_255_2_778
10
18.5401293
20
8.3855714
11
18.5430293
21
8.3474714
0
LINE
8
DEFAULT_255_2_778
10
18.5430293
20
8.3474714
11
18.5430293
21
8.3093714
0
LINE
8
DEFAULT_255_2_778
10
18.5430293
20
8.3093714
11
18.5401293
21
8.2712714
0
LINE
8
DEFAULT_255_2_778
10
18.5401293
20
8.2712714
11
18.5343293
21
8.2334714
0
LINE
8
DEFAULT_255_2_778
10
18.5343293
20
8.2334714
11
18.5303293
21
8.2146714
0
LINE
8
DEFAULT_255_2_778
10
18.5303293
20
8.2146714
11
18.5258293
21
8.1958714
0
LINE
8
DEFAULT_255_2_778
10
18.5134293
20
8.1596714
11
18.4959293
21
8.1254714
0
LINE
8
DEFAULT_255_2_778
10
18.4959293
20
8.1254714
11
18.4740293
21
8.0940714
0
LINE
8
DEFAULT_255_2_778
10
18.4740293
20
8.0940714
11
18.4481293
21
8.0659714
0
LINE
8
DEFAULT_255_2_778
10
18.4481293
20
8.0659714
11
18.4184293
21
8.0413714
0
LINE
8
DEFAULT_255_2_778
10
18.4184293
20
8.0413714
11
18.3861293
21
8.0207714
0
LINE
8
DEFAULT_255_2_778
10
18.3861293
20
8.0207714
11
18.3520293
21
8.0035714
0
LINE
8
DEFAULT_255_2_778
10
18.3520293
20
8.0035714
11
18.3163293
21
7.9892714
0
LINE
8
DEFAULT_255_2_778
10
18.3163293
20
7.9892714
11
18.2422293
21
7.9712714
0
LINE
8
DEFAULT_255_2_778
10
18.2422293
20
7.9712714
11
18.1663293
21
7.9635714
0
LINE
8
DEFAULT_255_2_778
10
18.1663293
20
7.9635714
11
18.1279293
21
7.9625714
0
LINE
8
DEFAULT_255_2_778
10
18.1279293
20
7.9625714
11
18.0895293
21
7.9625714
0
LINE
8
DEFAULT_255_2_778
10
18.0895293
20
7.9625714
11
18.0128293
21
7.9625714
0
LINE
8
DEFAULT_255_2_778
10
18.0128293
20
7.9625714
11
17.8594293
21
7.9625714
0
LINE
8
DEFAULT_255_2_778
10
17.8594293
20
7.9625714
11
17.8586293
21
9.1602714
0
LINE
8
DEFAULT_255_2_778
10
17.9435293
20
8.6361714
11
18.1200293
21
8.6361714
0
LINE
8
DEFAULT_255_2_778
10
18.1200293
20
8.6361714
11
18.2083293
21
8.6361714
0
LINE
8
DEFAULT_255_2_778
10
18.2083293
20
8.6361714
11
18.2303293
21
8.6361714
0
LINE
8
DEFAULT_255_2_778
10
18.2303293
20
8.6361714
11
18.2523293
21
8.6366714
0
LINE
8
DEFAULT_255_2_778
10
18.2523293
20
8.6366714
11
18.2957293
21
8.6435714
0
LINE
8
DEFAULT_255_2_778
10
18.2957293
20
8.6435714
11
18.3166293
21
8.6504714
0
LINE
8
DEFAULT_255_2_778
10
18.3166293
20
8.6504714
11
18.3364293
21
8.6599714
0
LINE
8
DEFAULT_255_2_778
10
18.3364293
20
8.6599714
11
18.3711293
21
8.6863714
0
LINE
8
DEFAULT_255_2_778
10
18.3711293
20
8.6863714
11
18.3856293
21
8.7028714
0
LINE
8
DEFAULT_255_2_778
10
18.3856293
20
8.7028714
11
18.3978293
21
8.7210714
0
LINE
8
DEFAULT_255_2_778
10
18.3978293
20
8.7210714
11
18.4076293
21
8.7408714
0
LINE
8
DEFAULT_255_2_778
10
18.4076293
20
8.7408714
11
18.4150293
21
8.7615714
0
LINE
8
DEFAULT_255_2_778
10
18.4232293
20
8.8046714
11
18.4245293
21
8.8266714
0
LINE
8
DEFAULT_255_2_778
10
18.4245293
20
8.8266714
11
18.4242293
21
8.8483714
0
LINE
8
DEFAULT_255_2_778
10
18.3671293
20
8.9856714
11
18.3435293
21
9.0075714
0
LINE
8
DEFAULT_255_2_778
10
18.3435293
20
9.0075714
11
18.3176293
21
9.0261714
0
LINE
8
DEFAULT_255_2_778
10
18.3176293
20
9.0261714
11
18.2896293
21
9.0414714
0
LINE
8
DEFAULT_255_2_778
10
18.2896293
20
9.0414714
11
18.2602293
21
9.0536714
0
LINE
8
DEFAULT_255_2_778
10
18.2602293
20
9.0536714
11
18.1986293
21
9.0697714
0
LINE
8
DEFAULT_255_2_778
10
18.1986293
20
9.0697714
11
18.1668293
21
9.0737714
0
LINE
8
DEFAULT_255_2_778
10
18.1668293
20
9.0737714
11
18.1351293
21
9.0756714
0
LINE
8
DEFAULT_255_2_778
10
18.1351293
20
9.0756714
11
18.1192293
21
9.0756714
0
LINE
8
DEFAULT_255_2_778
10
18.1192293
20
9.0756714
11
18.1033293
21
9.0756714
0
LINE
8
DEFAULT_255_2_778
10
18.1033293
20
9.0756714
11
18.0716293
21
9.0756714
0
LINE
8
DEFAULT_255_2_778
10
18.0716293
20
9.0756714
11
17.9440293
21
9.0756714
0
LINE
8
DEFAULT_255_2_778
10
17.9440293
20
9.0756714
11
17.9435293
21
8.6361714
0
LINE
8
DEFAULT_255_2_778
10
16.3592293
20
5.6116714
11
16.3131293
21
5.5500714
0
LINE
8
DEFAULT_255_2_778
10
16.3131293
20
5.5500714
11
16.2663293
21
5.4891714
0
LINE
8
DEFAULT_255_2_778
10
16.2663293
20
5.4891714
11
16.2422293
21
5.4592714
0
LINE
8
DEFAULT_255_2_778
10
16.2422293
20
5.4592714
11
16.2174293
21
5.4301714
0
LINE
8
DEFAULT_255_2_778
10
16.2174293
20
5.4301714
11
16.1904293
21
5.4026714
0
LINE
8
DEFAULT_255_2_778
10
16.1904293
20
5.4026714
11
16.1830293
21
5.3965714
0
LINE
8
DEFAULT_255_2_778
10
16.1830293
20
5.3965714
11
16.1750293
21
5.3912714
0
LINE
8
DEFAULT_255_2_778
10
16.1750293
20
5.3912714
11
16.1660293
21
5.3878714
0
LINE
8
DEFAULT_255_2_778
10
16.1660293
20
5.3878714
11
16.1565293
21
5.3862714
0
LINE
8
DEFAULT_255_2_778
10
16.1565293
20
5.3862714
11
16.1517293
21
5.4897714
0
LINE
8
DEFAULT_255_2_778
10
16.1517293
20
5.4897714
11
16.1777293
21
5.5177714
0
LINE
8
DEFAULT_255_2_778
10
16.1777293
20
5.5177714
11
16.2023293
21
5.5471714
0
LINE
8
DEFAULT_255_2_778
10
16.2023293
20
5.5471714
11
16.2491293
21
5.6079714
0
LINE
8
DEFAULT_255_2_778
10
16.2491293
20
5.6079714
11
16.2946293
21
5.6696714
0
LINE
8
DEFAULT_255_2_778
10
16.2946293
20
5.6696714
11
16.3393293
21
5.7318714
0
LINE
8
DEFAULT_255_2_778
10
16.3393293
20
5.7318714
11
16.4370293
21
5.7318714
0
LINE
8
DEFAULT_255_2_778
10
16.4370293
20
5.7318714
11
16.4370293
21
4.3377714
0
LINE
8
DEFAULT_255_2_778
10
16.4370293
20
4.3377714
11
16.3594293
21
4.3377714
0
LINE
8
DEFAULT_255_2_778
10
16.3594293
20
4.3377714
11
16.3594293
21
5.6113714
0
LINE
8
DEFAULT_255_2_778
10
7.3684293
20
5.5743714
11
7.3832293
21
5.6095714
0
LINE
8
DEFAULT_255_2_778
10
7.3832293
20
5.6095714
11
7.4030293
21
5.6421714
0
LINE
8
DEFAULT_255_2_778
10
7.4030293
20
5.6421714
11
7.4274293
21
5.6717714
0
LINE
8
DEFAULT_255_2_778
10
7.4274293
20
5.6717714
11
7.4554293
21
5.6973714
0
LINE
8
DEFAULT_255_2_778
10
7.4554293
20
5.6973714
11
7.4708293
21
5.7087714
0
LINE
8
DEFAULT_255_2_778
10
7.4708293
20
5.7087714
11
7.4872293
21
5.7188714
0
LINE
8
DEFAULT_255_2_778
10
7.4872293
20
5.7188714
11
7.5218293
21
5.7344714
0
LINE
8
DEFAULT_255_2_778
10
7.5218293
20
5.7344714
11
7.5589293
21
5.7442714
0
LINE
8
DEFAULT_255_2_778
10
7.5589293
20
5.7442714
11
7.5970293
21
5.7487714
0
LINE
8
DEFAULT_255_2_778
10
7.5970293
20
5.7487714
11
7.6351293
21
5.7487714
0
LINE
8
DEFAULT_255_2_778
10
7.6351293
20
5.7487714
11
7.6541293
21
5.7471714
0
LINE
8
DEFAULT_255_2_778
10
7.6541293
20
5.7471714
11
7.6732293
21
5.7442714
0
LINE
8
DEFAULT_255_2_778
10
7.6732293
20
5.7442714
11
7.7099293
21
5.7344714
0
LINE
8
DEFAULT_255_2_778
10
7.7099293
20
5.7344714
11
7.7449293
21
5.7188714
0
LINE
8
DEFAULT_255_2_778
10
7.8467293
20
5.6082714
11
7.8621293
21
5.5733714
0
LINE
8
DEFAULT_255_2_778
10
7.8621293
20
5.5733714
11
7.8740293
21
5.5373714
0
LINE
8
DEFAULT_255_2_778
10
7.8893293
20
5.4629714
11
7.8936293
21
5.4251714
0
LINE
8
DEFAULT_255_2_778
10
7.8936293
20
5.4251714
11
7.8959293
21
5.3870714
0
LINE
8
DEFAULT_255_2_778
10
7.8959293
20
5.3870714
11
7.8965293
21
5.3489714
0
LINE
8
DEFAULT_255_2_778
10
7.8965293
20
5.3489714
11
7.8951293
21
5.3111714
0
LINE
8
DEFAULT_255_2_778
10
7.8951293
20
5.3111714
11
7.8907293
21
5.2732714
0
LINE
8
DEFAULT_255_2_778
10
7.8819293
20
5.2359714
11
7.8684293
21
5.2005714
0
LINE
8
DEFAULT_255_2_778
10
7.8684293
20
5.2005714
11
7.8600293
21
5.1833714
0
LINE
8
DEFAULT_255_2_778
10
7.8600293
20
5.1833714
11
7.8502293
21
5.1668714
0
LINE
8
DEFAULT_255_2_778
10
7.8502293
20
5.1668714
11
7.8274293
21
5.1364714
0
LINE
8
DEFAULT_255_2_778
10
7.8274293
20
5.1364714
11
7.8145293
21
5.1224714
0
LINE
8
DEFAULT_255_2_778
10
7.8145293
20
5.1224714
11
7.8004293
21
5.1095714
0
LINE
8
DEFAULT_255_2_778
10
7.8004293
20
5.1095714
11
7.7700293
21
5.0859714
0
LINE
8
DEFAULT_255_2_778
10
7.7700293
20
5.0859714
11
7.7383293
21
5.0642714
0
LINE
8
DEFAULT_255_2_778
10
7.7383293
20
5.0642714
11
7.7711293
21
5.0414714
0
LINE
8
DEFAULT_255_2_778
10
7.7711293
20
5.0414714
11
7.8025293
21
5.0169714
0
LINE
8
DEFAULT_255_2_778
10
7.8025293
20
5.0169714
11
7.8316293
21
4.9893714
0
LINE
8
DEFAULT_255_2_778
10
7.8316293
20
4.9893714
11
7.8560293
21
4.9579714
0
LINE
8
DEFAULT_255_2_778
10
7.8560293
20
4.9579714
11
7.8750293
21
4.9229714
0
LINE
8
DEFAULT_255_2_778
10
7.8750293
20
4.9229714
11
7.8827293
21
4.9044714
0
LINE
8
DEFAULT_255_2_778
10
7.8827293
20
4.9044714
11
7.8891293
21
4.8856714
0
LINE
8
DEFAULT_255_2_778
10
7.9036293
20
4.8075714
11
7.9052293
21
4.7676714
0
LINE
8
DEFAULT_255_2_778
10
7.9052293
20
4.7676714
11
7.9047293
21
4.7279714
0
LINE
8
DEFAULT_255_2_778
10
7.9047293
20
4.7279714
11
7.8983293
21
4.6488714
0
LINE
8
DEFAULT_255_2_778
10
7.8838293
20
4.5705714
11
7.8724293
21
4.5321714
0
LINE
8
DEFAULT_255_2_778
10
7.8724293
20
4.5321714
11
7.8576293
21
4.4948714
0
LINE
8
DEFAULT_255_2_778
10
7.8576293
20
4.4948714
11
7.8391293
21
4.4594714
0
LINE
8
DEFAULT_255_2_778
10
7.8391293
20
4.4594714
11
7.8163293
21
4.4263714
0
LINE
8
DEFAULT_255_2_778
10
7.8163293
20
4.4263714
11
7.7896293
21
4.3969714
0
LINE
8
DEFAULT_255_2_778
10
7.7896293
20
4.3969714
11
7.7745293
21
4.3837714
0
LINE
8
DEFAULT_255_2_778
10
7.7745293
20
4.3837714
11
7.7584293
21
4.3718714
0
LINE
8
DEFAULT_255_2_778
10
7.7584293
20
4.3718714
11
7.7234293
21
4.3525714
0
LINE
8
DEFAULT_255_2_778
10
7.7234293
20
4.3525714
11
7.6859293
21
4.3387714
0
LINE
8
DEFAULT_255_2_778
10
7.6068293
20
4.3281714
11
7.5665293
21
4.3297714
0
LINE
8
DEFAULT_255_2_778
10
7.5665293
20
4.3297714
11
7.5274293
21
4.3369714
0
LINE
8
DEFAULT_255_2_778
10
7.5274293
20
4.3369714
11
7.5083293
21
4.3432714
0
LINE
8
DEFAULT_255_2_778
10
7.5083293
20
4.3432714
11
7.4898293
21
4.3514714
0
LINE
8
DEFAULT_255_2_778
10
7.4898293
20
4.3514714
11
7.4557293
21
4.3723714
0
LINE
8
DEFAULT_255_2_778
10
7.4557293
20
4.3723714
11
7.4401293
21
4.3850714
0
LINE
8
DEFAULT_255_2_778
10
7.4401293
20
4.3850714
11
7.4258293
21
4.3993714
0
LINE
8
DEFAULT_255_2_778
10
7.4258293
20
4.3993714
11
7.4017293
21
4.4313714
0
LINE
8
DEFAULT_255_2_778
10
7.4017293
20
4.4313714
11
7.3832293
21
4.4673714
0
LINE
8
DEFAULT_255_2_778
10
7.3832293
20
4.4673714
11
7.3681293
21
4.5049714
0
LINE
8
DEFAULT_255_2_778
10
7.3681293
20
4.5049714
11
7.4393293
21
4.5456714
0
LINE
8
DEFAULT_255_2_778
10
7.4678293
20
4.4880714
11
7.4893293
21
4.4633714
0
LINE
8
DEFAULT_255_2_778
10
7.4893293
20
4.4633714
11
7.5020293
21
4.4533714
0
LINE
8
DEFAULT_255_2_778
10
7.5020293
20
4.4533714
11
7.5160293
21
4.4448714
0
LINE
8
DEFAULT_255_2_778
10
7.5160293
20
4.4448714
11
7.5467293
21
4.4335714
0
LINE
8
DEFAULT_255_2_778
10
7.5467293
20
4.4335714
11
7.5628293
21
4.4302714
0
LINE
8
DEFAULT_255_2_778
10
7.5628293
20
4.4302714
11
7.5790293
21
4.4284714
0
LINE
8
DEFAULT_255_2_778
10
7.5790293
20
4.4284714
11
7.6115293
21
4.4276714
0
LINE
8
DEFAULT_255_2_778
10
7.6115293
20
4.4276714
11
7.6441293
21
4.4305714
0
LINE
8
DEFAULT_255_2_778
10
7.6441293
20
4.4305714
11
7.6755293
21
4.4379714
0
LINE
8
DEFAULT_255_2_778
10
7.6755293
20
4.4379714
11
7.6909293
21
4.4435714
0
LINE
8
DEFAULT_255_2_778
10
7.6909293
20
4.4435714
11
7.7057293
21
4.4504714
0
LINE
8
DEFAULT_255_2_778
10
7.7057293
20
4.4504714
11
7.7327293
21
4.4681714
0
LINE
8
DEFAULT_255_2_778
10
7.7327293
20
4.4681714
11
7.7560293
21
4.4911714
0
LINE
8
DEFAULT_255_2_778
10
7.7560293
20
4.4911714
11
7.7750293
21
4.5176714
0
LINE
8
DEFAULT_255_2_778
10
7.7750293
20
4.5176714
11
7.7898293
21
4.5467714
0
LINE
8
DEFAULT_255_2_778
10
7.8097293
20
4.6083714
11
7.8160293
21
4.6404714
0
LINE
8
DEFAULT_255_2_778
10
7.8160293
20
4.6404714
11
7.8208293
21
4.6724714
0
LINE
8
DEFAULT_255_2_778
10
7.8208293
20
4.6724714
11
7.8261293
21
4.7369714
0
LINE
8
DEFAULT_255_2_778
10
7.8261293
20
4.7369714
11
7.8264293
21
4.7695714
0
LINE
8
DEFAULT_255_2_778
10
7.8264293
20
4.7695714
11
7.8248293
21
4.8020714
0
LINE
8
DEFAULT_255_2_778
10
7.8195293
20
4.8340714
11
7.8152293
21
4.8496714
0
LINE
8
DEFAULT_255_2_778
10
7.8152293
20
4.8496714
11
7.8097293
21
4.8650714
0
LINE
8
DEFAULT_255_2_778
10
7.8097293
20
4.8650714
11
7.7954293
21
4.8941714
0
LINE
8
DEFAULT_255_2_778
10
7.7954293
20
4.8941714
11
7.7771293
21
4.9208714
0
LINE
8
DEFAULT_255_2_778
10
7.7771293
20
4.9208714
11
7.7663293
21
4.9332714
0
LINE
8
DEFAULT_255_2_778
10
7.7663293
20
4.9332714
11
7.7547293
21
4.9446714
0
LINE
8
DEFAULT_255_2_778
10
7.7547293
20
4.9446714
11
7.7293293
21
4.9645714
0
LINE
8
DEFAULT_255_2_778
10
7.7293293
20
4.9645714
11
7.7012293
21
4.9809714
0
LINE
8
DEFAULT_255_2_778
10
7.7012293
20
4.9809714
11
7.6716293
21
4.9935714
0
LINE
8
DEFAULT_255_2_778
10
7.6716293
20
4.9935714
11
7.6411293
21
5.0036714
0
LINE
8
DEFAULT_255_2_778
10
7.6411293
20
5.0036714
11
7.6097293
21
5.0116714
0
LINE
8
DEFAULT_255_2_778
10
7.6097293
20
5.0116714
11
7.6049293
21
5.1086714
0
LINE
8
DEFAULT_255_2_778
10
7.6049293
20
5.1086714
11
7.6628293
21
5.1309714
0
LINE
8
DEFAULT_255_2_778
10
7.6628293
20
5.1309714
11
7.6914293
21
5.1428714
0
LINE
8
DEFAULT_255_2_778
10
7.6914293
20
5.1428714
11
7.7052293
21
5.1497714
0
LINE
8
DEFAULT_255_2_778
10
7.7052293
20
5.1497714
11
7.7187293
21
5.1576714
0
LINE
8
DEFAULT_255_2_778
10
7.7660293
20
5.1973714
11
7.7846293
21
5.2222714
0
LINE
8
DEFAULT_255_2_778
10
7.7846293
20
5.2222714
11
7.7991293
21
5.2494714
0
LINE
8
DEFAULT_255_2_778
10
7.7991293
20
5.2494714
11
7.8092293
21
5.2788714
0
LINE
8
DEFAULT_255_2_778
10
7.8147293
20
5.3092714
11
7.8168293
21
5.3402714
0
LINE
8
DEFAULT_255_2_778
10
7.8168293
20
5.3402714
11
7.8171293
21
5.3711714
0
LINE
8
DEFAULT_255_2_778
10
7.8171293
20
5.3711714
11
7.8137293
21
5.4328714
0
LINE
8
DEFAULT_255_2_778
10
7.8137293
20
5.4328714
11
7.8092293
21
5.4635714
0
LINE
8
DEFAULT_255_2_778
10
7.8092293
20
5.4635714
11
7.8023293
21
5.4939714
0
LINE
8
DEFAULT_255_2_778
10
7.8023293
20
5.4939714
11
7.7928293
21
5.5235714
0
LINE
8
DEFAULT_255_2_778
10
7.7928293
20
5.5235714
11
7.7806293
21
5.5521714
0
LINE
8
DEFAULT_255_2_778
10
7.7457293
20
5.6029714
11
7.7343293
21
5.6135714
0
LINE
8
DEFAULT_255_2_778
10
7.7343293
20
5.6135714
11
7.7218293
21
5.6228714
0
LINE
8
DEFAULT_255_2_778
10
7.7218293
20
5.6228714
11
7.6943293
21
5.6373714
0
LINE
8
DEFAULT_255_2_778
10
7.6943293
20
5.6373714
11
7.6647293
21
5.6466714
0
LINE
8
DEFAULT_255_2_778
10
7.6647293
20
5.6466714
11
7.6340293
21
5.6513714
0
LINE
8
DEFAULT_255_2_778
10
7.6340293
20
5.6513714
11
7.6028293
21
5.6516714
0
LINE
8
DEFAULT_255_2_778
10
7.6028293
20
5.6516714
11
7.5718293
21
5.6479714
0
LINE
8
DEFAULT_255_2_778
10
7.5718293
20
5.6479714
11
7.5565293
21
5.6444714
0
LINE
8
DEFAULT_255_2_778
10
7.5565293
20
5.6444714
11
7.5417293
21
5.6397714
0
LINE
8
DEFAULT_255_2_778
10
7.5417293
20
5.6397714
11
7.5274293
21
5.6336714
0
LINE
8
DEFAULT_255_2_778
10
7.5274293
20
5.6336714
11
7.5136293
21
5.6262714
0
LINE
8
DEFAULT_255_2_778
10
7.5136293
20
5.6262714
11
7.4893293
21
5.6071714
0
LINE
8
DEFAULT_255_2_778
10
7.4893293
20
5.6071714
11
7.4686293
21
5.5839714
0
LINE
8
DEFAULT_255_2_778
10
7.4393293
20
5.5296714
11
7.3681293
21
5.5743714
0
LINE
8
DEFAULT_255_2_778
10
6.8016896
20
5.4897448
11
6.8275896
21
5.5178448
0
LINE
8
DEFAULT_255_2_778
10
6.8275896
20
5.5178448
11
6.8521896
21
5.5471448
0
LINE
8
DEFAULT_255_2_778
10
6.8521896
20
5.5471448
11
6.8990896
21
5.6080448
0
LINE
8
DEFAULT_255_2_778
10
6.8990896
20
5.6080448
11
6.9445896
21
5.6696448
0
LINE
8
DEFAULT_255_2_778
10
6.9445896
20
5.6696448
11
6.9892896
21
5.7318448
0
LINE
8
DEFAULT_255_2_778
10
6.9892896
20
5.7318448
11
7.0868896
21
5.7318448
0
LINE
8
DEFAULT_255_2_778
10
7.0868896
20
5.7318448
11
7.0868896
21
4.3377448
0
LINE
8
DEFAULT_255_2_778
10
7.0868896
20
4.3377448
11
7.0093896
21
4.3377448
0
LINE
8
DEFAULT_255_2_778
10
7.0093896
20
4.3377448
11
7.0093896
21
5.6114448
0
LINE
8
DEFAULT_255_2_778
10
7.0093896
20
5.6114448
11
6.9633896
21
5.5498448
0
LINE
8
DEFAULT_255_2_778
10
6.9633896
20
5.5498448
11
6.9164896
21
5.4889448
0
LINE
8
DEFAULT_255_2_778
10
6.9164896
20
5.4889448
11
6.8924896
21
5.4590448
0
LINE
8
DEFAULT_255_2_778
10
6.8924896
20
5.4590448
11
6.8675896
21
5.4299448
0
LINE
8
DEFAULT_255_2_778
10
6.8675896
20
5.4299448
11
6.8405896
21
5.4024448
0
LINE
8
DEFAULT_255_2_778
10
6.8405896
20
5.4024448
11
6.8331896
21
5.3963448
0
LINE
8
DEFAULT_255_2_778
10
6.8331896
20
5.3963448
11
6.8251896
21
5.3910448
0
LINE
8
DEFAULT_255_2_778
10
6.8251896
20
5.3910448
11
6.8162896
21
5.3876448
0
LINE
8
DEFAULT_255_2_778
10
6.8162896
20
5.3876448
11
6.8066896
21
5.3860448
0
LINE
8
DEFAULT_255_2_778
10
6.8066896
20
5.3860448
11
6.8019896
21
5.4894448
0
LINE
8
DEFAULT_255_2_778
10
6.1344417
20
4.3652239
11
6.2127417
21
4.6779239
0
LINE
8
DEFAULT_255_2_778
10
6.2127417
20
4.6779239
11
6.2516417
21
4.8343239
0
LINE
8
DEFAULT_255_2_778
10
6.2516417
20
4.8343239
11
6.2905417
21
4.9906239
0
LINE
8
DEFAULT_255_2_778
10
6.2905417
20
4.9906239
11
6.3299417
21
5.1470239
0
LINE
8
DEFAULT_255_2_778
10
6.3299417
20
5.1470239
11
6.3691417
21
5.3034239
0
LINE
8
DEFAULT_255_2_778
10
6.3691417
20
5.3034239
11
6.4082417
21
5.4598239
0
LINE
8
DEFAULT_255_2_778
10
6.4082417
20
5.4598239
11
6.4281417
21
5.5378239
0
LINE
8
DEFAULT_255_2_778
10
6.4281417
20
5.5378239
11
6.4381417
21
5.5767239
0
LINE
8
DEFAULT_255_2_778
10
6.4381417
20
5.5767239
11
6.4431417
21
5.5963239
0
LINE
8
DEFAULT_255_2_778
10
6.4431417
20
5.5963239
11
6.4487417
21
5.6156239
0
LINE
8
DEFAULT_255_2_778
10
6.4487417
20
5.6156239
11
6.4487417
21
5.6428239
0
LINE
8
DEFAULT_255_2_778
10
6.4487417
20
5.6428239
11
5.9687417
21
5.6428239
0
LINE
8
DEFAULT_255_2_778
10
5.9687417
20
5.6428239
11
5.9687417
21
5.7418239
0
LINE
8
DEFAULT_255_2_778
10
5.9687417
20
5.7418239
11
6.5262417
21
5.7418239
0
LINE
8
DEFAULT_255_2_778
10
6.5262417
20
5.7418239
11
6.5262417
21
5.6000239
0
LINE
8
DEFAULT_255_2_778
10
6.5262417
20
5.6000239
11
6.2087417
21
4.3340239
0
LINE
8
DEFAULT_255_2_778
10
6.2087417
20
4.3340239
11
6.1344417
21
4.3649239
0
LINE
8
DEFAULT_255_2_778
10
4.4159417
20
5.7397239
11
4.9718417
21
5.7397239
0
LINE
8
DEFAULT_255_2_778
10
4.9718417
20
5.7397239
11
4.9718417
21
5.6407239
0
LINE
8
DEFAULT_255_2_778
10
4.9718417
20
5.6407239
11
4.4934417
21
5.6407239
0
LINE
8
DEFAULT_255_2_778
10
4.4934417
20
5.6407239
11
4.4934417
21
5.1282239
0
LINE
8
DEFAULT_255_2_778
10
4.4934417
20
5.1282239
11
4.9424417
21
5.1282239
0
LINE
8
DEFAULT_255_2_778
10
4.9424417
20
5.1282239
11
4.9424417
21
5.0311239
0
LINE
8
DEFAULT_255_2_778
10
4.9424417
20
5.0311239
11
4.4934417
21
5.0311239
0
LINE
8
DEFAULT_255_2_778
10
4.4934417
20
5.0311239
11
4.4934417
21
4.4408239
0
LINE
8
DEFAULT_255_2_778
10
4.4934417
20
4.4408239
11
4.9718417
21
4.4408239
0
LINE
8
DEFAULT_255_2_778
10
4.9718417
20
4.4408239
11
4.9718417
21
4.3437239
0
LINE
8
DEFAULT_255_2_778
10
4.9718417
20
4.3437239
11
4.4159417
21
4.3437239
0
LINE
8
DEFAULT_255_2_778
10
4.4159417
20
4.3437239
11
4.4159417
21
5.7399239
0
LINE
8
DEFAULT_255_2_778
10
12.5039896
20
5.4770448
11
12.5298896
21
5.5051448
0
LINE
8
DEFAULT_255_2_778
10
12.5298896
20
5.5051448
11
12.5544896
21
5.5344448
0
LINE
8
DEFAULT_255_2_778
10
12.5544896
20
5.5344448
11
12.6013896
21
5.5953448
0
LINE
8
DEFAULT_255_2_778
10
12.6013896
20
5.5953448
11
12.6468896
21
5.6569448
0
LINE
8
DEFAULT_255_2_778
10
12.6468896
20
5.6569448
11
12.6915896
21
5.7191448
0
LINE
8
DEFAULT_255_2_778
10
12.6915896
20
5.7191448
11
12.7891896
21
5.7191448
0
LINE
8
DEFAULT_255_2_778
10
12.7891896
20
5.7191448
11
12.7891896
21
4.3250448
0
LINE
8
DEFAULT_255_2_778
10
12.7891896
20
4.3250448
11
12.7116896
21
4.3250448
0
LINE
8
DEFAULT_255_2_778
10
12.7116896
20
4.3250448
11
12.7116896
21
5.5987448
0
LINE
8
DEFAULT_255_2_778
10
12.7116896
20
5.5987448
11
12.6656896
21
5.5371448
0
LINE
8
DEFAULT_255_2_778
10
12.6656896
20
5.5371448
11
12.6187896
21
5.4762448
0
LINE
8
DEFAULT_255_2_778
10
12.6187896
20
5.4762448
11
12.5947896
21
5.4463448
0
LINE
8
DEFAULT_255_2_778
10
12.5947896
20
5.4463448
11
12.5698896
21
5.4172448
0
LINE
8
DEFAULT_255_2_778
10
12.5698896
20
5.4172448
11
12.5428896
21
5.3897448
0
LINE
8
DEFAULT_255_2_778
10
12.5428896
20
5.3897448
11
12.5354896
21
5.3836448
0
LINE
8
DEFAULT_255_2_778
10
12.5354896
20
5.3836448
11
12.5274896
21
5.3783448
0
LINE
8
DEFAULT_255_2_778
10
12.5274896
20
5.3783448
11
12.5185896
21
5.3749448
0
LINE
8
DEFAULT_255_2_778
10
12.5185896
20
5.3749448
11
12.5089896
21
5.3733448
0
LINE
8
DEFAULT_255_2_778
10
12.5089896
20
5.3733448
11
12.5042896
21
5.4767448
0
ARC
8
DEFAULT_255_2_778
10
5.2738611
20
5.3606873
40
0.4166126
50
13.2804489
51
18.8062924
0
ARC
8
DEFAULT_255_2_778
10
5.5287563
20
5.4151852
40
0.262946
50
159.3324662
51
168.2369533
0
ARC
8
DEFAULT_255_2_778
10
5.6192434
20
5.3951847
40
0.355612
50
168.0543416
51
174.5611726
0
ARC
8
DEFAULT_255_2_778
10
5.4408213
20
5.3649436
40
0.1774103
50
185.5158745
51
198.5544391
0
ARC
8
DEFAULT_255_2_778
10
5.505468
20
4.7609169
40
0.2773086
50
11.4762302
51
19.8304682
0
ARC
8
DEFAULT_255_2_778
10
5.4328992
20
4.7481567
40
0.3509707
50
4.614159
51
11.1606226
0
ARC
8
DEFAULT_255_2_778
10
5.283548
20
4.7361688
40
0.5007747
50
346.2793129
51
355.4325268
0
ARC
8
DEFAULT_255_2_778
10
5.2887042
20
4.7326599
40
0.4949382
50
337.2787053
51
346.5323511
0
ARC
8
DEFAULT_255_2_778
10
5.3373851
20
4.7130461
40
0.4424598
50
326.8029825
51
337.1865943
0
ARC
8
DEFAULT_255_2_778
10
5.5766392
20
4.6633896
40
0.4008213
50
200.9169544
51
212.4047724
0
ARC
8
DEFAULT_255_2_778
10
5.7533669
20
4.731102
40
0.5900768
50
193.1368563
51
200.9320706
0
ARC
8
DEFAULT_255_2_778
10
5.4926606
20
4.6614178
40
0.2409063
50
188.8654484
51
198.5216905
0
ARC
8
DEFAULT_255_2_778
10
5.3451297
20
4.7222481
40
0.3567891
50
339.2757024
51
345.7445842
0
ARC
8
DEFAULT_255_2_778
10
5.5334549
20
4.7590257
40
0.1697034
50
12.0281635
51
25.6518623
0
ARC
8
DEFAULT_255_2_778
10
5.4286932
20
5.3512179
40
0.244037
50
195.2349093
51
204.5585404
0
ARC
8
DEFAULT_255_2_778
10
5.4677982
20
5.3593046
40
0.2839036
50
186.6981126
51
194.7357157
0
ARC
8
DEFAULT_255_2_778
10
5.5941877
20
5.3728171
40
0.4110086
50
180.9237986
51
186.5138963
0
ARC
8
DEFAULT_255_2_778
10
5.7163222
20
5.3762234
40
0.5331842
50
180.0000559
51
181.0781819
0
ARC
8
DEFAULT_255_2_778
10
5.7594725
20
5.3753601
40
0.5763351
50
173.0007091
51
179.9142298
0
ARC
8
DEFAULT_255_2_778
10
5.5939296
20
5.4047246
40
0.407518
50
151.7851551
51
163.0412699
0
ARC
8
DEFAULT_255_2_778
10
5.3376864
20
5.4069423
40
0.4212654
50
21.128303
51
32.001869
0
ARC
8
DEFAULT_255_2_778
10
5.171442
20
5.3428682
40
0.59943
50
13.4496954
51
21.1132651
0
ARC
8
DEFAULT_255_2_778
10
8.0209834
20
5.3804039
40
0.540153
50
351.8137361
51
0.0411978
0
ARC
8
DEFAULT_255_2_778
10
8.0107386
20
5.3807922
40
0.5503978
50
0.000003
51
0.2184382
0
ARC
8
DEFAULT_255_2_778
10
8.1590566
20
5.3839927
40
0.4021517
50
5.5362698
51
11.2125243
0
ARC
8
DEFAULT_255_2_778
10
8.3187385
20
5.4171385
40
0.2390771
50
10.861867
51
29.3967762
0
ARC
8
DEFAULT_255_2_778
10
8.3825379
20
5.4519514
40
0.1664073
50
29.7361863
51
48.3482493
0
ARC
8
DEFAULT_255_2_778
10
8.3675264
20
5.4510331
40
0.1659285
50
94.318292
51
111.0482642
0
ARC
8
DEFAULT_255_2_778
10
8.4456359
20
5.3950164
40
0.2600626
50
146.0401075
51
158.4618885
0
ARC
8
DEFAULT_255_2_778
10
8.4876524
20
5.3940528
40
0.3804672
50
145.4380752
51
158.3062803
0
ARC
8
DEFAULT_255_2_778
10
8.4044912
20
5.4965998
40
0.2084143
50
41.0213887
51
57.6106664
0
ARC
8
DEFAULT_255_2_778
10
8.3342356
20
5.4385218
40
0.2995474
50
30.197889
51
40.5826348
0
ARC
8
DEFAULT_255_2_778
10
8.1033211
20
5.3510126
40
0.5346801
50
342.8882852
51
349.0872948
0
ARC
8
DEFAULT_255_2_778
10
8.0611575
20
5.3582799
40
0.5771414
50
337.8834115
51
343.4303758
0
ARC
8
DEFAULT_255_2_778
10
8.100822
20
5.3503589
40
0.4559839
50
337.2180672
51
344.1330107
0
ARC
8
DEFAULT_255_2_778
10
4.0253155
20
5.1003324
40
0.1299816
50
89.9709245
51
94.6259361
0
ARC
8
DEFAULT_255_2_778
10
4.0233444
20
5.0561112
40
0.1742149
50
76.0536949
51
89.3300656
0
ARC
8
DEFAULT_255_2_778
10
3.943682
20
4.9619399
40
0.3051124
50
26.6281139
51
36.1882712
0
ARC
8
DEFAULT_255_2_778
10
3.873709
20
4.9261046
40
0.3837255
50
19.1354247
51
26.7285652
0
ARC
8
DEFAULT_255_2_778
10
3.7142387
20
4.8717268
40
0.5522105
50
8.5358696
51
19.0418853
0
ARC
8
DEFAULT_255_2_778
10
3.3292553
20
4.8093621
40
0.9421971
50
2.6662093
51
8.8114265
0
ARC
8
DEFAULT_255_2_778
10
3.5668518
20
4.7289128
40
0.7014884
50
345.3494816
51
353.6470069
0
ARC
8
DEFAULT_255_2_778
10
3.803688
20
4.6682123
40
0.4570016
50
338.8593283
51
345.2022527
0
ARC
8
DEFAULT_255_2_778
10
3.9721455
20
4.5866493
40
0.2692038
50
320.5209537
51
331.280414
0
ARC
8
DEFAULT_255_2_778
10
4.3558297
20
4.7477029
40
0.660566
50
191.5899963
51
200.2850526
0
ARC
8
DEFAULT_255_2_778
10
4.1175956
20
5.4242533
40
0.4140147
50
153.3290308
51
160.3330868
0
ARC
8
DEFAULT_255_2_778
10
4.0194343
20
5.4756161
40
0.3032485
50
144.0864698
51
153.6760052
0
ARC
8
DEFAULT_255_2_778
10
3.89712
20
5.4396767
40
0.3496132
50
22.1496978
51
30.4756138
0
ARC
8
DEFAULT_255_2_778
10
3.9278582
20
5.4397436
40
0.2376514
50
20.9949325
51
35.5421044
0
ARC
8
DEFAULT_255_2_778
10
4.0965174
20
5.4145228
40
0.3147364
50
151.9570942
51
162.8766349
0
ARC
8
DEFAULT_255_2_778
10
4.3216202
20
5.342477
40
0.5510794
50
162.6088937
51
168.8556319
0
ARC
8
DEFAULT_255_2_778
10
5.1025956
20
5.2292967
40
1.3408273
50
173.1167384
51
178.1966877
0
ARC
8
DEFAULT_255_2_778
10
4.1480371
20
4.8622767
40
0.4271788
50
135.1982859
51
145.7507154
0
ARC
8
DEFAULT_255_2_778
10
4.1796636
20
4.8068977
40
0.3972546
50
160.2264162
51
168.2506993
0
ARC
8
DEFAULT_255_2_778
10
4.2312356
20
4.7491539
40
0.4534206
50
190.5172157
51
197.5552712
0
ARC
8
DEFAULT_255_2_778
10
4.1674989
20
4.7286427
40
0.3864658
50
197.5061542
51
205.7917939
0
ARC
8
DEFAULT_255_2_778
10
4.1422969
20
4.7180163
40
0.3591536
50
206.0147614
51
214.9267473
0
ARC
8
DEFAULT_255_2_778
10
3.7980929
20
4.697733
40
0.3868539
50
337.2432888
51
345.5639427
0
ARC
8
DEFAULT_255_2_778
10
3.7230754
20
4.7235413
40
0.4659793
50
344.7903152
51
351.6647414
0
ARC
8
DEFAULT_255_2_778
10
3.7215203
20
4.8660675
40
0.4676242
50
8.5624201
51
15.4562579
0
LINE
8
DEFAULT_255_2_778
10
10.0457324
20
5.6976906
11
10.1240324
21
5.6976906
0
LINE
8
DEFAULT_255_2_778
10
10.1240324
20
5.6976906
11
10.1240324
21
5.6942906
0
LINE
8
DEFAULT_255_2_778
10
10.1240324
20
5.6942906
11
10.1240324
21
5.0891906
0
LINE
8
DEFAULT_255_2_778
10
10.1240324
20
5.0891906
11
10.5966324
21
5.0891906
0
LINE
8
DEFAULT_255_2_778
10
10.5966324
20
5.0891906
11
10.5966324
21
5.6973906
0
LINE
8
DEFAULT_255_2_778
10
10.5966324
20
5.6973906
11
10.6765324
21
5.6973906
0
LINE
8
DEFAULT_255_2_778
10
10.6765324
20
5.6973906
11
10.6765324
21
4.2998906
0
LINE
8
DEFAULT_255_2_778
10
10.6765324
20
4.2998906
11
10.5966324
21
4.2998906
0
LINE
8
DEFAULT_255_2_778
10
10.5966324
20
4.2998906
11
10.5966324
21
4.9901906
0
LINE
8
DEFAULT_255_2_778
10
10.5966324
20
4.9901906
11
10.1240324
21
4.9901906
0
LINE
8
DEFAULT_255_2_778
10
10.1240324
20
4.9901906
11
10.1240324
21
4.2998906
0
LINE
8
DEFAULT_255_2_778
10
10.1240324
20
4.2998906
11
10.0457324
21
4.2998906
0
LINE
8
DEFAULT_255_2_778
10
10.0457324
20
4.2998906
11
10.0457324
21
5.6973906
0
LINE
8
DEFAULT_255_2_778
10
5.6682324
20
5.4949906
11
5.6539324
21
5.5322906
0
LINE
8
DEFAULT_255_2_778
10
5.6539324
20
5.5322906
11
5.6348324
21
5.5674906
0
LINE
8
DEFAULT_255_2_778
10
5.6348324
20
5.5674906
11
5.6232324
21
5.5841906
0
LINE
8
DEFAULT_255_2_778
10
5.6232324
20
5.5841906
11
5.6102324
21
5.5997906
0
LINE
8
DEFAULT_255_2_778
10
5.6102324
20
5.5997906
11
5.5957324
21
5.6137906
0
LINE
8
DEFAULT_255_2_778
10
5.5957324
20
5.6137906
11
5.5798324
21
5.6264906
0
LINE
8
DEFAULT_255_2_778
10
5.5798324
20
5.6264906
11
5.5441324
21
5.6450906
0
LINE
8
DEFAULT_255_2_778
10
5.5441324
20
5.6450906
11
5.5242324
21
5.6500906
0
LINE
8
DEFAULT_255_2_778
10
5.5242324
20
5.6500906
11
5.5041324
21
5.6521906
0
LINE
8
DEFAULT_255_2_778
10
5.5041324
20
5.6521906
11
5.4838324
21
5.6518906
0
LINE
8
DEFAULT_255_2_778
10
5.4838324
20
5.6518906
11
5.4634324
21
5.6500906
0
LINE
8
DEFAULT_255_2_778
10
5.4634324
20
5.6500906
11
5.4433324
21
5.6471906
0
LINE
8
DEFAULT_255_2_778
10
5.4433324
20
5.6471906
11
5.4234324
21
5.6431906
0
LINE
8
DEFAULT_255_2_778
10
5.4234324
20
5.6431906
11
5.4039324
21
5.6373906
0
LINE
8
DEFAULT_255_2_778
10
5.4039324
20
5.6373906
11
5.3853324
21
5.6291906
0
LINE
8
DEFAULT_255_2_778
10
5.3853324
20
5.6291906
11
5.3679324
21
5.6188906
0
LINE
8
DEFAULT_255_2_778
10
5.3679324
20
5.6188906
11
5.3515324
21
5.6069906
0
LINE
8
DEFAULT_255_2_778
10
5.3515324
20
5.6069906
11
5.3229324
21
5.5780906
0
LINE
8
DEFAULT_255_2_778
10
5.3229324
20
5.5780906
11
5.3107324
21
5.5616906
0
LINE
8
DEFAULT_255_2_778
10
5.3107324
20
5.5616906
11
5.2999324
21
5.5444906
0
LINE
8
DEFAULT_255_2_778
10
5.2999324
20
5.5444906
11
5.2827324
21
5.5079906
0
LINE
8
DEFAULT_255_2_778
10
5.2652324
20
5.4288906
11
5.2628324
21
5.3886906
0
LINE
8
DEFAULT_255_2_778
10
5.2628324
20
5.3886906
11
5.2628324
21
5.3682906
0
LINE
8
DEFAULT_255_2_778
10
5.2628324
20
5.3682906
11
5.2642324
21
5.3478906
0
LINE
8
DEFAULT_255_2_778
10
5.2726324
20
5.3084906
11
5.2806324
21
5.2896906
0
LINE
8
DEFAULT_255_2_778
10
5.2806324
20
5.2896906
11
5.2906324
21
5.2719906
0
LINE
8
DEFAULT_255_2_778
10
5.2906324
20
5.2719906
11
5.3155324
21
5.2399906
0
LINE
8
DEFAULT_255_2_778
10
5.3155324
20
5.2399906
11
5.3451324
21
5.2124906
0
LINE
8
DEFAULT_255_2_778
10
5.3451324
20
5.2124906
11
5.3771324
21
5.1880906
0
LINE
8
DEFAULT_255_2_778
10
5.3771324
20
5.1880906
11
5.4107324
21
5.1658906
0
LINE
8
DEFAULT_255_2_778
10
5.4107324
20
5.1658906
11
5.4446324
21
5.1441906
0
LINE
8
DEFAULT_255_2_778
10
5.4446324
20
5.1441906
11
5.4782324
21
5.1221906
0
LINE
8
DEFAULT_255_2_778
10
5.4782324
20
5.1221906
11
5.5449324
21
5.0774906
0
LINE
8
DEFAULT_255_2_778
10
5.5449324
20
5.0774906
11
5.5787324
21
5.0560906
0
LINE
8
DEFAULT_255_2_778
10
5.5787324
20
5.0560906
11
5.6126324
21
5.0343906
0
LINE
8
DEFAULT_255_2_778
10
5.6126324
20
5.0343906
11
5.6452324
21
5.0110906
0
LINE
8
DEFAULT_255_2_778
10
5.6452324
20
5.0110906
11
5.6758324
21
4.9854906
0
LINE
8
DEFAULT_255_2_778
10
5.6758324
20
4.9854906
11
5.7042324
21
4.9573906
0
LINE
8
DEFAULT_255_2_778
10
5.7042324
20
4.9573906
11
5.7290324
21
4.9258906
0
LINE
8
DEFAULT_255_2_778
10
5.7290324
20
4.9258906
11
5.7499324
21
4.8914906
0
LINE
8
DEFAULT_255_2_778
10
5.7499324
20
4.8914906
11
5.7663324
21
4.8549906
0
LINE
8
DEFAULT_255_2_778
10
5.7827324
20
4.7763906
11
5.7843324
21
4.7364906
0
LINE
8
DEFAULT_255_2_778
10
5.7843324
20
4.7364906
11
5.7827324
21
4.6962906
0
LINE
8
DEFAULT_255_2_778
10
5.7076324
20
4.4707906
11
5.6835324
21
4.4385906
0
LINE
8
DEFAULT_255_2_778
10
5.6835324
20
4.4385906
11
5.6700324
21
4.4234906
0
LINE
8
DEFAULT_255_2_778
10
5.6700324
20
4.4234906
11
5.6557324
21
4.4091906
0
LINE
8
DEFAULT_255_2_778
10
5.6557324
20
4.4091906
11
5.6250324
21
4.3834906
0
LINE
8
DEFAULT_255_2_778
10
5.6250324
20
4.3834906
11
5.5914324
21
4.3615906
0
LINE
8
DEFAULT_255_2_778
10
5.5914324
20
4.3615906
11
5.5552324
21
4.3443906
0
LINE
8
DEFAULT_255_2_778
10
5.5552324
20
4.3443906
11
5.5166324
21
4.3332906
0
LINE
8
DEFAULT_255_2_778
10
5.5166324
20
4.3332906
11
5.4967324
21
4.3297906
0
LINE
8
DEFAULT_255_2_778
10
5.4967324
20
4.3297906
11
5.4766324
21
4.3279906
0
LINE
8
DEFAULT_255_2_778
10
5.4766324
20
4.3279906
11
5.4364324
21
4.3279906
0
LINE
8
DEFAULT_255_2_778
10
5.4364324
20
4.3279906
11
5.3964324
21
4.3334906
0
LINE
8
DEFAULT_255_2_778
10
5.3964324
20
4.3334906
11
5.3581324
21
4.3453906
0
LINE
8
DEFAULT_255_2_778
10
5.3581324
20
4.3453906
11
5.3221324
21
4.3636906
0
LINE
8
DEFAULT_255_2_778
10
5.3221324
20
4.3636906
11
5.2901324
21
4.3874906
0
LINE
8
DEFAULT_255_2_778
10
5.2901324
20
4.3874906
11
5.2620324
21
4.4162906
0
LINE
8
DEFAULT_255_2_778
10
5.2620324
20
4.4162906
11
5.2382324
21
4.4485906
0
LINE
8
DEFAULT_255_2_778
10
5.1787324
20
4.5969906
11
5.2546324
21
4.6242906
0
LINE
8
DEFAULT_255_2_778
10
5.2642324
20
4.5848906
11
5.2787324
21
4.5469906
0
LINE
8
DEFAULT_255_2_778
10
5.2787324
20
4.5469906
11
5.2983324
21
4.5115906
0
LINE
8
DEFAULT_255_2_778
10
5.2983324
20
4.5115906
11
5.3234324
21
4.4797906
0
LINE
8
DEFAULT_255_2_778
10
5.3234324
20
4.4797906
11
5.3546324
21
4.4538906
0
LINE
8
DEFAULT_255_2_778
10
5.3546324
20
4.4538906
11
5.3724324
21
4.4440906
0
LINE
8
DEFAULT_255_2_778
10
5.3724324
20
4.4440906
11
5.3912324
21
4.4366906
0
LINE
8
DEFAULT_255_2_778
10
5.3912324
20
4.4366906
11
5.4107324
21
4.4313906
0
LINE
8
DEFAULT_255_2_778
10
5.4107324
20
4.4313906
11
5.4308324
21
4.4279906
0
LINE
8
DEFAULT_255_2_778
10
5.4308324
20
4.4279906
11
5.4713324
21
4.4266906
0
LINE
8
DEFAULT_255_2_778
10
5.4713324
20
4.4266906
11
5.4914324
21
4.4284906
0
LINE
8
DEFAULT_255_2_778
10
5.4914324
20
4.4284906
11
5.5115324
21
4.4321906
0
LINE
8
DEFAULT_255_2_778
10
5.5115324
20
4.4321906
11
5.5496324
21
4.4453906
0
LINE
8
DEFAULT_255_2_778
10
5.5496324
20
4.4453906
11
5.5676324
21
4.4551906
0
LINE
8
DEFAULT_255_2_778
10
5.5676324
20
4.4551906
11
5.5843324
21
4.4665906
0
LINE
8
DEFAULT_255_2_778
10
5.5843324
20
4.4665906
11
5.6147324
21
4.4932906
0
LINE
8
DEFAULT_255_2_778
10
5.6147324
20
4.4932906
11
5.6285324
21
4.5083906
0
LINE
8
DEFAULT_255_2_778
10
5.6285324
20
4.5083906
11
5.6409324
21
4.5245906
0
LINE
8
DEFAULT_255_2_778
10
5.6409324
20
4.5245906
11
5.6621324
21
4.5588906
0
LINE
8
DEFAULT_255_2_778
10
5.6621324
20
4.5588906
11
5.6788324
21
4.5959906
0
LINE
8
DEFAULT_255_2_778
10
5.6909324
20
4.6343906
11
5.6991324
21
4.6737906
0
LINE
8
DEFAULT_255_2_778
10
5.6991324
20
4.6737906
11
5.7042324
21
4.7139906
0
LINE
8
DEFAULT_255_2_778
10
5.7042324
20
4.7139906
11
5.7047324
21
4.7541906
0
LINE
8
DEFAULT_255_2_778
10
5.7047324
20
4.7541906
11
5.7028324
21
4.7742906
0
LINE
8
DEFAULT_255_2_778
10
5.7028324
20
4.7742906
11
5.6994324
21
4.7943906
0
LINE
8
DEFAULT_255_2_778
10
5.6864324
20
4.8324906
11
5.6766324
21
4.8502906
0
LINE
8
DEFAULT_255_2_778
10
5.6766324
20
4.8502906
11
5.6655324
21
4.8668906
0
LINE
8
DEFAULT_255_2_778
10
5.6655324
20
4.8668906
11
5.6393324
21
4.8975906
0
LINE
8
DEFAULT_255_2_778
10
5.6393324
20
4.8975906
11
5.6089324
21
4.9242906
0
LINE
8
DEFAULT_255_2_778
10
5.6089324
20
4.9242906
11
5.5764324
21
4.9480906
0
LINE
8
DEFAULT_255_2_778
10
5.5764324
20
4.9480906
11
5.5420324
21
4.9692906
0
LINE
8
DEFAULT_255_2_778
10
5.5420324
20
4.9692906
11
5.5076324
21
4.9901906
0
LINE
8
DEFAULT_255_2_778
10
5.5076324
20
4.9901906
11
5.4737324
21
5.0121906
0
LINE
8
DEFAULT_255_2_778
10
5.4737324
20
5.0121906
11
5.4404324
21
5.0348906
0
LINE
8
DEFAULT_255_2_778
10
5.4404324
20
5.0348906
11
5.4070324
21
5.0576906
0
LINE
8
DEFAULT_255_2_778
10
5.4070324
20
5.0576906
11
5.3734324
21
5.0798906
0
LINE
8
DEFAULT_255_2_778
10
5.3734324
20
5.0798906
11
5.3398324
21
5.1020906
0
LINE
8
DEFAULT_255_2_778
10
5.3398324
20
5.1020906
11
5.3075324
21
5.1261906
0
LINE
8
DEFAULT_255_2_778
10
5.3075324
20
5.1261906
11
5.2774324
21
5.1528906
0
LINE
8
DEFAULT_255_2_778
10
5.2774324
20
5.1528906
11
5.2499324
21
5.1822906
0
LINE
8
DEFAULT_255_2_778
10
5.2499324
20
5.1822906
11
5.2263324
21
5.2145906
0
LINE
8
DEFAULT_255_2_778
10
5.2263324
20
5.2145906
11
5.2160324
21
5.2317906
0
LINE
8
DEFAULT_255_2_778
10
5.2160324
20
5.2317906
11
5.2067324
21
5.2497906
0
LINE
8
DEFAULT_255_2_778
10
5.1874324
20
5.4455906
11
5.1940324
21
5.4846906
0
LINE
8
DEFAULT_255_2_778
10
5.1940324
20
5.4846906
11
5.2041324
21
5.5235906
0
LINE
8
DEFAULT_255_2_778
10
5.2348324
20
5.5973906
11
5.2448324
21
5.6148906
0
LINE
8
DEFAULT_255_2_778
10
5.2448324
20
5.6148906
11
5.2560324
21
5.6317906
0
LINE
8
DEFAULT_255_2_778
10
5.2560324
20
5.6317906
11
5.2811324
21
5.6627906
0
LINE
8
DEFAULT_255_2_778
10
5.2811324
20
5.6627906
11
5.3105324
21
5.6899906
0
LINE
8
DEFAULT_255_2_778
10
5.3105324
20
5.6899906
11
5.3438324
21
5.7124906
0
LINE
8
DEFAULT_255_2_778
10
5.3438324
20
5.7124906
11
5.3798324
21
5.7296906
0
LINE
8
DEFAULT_255_2_778
10
5.3798324
20
5.7296906
11
5.4184324
21
5.7415906
0
LINE
8
DEFAULT_255_2_778
10
5.4184324
20
5.7415906
11
5.4578324
21
5.7481906
0
LINE
8
DEFAULT_255_2_778
10
5.4578324
20
5.7481906
11
5.4980324
21
5.7500906
0
LINE
8
DEFAULT_255_2_778
10
5.4980324
20
5.7500906
11
5.5380324
21
5.7460906
0
LINE
8
DEFAULT_255_2_778
10
5.5380324
20
5.7460906
11
5.5576324
21
5.7415906
0
LINE
8
DEFAULT_255_2_778
10
5.5576324
20
5.7415906
11
5.5766324
21
5.7349906
0
LINE
8
DEFAULT_255_2_778
10
5.5766324
20
5.7349906
11
5.6121324
21
5.7164906
0
LINE
8
DEFAULT_255_2_778
10
5.6121324
20
5.7164906
11
5.6438324
21
5.6918906
0
LINE
8
DEFAULT_255_2_778
10
5.6438324
20
5.6918906
11
5.6713324
21
5.6627906
0
LINE
8
DEFAULT_255_2_778
10
5.6713324
20
5.6627906
11
5.6949324
21
5.6301906
0
LINE
8
DEFAULT_255_2_778
10
5.7544324
20
5.4822906
11
5.6785324
21
5.4550906
0
LINE
8
DEFAULT_255_2_778
10
13.1051324
20
4.8253906
11
13.4580324
21
4.8253906
0
LINE
8
DEFAULT_255_2_778
10
13.4580324
20
4.8253906
11
13.4580324
21
4.9242906
0
LINE
8
DEFAULT_255_2_778
10
13.4580324
20
4.9242906
11
13.1051324
21
4.9242906
0
LINE
8
DEFAULT_255_2_778
10
13.1051324
20
4.9242906
11
13.1051324
21
4.8253906
0
LINE
8
DEFAULT_255_2_778
10
8.7434324
20
4.9242906
11
9.0964324
21
4.9242906
0
LINE
8
DEFAULT_255_2_778
10
9.0964324
20
4.9242906
11
9.0964324
21
4.8253906
0
LINE
8
DEFAULT_255_2_778
10
9.0964324
20
4.8253906
11
8.7434324
21
4.8253906
0
LINE
8
DEFAULT_255_2_778
10
8.7434324
20
4.8253906
11
8.7434324
21
4.9242906
0
LINE
8
DEFAULT_255_2_778
10
8.5392324
20
5.2261906
11
8.5487324
21
5.2645906
0
LINE
8
DEFAULT_255_2_778
10
8.5487324
20
5.2645906
11
8.5556324
21
5.3034906
0
LINE
8
DEFAULT_255_2_778
10
8.5611324
20
5.3828906
11
8.5593324
21
5.4227906
0
LINE
8
DEFAULT_255_2_778
10
8.4931324
20
5.5762906
11
8.4725324
21
5.5915906
0
LINE
8
DEFAULT_255_2_778
10
8.4725324
20
5.5915906
11
8.4503324
21
5.6029906
0
LINE
8
DEFAULT_255_2_778
10
8.4503324
20
5.6029906
11
8.4270324
21
5.6106906
0
LINE
8
DEFAULT_255_2_778
10
8.4270324
20
5.6106906
11
8.4032324
21
5.6151906
0
LINE
8
DEFAULT_255_2_778
10
8.4032324
20
5.6151906
11
8.3791324
21
5.6169906
0
LINE
8
DEFAULT_255_2_778
10
8.3791324
20
5.6169906
11
8.3550324
21
5.6164906
0
LINE
8
DEFAULT_255_2_778
10
8.3079324
20
5.6058906
11
8.2965324
21
5.6008906
0
LINE
8
DEFAULT_255_2_778
10
8.2965324
20
5.6008906
11
8.2857324
21
5.5950906
0
LINE
8
DEFAULT_255_2_778
10
8.2857324
20
5.5950906
11
8.2651324
21
5.5801906
0
LINE
8
DEFAULT_255_2_778
10
8.2651324
20
5.5801906
11
8.2463324
21
5.5616906
0
LINE
8
DEFAULT_255_2_778
10
8.2463324
20
5.5616906
11
8.2299324
21
5.5402906
0
LINE
8
DEFAULT_255_2_778
10
8.2037324
20
5.4904906
11
8.1341324
21
5.5346906
0
LINE
8
DEFAULT_255_2_778
10
8.1743324
20
5.6098906
11
8.2002324
21
5.6418906
0
LINE
8
DEFAULT_255_2_778
10
8.2002324
20
5.6418906
11
8.2299324
21
5.6682906
0
LINE
8
DEFAULT_255_2_778
10
8.2299324
20
5.6682906
11
8.2460324
21
5.6794906
0
LINE
8
DEFAULT_255_2_778
10
8.2460324
20
5.6794906
11
8.2629324
21
5.6889906
0
LINE
8
DEFAULT_255_2_778
10
8.2629324
20
5.6889906
11
8.2979324
21
5.7026906
0
LINE
8
DEFAULT_255_2_778
10
8.2979324
20
5.7026906
11
8.3341324
21
5.7103906
0
LINE
8
DEFAULT_255_2_778
10
8.3341324
20
5.7103906
11
8.3712324
21
5.7127906
0
LINE
8
DEFAULT_255_2_778
10
8.3712324
20
5.7127906
11
8.4087324
21
5.7106906
0
LINE
8
DEFAULT_255_2_778
10
8.4087324
20
5.7106906
11
8.4458324
21
5.7034906
0
LINE
8
DEFAULT_255_2_778
10
8.4458324
20
5.7034906
11
8.4640324
21
5.6976906
0
LINE
8
DEFAULT_255_2_778
10
8.4640324
20
5.6976906
11
8.4818324
21
5.6905906
0
LINE
8
DEFAULT_255_2_778
10
8.4818324
20
5.6905906
11
8.5161324
21
5.6725906
0
LINE
8
DEFAULT_255_2_778
10
8.5931324
20
5.5891906
11
8.6058324
21
5.5643906
0
LINE
8
DEFAULT_255_2_778
10
8.6058324
20
5.5643906
11
8.6167324
21
5.5378906
0
LINE
8
DEFAULT_255_2_778
10
8.6167324
20
5.5378906
11
8.6252324
21
5.5103906
0
LINE
8
DEFAULT_255_2_778
10
8.6252324
20
5.5103906
11
8.6312324
21
5.4820906
0
LINE
8
DEFAULT_255_2_778
10
8.6312324
20
5.4820906
11
8.6389324
21
5.4240906
0
LINE
8
DEFAULT_255_2_778
10
8.6389324
20
5.4240906
11
8.6405324
21
5.3658906
0
LINE
8
DEFAULT_255_2_778
10
8.6405324
20
5.3658906
11
8.6368324
21
5.3076906
0
LINE
8
DEFAULT_255_2_778
10
8.6368324
20
5.3076906
11
8.6331324
21
5.2785906
0
LINE
8
DEFAULT_255_2_778
10
8.6331324
20
5.2785906
11
8.6283324
21
5.2497906
0
LINE
8
DEFAULT_255_2_778
10
8.5958324
20
5.1409906
11
8.5736324
21
5.0909906
0
LINE
8
DEFAULT_255_2_778
10
8.5736324
20
5.0909906
11
8.5490324
21
5.0428906
0
LINE
8
DEFAULT_255_2_778
10
8.5490324
20
5.0428906
11
8.5228324
21
4.9959906
0
LINE
8
DEFAULT_255_2_778
10
8.5228324
20
4.9959906
11
8.4672324
21
4.9047906
0
LINE
8
DEFAULT_255_2_778
10
8.4672324
20
4.9047906
11
8.4384324
21
4.8599906
0
LINE
8
DEFAULT_255_2_778
10
8.4384324
20
4.8599906
11
8.4093324
21
4.8155906
0
LINE
8
DEFAULT_255_2_778
10
8.4093324
20
4.8155906
11
8.3500324
21
4.7274906
0
LINE
8
DEFAULT_255_2_778
10
8.3500324
20
4.7274906
11
8.2899324
21
4.6401906
0
LINE
8
DEFAULT_255_2_778
10
8.2899324
20
4.6401906
11
8.1701324
21
4.4652906
0
LINE
8
DEFAULT_255_2_778
10
8.1701324
20
4.4652906
11
8.1701324
21
4.4191906
0
LINE
8
DEFAULT_255_2_778
10
8.1701324
20
4.4191906
11
8.6876324
21
4.4191906
0
LINE
8
DEFAULT_255_2_778
10
8.6876324
20
4.4191906
11
8.6876324
21
4.3234906
0
LINE
8
DEFAULT_255_2_778
10
8.6876324
20
4.3234906
11
8.0912324
21
4.3234906
0
LINE
8
DEFAULT_255_2_778
10
8.0912324
20
4.3234906
11
8.0912324
21
4.4996906
0
LINE
8
DEFAULT_255_2_778
10
8.0912324
20
4.4996906
11
8.1005324
21
4.5131906
0
LINE
8
DEFAULT_255_2_778
10
8.1005324
20
4.5131906
11
8.1600324
21
4.5980906
0
LINE
8
DEFAULT_255_2_778
10
8.1600324
20
4.5980906
11
8.2195324
21
4.6829906
0
LINE
8
DEFAULT_255_2_778
10
8.2195324
20
4.6829906
11
8.2492324
21
4.7258906
0
LINE
8
DEFAULT_255_2_778
10
8.2492324
20
4.7258906
11
8.2786324
21
4.7687906
0
LINE
8
DEFAULT_255_2_778
10
8.2786324
20
4.7687906
11
8.3370324
21
4.8547906
0
LINE
8
DEFAULT_255_2_778
10
8.3370324
20
4.8547906
11
8.3659324
21
4.8980906
0
LINE
8
DEFAULT_255_2_778
10
8.3659324
20
4.8980906
11
8.3942324
21
4.9422906
0
LINE
8
DEFAULT_255_2_778
10
8.3942324
20
4.9422906
11
8.4217324
21
4.9869906
0
LINE
8
DEFAULT_255_2_778
10
8.4217324
20
4.9869906
11
8.4484324
21
5.0322906
0
LINE
8
DEFAULT_255_2_778
10
8.4484324
20
5.0322906
11
8.4741324
21
5.0782906
0
LINE
8
DEFAULT_255_2_778
10
8.4741324
20
5.0782906
11
8.4987324
21
5.1251906
0
LINE
8
DEFAULT_255_2_778
10
8.4987324
20
5.1251906
11
8.5212324
21
5.1737906
0
LINE
8
DEFAULT_255_2_778
10
4.0653324
20
5.2251906
11
4.0899324
21
5.2179906
0
LINE
8
DEFAULT_255_2_778
10
4.0899324
20
5.2179906
11
4.1135324
21
5.2081906
0
LINE
8
DEFAULT_255_2_778
10
4.1135324
20
5.2081906
11
4.1357324
21
5.1954906
0
LINE
8
DEFAULT_255_2_778
10
4.1357324
20
5.1954906
11
4.1558324
21
5.1798906
0
LINE
8
DEFAULT_255_2_778
10
4.1558324
20
5.1798906
11
4.1738324
21
5.1618906
0
LINE
8
DEFAULT_255_2_778
10
4.1738324
20
5.1618906
11
4.1899324
21
5.1420906
0
LINE
8
DEFAULT_255_2_778
10
4.2704324
20
4.8531906
11
4.2717324
21
4.8025906
0
LINE
8
DEFAULT_255_2_778
10
4.2717324
20
4.8025906
11
4.2712324
21
4.7520906
0
LINE
8
DEFAULT_255_2_778
10
4.2712324
20
4.7520906
11
4.2640324
21
4.6512906
0
LINE
8
DEFAULT_255_2_778
10
4.2299324
20
4.5033906
11
4.2198324
21
4.4797906
0
LINE
8
DEFAULT_255_2_778
10
4.2198324
20
4.4797906
11
4.2082324
21
4.4572906
0
LINE
8
DEFAULT_255_2_778
10
4.1799324
20
4.4154906
11
4.1630324
21
4.3964906
0
LINE
8
DEFAULT_255_2_778
10
4.1630324
20
4.3964906
11
4.1442324
21
4.3792906
0
LINE
8
DEFAULT_255_2_778
10
4.1442324
20
4.3792906
11
4.1238324
21
4.3644906
0
LINE
8
DEFAULT_255_2_778
10
4.1238324
20
4.3644906
11
4.1016324
21
4.3517906
0
LINE
8
DEFAULT_255_2_778
10
4.1016324
20
4.3517906
11
4.0542324
21
4.3342906
0
LINE
8
DEFAULT_255_2_778
10
4.0542324
20
4.3342906
11
4.0291324
21
4.3295906
0
LINE
8
DEFAULT_255_2_778
10
4.0291324
20
4.3295906
11
4.0037324
21
4.3271906
0
LINE
8
DEFAULT_255_2_778
10
4.0037324
20
4.3271906
11
3.9531324
21
4.3284906
0
LINE
8
DEFAULT_255_2_778
10
3.9531324
20
4.3284906
11
3.9280324
21
4.3324906
0
LINE
8
DEFAULT_255_2_778
10
3.9280324
20
4.3324906
11
3.9034324
21
4.3387906
0
LINE
8
DEFAULT_255_2_778
10
3.9034324
20
4.3387906
11
3.8799324
21
4.3480906
0
LINE
8
DEFAULT_255_2_778
10
3.8799324
20
4.3480906
11
3.8574324
21
4.3601906
0
LINE
8
DEFAULT_255_2_778
10
3.8574324
20
4.3601906
11
3.8171324
21
4.3911906
0
LINE
8
DEFAULT_255_2_778
10
3.8171324
20
4.3911906
11
3.7994324
21
4.4094906
0
LINE
8
DEFAULT_255_2_778
10
3.7994324
20
4.4094906
11
3.7835324
21
4.4292906
0
LINE
8
DEFAULT_255_2_778
10
3.7835324
20
4.4292906
11
3.7571324
21
4.4723906
0
LINE
8
DEFAULT_255_2_778
10
3.7571324
20
4.4723906
11
3.7362324
21
4.5186906
0
LINE
8
DEFAULT_255_2_778
10
3.7087324
20
4.6149906
11
3.6994324
21
4.6642906
0
LINE
8
DEFAULT_255_2_778
10
3.6994324
20
4.6642906
11
3.6923324
21
4.7139906
0
LINE
8
DEFAULT_255_2_778
10
3.6923324
20
4.7139906
11
3.6872324
21
4.7639906
0
LINE
8
DEFAULT_255_2_778
10
3.6872324
20
4.7639906
11
3.6835324
21
4.8142906
0
LINE
8
DEFAULT_255_2_778
10
3.6835324
20
4.8142906
11
3.6804324
21
4.9147906
0
LINE
8
DEFAULT_255_2_778
10
3.6804324
20
4.9147906
11
3.6793324
21
5.0153906
0
LINE
8
DEFAULT_255_2_778
10
3.6793324
20
5.0153906
11
3.6796324
21
5.1158906
0
LINE
8
DEFAULT_255_2_778
10
3.6796324
20
5.1158906
11
3.6809324
21
5.2163906
0
LINE
8
DEFAULT_255_2_778
10
3.6809324
20
5.2163906
11
3.6825324
21
5.2666906
0
LINE
8
DEFAULT_255_2_778
10
3.6825324
20
5.2666906
11
3.6851324
21
5.3169906
0
LINE
8
DEFAULT_255_2_778
10
3.6851324
20
5.3169906
11
3.6946324
21
5.4169906
0
LINE
8
DEFAULT_255_2_778
10
3.6946324
20
5.4169906
11
3.7026324
21
5.4664906
0
LINE
8
DEFAULT_255_2_778
10
3.7026324
20
5.4664906
11
3.7132324
21
5.5153906
0
LINE
8
DEFAULT_255_2_778
10
3.7132324
20
5.5153906
11
3.7277324
21
5.5635906
0
LINE
8
DEFAULT_255_2_778
10
3.7738324
20
5.6534906
11
3.7896324
21
5.6733906
0
LINE
8
DEFAULT_255_2_778
10
3.7896324
20
5.6733906
11
3.8074324
21
5.6913906
0
LINE
8
DEFAULT_255_2_778
10
3.8074324
20
5.6913906
11
3.8267324
21
5.7071906
0
LINE
8
DEFAULT_255_2_778
10
3.8267324
20
5.7071906
11
3.8478324
21
5.7209906
0
LINE
8
DEFAULT_255_2_778
10
3.8478324
20
5.7209906
11
3.8941324
21
5.7405906
0
LINE
8
DEFAULT_255_2_778
10
3.8941324
20
5.7405906
11
3.9439324
21
5.7492906
0
LINE
8
DEFAULT_255_2_778
10
3.9439324
20
5.7492906
11
3.9942324
21
5.7495906
0
LINE
8
DEFAULT_255_2_778
10
3.9942324
20
5.7495906
11
4.0193324
21
5.7463906
0
LINE
8
DEFAULT_255_2_778
10
4.0193324
20
5.7463906
11
4.0442324
21
5.7407906
0
LINE
8
DEFAULT_255_2_778
10
4.0442324
20
5.7407906
11
4.0910324
21
5.7220906
0
LINE
8
DEFAULT_255_2_778
10
4.0910324
20
5.7220906
11
4.1130324
21
5.7090906
0
LINE
8
DEFAULT_255_2_778
10
4.1130324
20
5.7090906
11
4.1333324
21
5.6939906
0
LINE
8
DEFAULT_255_2_778
10
4.1333324
20
5.6939906
11
4.1521324
21
5.6770906
0
LINE
8
DEFAULT_255_2_778
10
4.1521324
20
5.6770906
11
4.1693324
21
5.6582906
0
LINE
8
DEFAULT_255_2_778
10
4.1693324
20
5.6582906
11
4.1984324
21
5.6169906
0
LINE
8
DEFAULT_255_2_778
10
4.2209324
20
5.5714906
11
4.1497324
21
5.5248906
0
LINE
8
DEFAULT_255_2_778
10
4.1212324
20
5.5778906
11
4.1016324
21
5.6008906
0
LINE
8
DEFAULT_255_2_778
10
4.1016324
20
5.6008906
11
4.0786324
21
5.6201906
0
LINE
8
DEFAULT_255_2_778
10
4.0786324
20
5.6201906
11
4.0526324
21
5.6354906
0
LINE
8
DEFAULT_255_2_778
10
4.0526324
20
5.6354906
11
4.0246324
21
5.6460906
0
LINE
8
DEFAULT_255_2_778
10
4.0246324
20
5.6460906
11
3.9949324
21
5.6518906
0
LINE
8
DEFAULT_255_2_778
10
3.9949324
20
5.6518906
11
3.9648324
21
5.6529906
0
LINE
8
DEFAULT_255_2_778
10
3.9648324
20
5.6529906
11
3.9346324
21
5.6500906
0
LINE
8
DEFAULT_255_2_778
10
3.9346324
20
5.6500906
11
3.9055324
21
5.6426906
0
LINE
8
DEFAULT_255_2_778
10
3.9055324
20
5.6426906
11
3.8915324
21
5.6368906
0
LINE
8
DEFAULT_255_2_778
10
3.8915324
20
5.6368906
11
3.8783324
21
5.6296906
0
LINE
8
DEFAULT_255_2_778
10
3.8783324
20
5.6296906
11
3.8658324
21
5.6209906
0
LINE
8
DEFAULT_255_2_778
10
3.8658324
20
5.6209906
11
3.8545324
21
5.6108906
0
LINE
8
DEFAULT_255_2_778
10
3.8545324
20
5.6108906
11
3.8349324
21
5.5881906
0
LINE
8
DEFAULT_255_2_778
10
3.8349324
20
5.5881906
11
3.8187324
21
5.5624906
0
LINE
8
DEFAULT_255_2_778
10
3.7809324
20
5.4489906
11
3.7714324
21
5.3899906
0
LINE
8
DEFAULT_255_2_778
10
3.7624324
20
5.2714906
11
3.7605324
21
5.2118906
0
LINE
8
DEFAULT_255_2_778
10
3.7605324
20
5.2118906
11
3.7592324
21
5.1523906
0
LINE
8
DEFAULT_255_2_778
10
3.7592324
20
5.1523906
11
3.7581324
21
5.0332906
0
LINE
8
DEFAULT_255_2_778
10
3.7581324
20
5.0332906
11
3.7743324
21
5.0692906
0
LINE
8
DEFAULT_255_2_778
10
3.7743324
20
5.0692906
11
3.7841324
21
5.0862906
0
LINE
8
DEFAULT_255_2_778
10
3.7841324
20
5.0862906
11
3.7949324
21
5.1026906
0
LINE
8
DEFAULT_255_2_778
10
3.8449324
20
5.1632906
11
3.8754324
21
5.1880906
0
LINE
8
DEFAULT_255_2_778
10
3.8754324
20
5.1880906
11
3.9095324
21
5.2076906
0
LINE
8
DEFAULT_255_2_778
10
3.9095324
20
5.2076906
11
3.9465324
21
5.2211906
0
LINE
8
DEFAULT_255_2_778
10
3.9465324
20
5.2211906
11
3.9857324
21
5.2277906
0
LINE
8
DEFAULT_255_2_778
10
3.9857324
20
5.2277906
11
4.0148324
21
5.2298906
0
LINE
8
DEFAULT_255_2_778
10
3.9936324
20
5.1280906
11
3.9658324
21
5.1235906
0
LINE
8
DEFAULT_255_2_778
10
3.9658324
20
5.1235906
11
3.9394324
21
5.1145906
0
LINE
8
DEFAULT_255_2_778
10
3.9394324
20
5.1145906
11
3.9267324
21
5.1081906
0
LINE
8
DEFAULT_255_2_778
10
3.9267324
20
5.1081906
11
3.9148324
21
5.1007906
0
LINE
8
DEFAULT_255_2_778
10
3.9148324
20
5.1007906
11
3.8928324
21
5.0830906
0
LINE
8
DEFAULT_255_2_778
10
3.8928324
20
5.0830906
11
3.8738324
21
5.0623906
0
LINE
8
DEFAULT_255_2_778
10
3.8738324
20
5.0623906
11
3.8571324
21
5.0401906
0
LINE
8
DEFAULT_255_2_778
10
3.8571324
20
5.0401906
11
3.8420324
21
5.0166906
0
LINE
8
DEFAULT_255_2_778
10
3.8420324
20
5.0166906
11
3.8283324
21
4.9922906
0
LINE
8
DEFAULT_255_2_778
10
3.8283324
20
4.9922906
11
3.8161324
21
4.9671906
0
LINE
8
DEFAULT_255_2_778
10
3.8161324
20
4.9671906
11
3.8058324
21
4.9412906
0
LINE
8
DEFAULT_255_2_778
10
3.7907324
20
4.8877906
11
3.7859324
21
4.8602906
0
LINE
8
DEFAULT_255_2_778
10
3.7859324
20
4.8602906
11
3.7825324
21
4.8327906
0
LINE
8
DEFAULT_255_2_778
10
3.7825324
20
4.8327906
11
3.7788324
21
4.7774906
0
LINE
8
DEFAULT_255_2_778
10
3.7788324
20
4.7774906
11
3.7788324
21
4.7218906
0
LINE
8
DEFAULT_255_2_778
10
3.7788324
20
4.7218906
11
3.7812324
21
4.6940906
0
LINE
8
DEFAULT_255_2_778
10
3.7812324
20
4.6940906
11
3.7854324
21
4.6663906
0
LINE
8
DEFAULT_255_2_778
10
3.8478324
20
4.5123906
11
3.8650324
21
4.4903906
0
LINE
8
DEFAULT_255_2_778
10
3.8650324
20
4.4903906
11
3.8846324
21
4.4699906
0
LINE
8
DEFAULT_255_2_778
10
3.8846324
20
4.4699906
11
3.9063324
21
4.4520906
0
LINE
8
DEFAULT_255_2_778
10
3.9063324
20
4.4520906
11
3.9307324
21
4.4377906
0
LINE
8
DEFAULT_255_2_778
10
3.9307324
20
4.4377906
11
3.9571324
21
4.4284906
0
LINE
8
DEFAULT_255_2_778
10
3.9571324
20
4.4284906
11
3.9711324
21
4.4260906
0
LINE
8
DEFAULT_255_2_778
10
3.9711324
20
4.4260906
11
3.9852324
21
4.4250906
0
LINE
8
DEFAULT_255_2_778
10
3.9852324
20
4.4250906
11
4.0132324
21
4.4260906
0
LINE
8
DEFAULT_255_2_778
10
4.0132324
20
4.4260906
11
4.0407324
21
4.4313906
0
LINE
8
DEFAULT_255_2_778
10
4.0407324
20
4.4313906
11
4.0669324
21
4.4414906
0
LINE
8
DEFAULT_255_2_778
10
4.0669324
20
4.4414906
11
4.0791324
21
4.4485906
0
LINE
8
DEFAULT_255_2_778
10
4.0791324
20
4.4485906
11
4.0905324
21
4.4570906
0
LINE
8
DEFAULT_255_2_778
10
4.0905324
20
4.4570906
11
4.1106324
21
4.4766906
0
LINE
8
DEFAULT_255_2_778
10
4.1106324
20
4.4766906
11
4.1278324
21
4.4988906
0
LINE
8
DEFAULT_255_2_778
10
4.1278324
20
4.4988906
11
4.1426324
21
4.5226906
0
LINE
8
DEFAULT_255_2_778
10
4.1426324
20
4.5226906
11
4.1548324
21
4.5480906
0
LINE
8
DEFAULT_255_2_778
10
4.1841324
20
4.6559906
11
4.1902324
21
4.7118906
0
LINE
8
DEFAULT_255_2_778
10
4.1902324
20
4.7118906
11
4.1934324
21
4.7679906
0
LINE
8
DEFAULT_255_2_778
10
4.1934324
20
4.7679906
11
4.1934324
21
4.8240906
0
LINE
8
DEFAULT_255_2_778
10
4.1934324
20
4.8240906
11
4.1905324
21
4.8798906
0
LINE
8
DEFAULT_255_2_778
10
4.1905324
20
4.8798906
11
4.1839324
21
4.9356906
0
LINE
8
DEFAULT_255_2_778
10
4.1722324
20
4.9906906
11
4.1638324
21
5.0176906
0
LINE
8
DEFAULT_255_2_778
10
4.1638324
20
5.0176906
11
4.1529324
21
5.0436906
0
LINE
8
DEFAULT_255_2_778
10
4.1529324
20
5.0436906
11
4.1389324
21
5.0679906
0
LINE
8
DEFAULT_255_2_778
10
4.1389324
20
5.0679906
11
4.1212324
21
5.0899906
0
LINE
8
DEFAULT_255_2_778
10
4.1212324
20
5.0899906
11
4.1108324
21
5.0994906
0
LINE
8
DEFAULT_255_2_778
10
4.1108324
20
5.0994906
11
4.0995324
21
5.1079906
0
LINE
8
DEFAULT_255_2_778
10
4.0995324
20
5.1079906
11
4.0743324
21
5.1203906
0
LINE
8
DEFAULT_255_2_778
10
4.0743324
20
5.1203906
11
4.0471324
21
5.1280906
0
LINE
8
DEFAULT_255_2_778
10
4.0471324
20
5.1280906
11
4.0190324
21
5.1298906
0
LINE
8
DEFAULT_255_2_778
10
4.0190324
20
5.1298906
11
3.9936324
21
5.1280906
0
ARC
8
DEFAULT_255_2_778
10
9.4530008
20
5.4374921
40
0.2421613
50
21.2092334
51
35.4953744
0
ARC
8
DEFAULT_255_2_778
10
9.6216312
20
5.4158232
40
0.3107709
50
151.7954402
51
162.8618725
0
ARC
8
DEFAULT_255_2_778
10
9.8753234
20
5.3363868
40
0.5766076
50
162.7473934
51
168.7173129
0
ARC
8
DEFAULT_255_2_778
10
10.6706394
20
5.2265363
40
1.3800192
50
173.1889623
51
178.1245528
0
ARC
8
DEFAULT_255_2_778
10
9.6720987
20
4.8655167
40
0.4214516
50
135.0246061
51
145.7190262
0
ARC
8
DEFAULT_255_2_778
10
9.5526785
20
5.0941898
40
0.1360944
50
89.9814168
51
94.3062814
0
ARC
8
DEFAULT_255_2_778
10
9.5511216
20
5.0591121
40
0.1711794
50
75.8530919
51
89.4641265
0
ARC
8
DEFAULT_255_2_778
10
9.4713278
20
4.9618611
40
0.3050902
50
26.6277218
51
36.1885757
0
ARC
8
DEFAULT_255_2_778
10
9.4073644
20
4.9285638
40
0.3771947
50
19.0696787
51
26.7944862
0
ARC
8
DEFAULT_255_2_778
10
9.2418675
20
4.8716367
40
0.5522086
50
8.5358398
51
19.0418913
0
ARC
8
DEFAULT_255_2_778
10
8.8594634
20
4.8095309
40
0.9396067
50
2.6577272
51
8.8199025
0
ARC
8
DEFAULT_255_2_778
10
9.0983852
20
4.7282752
40
0.6975454
50
345.3197428
51
353.6561564
0
ARC
8
DEFAULT_255_2_778
10
9.3366851
20
4.666141
40
0.4512786
50
338.8479782
51
345.283523
0
ARC
8
DEFAULT_255_2_778
10
9.5036465
20
4.5840358
40
0.2645464
50
320.4259646
51
331.375421
0
ARC
8
DEFAULT_255_2_778
10
9.8766417
20
4.7457653
40
0.6534989
50
191.5428243
51
200.3320941
0
ARC
8
DEFAULT_255_2_778
10
9.6467548
20
5.4239081
40
0.4155433
50
153.3801715
51
160.3711331
0
ARC
8
DEFAULT_255_2_778
10
9.5569003
20
5.469685
40
0.3147029
50
144.261254
51
153.5009793
0
ARC
8
DEFAULT_255_2_778
10
9.424747
20
5.4395861
40
0.3496132
50
22.1496978
51
30.4756138
0
ARC
8
DEFAULT_255_2_778
10
9.7059295
20
4.8070395
40
0.3958952
50
160.1914229
51
168.2293441
0
ARC
8
DEFAULT_255_2_778
10
9.7588626
20
4.7490633
40
0.4534206
50
190.5172157
51
197.5552712
0
ARC
8
DEFAULT_255_2_778
10
9.6890052
20
4.7264425
40
0.3799941
50
197.4804067
51
205.8933626
0
ARC
8
DEFAULT_255_2_778
10
9.6657505
20
4.7151486
40
0.3541419
50
205.8925877
51
214.9449438
0
ARC
8
DEFAULT_255_2_778
10
9.3257361
20
4.697638
40
0.3868372
50
337.2429622
51
345.5639764
0
ARC
8
DEFAULT_255_2_778
10
9.2532178
20
4.7228043
40
0.4633824
50
344.7858441
51
351.7109697
0
ARC
8
DEFAULT_255_2_778
10
9.2475147
20
4.865856
40
0.4692565
50
8.5473394
51
15.4291318
0
ARC
8
DEFAULT_255_2_778
10
11.1179591
20
5.3779997
40
0.3896883
50
34.122327
51
43.8978843
0
ARC
8
DEFAULT_255_2_778
10
11.0519504
20
5.3287517
40
0.4719742
50
26.5480954
51
34.5765129
0
ARC
8
DEFAULT_255_2_778
10
10.9846615
20
4.7757362
40
0.540954
50
330.6024494
51
337.5891604
0
ARC
8
DEFAULT_255_2_778
10
11.1681584
20
4.6955924
40
0.2583871
50
318.0603483
51
330.1026783
0
ARC
8
DEFAULT_255_2_778
10
11.0248031
20
4.7805127
40
0.4249985
50
329.8109204
51
337.1533211
0
ARC
8
DEFAULT_255_2_778
10
10.9484051
20
4.8165676
40
0.5094144
50
336.7525188
51
342.8082782
0
ARC
8
DEFAULT_255_2_778
10
11.129224
20
5.3625092
40
0.3047581
50
28.9658576
51
39.1211448
0
LINE
8
DEFAULT_255_2_778
10
9.6501594
20
5.5781
11
9.6305594
21
5.6011
0
LINE
8
DEFAULT_255_2_778
10
9.6305594
20
5.6011
11
9.6075594
21
5.6204
0
LINE
8
DEFAULT_255_2_778
10
9.6075594
20
5.6204
11
9.5815594
21
5.6357
0
LINE
8
DEFAULT_255_2_778
10
9.5815594
20
5.6357
11
9.5535594
21
5.6463
0
LINE
8
DEFAULT_255_2_778
10
9.5535594
20
5.6463
11
9.5239594
21
5.6521
0
LINE
8
DEFAULT_255_2_778
10
9.5239594
20
5.6521
11
9.4937594
21
5.6532
0
LINE
8
DEFAULT_255_2_778
10
9.4937594
20
5.6532
11
9.4635594
21
5.6503
0
LINE
8
DEFAULT_255_2_778
10
9.4635594
20
5.6503
11
9.4344594
21
5.6429
0
LINE
8
DEFAULT_255_2_778
10
9.4344594
20
5.6429
11
9.4204594
21
5.6371
0
LINE
8
DEFAULT_255_2_778
10
9.4204594
20
5.6371
11
9.4072594
21
5.6299
0
LINE
8
DEFAULT_255_2_778
10
9.4072594
20
5.6299
11
9.3948594
21
5.6212
0
LINE
8
DEFAULT_255_2_778
10
9.3948594
20
5.6212
11
9.3834594
21
5.6111
0
LINE
8
DEFAULT_255_2_778
10
9.3834594
20
5.6111
11
9.3638594
21
5.5884
0
LINE
8
DEFAULT_255_2_778
10
9.3638594
20
5.5884
11
9.3477594
21
5.5627
0
LINE
8
DEFAULT_255_2_778
10
9.3098594
20
5.4492
11
9.3003594
21
5.3902
0
LINE
8
DEFAULT_255_2_778
10
9.2913594
20
5.2717
11
9.2894594
21
5.2121
0
LINE
8
DEFAULT_255_2_778
10
9.2894594
20
5.2121
11
9.2881594
21
5.1526
0
LINE
8
DEFAULT_255_2_778
10
9.2881594
20
5.1526
11
9.2871594
21
5.0335
0
LINE
8
DEFAULT_255_2_778
10
9.2871594
20
5.0335
11
9.3032594
21
5.0695
0
LINE
8
DEFAULT_255_2_778
10
9.3032594
20
5.0695
11
9.3130594
21
5.0865
0
LINE
8
DEFAULT_255_2_778
10
9.3130594
20
5.0865
11
9.3238594
21
5.1029
0
LINE
8
DEFAULT_255_2_778
10
9.3739594
20
5.1634
11
9.4043594
21
5.1883
0
LINE
8
DEFAULT_255_2_778
10
9.4043594
20
5.1883
11
9.4384594
21
5.2079
0
LINE
8
DEFAULT_255_2_778
10
9.4384594
20
5.2079
11
9.4755594
21
5.2214
0
LINE
8
DEFAULT_255_2_778
10
9.4755594
20
5.2214
11
9.5146594
21
5.228
0
LINE
8
DEFAULT_255_2_778
10
9.5146594
20
5.228
11
9.5424594
21
5.2299
0
LINE
8
DEFAULT_255_2_778
10
9.5929594
20
5.2251
11
9.6175594
21
5.218
0
LINE
8
DEFAULT_255_2_778
10
9.6175594
20
5.218
11
9.6411594
21
5.2082
0
LINE
8
DEFAULT_255_2_778
10
9.6411594
20
5.2082
11
9.6633594
21
5.1955
0
LINE
8
DEFAULT_255_2_778
10
9.6633594
20
5.1955
11
9.6834594
21
5.1799
0
LINE
8
DEFAULT_255_2_778
10
9.6834594
20
5.1799
11
9.7014594
21
5.1619
0
LINE
8
DEFAULT_255_2_778
10
9.7014594
20
5.1619
11
9.7175594
21
5.142
0
LINE
8
DEFAULT_255_2_778
10
9.7980594
20
4.8531
11
9.7993594
21
4.8026
0
LINE
8
DEFAULT_255_2_778
10
9.7993594
20
4.8026
11
9.7988594
21
4.752
0
LINE
8
DEFAULT_255_2_778
10
9.7988594
20
4.752
11
9.7916594
21
4.6512
0
LINE
8
DEFAULT_255_2_778
10
9.7575594
20
4.5033
11
9.7474594
21
4.4798
0
LINE
8
DEFAULT_255_2_778
10
9.7474594
20
4.4798
11
9.7358594
21
4.4573
0
LINE
8
DEFAULT_255_2_778
10
9.7075594
20
4.4155
11
9.6906594
21
4.3964
0
LINE
8
DEFAULT_255_2_778
10
9.6906594
20
4.3964
11
9.6718594
21
4.3792
0
LINE
8
DEFAULT_255_2_778
10
9.6718594
20
4.3792
11
9.6514594
21
4.3644
0
LINE
8
DEFAULT_255_2_778
10
9.6514594
20
4.3644
11
9.6292594
21
4.3517
0
LINE
8
DEFAULT_255_2_778
10
9.6292594
20
4.3517
11
9.5818594
21
4.3342
0
LINE
8
DEFAULT_255_2_778
10
9.5818594
20
4.3342
11
9.5567594
21
4.3295
0
LINE
8
DEFAULT_255_2_778
10
9.5567594
20
4.3295
11
9.5313594
21
4.3271
0
LINE
8
DEFAULT_255_2_778
10
9.5313594
20
4.3271
11
9.4807594
21
4.3284
0
LINE
8
DEFAULT_255_2_778
10
9.4807594
20
4.3284
11
9.4556594
21
4.3324
0
LINE
8
DEFAULT_255_2_778
10
9.4556594
20
4.3324
11
9.4310594
21
4.3387
0
LINE
8
DEFAULT_255_2_778
10
9.4310594
20
4.3387
11
9.4075594
21
4.348
0
LINE
8
DEFAULT_255_2_778
10
9.4075594
20
4.348
11
9.3850594
21
4.3602
0
LINE
8
DEFAULT_255_2_778
10
9.3850594
20
4.3602
11
9.3447594
21
4.3911
0
LINE
8
DEFAULT_255_2_778
10
9.3447594
20
4.3911
11
9.3270594
21
4.4094
0
LINE
8
DEFAULT_255_2_778
10
9.3270594
20
4.4094
11
9.3111594
21
4.4292
0
LINE
8
DEFAULT_255_2_778
10
9.3111594
20
4.4292
11
9.2847594
21
4.4724
0
LINE
8
DEFAULT_255_2_778
10
9.2847594
20
4.4724
11
9.2638594
21
4.5187
0
LINE
8
DEFAULT_255_2_778
10
9.2363594
20
4.615
11
9.2270594
21
4.6642
0
LINE
8
DEFAULT_255_2_778
10
9.2270594
20
4.6642
11
9.2199594
21
4.7139
0
LINE
8
DEFAULT_255_2_778
10
9.2199594
20
4.7139
11
9.2148594
21
4.7639
0
LINE
8
DEFAULT_255_2_778
10
9.2148594
20
4.7639
11
9.2111594
21
4.8142
0
LINE
8
DEFAULT_255_2_778
10
9.2111594
20
4.8142
11
9.2080594
21
4.9147
0
LINE
8
DEFAULT_255_2_778
10
9.2080594
20
4.9147
11
9.2069594
21
5.0153
0
LINE
8
DEFAULT_255_2_778
10
9.2069594
20
5.0153
11
9.2072594
21
5.1158
0
LINE
8
DEFAULT_255_2_778
10
9.2072594
20
5.1158
11
9.2085594
21
5.2164
0
LINE
8
DEFAULT_255_2_778
10
9.2085594
20
5.2164
11
9.2101594
21
5.2666
0
LINE
8
DEFAULT_255_2_778
10
9.2101594
20
5.2666
11
9.2127594
21
5.3169
0
LINE
8
DEFAULT_255_2_778
10
9.2127594
20
5.3169
11
9.2222594
21
5.4169
0
LINE
8
DEFAULT_255_2_778
10
9.2222594
20
5.4169
11
9.2302594
21
5.4664
0
LINE
8
DEFAULT_255_2_778
10
9.2302594
20
5.4664
11
9.2408594
21
5.5153
0
LINE
8
DEFAULT_255_2_778
10
9.2408594
20
5.5153
11
9.2553594
21
5.5635
0
LINE
8
DEFAULT_255_2_778
10
9.3014594
20
5.6535
11
9.3172594
21
5.6733
0
LINE
8
DEFAULT_255_2_778
10
9.3172594
20
5.6733
11
9.3350594
21
5.6913
0
LINE
8
DEFAULT_255_2_778
10
9.3350594
20
5.6913
11
9.3543594
21
5.7072
0
LINE
8
DEFAULT_255_2_778
10
9.3543594
20
5.7072
11
9.3754594
21
5.7209
0
LINE
8
DEFAULT_255_2_778
10
9.3754594
20
5.7209
11
9.4217594
21
5.7405
0
LINE
8
DEFAULT_255_2_778
10
9.4217594
20
5.7405
11
9.4715594
21
5.7492
0
LINE
8
DEFAULT_255_2_778
10
9.4715594
20
5.7492
11
9.5218594
21
5.7495
0
LINE
8
DEFAULT_255_2_778
10
9.5218594
20
5.7495
11
9.5469594
21
5.7463
0
LINE
8
DEFAULT_255_2_778
10
9.5469594
20
5.7463
11
9.5718594
21
5.7408
0
LINE
8
DEFAULT_255_2_778
10
9.5718594
20
5.7408
11
9.6186594
21
5.722
0
LINE
8
DEFAULT_255_2_778
10
9.6186594
20
5.722
11
9.6406594
21
5.709
0
LINE
8
DEFAULT_255_2_778
10
9.6406594
20
5.709
11
9.6609594
21
5.6939
0
LINE
8
DEFAULT_255_2_778
10
9.6609594
20
5.6939
11
9.6797594
21
5.677
0
LINE
8
DEFAULT_255_2_778
10
9.6797594
20
5.677
11
9.6969594
21
5.6582
0
LINE
8
DEFAULT_255_2_778
10
9.6969594
20
5.6582
11
9.7260594
21
5.6169
0
LINE
8
DEFAULT_255_2_778
10
9.7485594
20
5.5714
11
9.6787594
21
5.5251
0
LINE
8
DEFAULT_255_2_778
10
9.5212594
20
5.128
11
9.4934594
21
5.1235
0
LINE
8
DEFAULT_255_2_778
10
9.4934594
20
5.1235
11
9.4670594
21
5.1145
0
LINE
8
DEFAULT_255_2_778
10
9.4670594
20
5.1145
11
9.4543594
21
5.1082
0
LINE
8
DEFAULT_255_2_778
10
9.4543594
20
5.1082
11
9.4424594
21
5.1007
0
LINE
8
DEFAULT_255_2_778
10
9.4424594
20
5.1007
11
9.4204594
21
5.083
0
LINE
8
DEFAULT_255_2_778
10
9.4204594
20
5.083
11
9.4014594
21
5.0624
0
LINE
8
DEFAULT_255_2_778
10
9.4014594
20
5.0624
11
9.3847594
21
5.0402
0
LINE
8
DEFAULT_255_2_778
10
9.3847594
20
5.0402
11
9.3696594
21
5.0166
0
LINE
8
DEFAULT_255_2_778
10
9.3696594
20
5.0166
11
9.3559594
21
4.9923
0
LINE
8
DEFAULT_255_2_778
10
9.3559594
20
4.9923
11
9.3437594
21
4.9671
0
LINE
8
DEFAULT_255_2_778
10
9.3437594
20
4.9671
11
9.3334594
21
4.9412
0
LINE
8
DEFAULT_255_2_778
10
9.3183594
20
4.8878
11
9.3135594
21
4.8602
0
LINE
8
DEFAULT_255_2_778
10
9.3135594
20
4.8602
11
9.3101594
21
4.8327
0
LINE
8
DEFAULT_255_2_778
10
9.3101594
20
4.8327
11
9.3064594
21
4.7774
0
LINE
8
DEFAULT_255_2_778
10
9.3064594
20
4.7774
11
9.3064594
21
4.7219
0
LINE
8
DEFAULT_255_2_778
10
9.3064594
20
4.7219
11
9.3088594
21
4.6941
0
LINE
8
DEFAULT_255_2_778
10
9.3088594
20
4.6941
11
9.3130594
21
4.6663
0
LINE
8
DEFAULT_255_2_778
10
9.3754594
20
4.5123
11
9.3926594
21
4.4903
0
LINE
8
DEFAULT_255_2_778
10
9.3926594
20
4.4903
11
9.4122594
21
4.47
0
LINE
8
DEFAULT_255_2_778
10
9.4122594
20
4.47
11
9.4339594
21
4.452
0
LINE
8
DEFAULT_255_2_778
10
9.4339594
20
4.452
11
9.4583594
21
4.4377
0
LINE
8
DEFAULT_255_2_778
10
9.4583594
20
4.4377
11
9.4847594
21
4.4284
0
LINE
8
DEFAULT_255_2_778
10
9.4847594
20
4.4284
11
9.4987594
21
4.4261
0
LINE
8
DEFAULT_255_2_778
10
9.4987594
20
4.4261
11
9.5128594
21
4.425
0
LINE
8
DEFAULT_255_2_778
10
9.5128594
20
4.425
11
9.5408594
21
4.4261
0
LINE
8
DEFAULT_255_2_778
10
9.5408594
20
4.4261
11
9.5683594
21
4.4313
0
LINE
8
DEFAULT_255_2_778
10
9.5683594
20
4.4313
11
9.5945594
21
4.4414
0
LINE
8
DEFAULT_255_2_778
10
9.5945594
20
4.4414
11
9.6067594
21
4.4485
0
LINE
8
DEFAULT_255_2_778
10
9.6067594
20
4.4485
11
9.6181594
21
4.457
0
LINE
8
DEFAULT_255_2_778
10
9.6181594
20
4.457
11
9.6382594
21
4.4766
0
LINE
8
DEFAULT_255_2_778
10
9.6382594
20
4.4766
11
9.6554594
21
4.4988
0
LINE
8
DEFAULT_255_2_778
10
9.6554594
20
4.4988
11
9.6702594
21
4.5226
0
LINE
8
DEFAULT_255_2_778
10
9.6702594
20
4.5226
11
9.6824594
21
4.548
0
LINE
8
DEFAULT_255_2_778
10
9.7117594
20
4.656
11
9.7178594
21
4.7118
0
LINE
8
DEFAULT_255_2_778
10
9.7178594
20
4.7118
11
9.7210594
21
4.7679
0
LINE
8
DEFAULT_255_2_778
10
9.7210594
20
4.7679
11
9.7210594
21
4.824
0
LINE
8
DEFAULT_255_2_778
10
9.7210594
20
4.824
11
9.7181594
21
4.8798
0
LINE
8
DEFAULT_255_2_778
10
9.7181594
20
4.8798
11
9.7115594
21
4.9356
0
LINE
8
DEFAULT_255_2_778
10
9.6998594
20
4.9907
11
9.6914594
21
5.0177
0
LINE
8
DEFAULT_255_2_778
10
9.6914594
20
5.0177
11
9.6805594
21
5.0436
0
LINE
8
DEFAULT_255_2_778
10
9.6805594
20
5.0436
11
9.6665594
21
5.0679
0
LINE
8
DEFAULT_255_2_778
10
9.6665594
20
5.0679
11
9.6488594
21
5.0899
0
LINE
8
DEFAULT_255_2_778
10
9.6488594
20
5.0899
11
9.6384594
21
5.0994
0
LINE
8
DEFAULT_255_2_778
10
9.6384594
20
5.0994
11
9.6271594
21
5.1079
0
LINE
8
DEFAULT_255_2_778
10
9.6271594
20
5.1079
11
9.6019594
21
5.1203
0
LINE
8
DEFAULT_255_2_778
10
9.6019594
20
5.1203
11
9.5747594
21
5.128
0
LINE
8
DEFAULT_255_2_778
10
9.5747594
20
5.128
11
9.5466594
21
5.1298
0
LINE
8
DEFAULT_255_2_778
10
9.5466594
20
5.1298
11
9.5212594
21
5.128
0
LINE
8
DEFAULT_255_2_778
10
11.0907594
20
5.7455
11
11.1241594
21
5.745
0
LINE
8
DEFAULT_255_2_778
10
11.1241594
20
5.745
11
11.1574594
21
5.7434
0
LINE
8
DEFAULT_255_2_778
10
11.1574594
20
5.7434
11
11.2236594
21
5.7365
0
LINE
8
DEFAULT_255_2_778
10
11.2236594
20
5.7365
11
11.2564594
21
5.7297
0
LINE
8
DEFAULT_255_2_778
10
11.2564594
20
5.7297
11
11.2878594
21
5.7193
0
LINE
8
DEFAULT_255_2_778
10
11.2878594
20
5.7193
11
11.3183594
21
5.7061
0
LINE
8
DEFAULT_255_2_778
10
11.3183594
20
5.7061
11
11.3474594
21
5.6897
0
LINE
8
DEFAULT_255_2_778
10
11.3474594
20
5.6897
11
11.3744594
21
5.6704
0
LINE
8
DEFAULT_255_2_778
10
11.3744594
20
5.6704
11
11.3987594
21
5.6482
0
LINE
8
DEFAULT_255_2_778
10
11.4741594
20
5.5397
11
11.4879594
21
5.5095
0
LINE
8
DEFAULT_255_2_778
10
11.4879594
20
5.5095
11
11.5000594
21
5.4786
0
LINE
8
DEFAULT_255_2_778
10
11.5000594
20
5.4786
11
11.5196594
21
5.4156
0
LINE
8
DEFAULT_255_2_778
10
11.5196594
20
5.4156
11
11.5336594
21
5.3513
0
LINE
8
DEFAULT_255_2_778
10
11.5336594
20
5.3513
11
11.5442594
21
5.2865
0
LINE
8
DEFAULT_255_2_778
10
11.5442594
20
5.2865
11
11.5514594
21
5.2209
0
LINE
8
DEFAULT_255_2_778
10
11.5514594
20
5.2209
11
11.5559594
21
5.155
0
LINE
8
DEFAULT_255_2_778
10
11.5559594
20
5.155
11
11.5580594
21
5.0891
0
LINE
8
DEFAULT_255_2_778
10
11.5580594
20
5.0891
11
11.5588594
21
5.0232
0
LINE
8
DEFAULT_255_2_778
10
11.5588594
20
5.0232
11
11.5577594
21
4.9573
0
LINE
8
DEFAULT_255_2_778
10
11.5577594
20
4.9573
11
11.5538594
21
4.8917
0
LINE
8
DEFAULT_255_2_778
10
11.5538594
20
4.8917
11
11.5471594
21
4.8261
0
LINE
8
DEFAULT_255_2_778
10
11.5471594
20
4.8261
11
11.5376594
21
4.7605
0
LINE
8
DEFAULT_255_2_778
10
11.5376594
20
4.7605
11
11.5244594
21
4.6957
0
LINE
8
DEFAULT_255_2_778
10
11.5244594
20
4.6957
11
11.5072594
21
4.6316
0
LINE
8
DEFAULT_255_2_778
10
11.5072594
20
4.6316
11
11.4847594
21
4.5695
0
LINE
8
DEFAULT_255_2_778
10
11.4559594
20
4.5102
11
11.4387594
21
4.4821
0
LINE
8
DEFAULT_255_2_778
10
11.4387594
20
4.4821
11
11.4188594
21
4.4554
0
LINE
8
DEFAULT_255_2_778
10
11.4188594
20
4.4554
11
11.3961594
21
4.4313
0
LINE
8
DEFAULT_255_2_778
10
11.3961594
20
4.4313
11
11.3704594
21
4.4107
0
LINE
8
DEFAULT_255_2_778
10
11.3704594
20
4.4107
11
11.3421594
21
4.3932
0
LINE
8
DEFAULT_255_2_778
10
11.3421594
20
4.3932
11
11.3122594
21
4.379
0
LINE
8
DEFAULT_255_2_778
10
11.3122594
20
4.379
11
11.2492594
21
4.3589
0
LINE
8
DEFAULT_255_2_778
10
11.2492594
20
4.3589
11
11.2169594
21
4.3514
0
LINE
8
DEFAULT_255_2_778
10
11.2169594
20
4.3514
11
11.1844594
21
4.3459
0
LINE
8
DEFAULT_255_2_778
10
11.1844594
20
4.3459
11
11.1190594
21
4.339
0
LINE
8
DEFAULT_255_2_778
10
11.1190594
20
4.339
11
11.0862594
21
4.3374
0
LINE
8
DEFAULT_255_2_778
10
11.0862594
20
4.3374
11
11.0534594
21
4.3374
0
LINE
8
DEFAULT_255_2_778
10
11.0534594
20
4.3374
11
11.0206594
21
4.3385
0
LINE
8
DEFAULT_255_2_778
10
11.0206594
20
4.3385
11
10.9875594
21
4.3411
0
LINE
8
DEFAULT_255_2_778
10
10.9875594
20
4.3411
11
10.9545594
21
4.3448
0
LINE
8
DEFAULT_255_2_778
10
10.9545594
20
4.3448
11
10.9214594
21
4.3488
0
LINE
8
DEFAULT_255_2_778
10
10.9214594
20
4.3488
11
10.9214594
21
5.7429
0
LINE
8
DEFAULT_255_2_778
10
10.9214594
20
5.7429
11
11.0907594
21
5.7455
0
LINE
8
DEFAULT_255_2_778
10
10.9995594
20
4.4406
11
11.0267594
21
4.4388
0
LINE
8
DEFAULT_255_2_778
10
11.0267594
20
4.4388
11
11.0540594
21
4.4388
0
LINE
8
DEFAULT_255_2_778
10
11.0540594
20
4.4388
11
11.0809594
21
4.4388
0
LINE
8
DEFAULT_255_2_778
10
11.0809594
20
4.4388
11
11.1079594
21
4.4393
0
LINE
8
DEFAULT_255_2_778
10
11.1079594
20
4.4393
11
11.1619594
21
4.443
0
LINE
8
DEFAULT_255_2_778
10
11.1619594
20
4.443
11
11.2156594
21
4.4517
0
LINE
8
DEFAULT_255_2_778
10
11.2156594
20
4.4517
11
11.2423594
21
4.4581
0
LINE
8
DEFAULT_255_2_778
10
11.2423594
20
4.4581
11
11.2685594
21
4.466
0
LINE
8
DEFAULT_255_2_778
10
11.2685594
20
4.466
11
11.2939594
21
4.4761
0
LINE
8
DEFAULT_255_2_778
10
11.2939594
20
4.4761
11
11.3185594
21
4.4882
0
LINE
8
DEFAULT_255_2_778
10
11.3185594
20
4.4882
11
11.3408594
21
4.5038
0
LINE
8
DEFAULT_255_2_778
10
11.3408594
20
4.5038
11
11.3603594
21
4.5229
0
LINE
8
DEFAULT_255_2_778
10
11.4350594
20
4.666
11
11.4492594
21
4.7179
0
LINE
8
DEFAULT_255_2_778
10
11.4492594
20
4.7179
11
11.4604594
21
4.7705
0
LINE
8
DEFAULT_255_2_778
10
11.4604594
20
4.7705
11
11.4688594
21
4.824
0
LINE
8
DEFAULT_255_2_778
10
11.4688594
20
4.824
11
11.4749594
21
4.8774
0
LINE
8
DEFAULT_255_2_778
10
11.4749594
20
4.8774
11
11.4807594
21
4.9846
0
LINE
8
DEFAULT_255_2_778
10
11.4807594
20
4.9846
11
11.4799594
21
5.0917
0
LINE
8
DEFAULT_255_2_778
10
11.4799594
20
5.0917
11
11.4778594
21
5.1455
0
LINE
8
DEFAULT_255_2_778
10
11.4778594
20
5.1455
11
11.4749594
21
5.1992
0
LINE
8
DEFAULT_255_2_778
10
11.4749594
20
5.1992
11
11.4701594
21
5.2529
0
LINE
8
DEFAULT_255_2_778
10
11.4701594
20
5.2529
11
11.4625594
21
5.3063
0
LINE
8
DEFAULT_255_2_778
10
11.4625594
20
5.3063
11
11.4519594
21
5.3592
0
LINE
8
DEFAULT_255_2_778
10
11.4519594
20
5.3592
11
11.4379594
21
5.4114
0
LINE
8
DEFAULT_255_2_778
10
11.4379594
20
5.4114
11
11.4193594
21
5.4619
0
LINE
8
DEFAULT_255_2_778
10
11.4193594
20
5.4619
11
11.3958594
21
5.5101
0
LINE
8
DEFAULT_255_2_778
10
11.3656594
20
5.5548
11
11.3474594
21
5.5743
0
LINE
8
DEFAULT_255_2_778
10
11.3474594
20
5.5743
11
11.3267594
21
5.5918
0
LINE
8
DEFAULT_255_2_778
10
11.3267594
20
5.5918
11
11.2802594
21
5.6188
0
LINE
8
DEFAULT_255_2_778
10
11.2802594
20
5.6188
11
11.2550594
21
5.6286
0
LINE
8
DEFAULT_255_2_778
10
11.2550594
20
5.6286
11
11.2288594
21
5.6355
0
LINE
8
DEFAULT_255_2_778
10
11.2288594
20
5.6355
11
11.1757594
21
5.6423
0
LINE
8
DEFAULT_255_2_778
10
11.1757594
20
5.6423
11
11.1220594
21
5.6445
0
LINE
8
DEFAULT_255_2_778
10
11.1220594
20
5.6445
11
10.9997594
21
5.6445
0
LINE
8
DEFAULT_255_2_778
10
10.9997594
20
5.6445
11
10.9995594
21
4.4406
0
ARC
8
DEFAULT_255_2_778
10
12.3631615
20
5.3498435
40
0.6415743
50
163.2164837
51
164.1607669
0
ARC
8
DEFAULT_255_2_778
10
12.1562371
20
5.4141431
40
0.4249014
50
157.6883921
51
163.4605365
0
ARC
8
DEFAULT_255_2_778
10
12.1079313
20
5.4373576
40
0.3714122
50
149.9482378
51
158.1724069
0
ARC
8
DEFAULT_255_2_778
10
12.0030759
20
5.5074779
40
0.2450188
50
126.9628439
51
139.3616826
0
ARC
8
DEFAULT_255_2_778
10
12.0048248
20
5.5291628
40
0.2181159
50
47.7257857
51
61.7250778
0
ARC
8
DEFAULT_255_2_778
10
11.9189045
20
5.454786
40
0.3321793
50
27.0119872
51
36.174613
0
ARC
8
DEFAULT_255_2_778
10
11.7085666
20
5.3753974
40
0.5571215
50
13.5210858
51
18.9647365
0
ARC
8
DEFAULT_255_2_778
10
11.9402424
20
4.6064467
40
0.3026543
50
320.9692976
51
331.1162064
0
ARC
8
DEFAULT_255_2_778
10
12.0919394
20
4.6351219
40
0.3538416
50
207.2778526
51
215.936959
0
ARC
8
DEFAULT_255_2_778
10
12.2352141
20
4.6963668
40
0.5098542
50
193.9730979
51
199.9799353
0
ARC
8
DEFAULT_255_2_778
10
12.517982
20
4.769102
40
0.8018212
50
186.5200715
51
194.1377358
0
ARC
8
DEFAULT_255_2_778
10
12.2403139
20
5.3621839
40
0.441524
50
160.3568167
51
161.0790276
0
ARC
8
DEFAULT_255_2_778
10
12.149143
20
5.3960977
40
0.3442606
50
154.0291448
51
160.5718345
0
ARC
8
DEFAULT_255_2_778
10
11.771857
20
5.3760514
40
0.4153816
50
17.2535886
51
23.3751703
0
ARC
8
DEFAULT_255_2_778
10
12.123329
20
4.6578626
40
0.3104757
50
196.2656678
51
203.3806417
0
ARC
8
DEFAULT_255_2_778
10
12.2741927
20
4.7048223
40
0.4684623
50
195.9417945
51
196.6111136
0
LINE
8
DEFAULT_255_2_778
10
11.7099469
20
4.8915541
11
11.7094469
21
5.1037541
0
LINE
8
DEFAULT_255_2_778
10
11.7094469
20
5.1037541
11
11.7102469
21
5.2098541
0
LINE
8
DEFAULT_255_2_778
10
11.7102469
20
5.2098541
11
11.7139469
21
5.3159541
0
LINE
8
DEFAULT_255_2_778
10
11.7139469
20
5.3159541
11
11.7245469
21
5.4214541
0
LINE
8
DEFAULT_255_2_778
10
11.7245469
20
5.4214541
11
11.7335469
21
5.4736541
0
LINE
8
DEFAULT_255_2_778
10
11.7335469
20
5.4736541
11
11.7459469
21
5.5249541
0
LINE
8
DEFAULT_255_2_778
10
11.7864469
20
5.6233541
11
11.8007469
21
5.6458541
0
LINE
8
DEFAULT_255_2_778
10
11.8007469
20
5.6458541
11
11.8171469
21
5.6670541
0
LINE
8
DEFAULT_255_2_778
10
11.8557469
20
5.7032541
11
11.8779469
21
5.7180541
0
LINE
8
DEFAULT_255_2_778
10
11.8779469
20
5.7180541
11
11.9018469
21
5.7299541
0
LINE
8
DEFAULT_255_2_778
10
11.9018469
20
5.7299541
11
11.9266469
21
5.7384541
0
LINE
8
DEFAULT_255_2_778
10
11.9266469
20
5.7384541
11
11.9528469
21
5.7440541
0
LINE
8
DEFAULT_255_2_778
10
11.9528469
20
5.7440541
11
12.0057469
21
5.7474541
0
LINE
8
DEFAULT_255_2_778
10
12.0057469
20
5.7474541
11
12.0322469
21
5.7450541
0
LINE
8
DEFAULT_255_2_778
10
12.0322469
20
5.7450541
11
12.0584469
21
5.7400541
0
LINE
8
DEFAULT_255_2_778
10
12.0584469
20
5.7400541
11
12.1081469
21
5.7212541
0
LINE
8
DEFAULT_255_2_778
10
12.1515469
20
5.6905541
11
12.1703469
21
5.6715541
0
LINE
8
DEFAULT_255_2_778
10
12.1703469
20
5.6715541
11
12.1870469
21
5.6508541
0
LINE
8
DEFAULT_255_2_778
10
12.2148469
20
5.6056541
11
12.2259469
21
5.5812541
0
LINE
8
DEFAULT_255_2_778
10
12.2259469
20
5.5812541
11
12.2354469
21
5.5564541
0
LINE
8
DEFAULT_255_2_778
10
12.2502469
20
5.5056541
11
12.2611469
21
5.4537541
0
LINE
8
DEFAULT_255_2_778
10
12.2611469
20
5.4537541
11
12.2687469
21
5.4011541
0
LINE
8
DEFAULT_255_2_778
10
12.2687469
20
5.4011541
11
12.2769469
21
5.2955541
0
LINE
8
DEFAULT_255_2_778
10
12.2769469
20
5.2955541
11
12.2793469
21
5.1902541
0
LINE
8
DEFAULT_255_2_778
10
12.2793469
20
5.1902541
11
12.2801469
21
5.0849541
0
LINE
8
DEFAULT_255_2_778
10
12.2801469
20
5.0849541
11
12.2798469
21
4.9796541
0
LINE
8
DEFAULT_255_2_778
10
12.2798469
20
4.9796541
11
12.2790469
21
4.8743541
0
LINE
8
DEFAULT_255_2_778
10
12.2790469
20
4.8743541
11
12.2759469
21
4.7690541
0
LINE
8
DEFAULT_255_2_778
10
12.2759469
20
4.7690541
11
12.2661469
21
4.6639541
0
LINE
8
DEFAULT_255_2_778
10
12.2661469
20
4.6639541
11
12.2574469
21
4.6113541
0
LINE
8
DEFAULT_255_2_778
10
12.2574469
20
4.6113541
11
12.2449469
21
4.5592541
0
LINE
8
DEFAULT_255_2_778
10
12.2449469
20
4.5592541
11
12.2280469
21
4.5086541
0
LINE
8
DEFAULT_255_2_778
10
12.2280469
20
4.5086541
11
12.2174469
21
4.4840541
0
LINE
8
DEFAULT_255_2_778
10
12.2174469
20
4.4840541
11
12.2052469
21
4.4602541
0
LINE
8
DEFAULT_255_2_778
10
12.1753469
20
4.4158541
11
12.1573469
21
4.3959541
0
LINE
8
DEFAULT_255_2_778
10
12.1573469
20
4.3959541
11
12.1375469
21
4.3779541
0
LINE
8
DEFAULT_255_2_778
10
12.1375469
20
4.3779541
11
12.1158469
21
4.3623541
0
LINE
8
DEFAULT_255_2_778
10
12.1158469
20
4.3623541
11
12.0923469
21
4.3493541
0
LINE
8
DEFAULT_255_2_778
10
12.0923469
20
4.3493541
11
12.0412469
21
4.3337541
0
LINE
8
DEFAULT_255_2_778
10
12.0412469
20
4.3337541
11
12.0145469
21
4.3306541
0
LINE
8
DEFAULT_255_2_778
10
12.0145469
20
4.3306541
11
11.9877469
21
4.3303541
0
LINE
8
DEFAULT_255_2_778
10
11.9877469
20
4.3303541
11
11.9348469
21
4.3372541
0
LINE
8
DEFAULT_255_2_778
10
11.9348469
20
4.3372541
11
11.9089469
21
4.3448541
0
LINE
8
DEFAULT_255_2_778
10
11.9089469
20
4.3448541
11
11.8846469
21
4.3557541
0
LINE
8
DEFAULT_255_2_778
10
11.8846469
20
4.3557541
11
11.8618469
21
4.3700541
0
LINE
8
DEFAULT_255_2_778
10
11.8618469
20
4.3700541
11
11.8412469
21
4.3872541
0
LINE
8
DEFAULT_255_2_778
10
11.8412469
20
4.3872541
11
11.8224469
21
4.4065541
0
LINE
8
DEFAULT_255_2_778
10
11.8224469
20
4.4065541
11
11.8054469
21
4.4274541
0
LINE
8
DEFAULT_255_2_778
10
11.7774469
20
4.4729541
11
11.7660469
21
4.4970541
0
LINE
8
DEFAULT_255_2_778
10
11.7660469
20
4.4970541
11
11.7560469
21
4.5221541
0
LINE
8
DEFAULT_255_2_778
10
11.7213469
20
4.6780541
11
11.7160469
21
4.7311541
0
LINE
8
DEFAULT_255_2_778
10
11.7160469
20
4.7311541
11
11.7128469
21
4.7846541
0
LINE
8
DEFAULT_255_2_778
10
11.7128469
20
4.7846541
11
11.7110469
21
4.8380541
0
LINE
8
DEFAULT_255_2_778
10
11.7110469
20
4.8380541
11
11.7105469
21
4.8648541
0
LINE
8
DEFAULT_255_2_778
10
11.7105469
20
4.8648541
11
11.7102469
21
4.8782541
0
LINE
8
DEFAULT_255_2_778
10
11.7102469
20
4.8782541
11
11.7099469
21
4.8915541
0
LINE
8
DEFAULT_255_2_778
10
11.8044469
20
4.6616541
11
11.7943469
21
4.7502541
0
LINE
8
DEFAULT_255_2_778
10
11.7943469
20
4.7502541
11
11.7898469
21
4.8391541
0
LINE
8
DEFAULT_255_2_778
10
11.7898469
20
4.8391541
11
11.7882469
21
4.9283541
0
LINE
8
DEFAULT_255_2_778
10
11.7882469
20
4.9283541
11
11.7877469
21
5.0174541
0
LINE
8
DEFAULT_255_2_778
10
11.7877469
20
5.0174541
11
11.7888469
21
5.1957541
0
LINE
8
DEFAULT_255_2_778
10
11.7888469
20
5.1957541
11
11.7912469
21
5.2849541
0
LINE
8
DEFAULT_255_2_778
10
11.7912469
20
5.2849541
11
11.7978469
21
5.3738541
0
LINE
8
DEFAULT_255_2_778
10
11.7978469
20
5.3738541
11
11.8031469
21
5.4183541
0
LINE
8
DEFAULT_255_2_778
10
11.8031469
20
5.4183541
11
11.8110469
21
5.4622541
0
LINE
8
DEFAULT_255_2_778
10
11.8110469
20
5.4622541
11
11.8226469
21
5.5053541
0
LINE
8
DEFAULT_255_2_778
10
11.8396469
20
5.5468541
11
11.8626469
21
5.5852541
0
LINE
8
DEFAULT_255_2_778
10
11.8626469
20
5.5852541
11
11.8769469
21
5.6027541
0
LINE
8
DEFAULT_255_2_778
10
11.8769469
20
5.6027541
11
11.8933469
21
5.6178541
0
LINE
8
DEFAULT_255_2_778
10
11.8933469
20
5.6178541
11
11.9121469
21
5.6299541
0
LINE
8
DEFAULT_255_2_778
10
11.9121469
20
5.6299541
11
11.9324469
21
5.6389541
0
LINE
8
DEFAULT_255_2_778
10
11.9324469
20
5.6389541
11
11.9541469
21
5.6450541
0
LINE
8
DEFAULT_255_2_778
10
11.9541469
20
5.6450541
11
11.9764469
21
5.6482541
0
LINE
8
DEFAULT_255_2_778
10
11.9764469
20
5.6482541
11
11.9986469
21
5.6490541
0
LINE
8
DEFAULT_255_2_778
10
11.9986469
20
5.6490541
11
12.0211469
21
5.6477541
0
LINE
8
DEFAULT_255_2_778
10
12.0211469
20
5.6477541
11
12.0642469
21
5.6365541
0
LINE
8
DEFAULT_255_2_778
10
12.0642469
20
5.6365541
11
12.0843469
21
5.6265541
0
LINE
8
DEFAULT_255_2_778
10
12.0843469
20
5.6265541
11
12.1023469
21
5.6135541
0
LINE
8
DEFAULT_255_2_778
10
12.1023469
20
5.6135541
11
12.1182469
21
5.5976541
0
LINE
8
DEFAULT_255_2_778
10
12.1182469
20
5.5976541
11
12.1317469
21
5.5799541
0
LINE
8
DEFAULT_255_2_778
10
12.1317469
20
5.5799541
11
12.1433469
21
5.5609541
0
LINE
8
DEFAULT_255_2_778
10
12.1433469
20
5.5609541
11
12.1531469
21
5.5408541
0
LINE
8
DEFAULT_255_2_778
10
12.1685469
20
5.4992541
11
12.1798469
21
5.4564541
0
LINE
8
DEFAULT_255_2_778
10
12.1798469
20
5.4564541
11
12.1878469
21
5.4124541
0
LINE
8
DEFAULT_255_2_778
10
12.1878469
20
5.4124541
11
12.1965469
21
5.3243541
0
LINE
8
DEFAULT_255_2_778
10
12.1965469
20
5.3243541
11
12.2005469
21
5.2360541
0
LINE
8
DEFAULT_255_2_778
10
12.2005469
20
5.2360541
11
12.2018469
21
5.1476541
0
LINE
8
DEFAULT_255_2_778
10
12.2018469
20
5.1476541
11
12.2023469
21
5.0592541
0
LINE
8
DEFAULT_255_2_778
10
12.2023469
20
5.0592541
11
12.2023469
21
4.9708541
0
LINE
8
DEFAULT_255_2_778
10
12.2023469
20
4.9708541
11
12.2013469
21
4.8825541
0
LINE
8
DEFAULT_255_2_778
10
12.2013469
20
4.8825541
11
12.1986469
21
4.7941541
0
LINE
8
DEFAULT_255_2_778
10
12.1986469
20
4.7941541
11
12.1915469
21
4.7063541
0
LINE
8
DEFAULT_255_2_778
10
12.1915469
20
4.7063541
11
12.1772469
21
4.6192541
0
LINE
8
DEFAULT_255_2_778
10
12.1772469
20
4.6192541
11
12.1658469
21
4.5764541
0
LINE
8
DEFAULT_255_2_778
10
12.1658469
20
4.5764541
11
12.1499469
21
4.5348541
0
LINE
8
DEFAULT_255_2_778
10
12.1499469
20
4.5348541
11
12.1399469
21
4.5150541
0
LINE
8
DEFAULT_255_2_778
10
12.1399469
20
4.5150541
11
12.1280469
21
4.4959541
0
LINE
8
DEFAULT_255_2_778
10
12.1280469
20
4.4959541
11
12.1142469
21
4.4787541
0
LINE
8
DEFAULT_255_2_778
10
12.1142469
20
4.4787541
11
12.0978469
21
4.4636541
0
LINE
8
DEFAULT_255_2_778
10
12.0978469
20
4.4636541
11
12.0592469
21
4.4419541
0
LINE
8
DEFAULT_255_2_778
10
12.0592469
20
4.4419541
11
12.0380469
21
4.4351541
0
LINE
8
DEFAULT_255_2_778
10
12.0380469
20
4.4351541
11
12.0163469
21
4.4308541
0
LINE
8
DEFAULT_255_2_778
10
12.0163469
20
4.4308541
11
11.9719469
21
4.4303541
0
LINE
8
DEFAULT_255_2_778
10
11.9719469
20
4.4303541
11
11.9502469
21
4.4343541
0
LINE
8
DEFAULT_255_2_778
10
11.9502469
20
4.4343541
11
11.9290469
21
4.4414541
0
LINE
8
DEFAULT_255_2_778
10
11.9290469
20
4.4414541
11
11.8909469
21
4.4639541
0
LINE
8
DEFAULT_255_2_778
10
11.8909469
20
4.4639541
11
11.8742469
21
4.4790541
0
LINE
8
DEFAULT_255_2_778
10
11.8742469
20
4.4790541
11
11.8599469
21
4.4959541
0
LINE
8
DEFAULT_255_2_778
10
11.8599469
20
4.4959541
11
11.8480469
21
4.5147541
0
LINE
8
DEFAULT_255_2_778
10
11.8480469
20
4.5147541
11
11.8383469
21
4.5346541
0
LINE
8
DEFAULT_255_2_778
10
11.8237469
20
4.5761541
11
11.8126469
21
4.6190541
0
LINE
8
DEFAULT_255_2_778
10
11.8126469
20
4.6190541
11
11.8081469
21
4.6406541
0
LINE
8
DEFAULT_255_2_778
10
11.8081469
20
4.6406541
11
11.8060469
21
4.6515541
0
LINE
8
DEFAULT_255_2_778
10
11.8060469
20
4.6515541
11
11.8044469
21
4.6616541
0
ARC
8
DEFAULT_255_2_778
10
14.1300473
20
5.3848749
40
0.5231048
50
163.3105647
51
164.4675358
0
ARC
8
DEFAULT_255_2_778
10
14.0298704
20
5.4160421
40
0.4181985
50
157.5927378
51
163.4592333
0
ARC
8
DEFAULT_255_2_778
10
13.9880313
20
5.4373576
40
0.3714122
50
149.9482378
51
158.1724069
0
ARC
8
DEFAULT_255_2_778
10
13.8831759
20
5.5074779
40
0.2450188
50
126.9628439
51
139.3616826
0
ARC
8
DEFAULT_255_2_778
10
13.8849248
20
5.5291628
40
0.2181159
50
47.7257857
51
61.7250778
0
ARC
8
DEFAULT_255_2_778
10
13.7902262
20
5.4493869
40
0.3424531
50
27.1497095
51
36.0368903
0
ARC
8
DEFAULT_255_2_778
10
13.5886666
20
5.3753974
40
0.5571215
50
13.5210858
51
18.9647365
0
ARC
8
DEFAULT_255_2_778
10
13.8203424
20
4.6064467
40
0.3026543
50
320.9692976
51
331.1162064
0
ARC
8
DEFAULT_255_2_778
10
13.9720394
20
4.6351219
40
0.3538416
50
207.2778526
51
215.936959
0
ARC
8
DEFAULT_255_2_778
10
14.1418747
20
4.7054955
40
0.5379355
50
194.2309632
51
199.9270887
0
ARC
8
DEFAULT_255_2_778
10
14.4147223
20
4.7713753
40
0.8186119
50
186.5459063
51
194.005844
0
ARC
8
DEFAULT_255_2_778
10
14.1249377
20
5.3606173
40
0.4463114
50
160.3626372
51
161.0770929
0
ARC
8
DEFAULT_255_2_778
10
14.0466755
20
5.3897059
40
0.3628268
50
154.3341422
51
160.5356256
0
ARC
8
DEFAULT_255_2_778
10
13.651957
20
5.3760514
40
0.4153816
50
17.2535886
51
23.3751703
0
ARC
8
DEFAULT_255_2_778
10
14.003429
20
4.6578626
40
0.3104757
50
196.2656678
51
203.3806417
0
ARC
8
DEFAULT_255_2_778
10
14.1542927
20
4.7048223
40
0.4684623
50
195.9417945
51
196.6111136
0
LINE
8
DEFAULT_255_2_778
10
13.5900469
20
4.8915541
11
13.5895469
21
5.1037541
0
LINE
8
DEFAULT_255_2_778
10
13.5895469
20
5.1037541
11
13.5903469
21
5.2098541
0
LINE
8
DEFAULT_255_2_778
10
13.5903469
20
5.2098541
11
13.5940469
21
5.3159541
0
LINE
8
DEFAULT_255_2_778
10
13.5940469
20
5.3159541
11
13.6046469
21
5.4214541
0
LINE
8
DEFAULT_255_2_778
10
13.6046469
20
5.4214541
11
13.6136469
21
5.4736541
0
LINE
8
DEFAULT_255_2_778
10
13.6136469
20
5.4736541
11
13.6260469
21
5.5249541
0
LINE
8
DEFAULT_255_2_778
10
13.6665469
20
5.6233541
11
13.6808469
21
5.6458541
0
LINE
8
DEFAULT_255_2_778
10
13.6808469
20
5.6458541
11
13.6972469
21
5.6670541
0
LINE
8
DEFAULT_255_2_778
10
13.7358469
20
5.7032541
11
13.7580469
21
5.7180541
0
LINE
8
DEFAULT_255_2_778
10
13.7580469
20
5.7180541
11
13.7819469
21
5.7299541
0
LINE
8
DEFAULT_255_2_778
10
13.7819469
20
5.7299541
11
13.8067469
21
5.7384541
0
LINE
8
DEFAULT_255_2_778
10
13.8067469
20
5.7384541
11
13.8329469
21
5.7440541
0
LINE
8
DEFAULT_255_2_778
10
13.8329469
20
5.7440541
11
13.8858469
21
5.7474541
0
LINE
8
DEFAULT_255_2_778
10
13.8858469
20
5.7474541
11
13.9123469
21
5.7450541
0
LINE
8
DEFAULT_255_2_778
10
13.9123469
20
5.7450541
11
13.9385469
21
5.7400541
0
LINE
8
DEFAULT_255_2_778
10
13.9385469
20
5.7400541
11
13.9882469
21
5.7212541
0
LINE
8
DEFAULT_255_2_778
10
14.0316469
20
5.6905541
11
14.0504469
21
5.6715541
0
LINE
8
DEFAULT_255_2_778
10
14.0504469
20
5.6715541
11
14.0671469
21
5.6508541
0
LINE
8
DEFAULT_255_2_778
10
14.0949469
20
5.6056541
11
14.1060469
21
5.5812541
0
LINE
8
DEFAULT_255_2_778
10
14.1060469
20
5.5812541
11
14.1155469
21
5.5564541
0
LINE
8
DEFAULT_255_2_778
10
14.1303469
20
5.5056541
11
14.1412469
21
5.4537541
0
LINE
8
DEFAULT_255_2_778
10
14.1412469
20
5.4537541
11
14.1488469
21
5.4011541
0
LINE
8
DEFAULT_255_2_778
10
14.1488469
20
5.4011541
11
14.1570469
21
5.2955541
0
LINE
8
DEFAULT_255_2_778
10
14.1570469
20
5.2955541
11
14.1594469
21
5.1902541
0
LINE
8
DEFAULT_255_2_778
10
14.1594469
20
5.1902541
11
14.1602469
21
5.0849541
0
LINE
8
DEFAULT_255_2_778
10
14.1602469
20
5.0849541
11
14.1599469
21
4.9796541
0
LINE
8
DEFAULT_255_2_778
10
14.1599469
20
4.9796541
11
14.1591469
21
4.8743541
0
LINE
8
DEFAULT_255_2_778
10
14.1591469
20
4.8743541
11
14.1560469
21
4.7690541
0
LINE
8
DEFAULT_255_2_778
10
14.1560469
20
4.7690541
11
14.1462469
21
4.6639541
0
LINE
8
DEFAULT_255_2_778
10
14.1462469
20
4.6639541
11
14.1375469
21
4.6113541
0
LINE
8
DEFAULT_255_2_778
10
14.1375469
20
4.6113541
11
14.1250469
21
4.5592541
0
LINE
8
DEFAULT_255_2_778
10
14.1250469
20
4.5592541
11
14.1081469
21
4.5086541
0
LINE
8
DEFAULT_255_2_778
10
14.1081469
20
4.5086541
11
14.0975469
21
4.4840541
0
LINE
8
DEFAULT_255_2_778
10
14.0975469
20
4.4840541
11
14.0853469
21
4.4602541
0
LINE
8
DEFAULT_255_2_778
10
14.0554469
20
4.4158541
11
14.0374469
21
4.3959541
0
LINE
8
DEFAULT_255_2_778
10
14.0374469
20
4.3959541
11
14.0176469
21
4.3779541
0
LINE
8
DEFAULT_255_2_778
10
14.0176469
20
4.3779541
11
13.9959469
21
4.3623541
0
LINE
8
DEFAULT_255_2_778
10
13.9959469
20
4.3623541
11
13.9724469
21
4.3493541
0
LINE
8
DEFAULT_255_2_778
10
13.9724469
20
4.3493541
11
13.9213469
21
4.3337541
0
LINE
8
DEFAULT_255_2_778
10
13.9213469
20
4.3337541
11
13.8946469
21
4.3306541
0
LINE
8
DEFAULT_255_2_778
10
13.8946469
20
4.3306541
11
13.8678469
21
4.3303541
0
LINE
8
DEFAULT_255_2_778
10
13.8678469
20
4.3303541
11
13.8149469
21
4.3372541
0
LINE
8
DEFAULT_255_2_778
10
13.8149469
20
4.3372541
11
13.7890469
21
4.3448541
0
LINE
8
DEFAULT_255_2_778
10
13.7890469
20
4.3448541
11
13.7647469
21
4.3557541
0
LINE
8
DEFAULT_255_2_778
10
13.7647469
20
4.3557541
11
13.7419469
21
4.3700541
0
LINE
8
DEFAULT_255_2_778
10
13.7419469
20
4.3700541
11
13.7213469
21
4.3872541
0
LINE
8
DEFAULT_255_2_778
10
13.7213469
20
4.3872541
11
13.7025469
21
4.4065541
0
LINE
8
DEFAULT_255_2_778
10
13.7025469
20
4.4065541
11
13.6855469
21
4.4274541
0
LINE
8
DEFAULT_255_2_778
10
13.6575469
20
4.4729541
11
13.6461469
21
4.4970541
0
LINE
8
DEFAULT_255_2_778
10
13.6461469
20
4.4970541
11
13.6361469
21
4.5221541
0
LINE
8
DEFAULT_255_2_778
10
13.6014469
20
4.6780541
11
13.5961469
21
4.7311541
0
LINE
8
DEFAULT_255_2_778
10
13.5961469
20
4.7311541
11
13.5929469
21
4.7846541
0
LINE
8
DEFAULT_255_2_778
10
13.5929469
20
4.7846541
11
13.5911469
21
4.8380541
0
LINE
8
DEFAULT_255_2_778
10
13.5911469
20
4.8380541
11
13.5906469
21
4.8648541
0
LINE
8
DEFAULT_255_2_778
10
13.5906469
20
4.8648541
11
13.5903469
21
4.8782541
0
LINE
8
DEFAULT_255_2_778
10
13.5903469
20
4.8782541
11
13.5900469
21
4.8915541
0
LINE
8
DEFAULT_255_2_778
10
13.6845469
20
4.6616541
11
13.6744469
21
4.7502541
0
LINE
8
DEFAULT_255_2_778
10
13.6744469
20
4.7502541
11
13.6699469
21
4.8391541
0
LINE
8
DEFAULT_255_2_778
10
13.6699469
20
4.8391541
11
13.6683469
21
4.9283541
0
LINE
8
DEFAULT_255_2_778
10
13.6683469
20
4.9283541
11
13.6678469
21
5.0174541
0
LINE
8
DEFAULT_255_2_778
10
13.6678469
20
5.0174541
11
13.6689469
21
5.1957541
0
LINE
8
DEFAULT_255_2_778
10
13.6689469
20
5.1957541
11
13.6713469
21
5.2849541
0
LINE
8
DEFAULT_255_2_778
10
13.6713469
20
5.2849541
11
13.6779469
21
5.3738541
0
LINE
8
DEFAULT_255_2_778
10
13.6779469
20
5.3738541
11
13.6831469
21
5.4183541
0
LINE
8
DEFAULT_255_2_778
10
13.6831469
20
5.4183541
11
13.6911469
21
5.4622541
0
LINE
8
DEFAULT_255_2_778
10
13.6911469
20
5.4622541
11
13.7027469
21
5.5053541
0
LINE
8
DEFAULT_255_2_778
10
13.7196469
20
5.5468541
11
13.7427469
21
5.5852541
0
LINE
8
DEFAULT_255_2_778
10
13.7427469
20
5.5852541
11
13.7570469
21
5.6027541
0
LINE
8
DEFAULT_255_2_778
10
13.7570469
20
5.6027541
11
13.7734469
21
5.6178541
0
LINE
8
DEFAULT_255_2_778
10
13.7734469
20
5.6178541
11
13.7922469
21
5.6299541
0
LINE
8
DEFAULT_255_2_778
10
13.7922469
20
5.6299541
11
13.8125469
21
5.6389541
0
LINE
8
DEFAULT_255_2_778
10
13.8125469
20
5.6389541
11
13.8342469
21
5.6450541
0
LINE
8
DEFAULT_255_2_778
10
13.8342469
20
5.6450541
11
13.8565469
21
5.6482541
0
LINE
8
DEFAULT_255_2_778
10
13.8565469
20
5.6482541
11
13.8787469
21
5.6490541
0
LINE
8
DEFAULT_255_2_778
10
13.8787469
20
5.6490541
11
13.9012469
21
5.6477541
0
LINE
8
DEFAULT_255_2_778
10
13.9012469
20
5.6477541
11
13.9443469
21
5.6365541
0
LINE
8
DEFAULT_255_2_778
10
13.9443469
20
5.6365541
11
13.9644469
21
5.6265541
0
LINE
8
DEFAULT_255_2_778
10
13.9644469
20
5.6265541
11
13.9824469
21
5.6135541
0
LINE
8
DEFAULT_255_2_778
10
13.9824469
20
5.6135541
11
13.9983469
21
5.5976541
0
LINE
8
DEFAULT_255_2_778
10
13.9983469
20
5.5976541
11
14.0117469
21
5.5799541
0
LINE
8
DEFAULT_255_2_778
10
14.0117469
20
5.5799541
11
14.0234469
21
5.5609541
0
LINE
8
DEFAULT_255_2_778
10
14.0234469
20
5.5609541
11
14.0332469
21
5.5408541
0
LINE
8
DEFAULT_255_2_778
10
14.0486469
20
5.4992541
11
14.0599469
21
5.4564541
0
LINE
8
DEFAULT_255_2_778
10
14.0599469
20
5.4564541
11
14.0679469
21
5.4124541
0
LINE
8
DEFAULT_255_2_778
10
14.0679469
20
5.4124541
11
14.0766469
21
5.3243541
0
LINE
8
DEFAULT_255_2_778
10
14.0766469
20
5.3243541
11
14.0806469
21
5.2360541
0
LINE
8
DEFAULT_255_2_778
10
14.0806469
20
5.2360541
11
14.0819469
21
5.1476541
0
LINE
8
DEFAULT_255_2_778
10
14.0819469
20
5.1476541
11
14.0824469
21
5.0592541
0
LINE
8
DEFAULT_255_2_778
10
14.0824469
20
5.0592541
11
14.0824469
21
4.9708541
0
LINE
8
DEFAULT_255_2_778
10
14.0824469
20
4.9708541
11
14.0813469
21
4.8825541
0
LINE
8
DEFAULT_255_2_778
10
14.0813469
20
4.8825541
11
14.0787469
21
4.7941541
0
LINE
8
DEFAULT_255_2_778
10
14.0787469
20
4.7941541
11
14.0716469
21
4.7063541
0
LINE
8
DEFAULT_255_2_778
10
14.0716469
20
4.7063541
11
14.0573469
21
4.6192541
0
LINE
8
DEFAULT_255_2_778
10
14.0573469
20
4.6192541
11
14.0459469
21
4.5764541
0
LINE
8
DEFAULT_255_2_778
10
14.0459469
20
4.5764541
11
14.0300469
21
4.5348541
0
LINE
8
DEFAULT_255_2_778
10
14.0300469
20
4.5348541
11
14.0200469
21
4.5150541
0
LINE
8
DEFAULT_255_2_778
10
14.0200469
20
4.5150541
11
14.0081469
21
4.4959541
0
LINE
8
DEFAULT_255_2_778
10
14.0081469
20
4.4959541
11
13.9943469
21
4.4787541
0
LINE
8
DEFAULT_255_2_778
10
13.9943469
20
4.4787541
11
13.9779469
21
4.4636541
0
LINE
8
DEFAULT_255_2_778
10
13.9779469
20
4.4636541
11
13.9393469
21
4.4419541
0
LINE
8
DEFAULT_255_2_778
10
13.9393469
20
4.4419541
11
13.9181469
21
4.4351541
0
LINE
8
DEFAULT_255_2_778
10
13.9181469
20
4.4351541
11
13.8964469
21
4.4308541
0
LINE
8
DEFAULT_255_2_778
10
13.8964469
20
4.4308541
11
13.8519469
21
4.4303541
0
LINE
8
DEFAULT_255_2_778
10
13.8519469
20
4.4303541
11
13.8303469
21
4.4343541
0
LINE
8
DEFAULT_255_2_778
10
13.8303469
20
4.4343541
11
13.8091469
21
4.4414541
0
LINE
8
DEFAULT_255_2_778
10
13.8091469
20
4.4414541
11
13.7710469
21
4.4639541
0
LINE
8
DEFAULT_255_2_778
10
13.7710469
20
4.4639541
11
13.7543469
21
4.4790541
0
LINE
8
DEFAULT_255_2_778
10
13.7543469
20
4.4790541
11
13.7400469
21
4.4959541
0
LINE
8
DEFAULT_255_2_778
10
13.7400469
20
4.4959541
11
13.7281469
21
4.5147541
0
LINE
8
DEFAULT_255_2_778
10
13.7281469
20
4.5147541
11
13.7184469
21
4.5346541
0
LINE
8
DEFAULT_255_2_778
10
13.7038469
20
4.5761541
11
13.6927469
21
4.6190541
0
LINE
8
DEFAULT_255_2_778
10
13.6927469
20
4.6190541
11
13.6882469
21
4.6406541
0
LINE
8
DEFAULT_255_2_778
10
13.6882469
20
4.6406541
11
13.6861469
21
4.6515541
0
LINE
8
DEFAULT_255_2_778
10
13.6861469
20
4.6515541
11
13.6845469
21
4.6616541
0
ARC
8
DEFAULT_255_2_778
10
14.6543547
20
4.6813661
40
0.2380333
50
294.9380906
51
308.7109413
0
ARC
8
DEFAULT_255_2_778
10
14.6086471
20
4.7085616
40
0.2897689
50
335.0711214
51
346.3392306
0
ARC
8
DEFAULT_255_2_778
10
14.4550979
20
4.742664
40
0.4470394
50
346.7399422
51
354.037417
0
ARC
8
DEFAULT_255_2_778
10
14.4391034
20
4.7800345
40
0.4631681
50
3.6754871
51
10.6995878
0
ARC
8
DEFAULT_255_2_778
10
14.6027683
20
4.8111694
40
0.2965681
50
10.6594577
51
21.7003089
0
ARC
8
DEFAULT_255_2_778
10
14.5973293
20
5.3689367
40
0.3689111
50
89.9972558
51
90.6228926
0
ARC
8
DEFAULT_255_2_778
10
14.5972139
20
5.364035
40
0.3738129
50
73.7019054
51
89.9795982
0
ARC
8
DEFAULT_255_2_778
10
14.5514096
20
5.3723483
40
0.3987341
50
18.5541918
51
26.5101976
0
ARC
8
DEFAULT_255_2_778
10
14.5250172
20
5.3679464
40
0.4255331
50
6.7721773
51
10.5044308
0
ARC
8
DEFAULT_255_2_778
10
14.4816537
20
5.362867
40
0.4691929
50
3.4040192
51
6.763682
0
ARC
8
DEFAULT_255_2_778
10
14.5823283
20
5.3333938
40
0.3667069
50
334.4659921
51
351.7266218
0
ARC
8
DEFAULT_255_2_778
10
14.6280109
20
5.3110601
40
0.3158596
50
324.51928
51
334.5496301
0
ARC
8
DEFAULT_255_2_778
10
14.6638098
20
5.2856575
40
0.2719638
50
312.8360738
51
324.4996526
0
ARC
8
DEFAULT_255_2_778
10
14.7364128
20
4.8999418
40
0.2175188
50
41.9772066
51
58.9153133
0
ARC
8
DEFAULT_255_2_778
10
14.5387304
20
4.8015304
40
0.4409156
50
9.0817422
51
17.3787391
0
ARC
8
DEFAULT_255_2_778
10
14.389528
20
4.7754796
40
0.5923636
50
3.1108553
51
9.2919797
0
ARC
8
DEFAULT_255_2_778
10
14.6321456
20
4.6774626
40
0.339461
50
328.0299186
51
338.839979
0
ARC
8
DEFAULT_255_2_778
10
14.6551765
20
4.6615784
40
0.3115156
50
316.5205046
51
328.26546
0
ARC
8
DEFAULT_255_2_778
10
14.5432507
20
5.3464111
40
0.3279232
50
346.960831
51
355.4024545
0
ARC
8
DEFAULT_255_2_778
10
14.5816972
20
5.3680333
40
0.2895435
50
9.5610516
51
19.0893001
0
ARC
8
DEFAULT_255_2_778
10
14.6143254
20
5.382251
40
0.2536758
50
29.359717
51
40.1521081
0
ARC
8
DEFAULT_255_2_778
10
15.5738858
20
4.6790597
40
0.2353389
50
294.8589133
51
308.790228
0
ARC
8
DEFAULT_255_2_778
10
15.526748
20
4.7085602
40
0.2897675
50
335.0712855
51
346.3394442
0
ARC
8
DEFAULT_255_2_778
10
15.3731979
20
4.742664
40
0.4470394
50
346.7399422
51
354.037417
0
ARC
8
DEFAULT_255_2_778
10
15.3571526
20
4.7800281
40
0.4632191
50
3.6758755
51
10.6992009
0
ARC
8
DEFAULT_255_2_778
10
15.5208475
20
4.8111634
40
0.2965896
50
10.659863
51
21.6999092
0
ARC
8
DEFAULT_255_2_778
10
15.6529904
20
4.8968987
40
0.2202259
50
42.1287251
51
58.8774037
0
ARC
8
DEFAULT_255_2_778
10
15.437976
20
4.7965174
40
0.4602001
50
9.2291748
51
17.1900669
0
ARC
8
DEFAULT_255_2_778
10
15.3320241
20
4.7773296
40
0.5678613
50
2.9774558
51
9.4255625
0
ARC
8
DEFAULT_255_2_778
10
15.5502456
20
4.6766626
40
0.339461
50
328.0299186
51
338.839979
0
ARC
8
DEFAULT_255_2_778
10
15.5732822
20
4.6607736
40
0.3115083
50
316.5204344
51
328.2656695
0
ARC
8
DEFAULT_255_2_778
10
15.5146034
20
5.3605778
40
0.3775609
50
90.0037486
51
90.468098
0
ARC
8
DEFAULT_255_2_778
10
15.5144709
20
5.3606014
40
0.3775371
50
73.7338618
51
89.9836425
0
ARC
8
DEFAULT_255_2_778
10
15.4886142
20
5.3802406
40
0.3782083
50
18.3847329
51
26.7592438
0
ARC
8
DEFAULT_255_2_778
10
15.4410743
20
5.367163
40
0.4277215
50
6.8767787
51
10.5840636
0
ARC
8
DEFAULT_255_2_778
10
15.446723
20
5.3678283
40
0.4220339
50
3.1509396
51
6.8789317
0
ARC
8
DEFAULT_255_2_778
10
15.5004283
20
5.3336938
40
0.3667069
50
334.4659921
51
351.7266218
0
ARC
8
DEFAULT_255_2_778
10
15.5503207
20
5.308884
40
0.3109945
50
324.4405687
51
334.6282398
0
ARC
8
DEFAULT_255_2_778
10
15.5811411
20
5.2861534
40
0.2727035
50
312.9122463
51
324.5599411
0
ARC
8
DEFAULT_255_2_778
10
15.4613507
20
5.3464111
40
0.3279232
50
346.960831
51
355.4024545
0
ARC
8
DEFAULT_255_2_778
10
15.5096426
20
5.3705468
40
0.2794187
50
9.3881206
51
19.2624682
0
ARC
8
DEFAULT_255_2_778
10
15.5324254
20
5.382251
40
0.2536758
50
29.359717
51
40.1521081
0
LINE
8
DEFAULT_255_2_778
10
14.5886188
20
4.436926
11
14.6449188
21
4.439826
0
LINE
8
DEFAULT_255_2_778
10
14.6449188
20
4.439826
11
14.6730188
21
4.443026
0
LINE
8
DEFAULT_255_2_778
10
14.6730188
20
4.443026
11
14.7008188
21
4.447726
0
LINE
8
DEFAULT_255_2_778
10
14.7008188
20
4.447726
11
14.7280188
21
4.454926
0
LINE
8
DEFAULT_255_2_778
10
14.7280188
20
4.454926
11
14.7547188
21
4.465526
0
LINE
8
DEFAULT_255_2_778
10
14.8032188
20
4.495626
11
14.8243188
21
4.515226
0
LINE
8
DEFAULT_255_2_778
10
14.8243188
20
4.515226
11
14.8426188
21
4.537226
0
LINE
8
DEFAULT_255_2_778
10
14.8426188
20
4.537226
11
14.8582188
21
4.561026
0
LINE
8
DEFAULT_255_2_778
10
14.8582188
20
4.561026
11
14.8714188
21
4.586426
0
LINE
8
DEFAULT_255_2_778
10
14.8997188
20
4.696226
11
14.9029188
21
4.752826
0
LINE
8
DEFAULT_255_2_778
10
14.9029188
20
4.752826
11
14.9013188
21
4.809726
0
LINE
8
DEFAULT_255_2_778
10
14.8783188
20
4.920826
11
14.8659188
21
4.946526
0
LINE
8
DEFAULT_255_2_778
10
14.8659188
20
4.946526
11
14.8495188
21
4.969826
0
LINE
8
DEFAULT_255_2_778
10
14.8495188
20
4.969826
11
14.8291188
21
4.989626
0
LINE
8
DEFAULT_255_2_778
10
14.8291188
20
4.989626
11
14.8053188
21
5.005526
0
LINE
8
DEFAULT_255_2_778
10
14.8053188
20
5.005526
11
14.7791188
21
5.016926
0
LINE
8
DEFAULT_255_2_778
10
14.7791188
20
5.016926
11
14.7516188
21
5.024326
0
LINE
8
DEFAULT_255_2_778
10
14.7516188
20
5.024326
11
14.6949188
21
5.029326
0
LINE
8
DEFAULT_255_2_778
10
14.6949188
20
5.029326
11
14.4240188
21
5.029326
0
LINE
8
DEFAULT_255_2_778
10
14.4240188
20
5.029326
11
14.4240188
21
4.437226
0
LINE
8
DEFAULT_255_2_778
10
14.4240188
20
4.437226
11
14.5886188
21
4.436926
0
LINE
8
DEFAULT_255_2_778
10
14.7021188
20
5.722826
11
14.7537188
21
5.702726
0
LINE
8
DEFAULT_255_2_778
10
14.7537188
20
5.702726
11
14.8010188
21
5.674926
0
LINE
8
DEFAULT_255_2_778
10
14.8010188
20
5.674926
11
14.8230188
21
5.658226
0
LINE
8
DEFAULT_255_2_778
10
14.8230188
20
5.658226
11
14.8436188
21
5.639426
0
LINE
8
DEFAULT_255_2_778
10
14.8436188
20
5.639426
11
14.8796188
21
5.597626
0
LINE
8
DEFAULT_255_2_778
10
14.8796188
20
5.597626
11
14.8947188
21
5.574626
0
LINE
8
DEFAULT_255_2_778
10
14.8947188
20
5.574626
11
14.9082188
21
5.550326
0
LINE
8
DEFAULT_255_2_778
10
14.9294188
20
5.499226
11
14.9373188
21
5.472726
0
LINE
8
DEFAULT_255_2_778
10
14.9373188
20
5.472726
11
14.9434188
21
5.445526
0
LINE
8
DEFAULT_255_2_778
10
14.9500188
20
5.390726
11
14.9505188
21
5.335726
0
LINE
8
DEFAULT_255_2_778
10
14.9505188
20
5.335726
11
14.9487188
21
5.308226
0
LINE
8
DEFAULT_255_2_778
10
14.9487188
20
5.308226
11
14.9452188
21
5.280626
0
LINE
8
DEFAULT_255_2_778
10
14.8981188
20
5.045426
11
14.9183188
21
5.020026
0
LINE
8
DEFAULT_255_2_778
10
14.9183188
20
5.020026
11
14.9349188
21
4.992826
0
LINE
8
DEFAULT_255_2_778
10
14.9349188
20
4.992826
11
14.9487188
21
4.963726
0
LINE
8
DEFAULT_255_2_778
10
14.9487188
20
4.963726
11
14.9595188
21
4.933226
0
LINE
8
DEFAULT_255_2_778
10
14.9810188
20
4.807626
11
14.9818188
21
4.743326
0
LINE
8
DEFAULT_255_2_778
10
14.9818188
20
4.743326
11
14.9770188
21
4.679526
0
LINE
8
DEFAULT_255_2_778
10
14.9770188
20
4.679526
11
14.9667188
21
4.616326
0
LINE
8
DEFAULT_255_2_778
10
14.9667188
20
4.616326
11
14.9590188
21
4.585126
0
LINE
8
DEFAULT_255_2_778
10
14.9590188
20
4.585126
11
14.9487188
21
4.554926
0
LINE
8
DEFAULT_255_2_778
10
14.8812188
20
4.447226
11
14.8579188
21
4.425226
0
LINE
8
DEFAULT_255_2_778
10
14.8579188
20
4.425226
11
14.8323188
21
4.405726
0
LINE
8
DEFAULT_255_2_778
10
14.8323188
20
4.405726
11
14.7767188
21
4.374226
0
LINE
8
DEFAULT_255_2_778
10
14.7767188
20
4.374226
11
14.7465188
21
4.362526
0
LINE
8
DEFAULT_255_2_778
10
14.7465188
20
4.362526
11
14.7159188
21
4.353826
0
LINE
8
DEFAULT_255_2_778
10
14.7159188
20
4.353826
11
14.6529188
21
4.343826
0
LINE
8
DEFAULT_255_2_778
10
14.6529188
20
4.343826
11
14.5889188
21
4.340826
0
LINE
8
DEFAULT_255_2_778
10
14.5889188
20
4.340826
11
14.3457188
21
4.340826
0
LINE
8
DEFAULT_255_2_778
10
14.3457188
20
4.340826
11
14.3457188
21
5.738926
0
LINE
8
DEFAULT_255_2_778
10
14.3457188
20
5.738926
11
14.5933188
21
5.737826
0
LINE
8
DEFAULT_255_2_778
10
14.6955188
20
5.126126
11
14.7434188
21
5.132226
0
LINE
8
DEFAULT_255_2_778
10
14.7434188
20
5.132226
11
14.7661188
21
5.140426
0
LINE
8
DEFAULT_255_2_778
10
14.7661188
20
5.140426
11
14.7870188
21
5.152126
0
LINE
8
DEFAULT_255_2_778
10
14.7870188
20
5.152126
11
14.8061188
21
5.167126
0
LINE
8
DEFAULT_255_2_778
10
14.8061188
20
5.167126
11
14.8225188
21
5.185126
0
LINE
8
DEFAULT_255_2_778
10
14.8225188
20
5.185126
11
14.8362188
21
5.205226
0
LINE
8
DEFAULT_255_2_778
10
14.8362188
20
5.205226
11
14.8473188
21
5.226726
0
LINE
8
DEFAULT_255_2_778
10
14.8473188
20
5.226726
11
14.8561188
21
5.249226
0
LINE
8
DEFAULT_255_2_778
10
14.8561188
20
5.249226
11
14.8627188
21
5.272426
0
LINE
8
DEFAULT_255_2_778
10
14.8701188
20
5.320126
11
14.8717188
21
5.368226
0
LINE
8
DEFAULT_255_2_778
10
14.8717188
20
5.368226
11
14.8704188
21
5.392326
0
LINE
8
DEFAULT_255_2_778
10
14.8704188
20
5.392326
11
14.8672188
21
5.416126
0
LINE
8
DEFAULT_255_2_778
10
14.8553188
20
5.462726
11
14.8463188
21
5.485226
0
LINE
8
DEFAULT_255_2_778
10
14.8463188
20
5.485226
11
14.8354188
21
5.506626
0
LINE
8
DEFAULT_255_2_778
10
14.8082188
20
5.545826
11
14.7915188
21
5.563526
0
LINE
8
DEFAULT_255_2_778
10
14.7915188
20
5.563526
11
14.7733188
21
5.579426
0
LINE
8
DEFAULT_255_2_778
10
14.7733188
20
5.579426
11
14.7330188
21
5.605626
0
LINE
8
DEFAULT_255_2_778
10
14.7330188
20
5.605626
11
14.7111188
21
5.615926
0
LINE
8
DEFAULT_255_2_778
10
14.7111188
20
5.615926
11
14.6886188
21
5.624326
0
LINE
8
DEFAULT_255_2_778
10
14.6886188
20
5.624326
11
14.6415188
21
5.635226
0
LINE
8
DEFAULT_255_2_778
10
14.6415188
20
5.635226
11
14.5931188
21
5.638626
0
LINE
8
DEFAULT_255_2_778
10
14.5931188
20
5.638626
11
14.4243188
21
5.638626
0
LINE
8
DEFAULT_255_2_778
10
14.4243188
20
5.638626
11
14.4243188
21
5.126126
0
LINE
8
DEFAULT_255_2_778
10
14.4243188
20
5.126126
11
14.6955188
21
5.126126
0
LINE
8
DEFAULT_255_2_778
10
15.5067188
20
4.436926
11
15.5630188
21
4.439826
0
LINE
8
DEFAULT_255_2_778
10
15.5630188
20
4.439826
11
15.5911188
21
4.443026
0
LINE
8
DEFAULT_255_2_778
10
15.5911188
20
4.443026
11
15.6189188
21
4.447726
0
LINE
8
DEFAULT_255_2_778
10
15.6189188
20
4.447726
11
15.6461188
21
4.454926
0
LINE
8
DEFAULT_255_2_778
10
15.6461188
20
4.454926
11
15.6728188
21
4.465526
0
LINE
8
DEFAULT_255_2_778
10
15.7213188
20
4.495626
11
15.7424188
21
4.515226
0
LINE
8
DEFAULT_255_2_778
10
15.7424188
20
4.515226
11
15.7607188
21
4.537226
0
LINE
8
DEFAULT_255_2_778
10
15.7607188
20
4.537226
11
15.7763188
21
4.561026
0
LINE
8
DEFAULT_255_2_778
10
15.7763188
20
4.561026
11
15.7895188
21
4.586426
0
LINE
8
DEFAULT_255_2_778
10
15.8178188
20
4.696226
11
15.8210188
21
4.752826
0
LINE
8
DEFAULT_255_2_778
10
15.8210188
20
4.752826
11
15.8194188
21
4.809726
0
LINE
8
DEFAULT_255_2_778
10
15.7964188
20
4.920826
11
15.7840188
21
4.946526
0
LINE
8
DEFAULT_255_2_778
10
15.7840188
20
4.946526
11
15.7676188
21
4.969826
0
LINE
8
DEFAULT_255_2_778
10
15.7676188
20
4.969826
11
15.7472188
21
4.989626
0
LINE
8
DEFAULT_255_2_778
10
15.7472188
20
4.989626
11
15.7234188
21
5.005526
0
LINE
8
DEFAULT_255_2_778
10
15.7234188
20
5.005526
11
15.6972188
21
5.016926
0
LINE
8
DEFAULT_255_2_778
10
15.6972188
20
5.016926
11
15.6697188
21
5.024326
0
LINE
8
DEFAULT_255_2_778
10
15.6697188
20
5.024326
11
15.6131188
21
5.029326
0
LINE
8
DEFAULT_255_2_778
10
15.6131188
20
5.029326
11
15.3421188
21
5.029326
0
LINE
8
DEFAULT_255_2_778
10
15.3421188
20
5.029326
11
15.3421188
21
4.437226
0
LINE
8
DEFAULT_255_2_778
10
15.3421188
20
4.437226
11
15.5067188
21
4.436926
0
LINE
8
DEFAULT_255_2_778
10
15.8163188
20
5.044626
11
15.8364188
21
5.019226
0
LINE
8
DEFAULT_255_2_778
10
15.8364188
20
5.019226
11
15.8530188
21
4.992026
0
LINE
8
DEFAULT_255_2_778
10
15.8530188
20
4.992026
11
15.8668188
21
4.962926
0
LINE
8
DEFAULT_255_2_778
10
15.8668188
20
4.962926
11
15.8776188
21
4.932526
0
LINE
8
DEFAULT_255_2_778
10
15.8991188
20
4.806826
11
15.8999188
21
4.742526
0
LINE
8
DEFAULT_255_2_778
10
15.8999188
20
4.742526
11
15.8951188
21
4.678726
0
LINE
8
DEFAULT_255_2_778
10
15.8951188
20
4.678726
11
15.8848188
21
4.615526
0
LINE
8
DEFAULT_255_2_778
10
15.8848188
20
4.615526
11
15.8771188
21
4.584326
0
LINE
8
DEFAULT_255_2_778
10
15.8771188
20
4.584326
11
15.8668188
21
4.554126
0
LINE
8
DEFAULT_255_2_778
10
15.7993188
20
4.446426
11
15.7760188
21
4.424526
0
LINE
8
DEFAULT_255_2_778
10
15.7760188
20
4.424526
11
15.7504188
21
4.404926
0
LINE
8
DEFAULT_255_2_778
10
15.7504188
20
4.404926
11
15.6948188
21
4.373426
0
LINE
8
DEFAULT_255_2_778
10
15.6948188
20
4.373426
11
15.6646188
21
4.361726
0
LINE
8
DEFAULT_255_2_778
10
15.6646188
20
4.361726
11
15.6340188
21
4.353026
0
LINE
8
DEFAULT_255_2_778
10
15.6340188
20
4.353026
11
15.5710188
21
4.343026
0
LINE
8
DEFAULT_255_2_778
10
15.5710188
20
4.343026
11
15.5070188
21
4.340026
0
LINE
8
DEFAULT_255_2_778
10
15.5070188
20
4.340026
11
15.2638188
21
4.340026
0
LINE
8
DEFAULT_255_2_778
10
15.2638188
20
4.340026
11
15.2638188
21
5.738126
0
LINE
8
DEFAULT_255_2_778
10
15.2638188
20
5.738126
11
15.5115188
21
5.738126
0
LINE
8
DEFAULT_255_2_778
10
15.6202188
20
5.723026
11
15.6718188
21
5.702926
0
LINE
8
DEFAULT_255_2_778
10
15.6718188
20
5.702926
11
15.7192188
21
5.675126
0
LINE
8
DEFAULT_255_2_778
10
15.7192188
20
5.675126
11
15.7411188
21
5.658526
0
LINE
8
DEFAULT_255_2_778
10
15.7411188
20
5.658526
11
15.7617188
21
5.639726
0
LINE
8
DEFAULT_255_2_778
10
15.7617188
20
5.639726
11
15.7977188
21
5.597926
0
LINE
8
DEFAULT_255_2_778
10
15.7977188
20
5.597926
11
15.8128188
21
5.574926
0
LINE
8
DEFAULT_255_2_778
10
15.8128188
20
5.574926
11
15.8263188
21
5.550526
0
LINE
8
DEFAULT_255_2_778
10
15.8475188
20
5.499526
11
15.8554188
21
5.473026
0
LINE
8
DEFAULT_255_2_778
10
15.8554188
20
5.473026
11
15.8615188
21
5.445726
0
LINE
8
DEFAULT_255_2_778
10
15.8681188
20
5.391026
11
15.8686188
21
5.335926
0
LINE
8
DEFAULT_255_2_778
10
15.8686188
20
5.335926
11
15.8668188
21
5.308426
0
LINE
8
DEFAULT_255_2_778
10
15.8668188
20
5.308426
11
15.8633188
21
5.280926
0
LINE
8
DEFAULT_255_2_778
10
15.7668188
20
5.086426
11
15.7668188
21
5.085426
0
LINE
8
DEFAULT_255_2_778
10
15.6136188
20
5.126126
11
15.6615188
21
5.132226
0
LINE
8
DEFAULT_255_2_778
10
15.6615188
20
5.132226
11
15.6842188
21
5.140426
0
LINE
8
DEFAULT_255_2_778
10
15.6842188
20
5.140426
11
15.7051188
21
5.152126
0
LINE
8
DEFAULT_255_2_778
10
15.7051188
20
5.152126
11
15.7242188
21
5.167126
0
LINE
8
DEFAULT_255_2_778
10
15.7242188
20
5.167126
11
15.7406188
21
5.185126
0
LINE
8
DEFAULT_255_2_778
10
15.7406188
20
5.185126
11
15.7543188
21
5.205226
0
LINE
8
DEFAULT_255_2_778
10
15.7543188
20
5.205226
11
15.7655188
21
5.226726
0
LINE
8
DEFAULT_255_2_778
10
15.7655188
20
5.226726
11
15.7742188
21
5.249226
0
LINE
8
DEFAULT_255_2_778
10
15.7742188
20
5.249226
11
15.7808188
21
5.272426
0
LINE
8
DEFAULT_255_2_778
10
15.7882188
20
5.320126
11
15.7898188
21
5.368226
0
LINE
8
DEFAULT_255_2_778
10
15.7898188
20
5.368226
11
15.7885188
21
5.392326
0
LINE
8
DEFAULT_255_2_778
10
15.7885188
20
5.392326
11
15.7853188
21
5.416126
0
LINE
8
DEFAULT_255_2_778
10
15.7734188
20
5.462726
11
15.7644188
21
5.485226
0
LINE
8
DEFAULT_255_2_778
10
15.7644188
20
5.485226
11
15.7535188
21
5.506626
0
LINE
8
DEFAULT_255_2_778
10
15.7263188
20
5.545826
11
15.7096188
21
5.563526
0
LINE
8
DEFAULT_255_2_778
10
15.7096188
20
5.563526
11
15.6914188
21
5.579426
0
LINE
8
DEFAULT_255_2_778
10
15.6914188
20
5.579426
11
15.6512188
21
5.605626
0
LINE
8
DEFAULT_255_2_778
10
15.6512188
20
5.605626
11
15.6292188
21
5.615926
0
LINE
8
DEFAULT_255_2_778
10
15.6292188
20
5.615926
11
15.6067188
21
5.624326
0
LINE
8
DEFAULT_255_2_778
10
15.6067188
20
5.624326
11
15.5596188
21
5.635226
0
LINE
8
DEFAULT_255_2_778
10
15.5596188
20
5.635226
11
15.5112188
21
5.638626
0
LINE
8
DEFAULT_255_2_778
10
15.5112188
20
5.638626
11
15.3424188
21
5.638626
0
LINE
8
DEFAULT_255_2_778
10
15.3424188
20
5.638626
11
15.3424188
21
5.126126
0
LINE
8
DEFAULT_255_2_778
10
15.3424188
20
5.126126
11
15.6136188
21
5.126126
0
ENDSEC
0
EOF