0
SECTION
2
HEADER
9
$MEASUREMENT
70
1
0
ENDSEC
0
SECTION
2
TABLES
0
TABLE
2
LTYPE
0
LTYPE
72
65
70
64
2
CONTINUOUS
3
______
73
0
40
0
0
ENDTAB
0
TABLE
2
LAYER
0
LAYER
2
DEFAULT_255_2_778
70
0
62
255
6
CONTINUOUS
0
ENDTAB
0
ENDSEC
0
SECTION
2
ENTITIES
0
ARC
8
DEFAULT_255_2_778
10
6.4506364
20
92.2717727
40
28.2986549
50
269.9997992
51
284.7502624
0
ARC
8
DEFAULT_255_2_778
10
6.4511283
20
92.2707619
40
28.2975521
50
284.7498203
51
297.8716875
0
ARC
8
DEFAULT_255_2_778
10
21.447785
20
-320.4558542
40
391.529072
50
84.6835569
51
89.9996265
0
LINE
8
DEFAULT_255_2_778
10
57.9220372
20
5.7433178
11
57.9223372
21
5.7508178
0
LINE
8
DEFAULT_255_2_778
10
57.9223372
20
5.7508178
11
57.9223372
21
5.7497178
0
LINE
8
DEFAULT_255_2_778
10
57.9223372
20
5.7497178
11
57.9220372
21
5.7407178
0
LINE
8
DEFAULT_255_2_778
10
57.9220372
20
5.7407178
11
57.9212372
21
5.7211178
0
LINE
8
DEFAULT_255_2_778
10
57.9212372
20
5.7211178
11
57.9207372
21
5.7074178
0
LINE
8
DEFAULT_255_2_778
10
57.9207372
20
5.7074178
11
57.9202372
21
5.6915178
0
LINE
8
DEFAULT_255_2_778
10
57.9202372
20
5.6915178
11
57.9194372
21
5.6738178
0
LINE
8
DEFAULT_255_2_778
10
57.9194372
20
5.6738178
11
57.9186372
21
5.6539178
0
LINE
8
DEFAULT_255_2_778
10
57.9186372
20
5.6539178
11
57.9167372
21
5.6105178
0
LINE
8
DEFAULT_255_2_778
10
57.9167372
20
5.6105178
11
57.9149372
21
5.5640178
0
LINE
8
DEFAULT_255_2_778
10
57.9149372
20
5.5640178
11
57.9128372
21
5.5158178
0
LINE
8
DEFAULT_255_2_778
10
57.9128372
20
5.5158178
11
57.9107372
21
5.4669178
0
LINE
8
DEFAULT_255_2_778
10
57.9107372
20
5.4669178
11
57.9085372
21
5.4174178
0
LINE
8
DEFAULT_255_2_778
10
57.9085372
20
5.4174178
11
57.9043372
21
5.3174178
0
LINE
8
DEFAULT_255_2_778
10
57.9043372
20
5.3174178
11
57.9022372
21
5.2671178
0
LINE
8
DEFAULT_255_2_778
10
57.9022372
20
5.2671178
11
57.9001372
21
5.2168178
0
LINE
8
DEFAULT_255_2_778
10
57.9001372
20
5.2168178
11
57.8958372
21
5.1163178
0
LINE
8
DEFAULT_255_2_778
10
57.8958372
20
5.1163178
11
57.8916372
21
5.0157178
0
LINE
8
DEFAULT_255_2_778
10
57.8916372
20
5.0157178
11
57.8874372
21
4.9152178
0
LINE
8
DEFAULT_255_2_778
10
57.8874372
20
4.9152178
11
57.8831372
21
4.8147178
0
LINE
8
DEFAULT_255_2_778
10
57.8831372
20
4.8147178
11
57.8810372
21
4.7644178
0
LINE
8
DEFAULT_255_2_778
10
57.8810372
20
4.7644178
11
57.8789372
21
4.7144178
0
LINE
8
DEFAULT_255_2_778
10
57.8789372
20
4.7144178
11
57.8768372
21
4.6646178
0
LINE
8
DEFAULT_255_2_778
10
57.8768372
20
4.6646178
11
57.8747372
21
4.6154178
0
LINE
8
DEFAULT_255_2_778
10
57.8747372
20
4.6154178
11
57.8704372
21
4.5191178
0
LINE
8
DEFAULT_255_2_778
10
57.8704372
20
4.5191178
11
57.8683372
21
4.4728178
0
LINE
8
DEFAULT_255_2_778
10
57.8683372
20
4.4728178
11
57.8665372
21
4.4297178
0
LINE
8
DEFAULT_255_2_778
10
57.8665372
20
4.4297178
11
57.8657372
21
4.4098178
0
LINE
8
DEFAULT_255_2_778
10
57.8657372
20
4.4098178
11
57.8649372
21
4.3916178
0
LINE
8
DEFAULT_255_2_778
10
57.8649372
20
4.3916178
11
57.8636372
21
4.3604178
0
LINE
8
DEFAULT_255_2_778
10
57.8636372
20
4.3604178
11
57.8630372
21
4.3482178
0
LINE
8
DEFAULT_255_2_778
10
57.8630372
20
4.3482178
11
57.8628372
21
4.3389178
0
LINE
8
DEFAULT_255_2_778
10
57.8628372
20
4.3389178
11
57.8625372
21
4.3326178
0
LINE
8
DEFAULT_255_2_778
10
57.8625372
20
4.3326178
11
57.8622372
21
4.3286178
0
LINE
8
DEFAULT_255_2_778
10
57.8622372
20
4.3286178
11
57.8622372
21
4.3268178
0
LINE
8
DEFAULT_255_2_778
10
58.1578372
20
62.1316178
11
58.3218372
21
62.1377178
0
LINE
8
DEFAULT_255_2_778
10
58.3218372
20
62.1377178
11
58.2811372
21
63.2362178
0
LINE
8
DEFAULT_255_2_778
10
58.2811372
20
63.2362178
11
58.1049372
21
63.2296178
0
LINE
8
DEFAULT_255_2_778
10
58.3604372
20
24.7836178
11
58.5369372
21
24.7785178
0
LINE
8
DEFAULT_255_2_778
10
58.5369372
20
24.7785178
11
58.5054372
21
23.6792178
0
LINE
8
DEFAULT_255_2_778
10
58.5054372
20
23.6792178
11
58.3425372
21
23.6839178
0
LINE
8
DEFAULT_255_2_778
10
58.3274372
20
22.8336178
11
58.4808372
21
22.8291178
0
LINE
8
DEFAULT_255_2_778
10
58.4808372
20
22.8291178
11
58.4493372
21
21.7295178
0
LINE
8
DEFAULT_255_2_778
10
58.4493372
20
21.7295178
11
58.3065372
21
21.7337178
0
LINE
8
DEFAULT_255_2_778
10
57.9540372
20
9.1387178
11
58.0885372
21
9.1348178
0
LINE
8
DEFAULT_255_2_778
10
58.0885372
20
9.1348178
11
58.0570372
21
8.0354178
0
LINE
8
DEFAULT_255_2_778
10
58.0570372
20
8.0354178
11
57.9133372
21
8.0397178
0
LINE
8
DEFAULT_255_2_778
10
19.6802372
20
69.2724178
11
4.9506372
21
69.1439178
0
LINE
8
DEFAULT_255_2_778
10
4.9506372
20
69.1439178
11
4.9506372
21
63.9731178
0
LINE
8
DEFAULT_255_2_778
10
4.9506372
20
63.9731178
11
6.4505372
21
63.9731178
0
LINE
8
DEFAULT_255_2_778
10
19.6800372
20
67.2558178
11
19.6800372
21
71.0732178
0
LINE
8
DEFAULT_255_2_778
10
19.6800372
20
71.0732178
11
21.4503372
21
71.0732178
0
ARC
8
DEFAULT_255_2_778
10
21.451115
20
393.3058645
40
391.5324923
50
269.9999098
51
275.3159456
0
LINE
8
DEFAULT_255_2_778
10
21.4504987
20
1.773372
11
4.9505987
21
1.773372
0
LINE
8
DEFAULT_255_2_778
10
4.9505987
20
1.773372
11
4.9505987
21
63.973172
0
LINE
8
DEFAULT_255_2_778
10
57.9439987
20
64.324772
11
58.0439987
21
64.324772
0
LINE
8
DEFAULT_255_2_778
10
58.4643987
20
24.836772
11
58.3643987
21
24.836772
0
LINE
8
DEFAULT_255_2_778
10
57.9574987
20
9.230372
11
58.0574987
21
9.230372
0
LINE
8
DEFAULT_255_2_778
10
58.0574987
20
9.230372
11
58.0510987
21
9.055472
0
LINE
8
DEFAULT_255_2_778
10
57.9129987
20
8.030172
11
58.0127987
21
8.030172
0
LINE
8
DEFAULT_255_2_778
10
57.9124987
20
8.021972
11
58.0121987
21
8.021972
0
LINE
8
DEFAULT_255_2_778
10
57.7632987
20
4.325772
11
57.7780987
21
4.325772
0
LINE
8
DEFAULT_255_2_778
10
4.9505987
20
6.347972
11
2.6504987
21
6.347972
0
LINE
8
DEFAULT_255_2_778
10
2.6504987
20
6.347972
11
2.6504987
21
32.797872
0
LINE
8
DEFAULT_255_2_778
10
2.6504987
20
32.797872
11
4.9505987
21
32.797872
0
LINE
8
DEFAULT_255_2_778
10
57.9272987
20
64.763972
11
57.9211987
21
64.928272
0
LINE
8
DEFAULT_255_2_778
10
57.9211987
20
64.928272
11
58.0211987
21
64.928272
0
LINE
8
DEFAULT_255_2_778
10
58.0211987
20
64.928272
11
58.0272987
21
64.763972
0
LINE
8
DEFAULT_255_2_778
10
58.0272987
20
64.763972
11
58.0431987
21
64.340172
0
LINE
8
DEFAULT_255_2_778
10
58.0431987
20
64.340172
11
57.9431987
21
64.340172
0
LINE
8
DEFAULT_255_2_778
10
57.9431987
20
64.340172
11
57.9272987
21
64.763972
0
LINE
8
DEFAULT_255_2_778
10
57.9272987
20
64.763972
11
58.0272987
21
64.763972
0
LINE
8
DEFAULT_255_2_778
10
57.9211987
20
64.928272
11
57.9007987
21
65.460372
0
LINE
8
DEFAULT_255_2_778
10
57.9007987
20
65.460372
11
57.8822987
21
65.940072
0
LINE
8
DEFAULT_255_2_778
10
57.8822987
20
65.940072
11
57.9822987
21
65.940072
0
LINE
8
DEFAULT_255_2_778
10
57.9822987
20
65.940072
11
58.0211987
21
64.928072
0
LINE
8
DEFAULT_255_2_778
10
58.0952987
20
59.878472
11
58.0952987
21
59.878972
0
LINE
8
DEFAULT_255_2_778
10
58.0952987
20
59.878972
11
58.0952987
21
59.880372
0
LINE
8
DEFAULT_255_2_778
10
58.0952987
20
59.880372
11
58.0952987
21
59.882972
0
LINE
8
DEFAULT_255_2_778
10
58.0952987
20
59.882972
11
58.0952987
21
59.886172
0
LINE
8
DEFAULT_255_2_778
10
58.0952987
20
59.886172
11
58.0952987
21
59.889272
0
LINE
8
DEFAULT_255_2_778
10
58.0952987
20
59.889272
11
58.0539987
21
61.183972
0
LINE
8
DEFAULT_255_2_778
10
58.0539987
20
61.183972
11
58.1539987
21
61.183972
0
LINE
8
DEFAULT_255_2_778
10
58.1539987
20
61.183972
11
58.1952987
21
59.889272
0
LINE
8
DEFAULT_255_2_778
10
58.1952987
20
59.889272
11
58.0952987
21
59.889272
0
LINE
8
DEFAULT_255_2_778
10
4.9502987
20
65.848272
11
1.4503987
21
65.848272
0
LINE
8
DEFAULT_255_2_778
10
1.4503987
20
65.848272
11
1.4503987
21
50.298172
0
LINE
8
DEFAULT_255_2_778
10
1.4503987
20
50.298172
11
4.9502987
21
50.298172
0
LINE
8
DEFAULT_255_2_778
10
57.9907987
20
10.146572
11
57.9926987
21
10.196872
0
LINE
8
DEFAULT_255_2_778
10
57.9926987
20
10.196872
11
57.9997987
21
10.392972
0
LINE
8
DEFAULT_255_2_778
10
57.9997987
20
10.392972
11
58.0113987
21
10.708872
0
LINE
8
DEFAULT_255_2_778
10
58.0113987
20
10.708872
11
58.0235987
21
11.037972
0
LINE
8
DEFAULT_255_2_778
10
58.0235987
20
11.037972
11
58.1211987
21
11.034572
0
LINE
8
DEFAULT_255_2_778
10
58.1211987
20
11.034572
11
58.1201987
21
11.003072
0
LINE
8
DEFAULT_255_2_778
10
58.1201987
20
11.003072
11
58.1190987
21
10.968372
0
LINE
8
DEFAULT_255_2_778
10
58.1190987
20
10.968372
11
58.1164987
21
10.893272
0
LINE
8
DEFAULT_255_2_778
10
58.1164987
20
10.893272
11
58.1151987
21
10.853872
0
LINE
8
DEFAULT_255_2_778
10
58.1151987
20
10.853872
11
58.1137987
21
10.814172
0
LINE
8
DEFAULT_255_2_778
10
58.1137987
20
10.814172
11
58.1111987
21
10.733672
0
LINE
8
DEFAULT_255_2_778
10
58.1111987
20
10.733672
11
58.1098987
21
10.693272
0
LINE
8
DEFAULT_255_2_778
10
58.1098987
20
10.693272
11
58.1084987
21
10.652772
0
LINE
8
DEFAULT_255_2_778
10
58.1084987
20
10.652772
11
58.1055987
21
10.572072
0
LINE
8
DEFAULT_255_2_778
10
58.1055987
20
10.572072
11
58.1000987
21
10.410672
0
LINE
8
DEFAULT_255_2_778
10
58.1000987
20
10.410672
11
58.0986987
21
10.370172
0
LINE
8
DEFAULT_255_2_778
10
58.0986987
20
10.370172
11
58.0973987
21
10.329672
0
LINE
8
DEFAULT_255_2_778
10
58.0973987
20
10.329672
11
58.0944987
21
10.249272
0
LINE
8
DEFAULT_255_2_778
10
58.0944987
20
10.249272
11
58.0931987
21
10.209072
0
LINE
8
DEFAULT_255_2_778
10
58.0931987
20
10.209072
11
58.0918987
21
10.169372
0
LINE
8
DEFAULT_255_2_778
10
58.0918987
20
10.169372
11
58.0891987
21
10.092872
0
LINE
8
DEFAULT_255_2_778
10
58.0891987
20
10.092872
11
58.0878987
21
10.056872
0
LINE
8
DEFAULT_255_2_778
10
58.0878987
20
10.056872
11
58.0865987
21
10.023872
0
LINE
8
DEFAULT_255_2_778
10
58.0865987
20
10.023872
11
58.0859987
21
10.008472
0
LINE
8
DEFAULT_255_2_778
10
58.0859987
20
10.008472
11
58.0854987
21
9.994472
0
LINE
8
DEFAULT_255_2_778
10
58.0854987
20
9.994472
11
58.0849987
21
9.982072
0
LINE
8
DEFAULT_255_2_778
10
58.0849987
20
9.982072
11
58.0844987
21
9.970872
0
LINE
8
DEFAULT_255_2_778
10
58.0844987
20
9.970872
11
58.0841987
21
9.960872
0
LINE
8
DEFAULT_255_2_778
10
58.0841987
20
9.960872
11
58.0838987
21
9.951872
0
LINE
8
DEFAULT_255_2_778
10
58.0838987
20
9.951872
11
58.0833987
21
9.938072
0
LINE
8
DEFAULT_255_2_778
10
58.0833987
20
9.938072
11
58.0828987
21
9.924072
0
LINE
8
DEFAULT_255_2_778
10
58.0828987
20
9.924072
11
57.9833987
21
9.927772
0
LINE
8
DEFAULT_255_2_778
10
57.9833987
20
9.927772
11
57.9838987
21
9.943672
0
LINE
8
DEFAULT_255_2_778
10
57.9838987
20
9.943672
11
57.9854987
21
9.984372
0
LINE
8
DEFAULT_255_2_778
10
57.9854987
20
9.984372
11
57.9883987
21
10.064272
0
LINE
8
DEFAULT_255_2_778
10
57.9883987
20
10.064272
11
57.9931987
21
10.196372
0
LINE
8
DEFAULT_255_2_778
10
57.9931987
20
10.196372
11
58.0238987
21
11.037472
0
LINE
8
DEFAULT_255_2_778
10
58.1405987
20
11.135372
11
58.0240987
21
11.139572
0
LINE
8
DEFAULT_255_2_778
10
57.9822987
20
9.925972
11
58.1034987
21
9.921472
0
LINE
8
DEFAULT_255_2_778
10
57.8796987
20
68.463672
11
57.7796987
21
68.463672
0
LINE
8
DEFAULT_255_2_778
10
57.9108987
20
7.978572
11
58.0269987
21
7.974372
0
LINE
8
DEFAULT_255_2_778
10
57.8790987
20
66.019972
11
57.9791987
21
66.019972
0
LINE
8
DEFAULT_255_2_778
10
58.0434987
20
64.339872
11
58.0505987
21
64.144372
0
LINE
8
DEFAULT_255_2_778
10
58.0505987
20
64.144372
11
57.9505987
21
64.144372
0
LINE
8
DEFAULT_255_2_778
10
57.9505987
20
64.144372
11
57.9510987
21
64.128972
0
LINE
8
DEFAULT_255_2_778
10
57.9510987
20
64.128972
11
57.9513987
21
64.121372
0
LINE
8
DEFAULT_255_2_778
10
57.9513987
20
64.121372
11
57.9515987
21
64.113672
0
LINE
8
DEFAULT_255_2_778
10
57.9515987
20
64.113672
11
58.0516987
21
64.113672
0
LINE
8
DEFAULT_255_2_778
10
58.0516987
20
64.113672
11
58.0510987
21
64.128972
0
LINE
8
DEFAULT_255_2_778
10
58.0510987
20
64.128972
11
58.0505987
21
64.144372
0
LINE
8
DEFAULT_255_2_778
10
58.0018987
20
7.750272
11
58.0021987
21
7.756072
0
LINE
8
DEFAULT_255_2_778
10
58.0021987
20
7.756072
11
58.0023987
21
7.761872
0
LINE
8
DEFAULT_255_2_778
10
58.0023987
20
7.761872
11
58.0029987
21
7.773572
0
LINE
8
DEFAULT_255_2_778
10
58.0029987
20
7.773572
11
57.9044987
21
7.777272
0
LINE
8
DEFAULT_255_2_778
10
57.9044987
20
7.777272
11
57.9037987
21
7.754272
0
LINE
8
DEFAULT_255_2_778
10
57.9037987
20
7.754272
11
58.0021987
21
7.750572
0
LINE
8
DEFAULT_255_2_778
10
57.8796987
20
68.460772
11
57.7796987
21
68.460772
0
LINE
8
DEFAULT_255_2_778
10
57.7634987
20
4.328672
11
57.8626987
21
4.328672
0
ARC
8
DEFAULT_255_2_778
10
32.951191
20
25.8267184
40
26.0037424
50
247.6514323
51
269.9989631
0
ARC
8
DEFAULT_255_2_778
10
32.9514936
20
47.0203642
40
26.0028118
50
90.0017037
51
112.3501316
0
LINE
8
DEFAULT_255_2_778
10
57.7784204
20
4.3285761
11
57.7773204
21
4.3018761
0
LINE
8
DEFAULT_255_2_778
10
57.7773204
20
4.3018761
11
57.8609204
21
4.2986761
0
LINE
8
DEFAULT_255_2_778
10
57.7641204
20
4.3439761
11
57.8631204
21
4.3439761
0
LINE
8
DEFAULT_255_2_778
10
57.9223204
20
5.7517761
11
57.8231204
21
5.7517761
0
LINE
8
DEFAULT_255_2_778
10
33.0618204
20
1.9452761
11
32.9507204
21
-0.1770239
0
LINE
8
DEFAULT_255_2_778
10
57.9136204
20
8.0301761
11
57.9120204
21
7.9867761
0
LINE
8
DEFAULT_255_2_778
10
57.9120204
20
7.9867761
11
58.0110204
21
7.9830761
0
LINE
8
DEFAULT_255_2_778
10
57.8461204
20
66.8517761
11
57.7797204
21
68.4522761
0
LINE
8
DEFAULT_255_2_778
10
57.7797204
20
68.4522761
11
57.8797204
21
68.4522761
0
LINE
8
DEFAULT_255_2_778
10
57.8797204
20
68.4522761
11
57.9461204
21
66.8517761
0
LINE
8
DEFAULT_255_2_778
10
57.9461204
20
66.8517761
11
57.8461204
21
66.8517761
0
LINE
8
DEFAULT_255_2_778
10
57.9422204
20
5.7033761
11
57.9205204
21
5.7041761
0
LINE
8
DEFAULT_255_2_778
10
57.9395204
20
5.6065761
11
57.9165204
21
5.6073761
0
LINE
8
DEFAULT_255_2_778
10
14.9868204
20
69.2314761
11
17.0505204
21
70.4230761
0
LINE
8
DEFAULT_255_2_778
10
17.0505204
20
70.4230761
11
17.2506204
21
70.4230761
0
LINE
8
DEFAULT_255_2_778
10
17.2506204
20
70.4230761
11
17.3530204
21
69.2520761
0
LINE
8
DEFAULT_255_2_778
10
32.9507204
20
73.0231761
11
33.0618204
21
70.9009761
0
ARC
8
DEFAULT_255_2_778
10
-691.5493097
20
36.4219331
40
749.9998619
50
357.4808749
51
359.9999578
0
ARC
8
DEFAULT_255_2_778
10
-691.4810685
20
36.4213804
40
749.9316207
50
1e-7
51
0.1080861
0
ARC
8
DEFAULT_255_2_778
10
-691.4198532
20
36.4217353
40
749.8704048
50
0.1080678
51
1.9311512
0
ARC
8
DEFAULT_255_2_778
10
55.9021354
20
62.5729259
40
2.298342
50
337.443412
51
359.3967262
0
ARC
8
DEFAULT_255_2_778
10
55.8957152
20
62.5730738
40
2.3047635
50
359.3947314
51
359.9995173
0
ARC
8
DEFAULT_255_2_778
10
55.9018831
20
62.5732234
40
2.2985956
50
359.9957878
51
26.5679846
0
LINE
8
DEFAULT_255_2_778
10
57.9577568
20
63.6012918
11
57.7254568
21
69.3890918
0
LINE
8
DEFAULT_255_2_778
10
58.3305568
20
22.8332918
11
58.3448568
21
23.6283918
0
LINE
8
DEFAULT_255_2_778
10
57.8630568
20
4.3438918
11
57.9167568
21
5.6157918
0
LINE
8
DEFAULT_255_2_778
10
58.4305568
20
22.8303918
11
58.4448568
21
23.6283918
0
LINE
8
DEFAULT_255_2_778
10
57.9582568
20
64.3434918
11
57.9656568
21
64.1450918
0
LINE
8
DEFAULT_255_2_778
10
58.1212568
20
11.0344918
11
58.1231568
21
11.0897918
0
LINE
8
DEFAULT_255_2_778
10
58.1231568
20
11.0897918
11
58.1233568
21
11.0997918
0
LINE
8
DEFAULT_255_2_778
10
58.1233568
20
11.0997918
11
58.1236568
21
11.1082918
0
LINE
8
DEFAULT_255_2_778
10
58.1236568
20
11.1082918
11
58.1241568
21
11.1211918
0
LINE
8
DEFAULT_255_2_778
10
58.1241568
20
11.1211918
11
58.1244568
21
11.1296918
0
LINE
8
DEFAULT_255_2_778
10
58.1244568
20
11.1296918
11
58.1247568
21
11.1341918
0
LINE
8
DEFAULT_255_2_778
10
58.1247568
20
11.1341918
11
58.1247568
21
11.1354918
0
LINE
8
DEFAULT_255_2_778
10
58.0945748
20
59.900112
11
58.0948748
21
59.893012
0
LINE
8
DEFAULT_255_2_778
10
58.0948748
20
59.893012
11
58.0950748
21
59.885812
0
LINE
8
DEFAULT_255_2_778
10
58.0950748
20
59.885812
11
58.0956748
21
59.871312
0
LINE
8
DEFAULT_255_2_778
10
58.0956748
20
59.871312
11
58.1956748
21
59.871312
0
LINE
8
DEFAULT_255_2_778
10
58.1956748
20
59.871312
11
58.1953748
21
59.878412
0
LINE
8
DEFAULT_255_2_778
10
58.1953748
20
59.878412
11
58.1950748
21
59.885512
0
LINE
8
DEFAULT_255_2_778
10
58.1950748
20
59.885512
11
58.1945748
21
59.899812
0
LINE
8
DEFAULT_255_2_778
10
58.1532748
20
61.191012
11
58.0532748
21
61.191012
0
LINE
8
DEFAULT_255_2_778
10
58.3083748
20
21.680212
11
58.4083748
21
21.680212
0
LINE
8
DEFAULT_255_2_778
10
58.3083748
20
21.671812
11
58.4083748
21
21.671812
0
LINE
8
DEFAULT_255_2_778
10
58.4313748
20
22.886712
11
58.3313748
21
22.886712
0
LINE
8
DEFAULT_255_2_778
10
58.4316748
20
22.890212
11
58.3316748
21
22.890212
0
LINE
8
DEFAULT_255_2_778
10
58.3445748
20
23.621812
11
58.4446748
21
23.621812
0
LINE
8
DEFAULT_255_2_778
10
0.2005748
20
42.854312
11
4.9506748
21
42.854312
0
LINE
8
DEFAULT_255_2_778
10
4.9506748
20
36.773112
11
0.2005748
21
36.773112
0
LINE
8
DEFAULT_255_2_778
10
0.2005748
20
36.773112
11
0.2005748
21
39.292012
0
LINE
8
DEFAULT_255_2_778
10
4.9506727
20
39.2920142
11
0.2005727
21
39.2920142
0
LINE
8
DEFAULT_255_2_778
10
0.2005727
20
39.2920142
11
0.2005727
21
45.3732142
0
LINE
8
DEFAULT_255_2_778
10
0.2005727
20
45.3732142
11
4.9506727
21
45.3732142
0
LINE
8
DEFAULT_255_2_778
10
58.2789727
20
20.2648142
11
58.3086727
21
21.6803142
0
LINE
8
DEFAULT_255_2_778
10
58.2789552
20
20.2646998
11
58.3789552
21
20.2646998
0
LINE
8
DEFAULT_255_2_778
10
58.3789552
20
20.2646998
11
58.4085552
21
21.6802998
0
LINE
8
DEFAULT_255_2_778
10
58.0122552
20
8.0300998
11
58.0024552
21
7.7734998
0
LINE
8
DEFAULT_255_2_778
10
58.4286552
20
22.7319998
11
58.4294552
21
22.7787998
0
LINE
8
DEFAULT_255_2_778
10
58.4294552
20
22.7787998
11
58.4297552
21
22.7996998
0
LINE
8
DEFAULT_255_2_778
10
58.4297552
20
22.7996998
11
58.4300552
21
22.8189998
0
LINE
8
DEFAULT_255_2_778
10
58.4300552
20
22.8189998
11
58.4305552
21
22.8509998
0
LINE
8
DEFAULT_255_2_778
10
58.4305552
20
22.8509998
11
58.4308552
21
22.8634998
0
LINE
8
DEFAULT_255_2_778
10
58.4308552
20
22.8634998
11
58.4310552
21
22.8729998
0
LINE
8
DEFAULT_255_2_778
10
58.4310552
20
22.8729998
11
58.4313552
21
22.8840998
0
LINE
8
DEFAULT_255_2_778
10
58.4313552
20
22.8840998
11
58.4313552
21
22.8864998
0
ENDSEC
0
EOF