0
SECTION
2
HEADER
9
$MEASUREMENT
70
1
0
ENDSEC
0
SECTION
2
TABLES
0
TABLE
2
LTYPE
0
LTYPE
72
65
70
64
2
CONTINUOUS
3
______
73
0
40
0
0
ENDTAB
0
TABLE
2
LAYER
0
LAYER
2
DEFAULT_255_2_778
70
0
62
255
6
CONTINUOUS
0
LAYER
2
DEFAULT_255_1_234
70
0
62
255
6
CONTINUOUS
0
LAYER
2
DEFAULT_255_2_778_1
70
0
62
255
6
CONTINUOUS
0
ENDTAB
0
ENDSEC
0
SECTION
2
ENTITIES
0
ARC
8
DEFAULT_255_2_778
10
3.5695693
20
75.805203
40
0.7914215
50
129.1312896
51
180.1450914
0
ARC
8
DEFAULT_255_2_778
10
3.5698345
20
75.8056901
40
0.7912112
50
89.854026
51
129.1684493
0
ARC
8
DEFAULT_255_2_778
10
25.7988937
20
75.8053767
40
0.7915249
50
39.4792447
51
90.147911
0
ARC
8
DEFAULT_255_2_778
10
25.7994935
20
75.8052233
40
0.7911595
50
359.8533901
51
39.5154338
0
ARC
8
DEFAULT_255_2_778
10
25.7991693
20
-1.9863492
40
0.7914836
50
309.4761667
51
0.1482649
0
ARC
8
DEFAULT_255_2_778
10
25.798898
20
-1.9867803
40
0.7913235
50
269.8517415
51
309.511178
0
ARC
8
DEFAULT_255_2_778
10
3.569842
20
-1.9867221
40
0.7913815
50
219.1282118
51
270.1454017
0
ARC
8
DEFAULT_255_2_778
10
3.5695247
20
-1.9863397
40
0.7913769
50
179.8524075
51
219.1641908
0
LINE
8
DEFAULT_255_2_778
10
3.5718503
20
76.5968989
11
25.7968503
21
76.5968989
0
LINE
8
DEFAULT_255_2_778
10
26.5906503
20
75.8031989
11
26.5906503
21
-1.9843011
0
LINE
8
DEFAULT_255_2_778
10
25.7968503
20
-2.7781011
11
3.5718503
21
-2.7781011
0
LINE
8
DEFAULT_255_2_778
10
2.7781503
20
-1.9843011
11
2.7781503
21
75.8031989
0
LINE
8
DEFAULT_255_1_234
10
6.6137674
20
0.5181211
11
6.6137674
21
0.434591
0
LINE
8
DEFAULT_255_1_234
10
6.6137674
20
0.434591
11
6.1294536
21
-0.6513
0
LINE
8
DEFAULT_255_1_234
10
6.1294536
20
-0.6513
11
5.9736379
21
-0.6513
0
LINE
8
DEFAULT_255_1_234
10
5.9736379
20
-0.6513
11
6.4563454
21
0.3960387
0
LINE
8
DEFAULT_255_1_234
10
6.4563454
20
0.3960387
11
5.8234444
21
0.3960387
0
LINE
8
DEFAULT_255_1_234
10
5.8234444
20
0.3960387
11
5.8234444
21
0.5181211
0
LINE
8
DEFAULT_255_1_234
10
5.8234444
20
0.5181211
11
6.6137674
21
0.5181211
0
LINE
8
DEFAULT_255_1_234
10
6.8209863
20
0.5181211
11
7.0201734
21
0.5181211
0
LINE
8
DEFAULT_255_1_234
10
7.0201734
20
0.5181211
11
7.4024841
21
-0.4360494
0
LINE
8
DEFAULT_255_1_234
10
7.4024841
20
-0.4360494
11
7.7847949
21
0.5181211
0
LINE
8
DEFAULT_255_1_234
10
7.7847949
20
0.5181211
11
7.9847852
21
0.5181211
0
LINE
8
DEFAULT_255_1_234
10
7.9847852
20
0.5181211
11
7.9847852
21
-0.6513
0
LINE
8
DEFAULT_255_1_234
10
7.9847852
20
-0.6513
11
7.8305758
21
-0.6513
0
LINE
8
DEFAULT_255_1_234
10
7.8305758
20
-0.6513
11
7.8305758
21
-0.1959004
0
LINE
8
DEFAULT_255_1_234
10
7.8305758
20
-0.1959004
11
7.8450329
21
0.2956419
0
LINE
8
DEFAULT_255_1_234
10
7.8450329
20
0.2956419
11
7.4611158
21
-0.6513
0
LINE
8
DEFAULT_255_1_234
10
7.4611158
20
-0.6513
11
7.3430493
21
-0.6513
0
LINE
8
DEFAULT_255_1_234
10
7.3430493
20
-0.6513
11
6.9599354
21
0.2932324
0
LINE
8
DEFAULT_255_1_234
10
6.9599354
20
0.2932324
11
6.9751957
21
-0.1959004
0
LINE
8
DEFAULT_255_1_234
10
6.9751957
20
-0.1959004
11
6.9751957
21
-0.6513
0
LINE
8
DEFAULT_255_1_234
10
6.9751957
20
-0.6513
11
6.8209863
21
-0.6513
0
LINE
8
DEFAULT_255_1_234
10
6.8209863
20
-0.6513
11
6.8209863
21
0.5181211
0
LINE
8
DEFAULT_255_1_234
10
9.1558126
20
0.5181211
11
9.1558126
21
-0.6513
0
LINE
8
DEFAULT_255_1_234
10
9.1558126
20
-0.6513
11
9.0008
21
-0.6513
0
LINE
8
DEFAULT_255_1_234
10
9.0008
20
-0.6513
11
9.0008
21
-0.110764
0
LINE
8
DEFAULT_255_1_234
10
9.0008
20
-0.110764
11
8.4112705
21
-0.110764
0
LINE
8
DEFAULT_255_1_234
10
8.4112705
20
-0.110764
11
8.4112705
21
-0.6513
0
LINE
8
DEFAULT_255_1_234
10
8.4112705
20
-0.6513
11
8.2570611
21
-0.6513
0
LINE
8
DEFAULT_255_1_234
10
8.2570611
20
-0.6513
11
8.2570611
21
0.5181211
0
LINE
8
DEFAULT_255_1_234
10
8.2570611
20
0.5181211
11
8.4112705
21
0.5181211
0
LINE
8
DEFAULT_255_1_234
10
8.4112705
20
0.5181211
11
8.4112705
21
0.0153343
0
LINE
8
DEFAULT_255_1_234
10
8.4112705
20
0.0153343
11
9.0008
21
0.0153343
0
LINE
8
DEFAULT_255_1_234
10
9.0008
20
0.0153343
11
9.0008
21
0.5181211
0
LINE
8
DEFAULT_255_1_234
10
9.0008
20
0.5181211
11
9.1558126
21
0.5181211
0
LINE
8
DEFAULT_255_1_234
10
10.0184213
20
0.5181211
11
10.0184213
21
-0.258548
0
LINE
8
DEFAULT_255_1_234
10
10.0184213
20
-0.258548
11
10.1806624
21
-0.258548
0
LINE
8
DEFAULT_255_1_234
10
10.1806624
20
-0.258548
11
10.1806624
21
-0.3798272
0
LINE
8
DEFAULT_255_1_234
10
10.1806624
20
-0.3798272
11
10.0184213
21
-0.3798272
0
LINE
8
DEFAULT_255_1_234
10
10.0184213
20
-0.3798272
11
10.0184213
21
-0.6513
0
LINE
8
DEFAULT_255_1_234
10
10.0184213
20
-0.6513
11
9.869031
21
-0.6513
0
LINE
8
DEFAULT_255_1_234
10
9.869031
20
-0.6513
11
9.869031
21
-0.3798272
0
LINE
8
DEFAULT_255_1_234
10
9.869031
20
-0.3798272
11
9.3365267
21
-0.3798272
0
LINE
8
DEFAULT_255_1_234
10
9.3365267
20
-0.3798272
11
9.3365267
21
-0.2922813
0
LINE
8
DEFAULT_255_1_234
10
9.3365267
20
-0.2922813
11
9.860196
21
0.5181211
0
LINE
8
DEFAULT_255_1_234
10
9.860196
20
0.5181211
11
10.0184213
21
0.5181211
0
LINE
8
DEFAULT_255_1_234
10
9.8513611
20
0.2827912
11
9.5051932
21
-0.258548
0
LINE
8
DEFAULT_255_1_234
10
9.5051932
20
-0.258548
11
9.869031
21
-0.258548
0
LINE
8
DEFAULT_255_1_234
10
9.869031
20
-0.258548
11
9.869031
21
0.3149181
0
LINE
8
DEFAULT_255_1_234
10
9.869031
20
0.3149181
11
9.8513611
21
0.2827912
0
LINE
8
DEFAULT_255_1_234
10
10.8031221
20
0.5237433
11
10.8031221
21
-0.6513
0
LINE
8
DEFAULT_255_1_234
10
10.8031221
20
-0.6513
11
10.6537318
21
-0.6513
0
LINE
8
DEFAULT_255_1_234
10
10.6537318
20
-0.6513
11
10.6537318
21
0.3390133
0
LINE
8
DEFAULT_255_1_234
10
10.6537318
20
0.3390133
11
10.3541479
21
0.2289785
0
LINE
8
DEFAULT_255_1_234
10
10.3541479
20
0.2289785
11
10.3541479
21
0.3639117
0
LINE
8
DEFAULT_255_1_234
10
10.3541479
20
0.3639117
11
10.7798301
21
0.5237433
0
LINE
8
DEFAULT_255_1_234
10
10.7798301
20
0.5237433
11
10.8031221
21
0.5237433
0
LINE
8
DEFAULT_255_1_234
10
11.4544961
20
-0.1155831
11
11.4544961
21
0.0056962
0
LINE
8
DEFAULT_255_1_234
10
11.4544961
20
0.0056962
11
11.5661373
21
0.0056962
0
LINE
8
DEFAULT_255_1_234
10
11.3757851
20
0.2113087
11
11.2271979
21
0.2113087
0
LINE
8
DEFAULT_255_1_234
10
11.2167566
20
-0.3428813
11
11.366147
21
-0.3428813
0
LINE
8
DEFAULT_255_1_234
10
11.5661373
20
-0.1155831
11
11.4544961
21
-0.1155831
0
ARC
8
DEFAULT_255_1_234
10
11.5632239
20
0.3449713
40
0.3392876
50
270.4919872
51
281.8951556
0
ARC
8
DEFAULT_255_1_234
10
11.5873501
20
0.2347702
40
0.2264817
50
281.6691735
51
301.2943132
0
ARC
8
DEFAULT_255_1_234
10
11.6043711
20
0.2036304
40
0.1910381
50
301.7833094
51
311.7545298
0
ARC
8
DEFAULT_255_1_234
10
11.6135287
20
0.1934748
40
0.1773635
50
311.7323931
51
354.2802411
0
ARC
8
DEFAULT_255_1_234
10
11.5408912
20
0.2059722
40
0.2509385
50
353.0937916
51
0.1181479
0
ARC
8
DEFAULT_255_1_234
10
11.4947697
20
0.2107386
40
0.2970898
50
359.1805295
51
15.0453146
0
ARC
8
DEFAULT_255_1_234
10
11.6293534
20
0.2499992
40
0.1569564
50
13.9577229
51
77.6713066
0
ARC
8
DEFAULT_255_1_234
10
11.5907063
20
0.1114949
40
0.3006298
50
76.1116566
51
90.7026153
0
ARC
8
DEFAULT_255_1_234
10
11.5847901
20
0.1388545
40
0.2732568
50
89.5324876
51
103.531937
0
ARC
8
DEFAULT_255_1_234
10
11.5647345
20
0.2187884
40
0.1908508
50
103.2931773
51
133.5619022
0
ARC
8
DEFAULT_255_1_234
10
11.5602834
20
0.2247375
40
0.1834746
50
133.8349307
51
173.5344437
0
ARC
8
DEFAULT_255_1_234
10
11.6325877
20
0.2119213
40
0.2568033
50
172.5096846
51
180.1366907
0
ARC
8
DEFAULT_255_1_234
10
11.5374771
20
0.2153622
40
0.3103056
50
155.3484492
51
180.7484736
0
ARC
8
DEFAULT_255_1_234
10
11.532586
20
0.2124846
40
0.3070957
50
131.5744599
51
154.4798489
0
ARC
8
DEFAULT_255_1_234
10
11.5639007
20
0.180831
40
0.3515643
50
96.9875458
51
131.9690667
0
ARC
8
DEFAULT_255_1_234
10
11.5858487
20
0.0562636
40
0.4779224
50
89.8596053
51
97.7825159
0
ARC
8
DEFAULT_255_1_234
10
11.590655
20
0.0300616
40
0.5041361
50
78.3655447
51
90.4131539
0
ARC
8
DEFAULT_255_1_234
10
11.6264468
20
0.1959887
40
0.3344039
50
56.6229102
51
78.638727
0
ARC
8
DEFAULT_255_1_234
10
11.6479412
20
0.2335805
40
0.2912001
50
47.0253525
51
56.0854072
0
ARC
8
DEFAULT_255_1_234
10
11.6499192
20
0.2375223
40
0.2869704
50
10.9208013
51
46.7778124
0
ARC
8
DEFAULT_255_1_234
10
11.5135258
20
0.2059857
40
0.426899
50
359.6364486
51
11.6087304
0
ARC
8
DEFAULT_255_1_234
10
11.6970102
20
0.2044752
40
0.243409
50
332.3549906
51
359.7179418
0
ARC
8
DEFAULT_255_1_234
10
11.6319704
20
0.2353142
40
0.3153459
50
325.2333722
51
332.8745602
0
ARC
8
DEFAULT_255_1_234
10
11.6472327
20
0.2246828
40
0.2967456
50
292.9802137
51
325.2392345
0
ARC
8
DEFAULT_255_1_234
10
11.6197701
20
0.2780863
40
0.3566604
50
292.5402179
51
293.6924929
0
ARC
8
DEFAULT_255_1_234
10
11.6590297
20
-0.3673909
40
0.3307468
50
57.6435486
51
72.8625112
0
ARC
8
DEFAULT_255_1_234
10
11.6944797
20
-0.3099451
40
0.2632492
50
36.7248896
51
57.4697979
0
ARC
8
DEFAULT_255_1_234
10
11.693343
20
-0.308678
40
0.2634081
50
8.0545065
51
36.356114
0
ARC
8
DEFAULT_255_1_234
10
11.6070615
20
-0.3241826
40
0.3510261
50
359.8320645
51
8.5869982
0
ARC
8
DEFAULT_255_1_234
10
11.5695391
20
-0.3289899
40
0.3885653
50
343.9829931
51
0.5571613
0
ARC
8
DEFAULT_255_1_234
10
11.6581588
20
-0.3532562
40
0.2966924
50
311.6359546
51
343.7651759
0
ARC
8
DEFAULT_255_1_234
10
11.6203157
20
-0.3105898
40
0.3537231
50
279.7829875
51
311.6255694
0
ARC
8
DEFAULT_255_1_234
10
11.5901934
20
-0.166872
40
0.5004971
50
269.7286406
51
280.3856417
0
ARC
8
DEFAULT_255_1_234
10
11.5840006
20
-0.1710004
40
0.4963778
50
256.6828919
51
270.4412052
0
ARC
8
DEFAULT_255_1_234
10
11.5501302
20
-0.3094606
40
0.3538406
50
229.4223008
51
256.8556159
0
ARC
8
DEFAULT_255_1_234
10
11.5086695
20
-0.3561264
40
0.2914296
50
181.818294
51
229.6455059
0
ARC
8
DEFAULT_255_1_234
10
11.6126651
20
-0.3430504
40
0.3959084
50
179.9755256
51
183.2323064
0
ARC
8
DEFAULT_255_1_234
10
11.5954397
20
-0.3450963
40
0.2293034
50
179.4465117
51
196.2869258
0
ARC
8
DEFAULT_255_1_234
10
11.5466805
20
-0.3584349
40
0.1787621
50
196.5661473
51
227.705904
0
ARC
8
DEFAULT_255_1_234
10
11.56309
20
-0.3400845
40
0.2033784
50
227.7652068
51
257.8762805
0
ARC
8
DEFAULT_255_1_234
10
11.585587
20
-0.2457844
40
0.3003081
50
257.4584385
51
270.426602
0
ARC
8
DEFAULT_255_1_234
10
11.5901436
20
-0.2168004
40
0.329292
50
269.5962073
51
280.8789248
0
ARC
8
DEFAULT_255_1_234
10
11.6130965
20
-0.3314315
40
0.2123908
50
280.6346389
51
299.8595945
0
ARC
8
DEFAULT_255_1_234
10
11.6321872
20
-0.3676788
40
0.171457
50
300.3576302
51
314.5517981
0
ARC
8
DEFAULT_255_1_234
10
11.6238932
20
-0.3616081
40
0.1816095
50
315.0728369
51
345.0431014
0
ARC
8
DEFAULT_255_1_234
10
11.5315746
20
-0.3347159
40
0.2777492
50
344.5986631
51
357.9269593
0
ARC
8
DEFAULT_255_1_234
10
11.4420072
20
-0.3285724
40
0.3674917
50
357.4748886
51
0.0231117
0
ARC
8
DEFAULT_255_1_234
10
11.5443182
20
-0.3261321
40
0.2651907
50
359.5047933
51
13.4239635
0
ARC
8
DEFAULT_255_1_234
10
11.6309825
20
-0.3039522
40
0.1757509
50
12.9498199
51
48.7551375
0
ARC
8
DEFAULT_255_1_234
10
11.6127559
20
-0.32886
40
0.2065134
50
49.5088623
51
72.1836453
0
ARC
8
DEFAULT_255_1_234
10
11.5769712
20
-0.4350709
40
0.3185836
50
71.9010081
51
84.3554254
0
ARC
8
DEFAULT_255_1_234
10
11.5608344
20
-0.5711674
40
0.4556151
50
84.0193428
51
89.333121
0
LINE
8
DEFAULT_255_1_234
10
12.789371
20
0.5181211
11
12.789371
21
-0.258548
0
LINE
8
DEFAULT_255_1_234
10
12.789371
20
-0.258548
11
12.9516121
21
-0.258548
0
LINE
8
DEFAULT_255_1_234
10
12.9516121
20
-0.258548
11
12.9516121
21
-0.3798272
0
LINE
8
DEFAULT_255_1_234
10
12.9516121
20
-0.3798272
11
12.789371
21
-0.3798272
0
LINE
8
DEFAULT_255_1_234
10
12.789371
20
-0.3798272
11
12.789371
21
-0.6513
0
LINE
8
DEFAULT_255_1_234
10
12.789371
20
-0.6513
11
12.6399807
21
-0.6513
0
LINE
8
DEFAULT_255_1_234
10
12.6399807
20
-0.6513
11
12.6399807
21
-0.3798272
0
LINE
8
DEFAULT_255_1_234
10
12.6399807
20
-0.3798272
11
12.1074764
21
-0.3798272
0
LINE
8
DEFAULT_255_1_234
10
12.1074764
20
-0.3798272
11
12.1074764
21
-0.2922813
0
LINE
8
DEFAULT_255_1_234
10
12.1074764
20
-0.2922813
11
12.6311458
21
0.5181211
0
LINE
8
DEFAULT_255_1_234
10
12.6311458
20
0.5181211
11
12.789371
21
0.5181211
0
LINE
8
DEFAULT_255_1_234
10
12.6223108
20
0.2827912
11
12.2761429
21
-0.258548
0
LINE
8
DEFAULT_255_1_234
10
12.2761429
20
-0.258548
11
12.6399807
21
-0.258548
0
LINE
8
DEFAULT_255_1_234
10
12.6399807
20
-0.258548
11
12.6399807
21
0.3149181
0
LINE
8
DEFAULT_255_1_234
10
12.6399807
20
0.3149181
11
12.6223108
21
0.2827912
0
LINE
8
DEFAULT_255_1_234
10
13.4102244
20
-0.0938974
11
13.4102244
21
-0.2151766
0
LINE
8
DEFAULT_255_1_234
10
13.4102244
20
-0.2151766
11
13.0182755
21
-0.2151766
0
LINE
8
DEFAULT_255_1_234
10
13.0182755
20
-0.2151766
11
13.0182755
21
-0.0938974
0
LINE
8
DEFAULT_255_1_234
10
13.0182755
20
-0.0938974
11
13.4102244
21
-0.0938974
0
LINE
8
DEFAULT_255_1_234
10
14.0961348
20
0.5189243
11
14.1226396
21
0.5189243
0
LINE
8
DEFAULT_255_1_234
10
14.1226396
20
0.5189243
11
14.1226396
21
0.392826
0
LINE
8
DEFAULT_255_1_234
10
14.1226396
20
0.392826
11
14.0953316
21
0.392826
0
LINE
8
DEFAULT_255_1_234
10
13.5483703
20
-0.2063417
11
13.5483703
21
-0.1493164
0
LINE
8
DEFAULT_255_1_234
10
13.6977606
20
-0.1685925
11
13.6977606
21
-0.2232083
0
ARC
8
DEFAULT_255_1_234
10
14.1005664
20
-0.1069545
40
0.4998079
50
90.6001036
51
104.514704
0
ARC
8
DEFAULT_255_1_234
10
14.061718
20
0.0375131
40
0.3502176
50
104.2855254
51
133.862935
0
ARC
8
DEFAULT_255_1_234
10
14.0780937
20
0.026683
40
0.3693984
50
134.5302688
51
161.6210873
0
ARC
8
DEFAULT_255_1_234
10
14.2434126
20
-0.0316105
40
0.5446739
50
161.2849839
51
174.2076652
0
ARC
8
DEFAULT_255_1_234
10
14.3841063
20
-0.0510213
40
0.6866274
50
173.7810589
51
174.9254635
0
ARC
8
DEFAULT_255_1_234
10
13.9290895
20
-0.1893161
40
0.3033419
50
95.8330959
51
138.9954921
0
ARC
8
DEFAULT_255_1_234
10
13.9514251
20
-0.3171625
40
0.4328947
50
89.8753725
51
97.0544009
0
ARC
8
DEFAULT_255_1_234
10
13.9561717
20
-0.2336252
40
0.3493769
50
71.6407809
51
90.6240094
0
ARC
8
DEFAULT_255_1_234
10
13.971229
20
-0.1781918
40
0.2920396
50
39.6367836
51
71.019018
0
ARC
8
DEFAULT_255_1_234
10
13.9075763
20
-0.2332002
40
0.3761538
50
10.658731
51
39.9043955
0
ARC
8
DEFAULT_255_1_234
10
13.7527846
20
-0.2668314
40
0.5345136
50
359.682601
51
11.132623
0
ARC
8
DEFAULT_255_1_234
10
13.7487977
20
-0.273899
40
0.5385081
50
347.2486944
51
0.4369317
0
ARC
8
DEFAULT_255_1_234
10
13.9155454
20
-0.3140193
40
0.3670249
50
318.1409698
51
347.6118597
0
ARC
8
DEFAULT_255_1_234
10
13.9480447
20
-0.3407298
40
0.3250007
50
275.6342139
51
317.8248465
0
ARC
8
DEFAULT_255_1_234
10
13.9259559
20
-0.2107781
40
0.4565864
50
269.8874292
51
276.7917694
0
ARC
8
DEFAULT_255_1_234
10
13.9204629
20
-0.3133257
40
0.3540676
50
246.9140195
51
270.7437342
0
ARC
8
DEFAULT_255_1_234
10
13.9211019
20
-0.3275616
40
0.3412781
50
218.1665114
51
245.878116
0
ARC
8
DEFAULT_255_1_234
10
14.009048
20
-0.2539721
40
0.455911
50
191.4115814
51
218.6077802
0
ARC
8
DEFAULT_255_1_234
10
14.2028569
20
-0.2105167
40
0.6545001
50
179.6345085
51
191.7836486
0
ARC
8
DEFAULT_255_1_234
10
14.7610906
20
-0.1426303
40
1.2127388
50
171.4525249
51
180.3158839
0
ARC
8
DEFAULT_255_1_234
10
14.3215782
20
-0.0742392
40
0.7679464
50
157.9802646
51
171.6246686
0
ARC
8
DEFAULT_255_1_234
10
14.1001803
20
0.0140421
40
0.5296008
50
141.4298019
51
157.854097
0
ARC
8
DEFAULT_255_1_234
10
14.0360124
20
0.0594381
40
0.4511509
50
102.8715806
51
140.8564722
0
ARC
8
DEFAULT_255_1_234
10
14.1007739
20
-0.1845448
40
0.7034845
50
90.3778349
51
103.5869322
0
ARC
8
DEFAULT_255_1_234
10
13.9269515
20
-0.245027
40
0.2370698
50
89.8751008
51
126.2071704
0
ARC
8
DEFAULT_255_1_234
10
13.9315305
20
-0.2604697
40
0.2522934
50
124.9745049
51
144.895901
0
ARC
8
DEFAULT_255_1_234
10
13.9139496
20
-0.246144
40
0.2296779
50
145.2974905
51
160.2660252
0
ARC
8
DEFAULT_255_1_234
10
14.2212034
20
-0.2263929
40
0.5234525
50
179.6514266
51
190.2855912
0
ARC
8
DEFAULT_255_1_234
10
14.0518172
20
-0.2583214
40
0.3510893
50
190.0945431
51
207.5098196
0
ARC
8
DEFAULT_255_1_234
10
13.9952441
20
-0.2852377
40
0.288489
50
207.9583163
51
216.3251085
0
ARC
8
DEFAULT_255_1_234
10
13.9612549
20
-0.3131895
40
0.2445587
50
215.7661442
51
232.5456785
0
ARC
8
DEFAULT_255_1_234
10
13.9229532
20
-0.3618518
40
0.1826382
50
232.8005391
51
270.6605633
0
ARC
8
DEFAULT_255_1_234
10
13.9275233
20
-0.3254388
40
0.2190529
50
269.35537
51
288.4744281
0
ARC
8
DEFAULT_255_1_234
10
13.936813
20
-0.3603882
40
0.1829749
50
289.1833337
51
322.9683818
0
ARC
8
DEFAULT_255_1_234
10
13.8756652
20
-0.3121609
40
0.2608399
50
322.6007884
51
346.5182367
0
ARC
8
DEFAULT_255_1_234
10
13.7599248
20
-0.2826384
40
0.3802777
50
346.2582162
51
358.7741648
0
ARC
8
DEFAULT_255_1_234
10
13.6580917
20
-0.2771035
40
0.4822176
50
358.3755224
51
0.0098023
0
ARC
8
DEFAULT_255_1_234
10
13.7337104
20
-0.2743343
40
0.4066078
50
359.6214041
51
11.2839074
0
ARC
8
DEFAULT_255_1_234
10
13.8614251
20
-0.2476934
40
0.2761514
50
11.0482309
51
31.8146458
0
ARC
8
DEFAULT_255_1_234
10
13.8923294
20
-0.2309416
40
0.2410679
50
32.3035391
51
38.082671
0
ARC
8
DEFAULT_255_1_234
10
13.9343954
20
-0.1928338
40
0.1844966
50
36.825067
51
85.7415724
0
ARC
8
DEFAULT_255_1_234
10
13.9276788
20
-0.2428699
40
0.2349122
50
85.0140713
51
90.0513278
0
LINE
8
DEFAULT_255_1_234
10
14.6567501
20
0.5181211
11
14.6567501
21
-0.5252017
0
LINE
8
DEFAULT_255_1_234
10
14.6567501
20
-0.5252017
11
15.2109401
21
-0.5252017
0
LINE
8
DEFAULT_255_1_234
10
15.2109401
20
-0.5252017
11
15.2109401
21
-0.6513
0
LINE
8
DEFAULT_255_1_234
10
15.2109401
20
-0.6513
11
14.5017376
21
-0.6513
0
LINE
8
DEFAULT_255_1_234
10
14.5017376
20
-0.6513
11
14.5017376
21
0.5181211
0
LINE
8
DEFAULT_255_1_234
10
14.5017376
20
0.5181211
11
14.6567501
21
0.5181211
0
LINE
8
DEFAULT_255_1_234
10
15.7924379
20
-0.6513
11
15.3868352
21
-0.6513
0
LINE
8
DEFAULT_255_1_234
10
15.3868352
20
-0.6513
11
15.3868352
21
0.5181211
0
LINE
8
DEFAULT_255_1_234
10
15.3868352
20
0.5181211
11
15.7691459
21
0.5181211
0
LINE
8
DEFAULT_255_1_234
10
15.7980602
20
-0.1043386
11
15.5410445
21
-0.1043386
0
LINE
8
DEFAULT_255_1_234
10
15.5410445
20
-0.1043386
11
15.5410445
21
-0.5252017
0
LINE
8
DEFAULT_255_1_234
10
15.5410445
20
-0.5252017
11
15.7956506
21
-0.5252017
0
LINE
8
DEFAULT_255_1_234
10
15.5410445
20
0.3912196
11
15.5410445
21
0.0193501
0
LINE
8
DEFAULT_255_1_234
10
15.5410445
20
0.0193501
11
15.7739649
21
0.0193501
0
LINE
8
DEFAULT_255_1_234
10
15.7691459
20
0.3912196
11
15.5410445
21
0.3912196
0
ARC
8
DEFAULT_255_1_234
10
15.7729168
20
-0.2186099
40
0.7367406
50
82.1257326
51
90.2932599
0
ARC
8
DEFAULT_255_1_234
10
15.8118122
20
0.0532013
40
0.4621653
50
69.9044149
51
82.2857423
0
ARC
8
DEFAULT_255_1_234
10
15.86888
20
0.2074637
40
0.2976871
50
51.1838526
51
70.0181538
0
ARC
8
DEFAULT_255_1_234
10
15.8943766
20
0.244524
40
0.2528517
50
12.1017251
51
50.4214761
0
ARC
8
DEFAULT_255_1_234
10
15.755964
20
0.2097676
40
0.3955061
50
359.5251267
51
12.8211707
0
ARC
8
DEFAULT_255_1_234
10
15.9139567
20
0.2028344
40
0.2375281
50
323.4908128
51
0.8817314
0
ARC
8
DEFAULT_255_1_234
10
15.8721254
20
0.235155
40
0.2903817
50
298.6825083
51
323.2756573
0
ARC
8
DEFAULT_255_1_234
10
15.8359617
20
0.2952649
40
0.3604842
50
293.1999386
51
299.1396394
0
ARC
8
DEFAULT_255_1_234
10
15.903259
20
-0.3132874
40
0.2871098
50
54.0011765
51
74.9167975
0
ARC
8
DEFAULT_255_1_234
10
15.9148949
20
-0.2935668
40
0.2643248
50
36.3580696
51
53.5291921
0
ARC
8
DEFAULT_255_1_234
10
15.9022191
20
-0.3026002
40
0.2798884
50
4.8189881
51
36.3089977
0
ARC
8
DEFAULT_255_1_234
10
15.8243026
20
-0.313573
40
0.358478
50
359.9370252
51
5.5204067
0
ARC
8
DEFAULT_255_1_234
10
15.7918548
20
-0.3176333
40
0.3909429
50
344.7478609
51
0.5373281
0
ARC
8
DEFAULT_255_1_234
10
15.8909519
20
-0.3443456
40
0.2883093
50
311.1786488
51
344.6886812
0
ARC
8
DEFAULT_255_1_234
10
15.8617566
20
-0.3080013
40
0.3348923
50
286.0418249
51
310.8441291
0
ARC
8
DEFAULT_255_1_234
10
15.8110398
20
-0.1433193
40
0.5071869
50
274.1042341
51
286.4071509
0
ARC
8
DEFAULT_255_1_234
10
15.7933654
20
0.0450229
40
0.6963234
50
269.9236873
51
274.445647
0
ARC
8
DEFAULT_255_1_234
10
15.7979654
20
-0.1889463
40
0.3362634
50
269.6055768
51
281.3740047
0
ARC
8
DEFAULT_255_1_234
10
15.8210293
20
-0.2982647
40
0.224546
50
281.1055983
51
302.5132223
0
ARC
8
DEFAULT_255_1_234
10
15.8357192
20
-0.3246177
40
0.1944357
50
303.0368945
51
311.8811219
0
ARC
8
DEFAULT_255_1_234
10
15.8428599
20
-0.333111
40
0.1833454
50
311.9916004
51
351.7143462
0
ARC
8
DEFAULT_255_1_234
10
15.7611829
20
-0.316607
40
0.2665871
50
350.7339597
51
0.2221581
0
ARC
8
DEFAULT_255_1_234
10
15.7504275
20
-0.3109533
40
0.2773789
50
359.0456241
51
17.2296242
0
ARC
8
DEFAULT_255_1_234
10
15.8543392
20
-0.2800837
40
0.1689915
50
17.6685481
51
78.9940892
0
ARC
8
DEFAULT_255_1_234
10
15.8026555
20
-0.4655776
40
0.3612658
50
76.5635957
51
90.6980921
0
LINE
8
DEFAULT_255_1_234
10
15.798254
20
-0.1043387
11
15.7980602
21
-0.1043386
0
ARC
8
DEFAULT_255_1_234
10
15.7762216
20
0.3479036
40
0.3285612
50
269.6064736
51
281.4533503
0
ARC
8
DEFAULT_255_1_234
10
15.7985036
20
0.2427688
40
0.2210975
50
281.2041486
51
302.5148063
0
ARC
8
DEFAULT_255_1_234
10
15.8121885
20
0.2181241
40
0.1929674
50
303.021671
51
309.8369575
0
ARC
8
DEFAULT_255_1_234
10
15.8305347
20
0.1975488
40
0.1654181
50
309.5228395
51
356.9509836
0
ARC
8
DEFAULT_255_1_234
10
15.7641929
20
0.2070932
40
0.2322512
50
355.4701227
51
0.0492546
0
ARC
8
DEFAULT_255_1_234
10
15.7363021
20
0.2093094
40
0.2601498
50
359.5558597
51
11.2096359
0
ARC
8
DEFAULT_255_1_234
10
15.8320311
20
0.229123
40
0.1623975
50
10.9182341
51
31.3230275
0
ARC
8
DEFAULT_255_1_234
10
15.8606044
20
0.2450214
40
0.1297302
50
31.8852677
51
52.1412565
0
ARC
8
DEFAULT_255_1_234
10
15.8331777
20
0.206275
40
0.1771663
50
52.8285564
51
71.9850297
0
ARC
8
DEFAULT_255_1_234
10
15.7955953
20
0.0956664
40
0.2939794
50
71.6863486
51
82.8455995
0
ARC
8
DEFAULT_255_1_234
10
15.7716489
20
-0.0852851
40
0.476506
50
82.6984714
51
90.1729175
0
ARC
8
DEFAULT_255_1_234
10
15.7694124
20
0.0370623
40
0.3541573
50
89.8708275
51
90.0431131
0
LINE
8
DEFAULT_255_1_234
10
17.1056271
20
0.0402327
11
17.1056271
21
-0.1525291
0
LINE
8
DEFAULT_255_1_234
10
16.3675104
20
-0.1726084
11
16.3675104
21
0.0257755
0
LINE
8
DEFAULT_255_1_234
10
16.95704
20
-0.1926877
11
16.95704
21
0.0506739
0
LINE
8
DEFAULT_255_1_234
10
16.5160976
20
0.0619184
11
16.5160976
21
-0.1758211
0
ARC
8
DEFAULT_255_1_234
10
15.8809161
20
-0.1574195
40
1.2247208
50
353.8441951
51
0.2287902
0
ARC
8
DEFAULT_255_1_234
10
16.3448665
20
-0.2092194
40
0.7578929
50
344.4934747
51
353.9765454
0
ARC
8
DEFAULT_255_1_234
10
16.6441255
20
-0.2943019
40
0.4467846
50
329.2803592
51
344.7472793
0
ARC
8
DEFAULT_255_1_234
10
16.743408
20
-0.3487982
40
0.3336173
50
324.9352394
51
328.6160465
0
ARC
8
DEFAULT_255_1_234
10
16.7811189
20
-0.3751573
40
0.2876076
50
280.580143
51
324.9173126
0
ARC
8
DEFAULT_255_1_234
10
16.7409981
20
-0.2080901
40
0.4592847
50
269.5977311
51
281.6734359
0
ARC
8
DEFAULT_255_1_234
10
16.7337887
20
-0.2200827
40
0.4472986
50
256.6228859
51
270.51044
0
ARC
8
DEFAULT_255_1_234
10
16.6935865
20
-0.3749123
40
0.2873874
50
215.8618325
51
257.2788573
0
ARC
8
DEFAULT_255_1_234
10
16.7956896
20
-0.3064023
40
0.4102928
50
197.9693508
51
215.2623606
0
ARC
8
DEFAULT_255_1_234
10
17.0442012
20
-0.2225291
40
0.6725652
50
187.8816417
51
198.2346507
0
ARC
8
DEFAULT_255_1_234
10
17.440022
20
-0.1653921
40
1.0724845
50
180.8976217
51
188.0055519
0
ARC
8
DEFAULT_255_1_234
10
17.7200408
20
-0.1550223
40
1.3526448
50
180.7449369
51
181.1510016
0
ARC
8
DEFAULT_255_1_234
10
17.5623137
20
0.0306042
40
1.1948131
50
173.7675579
51
180.231553
0
ARC
8
DEFAULT_255_1_234
10
17.1105284
20
0.0816666
40
0.7401564
50
164.3058563
51
173.9002247
0
ARC
8
DEFAULT_255_1_234
10
16.8193353
20
0.1655656
40
0.4371288
50
148.7922025
51
164.568378
0
ARC
8
DEFAULT_255_1_234
10
16.7241805
20
0.2186929
40
0.3282386
50
144.5883898
51
148.1176286
0
ARC
8
DEFAULT_255_1_234
10
16.6898703
20
0.2426315
40
0.2864044
50
101.6440918
51
144.514236
0
ARC
8
DEFAULT_255_1_234
10
16.732377
20
0.0737069
40
0.4604934
50
89.5284041
51
102.5819763
0
ARC
8
DEFAULT_255_1_234
10
16.7402857
20
0.0698018
40
0.464401
50
77.0437873
51
90.5081339
0
ARC
8
DEFAULT_255_1_234
10
16.7804859
20
0.2340615
40
0.2953195
50
48.2778575
51
77.4994676
0
ARC
8
DEFAULT_255_1_234
10
16.787749
20
0.2469746
40
0.2808655
50
36.3142134
51
47.6305865
0
ARC
8
DEFAULT_255_1_234
10
16.7008797
20
0.1884515
40
0.3855453
50
18.2931786
51
35.6769206
0
ARC
8
DEFAULT_255_1_234
10
16.4465556
20
0.1011593
40
0.654423
50
8.024666
51
18.5605216
0
ARC
8
DEFAULT_255_1_234
10
16.0302476
20
0.0396792
40
1.0752407
50
1.1274072
51
8.1718305
0
ARC
8
DEFAULT_255_1_234
10
15.7066667
20
0.0269885
40
1.3990231
50
0.5424119
51
1.3863029
0
ARC
8
DEFAULT_255_1_234
10
15.8888045
20
0.0542342
40
1.0682415
50
359.8090433
51
4.9407866
0
ARC
8
DEFAULT_255_1_234
10
16.3098059
20
0.0918113
40
0.6455691
50
4.8362157
51
12.2904523
0
ARC
8
DEFAULT_255_1_234
10
16.5853173
20
0.1531965
40
0.3633074
50
12.0805627
51
23.8173984
0
ARC
8
DEFAULT_255_1_234
10
16.7026879
20
0.2028919
40
0.2358723
50
24.2871213
51
31.3935614
0
ARC
8
DEFAULT_255_1_234
10
16.7551576
20
0.2372233
40
0.1732111
50
30.7407893
51
82.4657128
0
ARC
8
DEFAULT_255_1_234
10
16.737171
20
0.1488691
40
0.263235
50
81.1060089
51
90.2184952
0
ARC
8
DEFAULT_255_1_234
10
16.7336009
20
0.1746924
40
0.2374236
50
89.3806855
51
105.6762551
0
ARC
8
DEFAULT_255_1_234
10
16.715264
20
0.2413567
40
0.1682847
50
105.7981136
51
149.7388061
0
ARC
8
DEFAULT_255_1_234
10
16.8216718
20
0.177395
40
0.2924306
50
149.4208916
51
163.6286378
0
ARC
8
DEFAULT_255_1_234
10
17.0307606
20
0.113625
40
0.5110213
50
163.3763315
51
172.1410975
0
ARC
8
DEFAULT_255_1_234
10
17.3608325
20
0.0663518
40
0.8444586
50
172.0259487
51
178.0703232
0
ARC
8
DEFAULT_255_1_234
10
17.6638415
20
0.0519906
40
1.1477868
50
177.8631668
51
179.5044149
0
ARC
8
DEFAULT_255_1_234
10
17.5565819
20
-0.1794611
40
1.0404907
50
179.7995573
51
185.2460446
0
ARC
8
DEFAULT_255_1_234
10
17.1522858
20
-0.2177487
40
0.6343885
50
185.1411642
51
193.0079639
0
ARC
8
DEFAULT_255_1_234
10
16.8879331
20
-0.2802359
40
0.3627568
50
192.7897626
51
205.2507664
0
ARC
8
DEFAULT_255_1_234
10
16.7832878
20
-0.3269585
40
0.2481908
50
205.8005384
51
211.2537509
0
ARC
8
DEFAULT_255_1_234
10
16.7309318
20
-0.362042
40
0.1852521
50
210.3789793
51
238.4008143
0
ARC
8
DEFAULT_255_1_234
10
16.728984
20
-0.3573624
40
0.1882621
50
239.6520629
51
265.9793761
0
ARC
8
DEFAULT_255_1_234
10
16.737504
20
-0.2901573
40
0.2559272
50
265.1315437
51
270.060332
0
ARC
8
DEFAULT_255_1_234
10
16.7403819
20
-0.3225466
40
0.2235528
50
269.3314664
51
287.2178029
0
ARC
8
DEFAULT_255_1_234
10
16.7541671
20
-0.3728721
40
0.1714108
50
287.7958004
51
329.080874
0
ARC
8
DEFAULT_255_1_234
10
16.6584128
20
-0.313107
40
0.2842745
50
328.6634704
51
343.3325132
0
ARC
8
DEFAULT_255_1_234
10
16.4411148
20
-0.2454137
40
0.5118644
50
343.0499468
51
351.9393422
0
ARC
8
DEFAULT_255_1_234
10
16.0944448
20
-0.1943051
40
0.8622784
50
351.8069023
51
357.7959224
0
ARC
8
DEFAULT_255_1_234
10
15.7709004
20
-0.1775279
40
1.1862365
50
357.5871873
51
359.2677531
0
LINE
8
DEFAULT_255_1_234
10
18.0292771
20
0.0402327
11
18.0292771
21
-0.1525291
0
LINE
8
DEFAULT_255_1_234
10
17.2911603
20
-0.1726084
11
17.2911603
21
0.0257755
0
LINE
8
DEFAULT_255_1_234
10
17.8806899
20
-0.1926877
11
17.8806899
21
0.0506739
0
LINE
8
DEFAULT_255_1_234
10
17.4397475
20
0.0619184
11
17.4397475
21
-0.1758211
0
ARC
8
DEFAULT_255_1_234
10
16.804566
20
-0.1574195
40
1.2247208
50
353.8441951
51
0.2287902
0
ARC
8
DEFAULT_255_1_234
10
17.2685164
20
-0.2092194
40
0.7578929
50
344.4934747
51
353.9765454
0
ARC
8
DEFAULT_255_1_234
10
17.5677754
20
-0.2943019
40
0.4467846
50
329.2803592
51
344.7472793
0
ARC
8
DEFAULT_255_1_234
10
17.6670579
20
-0.3487982
40
0.3336173
50
324.9352394
51
328.6160465
0
ARC
8
DEFAULT_255_1_234
10
17.7047688
20
-0.3751573
40
0.2876076
50
280.580143
51
324.9173126
0
ARC
8
DEFAULT_255_1_234
10
17.664648
20
-0.2080901
40
0.4592847
50
269.5977311
51
281.6734359
0
ARC
8
DEFAULT_255_1_234
10
17.6574386
20
-0.2200827
40
0.4472986
50
256.6228859
51
270.51044
0
ARC
8
DEFAULT_255_1_234
10
17.6172364
20
-0.3749123
40
0.2873874
50
215.8618325
51
257.2788573
0
ARC
8
DEFAULT_255_1_234
10
17.7193395
20
-0.3064023
40
0.4102928
50
197.9693508
51
215.2623606
0
ARC
8
DEFAULT_255_1_234
10
17.9678511
20
-0.2225291
40
0.6725652
50
187.8816417
51
198.2346507
0
ARC
8
DEFAULT_255_1_234
10
18.3636719
20
-0.1653921
40
1.0724845
50
180.8976217
51
188.0055519
0
ARC
8
DEFAULT_255_1_234
10
18.6436907
20
-0.1550223
40
1.3526448
50
180.7449369
51
181.1510016
0
ARC
8
DEFAULT_255_1_234
10
18.4859636
20
0.0306042
40
1.1948131
50
173.7675579
51
180.231553
0
ARC
8
DEFAULT_255_1_234
10
18.0341783
20
0.0816666
40
0.7401564
50
164.3058563
51
173.9002247
0
ARC
8
DEFAULT_255_1_234
10
17.7429852
20
0.1655656
40
0.4371288
50
148.7922025
51
164.568378
0
ARC
8
DEFAULT_255_1_234
10
17.6478304
20
0.2186929
40
0.3282386
50
144.5883898
51
148.1176286
0
ARC
8
DEFAULT_255_1_234
10
17.6135202
20
0.2426315
40
0.2864044
50
101.6440918
51
144.514236
0
ARC
8
DEFAULT_255_1_234
10
17.6560269
20
0.0737069
40
0.4604934
50
89.5284041
51
102.5819763
0
ARC
8
DEFAULT_255_1_234
10
17.6639356
20
0.0698018
40
0.464401
50
77.0437873
51
90.5081339
0
ARC
8
DEFAULT_255_1_234
10
17.7041358
20
0.2340615
40
0.2953195
50
48.2778575
51
77.4994676
0
ARC
8
DEFAULT_255_1_234
10
17.7113989
20
0.2469746
40
0.2808655
50
36.3142134
51
47.6305865
0
ARC
8
DEFAULT_255_1_234
10
17.6245296
20
0.1884515
40
0.3855453
50
18.2931786
51
35.6769206
0
ARC
8
DEFAULT_255_1_234
10
17.3702055
20
0.1011593
40
0.654423
50
8.024666
51
18.5605216
0
ARC
8
DEFAULT_255_1_234
10
16.9538975
20
0.0396792
40
1.0752407
50
1.1274072
51
8.1718305
0
ARC
8
DEFAULT_255_1_234
10
16.6303166
20
0.0269885
40
1.3990231
50
0.5424119
51
1.3863029
0
ARC
8
DEFAULT_255_1_234
10
16.8124544
20
0.0542342
40
1.0682415
50
359.8090433
51
4.9407866
0
ARC
8
DEFAULT_255_1_234
10
17.2334558
20
0.0918113
40
0.6455691
50
4.8362157
51
12.2904523
0
ARC
8
DEFAULT_255_1_234
10
17.5089672
20
0.1531965
40
0.3633074
50
12.0805627
51
23.8173984
0
ARC
8
DEFAULT_255_1_234
10
17.6263378
20
0.2028919
40
0.2358723
50
24.2871213
51
31.3935614
0
ARC
8
DEFAULT_255_1_234
10
17.6788075
20
0.2372233
40
0.1732111
50
30.7407893
51
82.4657128
0
ARC
8
DEFAULT_255_1_234
10
17.6608209
20
0.1488691
40
0.263235
50
81.1060089
51
90.2184952
0
ARC
8
DEFAULT_255_1_234
10
17.6572508
20
0.1746924
40
0.2374236
50
89.3806855
51
105.6762551
0
ARC
8
DEFAULT_255_1_234
10
17.6389139
20
0.2413567
40
0.1682847
50
105.7981136
51
149.7388061
0
ARC
8
DEFAULT_255_1_234
10
17.7453217
20
0.177395
40
0.2924306
50
149.4208916
51
163.6286378
0
ARC
8
DEFAULT_255_1_234
10
17.9544105
20
0.113625
40
0.5110213
50
163.3763315
51
172.1410975
0
ARC
8
DEFAULT_255_1_234
10
18.2844824
20
0.0663518
40
0.8444586
50
172.0259487
51
178.0703232
0
ARC
8
DEFAULT_255_1_234
10
18.5874914
20
0.0519906
40
1.1477868
50
177.8631668
51
179.5044149
0
ARC
8
DEFAULT_255_1_234
10
18.4802318
20
-0.1794611
40
1.0404907
50
179.7995573
51
185.2460446
0
ARC
8
DEFAULT_255_1_234
10
18.0759357
20
-0.2177487
40
0.6343885
50
185.1411642
51
193.0079639
0
ARC
8
DEFAULT_255_1_234
10
17.811583
20
-0.2802359
40
0.3627568
50
192.7897626
51
205.2507664
0
ARC
8
DEFAULT_255_1_234
10
17.7069377
20
-0.3269585
40
0.2481908
50
205.8005384
51
211.2537509
0
ARC
8
DEFAULT_255_1_234
10
17.6545817
20
-0.362042
40
0.1852521
50
210.3789793
51
238.4008143
0
ARC
8
DEFAULT_255_1_234
10
17.6526339
20
-0.3573624
40
0.1882621
50
239.6520629
51
265.9793761
0
ARC
8
DEFAULT_255_1_234
10
17.6611539
20
-0.2901573
40
0.2559272
50
265.1315437
51
270.060332
0
ARC
8
DEFAULT_255_1_234
10
17.6640318
20
-0.3225466
40
0.2235528
50
269.3314664
51
287.2178029
0
ARC
8
DEFAULT_255_1_234
10
17.677817
20
-0.3728721
40
0.1714108
50
287.7958004
51
329.080874
0
ARC
8
DEFAULT_255_1_234
10
17.5820627
20
-0.313107
40
0.2842745
50
328.6634704
51
343.3325132
0
ARC
8
DEFAULT_255_1_234
10
17.3647647
20
-0.2454137
40
0.5118644
50
343.0499468
51
351.9393422
0
ARC
8
DEFAULT_255_1_234
10
17.0180947
20
-0.1943051
40
0.8622784
50
351.8069023
51
357.7959224
0
ARC
8
DEFAULT_255_1_234
10
16.6945503
20
-0.1775279
40
1.1862365
50
357.5871873
51
359.2677531
0
LINE
8
DEFAULT_255_1_234
10
18.5441115
20
-0.0938974
11
18.5441115
21
-0.2151766
0
LINE
8
DEFAULT_255_1_234
10
18.5441115
20
-0.2151766
11
18.1521626
21
-0.2151766
0
LINE
8
DEFAULT_255_1_234
10
18.1521626
20
-0.2151766
11
18.1521626
21
-0.0938974
0
LINE
8
DEFAULT_255_1_234
10
18.1521626
20
-0.0938974
11
18.5441115
21
-0.0938974
0
LINE
8
DEFAULT_255_1_234
10
19.4067202
20
0.0402327
11
19.4067202
21
-0.1525291
0
LINE
8
DEFAULT_255_1_234
10
18.6686034
20
-0.1726084
11
18.6686034
21
0.0257755
0
LINE
8
DEFAULT_255_1_234
10
19.258133
20
-0.1926877
11
19.258133
21
0.0506739
0
LINE
8
DEFAULT_255_1_234
10
18.8171906
20
0.0619184
11
18.8171906
21
-0.1758211
0
ARC
8
DEFAULT_255_1_234
10
18.1820091
20
-0.1574195
40
1.2247208
50
353.8441951
51
0.2287902
0
ARC
8
DEFAULT_255_1_234
10
18.6459595
20
-0.2092194
40
0.7578929
50
344.4934747
51
353.9765454
0
ARC
8
DEFAULT_255_1_234
10
18.9452185
20
-0.2943019
40
0.4467846
50
329.2803592
51
344.7472793
0
ARC
8
DEFAULT_255_1_234
10
19.044501
20
-0.3487982
40
0.3336173
50
324.9352394
51
328.6160465
0
ARC
8
DEFAULT_255_1_234
10
19.0822119
20
-0.3751573
40
0.2876076
50
280.580143
51
324.9173126
0
ARC
8
DEFAULT_255_1_234
10
19.0420911
20
-0.2080901
40
0.4592847
50
269.5977311
51
281.6734359
0
ARC
8
DEFAULT_255_1_234
10
19.0348817
20
-0.2200827
40
0.4472986
50
256.6228859
51
270.51044
0
ARC
8
DEFAULT_255_1_234
10
18.9946795
20
-0.3749123
40
0.2873874
50
215.8618325
51
257.2788573
0
ARC
8
DEFAULT_255_1_234
10
19.0967826
20
-0.3064023
40
0.4102928
50
197.9693508
51
215.2623606
0
ARC
8
DEFAULT_255_1_234
10
19.3452942
20
-0.2225291
40
0.6725652
50
187.8816417
51
198.2346507
0
ARC
8
DEFAULT_255_1_234
10
19.741115
20
-0.1653921
40
1.0724845
50
180.8976217
51
188.0055519
0
ARC
8
DEFAULT_255_1_234
10
20.0211338
20
-0.1550223
40
1.3526448
50
180.7449369
51
181.1510016
0
ARC
8
DEFAULT_255_1_234
10
19.8634067
20
0.0306042
40
1.1948131
50
173.7675579
51
180.231553
0
ARC
8
DEFAULT_255_1_234
10
19.4116214
20
0.0816666
40
0.7401564
50
164.3058563
51
173.9002247
0
ARC
8
DEFAULT_255_1_234
10
19.1204283
20
0.1655656
40
0.4371288
50
148.7922025
51
164.568378
0
ARC
8
DEFAULT_255_1_234
10
19.0252735
20
0.2186929
40
0.3282386
50
144.5883898
51
148.1176286
0
ARC
8
DEFAULT_255_1_234
10
18.9909633
20
0.2426315
40
0.2864044
50
101.6440918
51
144.514236
0
ARC
8
DEFAULT_255_1_234
10
19.03347
20
0.0737069
40
0.4604934
50
89.5284041
51
102.5819763
0
ARC
8
DEFAULT_255_1_234
10
19.0413787
20
0.0698018
40
0.464401
50
77.0437873
51
90.5081339
0
ARC
8
DEFAULT_255_1_234
10
19.0815789
20
0.2340615
40
0.2953195
50
48.2778575
51
77.4994676
0
ARC
8
DEFAULT_255_1_234
10
19.088842
20
0.2469746
40
0.2808655
50
36.3142134
51
47.6305865
0
ARC
8
DEFAULT_255_1_234
10
19.0019727
20
0.1884515
40
0.3855453
50
18.2931786
51
35.6769206
0
ARC
8
DEFAULT_255_1_234
10
18.7476486
20
0.1011593
40
0.654423
50
8.024666
51
18.5605216
0
ARC
8
DEFAULT_255_1_234
10
18.3313406
20
0.0396792
40
1.0752407
50
1.1274072
51
8.1718305
0
ARC
8
DEFAULT_255_1_234
10
18.0077597
20
0.0269885
40
1.3990231
50
0.5424119
51
1.3863029
0
ARC
8
DEFAULT_255_1_234
10
18.1898975
20
0.0542342
40
1.0682415
50
359.8090433
51
4.9407866
0
ARC
8
DEFAULT_255_1_234
10
18.6108989
20
0.0918113
40
0.6455691
50
4.8362157
51
12.2904523
0
ARC
8
DEFAULT_255_1_234
10
18.8864104
20
0.1531965
40
0.3633074
50
12.0805627
51
23.8173984
0
ARC
8
DEFAULT_255_1_234
10
19.0037809
20
0.2028919
40
0.2358723
50
24.2871213
51
31.3935614
0
ARC
8
DEFAULT_255_1_234
10
19.0562506
20
0.2372233
40
0.1732111
50
30.7407893
51
82.4657128
0
ARC
8
DEFAULT_255_1_234
10
19.038264
20
0.1488691
40
0.263235
50
81.1060089
51
90.2184952
0
ARC
8
DEFAULT_255_1_234
10
19.0346939
20
0.1746924
40
0.2374236
50
89.3806855
51
105.6762551
0
ARC
8
DEFAULT_255_1_234
10
19.016357
20
0.2413567
40
0.1682847
50
105.7981136
51
149.7388061
0
ARC
8
DEFAULT_255_1_234
10
19.1227648
20
0.177395
40
0.2924306
50
149.4208916
51
163.6286378
0
ARC
8
DEFAULT_255_1_234
10
19.3318536
20
0.113625
40
0.5110213
50
163.3763315
51
172.1410975
0
ARC
8
DEFAULT_255_1_234
10
19.6619255
20
0.0663518
40
0.8444586
50
172.0259487
51
178.0703232
0
ARC
8
DEFAULT_255_1_234
10
19.9649345
20
0.0519906
40
1.1477868
50
177.8631668
51
179.5044149
0
ARC
8
DEFAULT_255_1_234
10
19.8576749
20
-0.1794611
40
1.0404907
50
179.7995573
51
185.2460446
0
ARC
8
DEFAULT_255_1_234
10
19.4533789
20
-0.2177487
40
0.6343885
50
185.1411642
51
193.0079639
0
ARC
8
DEFAULT_255_1_234
10
19.1890261
20
-0.2802359
40
0.3627568
50
192.7897626
51
205.2507664
0
ARC
8
DEFAULT_255_1_234
10
19.0843808
20
-0.3269585
40
0.2481908
50
205.8005384
51
211.2537509
0
ARC
8
DEFAULT_255_1_234
10
19.0320249
20
-0.362042
40
0.1852521
50
210.3789793
51
238.4008143
0
ARC
8
DEFAULT_255_1_234
10
19.030077
20
-0.3573624
40
0.1882621
50
239.6520629
51
265.9793761
0
ARC
8
DEFAULT_255_1_234
10
19.0385971
20
-0.2901573
40
0.2559272
50
265.1315437
51
270.060332
0
ARC
8
DEFAULT_255_1_234
10
19.0414749
20
-0.3225466
40
0.2235528
50
269.3314664
51
287.2178029
0
ARC
8
DEFAULT_255_1_234
10
19.0552601
20
-0.3728721
40
0.1714108
50
287.7958004
51
329.080874
0
ARC
8
DEFAULT_255_1_234
10
18.9595058
20
-0.313107
40
0.2842745
50
328.6634704
51
343.3325132
0
ARC
8
DEFAULT_255_1_234
10
18.7422078
20
-0.2454137
40
0.5118644
50
343.0499468
51
351.9393422
0
ARC
8
DEFAULT_255_1_234
10
18.3955378
20
-0.1943051
40
0.8622784
50
351.8069023
51
357.7959224
0
ARC
8
DEFAULT_255_1_234
10
18.0719934
20
-0.1775279
40
1.1862365
50
357.5871873
51
359.2677531
0
LINE
8
DEFAULT_255_1_234
10
19.9593038
20
-0.6513
11
19.6356247
21
-0.6513
0
LINE
8
DEFAULT_255_1_234
10
19.6356247
20
-0.6513
11
19.6356247
21
0.5181211
0
LINE
8
DEFAULT_255_1_234
10
19.6356247
20
0.5181211
11
19.9657292
21
0.5181211
0
LINE
8
DEFAULT_255_1_234
10
20.4813667
20
-0.0272339
11
20.4813667
21
-0.1019291
0
LINE
8
DEFAULT_255_1_234
10
19.969745
20
0.3912196
11
19.7898341
21
0.3912196
0
LINE
8
DEFAULT_255_1_234
10
19.7898341
20
0.3912196
11
19.7898341
21
-0.5252017
0
LINE
8
DEFAULT_255_1_234
10
19.7898341
20
-0.5252017
11
19.9520752
21
-0.5252017
0
LINE
8
DEFAULT_255_1_234
10
20.3287637
20
-0.0987164
11
20.3287637
21
-0.0304466
0
ARC
8
DEFAULT_255_1_234
10
19.9696234
20
-0.0684106
40
0.5865446
50
75.4101064
51
90.3804066
0
ARC
8
DEFAULT_255_1_234
10
19.9925748
20
0.0272492
40
0.4881916
50
60.145586
51
75.1888407
0
ARC
8
DEFAULT_255_1_234
10
20.0084523
20
0.0549199
40
0.4562893
50
26.5253612
51
60.1450928
0
ARC
8
DEFAULT_255_1_234
10
19.8964272
20
-0.0044842
40
0.5830602
50
7.4030428
51
26.8320788
0
ARC
8
DEFAULT_255_1_234
10
19.7370029
20
-0.0293196
40
0.7443669
50
0.1605367
51
7.7176192
0
ARC
8
DEFAULT_255_1_234
10
19.7533933
20
-0.1057566
40
0.7279835
50
348.7289388
51
0.3012466
0
ARC
8
DEFAULT_255_1_234
10
19.9190364
20
-0.1386614
40
0.559104
50
333.0706509
51
348.7181832
0
ARC
8
DEFAULT_255_1_234
10
20.0157122
20
-0.1911681
40
0.4491417
50
299.2531685
51
333.4571258
0
ARC
8
DEFAULT_255_1_234
10
19.9796261
20
-0.1226172
40
0.5265881
50
278.107187
51
299.0339503
0
ARC
8
DEFAULT_255_1_234
10
19.954034
20
0.0281216
40
0.679442
50
270.4443897
51
278.4511052
0
ARC
8
DEFAULT_255_1_234
10
19.956117
20
-0.0647787
40
0.4604407
50
269.4970433
51
284.0205042
0
ARC
8
DEFAULT_255_1_234
10
19.9916471
20
-0.2013022
40
0.3193797
50
283.7700273
51
318.1555492
0
ARC
8
DEFAULT_255_1_234
10
19.9579229
20
-0.1760633
40
0.3613588
50
318.7415601
51
343.6873628
0
ARC
8
DEFAULT_255_1_234
10
19.7775253
20
-0.1197168
40
0.5503313
50
343.3325091
51
355.8548958
0
ARC
8
DEFAULT_255_1_234
10
19.5676937
20
-0.0997681
40
0.7610708
50
355.4988528
51
0.0791727
0
ARC
8
DEFAULT_255_1_234
10
19.645956
20
-0.026222
40
0.6828208
50
359.6455037
51
9.8607896
0
ARC
8
DEFAULT_255_1_234
10
19.8820257
20
0.0164099
40
0.4429406
50
9.6571907
51
26.1932807
0
ARC
8
DEFAULT_255_1_234
10
19.9748246
20
0.0595118
40
0.3406537
50
26.5777228
51
40.1532208
0
ARC
8
DEFAULT_255_1_234
10
20.0003972
20
0.0794619
40
0.308246
50
40.3840491
51
80.1431104
0
ARC
8
DEFAULT_255_1_234
10
19.967709
20
-0.0654667
40
0.4566909
50
79.2152159
51
89.7445637
0
LINE
8
DEFAULT_255_1_234
10
21.4548134
20
-0.6513
11
21.3431723
21
-0.3460939
0
LINE
8
DEFAULT_255_1_234
10
21.3431723
20
-0.3460939
11
20.8532362
21
-0.3460939
0
LINE
8
DEFAULT_255_1_234
10
20.8532362
20
-0.3460939
11
20.7432014
21
-0.6513
0
LINE
8
DEFAULT_255_1_234
10
20.7432014
20
-0.6513
11
20.584173
21
-0.6513
0
LINE
8
DEFAULT_255_1_234
10
20.584173
20
-0.6513
11
21.0307376
21
0.5181211
0
LINE
8
DEFAULT_255_1_234
10
21.0307376
20
0.5181211
11
21.1656708
21
0.5181211
0
LINE
8
DEFAULT_255_1_234
10
21.1656708
20
0.5181211
11
21.6130387
21
-0.6513
0
LINE
8
DEFAULT_255_1_234
10
21.6130387
20
-0.6513
11
21.4548134
21
-0.6513
0
LINE
8
DEFAULT_255_1_234
10
21.0982042
20
0.3277689
11
20.8998203
21
-0.2191925
0
LINE
8
DEFAULT_255_1_234
10
20.8998203
20
-0.2191925
11
21.2973914
21
-0.2191925
0
LINE
8
DEFAULT_255_1_234
10
21.2973914
20
-0.2191925
11
21.0982042
21
0.3277689
0
LINE
8
DEFAULT_255_1_234
10
22.4652061
20
0.0402327
11
22.4652061
21
-0.1525291
0
LINE
8
DEFAULT_255_1_234
10
21.7270894
20
-0.1726084
11
21.7270894
21
0.0257755
0
LINE
8
DEFAULT_255_1_234
10
22.3166189
20
-0.1926877
11
22.3166189
21
0.0506739
0
LINE
8
DEFAULT_255_1_234
10
21.8756765
20
0.0619184
11
21.8756765
21
-0.1758211
0
ARC
8
DEFAULT_255_1_234
10
21.2404951
20
-0.1574195
40
1.2247208
50
353.8441951
51
0.2287902
0
ARC
8
DEFAULT_255_1_234
10
21.7044454
20
-0.2092194
40
0.7578929
50
344.4934747
51
353.9765454
0
ARC
8
DEFAULT_255_1_234
10
22.0037044
20
-0.2943019
40
0.4467846
50
329.2803592
51
344.7472793
0
ARC
8
DEFAULT_255_1_234
10
22.1029869
20
-0.3487982
40
0.3336173
50
324.9352394
51
328.6160465
0
ARC
8
DEFAULT_255_1_234
10
22.1406978
20
-0.3751573
40
0.2876076
50
280.580143
51
324.9173126
0
ARC
8
DEFAULT_255_1_234
10
22.1005771
20
-0.2080901
40
0.4592847
50
269.5977311
51
281.6734359
0
ARC
8
DEFAULT_255_1_234
10
22.0933676
20
-0.2200827
40
0.4472986
50
256.6228859
51
270.51044
0
ARC
8
DEFAULT_255_1_234
10
22.0531654
20
-0.3749123
40
0.2873874
50
215.8618325
51
257.2788573
0
ARC
8
DEFAULT_255_1_234
10
22.1552686
20
-0.3064023
40
0.4102928
50
197.9693508
51
215.2623606
0
ARC
8
DEFAULT_255_1_234
10
22.4037801
20
-0.2225291
40
0.6725652
50
187.8816417
51
198.2346507
0
ARC
8
DEFAULT_255_1_234
10
22.799601
20
-0.1653921
40
1.0724845
50
180.8976217
51
188.0055519
0
ARC
8
DEFAULT_255_1_234
10
23.0796198
20
-0.1550223
40
1.3526448
50
180.7449369
51
181.1510016
0
ARC
8
DEFAULT_255_1_234
10
22.9218927
20
0.0306042
40
1.1948131
50
173.7675579
51
180.231553
0
ARC
8
DEFAULT_255_1_234
10
22.4701073
20
0.0816666
40
0.7401564
50
164.3058563
51
173.9002247
0
ARC
8
DEFAULT_255_1_234
10
22.1789142
20
0.1655656
40
0.4371288
50
148.7922025
51
164.568378
0
ARC
8
DEFAULT_255_1_234
10
22.0837594
20
0.2186929
40
0.3282386
50
144.5883898
51
148.1176286
0
ARC
8
DEFAULT_255_1_234
10
22.0494492
20
0.2426315
40
0.2864044
50
101.6440918
51
144.514236
0
ARC
8
DEFAULT_255_1_234
10
22.0919559
20
0.0737069
40
0.4604934
50
89.5284041
51
102.5819763
0
ARC
8
DEFAULT_255_1_234
10
22.0998647
20
0.0698018
40
0.464401
50
77.0437873
51
90.5081339
0
ARC
8
DEFAULT_255_1_234
10
22.1400648
20
0.2340615
40
0.2953195
50
48.2778575
51
77.4994676
0
ARC
8
DEFAULT_255_1_234
10
22.147328
20
0.2469746
40
0.2808655
50
36.3142134
51
47.6305865
0
ARC
8
DEFAULT_255_1_234
10
22.0604587
20
0.1884515
40
0.3855453
50
18.2931786
51
35.6769206
0
ARC
8
DEFAULT_255_1_234
10
21.8061346
20
0.1011593
40
0.654423
50
8.024666
51
18.5605216
0
ARC
8
DEFAULT_255_1_234
10
21.3898266
20
0.0396792
40
1.0752407
50
1.1274072
51
8.1718305
0
ARC
8
DEFAULT_255_1_234
10
21.0662456
20
0.0269885
40
1.3990231
50
0.5424119
51
1.3863029
0
ARC
8
DEFAULT_255_1_234
10
21.2483834
20
0.0542342
40
1.0682415
50
359.8090433
51
4.9407866
0
ARC
8
DEFAULT_255_1_234
10
21.6693848
20
0.0918113
40
0.6455691
50
4.8362157
51
12.2904523
0
ARC
8
DEFAULT_255_1_234
10
21.9448963
20
0.1531965
40
0.3633074
50
12.0805627
51
23.8173984
0
ARC
8
DEFAULT_255_1_234
10
22.0622668
20
0.2028919
40
0.2358723
50
24.2871213
51
31.3935614
0
ARC
8
DEFAULT_255_1_234
10
22.1147365
20
0.2372233
40
0.1732111
50
30.7407893
51
82.4657128
0
ARC
8
DEFAULT_255_1_234
10
22.09675
20
0.1488691
40
0.263235
50
81.1060089
51
90.2184952
0
ARC
8
DEFAULT_255_1_234
10
22.0931799
20
0.1746924
40
0.2374236
50
89.3806855
51
105.6762551
0
ARC
8
DEFAULT_255_1_234
10
22.0748429
20
0.2413567
40
0.1682847
50
105.7981136
51
149.7388061
0
ARC
8
DEFAULT_255_1_234
10
22.1812508
20
0.177395
40
0.2924306
50
149.4208916
51
163.6286378
0
ARC
8
DEFAULT_255_1_234
10
22.3903396
20
0.113625
40
0.5110213
50
163.3763315
51
172.1410975
0
ARC
8
DEFAULT_255_1_234
10
22.7204115
20
0.0663518
40
0.8444586
50
172.0259487
51
178.0703232
0
ARC
8
DEFAULT_255_1_234
10
23.0234204
20
0.0519906
40
1.1477868
50
177.8631668
51
179.5044149
0
ARC
8
DEFAULT_255_1_234
10
22.9161608
20
-0.1794611
40
1.0404907
50
179.7995573
51
185.2460446
0
ARC
8
DEFAULT_255_1_234
10
22.5118648
20
-0.2177487
40
0.6343885
50
185.1411642
51
193.0079639
0
ARC
8
DEFAULT_255_1_234
10
22.247512
20
-0.2802359
40
0.3627568
50
192.7897626
51
205.2507664
0
ARC
8
DEFAULT_255_1_234
10
22.1428667
20
-0.3269585
40
0.2481908
50
205.8005384
51
211.2537509
0
ARC
8
DEFAULT_255_1_234
10
22.0905108
20
-0.362042
40
0.1852521
50
210.3789793
51
238.4008143
0
ARC
8
DEFAULT_255_1_234
10
22.088563
20
-0.3573624
40
0.1882621
50
239.6520629
51
265.9793761
0
ARC
8
DEFAULT_255_1_234
10
22.097083
20
-0.2901573
40
0.2559272
50
265.1315437
51
270.060332
0
ARC
8
DEFAULT_255_1_234
10
22.0999609
20
-0.3225466
40
0.2235528
50
269.3314664
51
287.2178029
0
ARC
8
DEFAULT_255_1_234
10
22.1137461
20
-0.3728721
40
0.1714108
50
287.7958004
51
329.080874
0
ARC
8
DEFAULT_255_1_234
10
22.0179917
20
-0.313107
40
0.2842745
50
328.6634704
51
343.3325132
0
ARC
8
DEFAULT_255_1_234
10
21.8006937
20
-0.2454137
40
0.5118644
50
343.0499468
51
351.9393422
0
ARC
8
DEFAULT_255_1_234
10
21.4540237
20
-0.1943051
40
0.8622784
50
351.8069023
51
357.7959224
0
ARC
8
DEFAULT_255_1_234
10
21.1304793
20
-0.1775279
40
1.1862365
50
357.5871873
51
359.2677531
0
LINE
8
DEFAULT_255_1_234
10
8.3365023
20
70.9559849
11
8.1814897
21
70.9559849
0
LINE
8
DEFAULT_255_1_234
10
7.4891539
20
70.4636394
11
7.6441665
21
70.4636394
0
ARC
8
DEFAULT_255_1_234
10
8.247371
20
71.8506768
40
1.252368
50
248.9199003
51
254.1439814
0
ARC
8
DEFAULT_255_1_234
10
8.0793205
20
71.4180234
40
0.788226
50
241.633709
51
249.0064503
0
ARC
8
DEFAULT_255_1_234
10
7.92646
20
71.1379317
40
0.4691427
50
230.498225
51
241.8087113
0
ARC
8
DEFAULT_255_1_234
10
7.8480174
20
71.0379906
40
0.3421437
50
227.4064532
51
229.9881192
0
ARC
8
DEFAULT_255_1_234
10
7.7992694
20
70.9904088
40
0.2741476
50
200.6781896
51
228.1763934
0
ARC
8
DEFAULT_255_1_234
10
7.8065005
20
70.9889077
40
0.2804109
50
179.5061581
51
199.8694617
0
ARC
8
DEFAULT_255_1_234
10
7.8055757
20
70.996321
40
0.2795204
50
132.4834203
51
181.0242172
0
ARC
8
DEFAULT_255_1_234
10
7.8651339
20
70.9400704
40
0.3612768
50
129.2532479
51
133.4242687
0
ARC
8
DEFAULT_255_1_234
10
7.8797789
20
70.9180965
40
0.3875675
50
101.98776
51
128.8742646
0
ARC
8
DEFAULT_255_1_234
10
7.9196399
20
70.7459741
40
0.5642249
50
89.5906553
51
102.3169264
0
ARC
8
DEFAULT_255_1_234
10
7.9266891
20
70.7778148
40
0.5323783
50
77.2360837
51
90.3248275
0
ARC
8
DEFAULT_255_1_234
10
7.9473971
20
70.87454
40
0.4334697
50
63.837784
51
77.0809408
0
ARC
8
DEFAULT_255_1_234
10
7.9751732
20
70.9262911
40
0.3747796
50
45.9864267
51
64.1607727
0
ARC
8
DEFAULT_255_1_234
10
8.0012614
20
70.9560866
40
0.3352302
50
32.2747395
51
45.6547121
0
ARC
8
DEFAULT_255_1_234
10
8.0079054
20
70.957988
40
0.328603
50
359.6507365
51
32.6130309
0
ARC
8
DEFAULT_255_1_234
10
7.913615
20
70.958466
40
0.2678863
50
359.469343
51
14.9832209
0
ARC
8
DEFAULT_255_1_234
10
7.9841212
20
70.9773539
40
0.1948938
50
14.9781179
51
48.2004265
0
ARC
8
DEFAULT_255_1_234
10
7.9676856
20
70.9566983
40
0.2212521
50
48.5927837
51
74.1241538
0
ARC
8
DEFAULT_255_1_234
10
7.9343346
20
70.8466248
40
0.3362561
50
73.7888341
51
86.6652678
0
ARC
8
DEFAULT_255_1_234
10
7.9240911
20
70.7258881
40
0.4573953
50
86.2640471
51
90.0526343
0
ARC
8
DEFAULT_255_1_234
10
7.9212624
20
70.7654192
40
0.4178709
50
89.6697524
51
99.2309573
0
ARC
8
DEFAULT_255_1_234
10
7.8970075
20
70.9098964
40
0.2713749
50
99.069534
51
113.7658566
0
ARC
8
DEFAULT_255_1_234
10
7.8696266
20
70.9744677
40
0.2012469
50
114.0401004
51
127.9850673
0
ARC
8
DEFAULT_255_1_234
10
7.845583
20
71.004073
40
0.1631167
50
127.7287463
51
176.7105154
0
ARC
8
DEFAULT_255_1_234
10
7.9134547
20
70.9939693
40
0.2315392
50
175.1779447
51
180.0581938
0
ARC
8
DEFAULT_255_1_234
10
7.8291394
20
70.9927428
40
0.1472271
50
179.6142195
51
228.1246017
0
ARC
8
DEFAULT_255_1_234
10
7.8733063
20
71.0336308
40
0.2072299
50
226.5779593
51
230.8800004
0
ARC
8
DEFAULT_255_1_234
10
7.9204141
20
71.0961636
40
0.2854818
50
231.4635071
51
241.9260842
0
ARC
8
DEFAULT_255_1_234
10
8.0401319
20
71.31648
40
0.53622
50
241.7178533
51
248.3259551
0
ARC
8
DEFAULT_255_1_234
10
8.1786691
20
71.6597064
40
0.9063478
50
248.2007737
51
252.4528373
0
ARC
8
DEFAULT_255_1_234
10
8.2990416
20
72.0318441
40
1.2974635
50
252.3391078
51
254.3469452
0
ARC
8
DEFAULT_255_1_234
10
7.5448119
20
69.3341148
40
1.5037162
50
71.0197183
51
74.4087047
0
ARC
8
DEFAULT_255_1_234
10
7.7142804
20
69.8233111
40
0.9859993
50
66.1847285
51
71.086374
0
ARC
8
DEFAULT_255_1_234
10
7.8699116
20
70.17372
40
0.6025855
50
59.3536294
51
66.2691831
0
ARC
8
DEFAULT_255_1_234
10
7.9587769
20
70.3240609
40
0.4279449
50
49.1020879
51
59.3293958
0
ARC
8
DEFAULT_255_1_234
10
8.0406509
20
70.4173834
40
0.3038015
50
32.7919921
51
49.2505539
0
ARC
8
DEFAULT_255_1_234
10
8.0727599
20
70.4402191
40
0.264448
50
31.1181161
51
32.4005348
0
ARC
8
DEFAULT_255_1_234
10
8.0639136
20
70.4366779
40
0.2738556
50
8.1116974
51
30.7958831
0
ARC
8
DEFAULT_255_1_234
10
7.9828804
20
70.4228753
40
0.3560327
50
359.8389159
51
8.4706516
0
ARC
8
DEFAULT_255_1_234
10
8.0454596
20
70.4180137
40
0.2934776
50
337.4731098
51
0.7537279
0
ARC
8
DEFAULT_255_1_234
10
8.0633291
20
70.4160387
40
0.2762607
50
307.5917067
51
336.4315538
0
ARC
8
DEFAULT_255_1_234
10
8.0173119
20
70.4673102
40
0.3449979
50
307.6551545
51
308.4529766
0
ARC
8
DEFAULT_255_1_234
10
7.9942838
20
70.502825
40
0.3871988
50
284.3734338
51
307.1424381
0
ARC
8
DEFAULT_255_1_234
10
7.9447668
20
70.6849932
40
0.5759636
50
272.4382747
51
284.646547
0
ARC
8
DEFAULT_255_1_234
10
7.9320876
20
70.8649893
40
0.7563528
50
269.9708387
51
272.8178037
0
ARC
8
DEFAULT_255_1_234
10
7.9277916
20
70.6611716
40
0.5525489
50
248.2707594
51
270.4055579
0
ARC
8
DEFAULT_255_1_234
10
7.9223657
20
70.6421192
40
0.5328452
50
246.1383403
51
248.0542782
0
ARC
8
DEFAULT_255_1_234
10
7.8805036
20
70.5541843
40
0.4355005
50
233.1670131
51
246.4950969
0
ARC
8
DEFAULT_255_1_234
10
7.8250941
20
70.4793812
40
0.3424126
50
215.3403242
51
233.0843104
0
ARC
8
DEFAULT_255_1_234
10
7.7978372
20
70.4595549
40
0.3087104
50
179.2419209
51
215.2648451
0
ARC
8
DEFAULT_255_1_234
10
7.8745966
20
70.4609666
40
0.2304457
50
179.335461
51
199.1045811
0
ARC
8
DEFAULT_255_1_234
10
7.8413643
20
70.4522766
40
0.1962176
50
199.8828939
51
232.7063202
0
ARC
8
DEFAULT_255_1_234
10
7.8885911
20
70.5116788
40
0.2720938
50
232.3738199
51
255.5136649
0
ARC
8
DEFAULT_255_1_234
10
7.9226778
20
70.6360835
40
0.4010747
50
255.2446292
51
267.5320849
0
ARC
8
DEFAULT_255_1_234
10
7.9314401
20
70.7593702
40
0.5246356
50
267.1557994
51
270.0286766
0
ARC
8
DEFAULT_255_1_234
10
7.9342173
20
70.714995
40
0.4802668
50
269.7000017
51
278.1660162
0
ARC
8
DEFAULT_255_1_234
10
7.9598178
20
70.5419515
40
0.3053425
50
278.0231263
51
290.625471
0
ARC
8
DEFAULT_255_1_234
10
7.9945865
20
70.4492025
40
0.206291
50
290.6619762
51
307.0370976
0
ARC
8
DEFAULT_255_1_234
10
8.0246254
20
70.4123504
40
0.1587906
50
306.3943566
51
355.3030547
0
ARC
8
DEFAULT_255_1_234
10
7.9734186
20
70.4200113
40
0.2104809
50
354.3660432
51
0.0698737
0
ARC
8
DEFAULT_255_1_234
10
7.9876531
20
70.4222617
40
0.1962563
50
359.417946
51
16.1971788
0
ARC
8
DEFAULT_255_1_234
10
8.0331841
20
70.4347418
40
0.149053
50
16.4723299
51
52.6262157
0
ARC
8
DEFAULT_255_1_234
10
7.9510895
20
70.3263433
40
0.2850296
50
52.7386432
51
62.4979148
0
ARC
8
DEFAULT_255_1_234
10
7.8125972
20
70.0657283
40
0.5801521
50
62.2515216
51
68.1220564
0
ARC
8
DEFAULT_255_1_234
10
7.6405883
20
69.6429872
40
1.0365451
50
68.0062803
51
71.8053402
0
ARC
8
DEFAULT_255_1_234
10
7.4610255
20
69.1044758
40
1.6042013
50
71.7183119
51
73.9258742
0
LINE
8
DEFAULT_255_1_234
10
8.7019464
20
71.2941211
11
8.7019464
21
70.1247
0
LINE
8
DEFAULT_255_1_234
10
8.7019464
20
70.1247
11
8.547737
21
70.1247
0
LINE
8
DEFAULT_255_1_234
10
8.547737
20
70.1247
11
8.547737
21
71.2941211
0
LINE
8
DEFAULT_255_1_234
10
8.547737
20
71.2941211
11
8.7019464
21
71.2941211
0
LINE
8
DEFAULT_255_1_234
10
8.9838604
20
71.2941211
11
9.1830475
21
71.2941211
0
LINE
8
DEFAULT_255_1_234
10
9.1830475
20
71.2941211
11
9.5653583
21
70.3399506
0
LINE
8
DEFAULT_255_1_234
10
9.5653583
20
70.3399506
11
9.947669
21
71.2941211
0
LINE
8
DEFAULT_255_1_234
10
9.947669
20
71.2941211
11
10.1476593
21
71.2941211
0
LINE
8
DEFAULT_255_1_234
10
10.1476593
20
71.2941211
11
10.1476593
21
70.1247
0
LINE
8
DEFAULT_255_1_234
10
10.1476593
20
70.1247
11
9.9934499
21
70.1247
0
LINE
8
DEFAULT_255_1_234
10
9.9934499
20
70.1247
11
9.9934499
21
70.5800996
0
LINE
8
DEFAULT_255_1_234
10
9.9934499
20
70.5800996
11
10.007907
21
71.0716419
0
LINE
8
DEFAULT_255_1_234
10
10.007907
20
71.0716419
11
9.6239899
21
70.1247
0
LINE
8
DEFAULT_255_1_234
10
9.6239899
20
70.1247
11
9.5059234
21
70.1247
0
LINE
8
DEFAULT_255_1_234
10
9.5059234
20
70.1247
11
9.1228095
21
71.0692324
0
LINE
8
DEFAULT_255_1_234
10
9.1228095
20
71.0692324
11
9.1380698
21
70.5800996
0
LINE
8
DEFAULT_255_1_234
10
9.1380698
20
70.5800996
11
9.1380698
21
70.1247
0
LINE
8
DEFAULT_255_1_234
10
9.1380698
20
70.1247
11
8.9838604
21
70.1247
0
LINE
8
DEFAULT_255_1_234
10
8.9838604
20
70.1247
11
8.9838604
21
71.2941211
0
LINE
8
DEFAULT_255_1_234
10
11.1917853
20
70.1247
11
11.0801441
21
70.4299061
0
LINE
8
DEFAULT_255_1_234
10
11.0801441
20
70.4299061
11
10.5902081
21
70.4299061
0
LINE
8
DEFAULT_255_1_234
10
10.5902081
20
70.4299061
11
10.4801732
21
70.1247
0
LINE
8
DEFAULT_255_1_234
10
10.4801732
20
70.1247
11
10.3211448
21
70.1247
0
LINE
8
DEFAULT_255_1_234
10
10.3211448
20
70.1247
11
10.7677095
21
71.2941211
0
LINE
8
DEFAULT_255_1_234
10
10.7677095
20
71.2941211
11
10.9026427
21
71.2941211
0
LINE
8
DEFAULT_255_1_234
10
10.9026427
20
71.2941211
11
11.3500105
21
70.1247
0
LINE
8
DEFAULT_255_1_234
10
11.3500105
20
70.1247
11
11.1917853
21
70.1247
0
LINE
8
DEFAULT_255_1_234
10
10.8351761
20
71.1037689
11
10.6367921
21
70.5568075
0
LINE
8
DEFAULT_255_1_234
10
10.6367921
20
70.5568075
11
11.0343632
21
70.5568075
0
LINE
8
DEFAULT_255_1_234
10
11.0343632
20
70.5568075
11
10.8351761
21
71.1037689
0
LINE
8
DEFAULT_255_1_234
10
12.211816
20
71.2941211
11
12.211816
21
71.1672196
0
LINE
8
DEFAULT_255_1_234
10
12.211816
20
71.1672196
11
11.8359307
21
71.1672196
0
LINE
8
DEFAULT_255_1_234
10
11.8359307
20
71.1672196
11
11.8359307
21
70.1247
0
LINE
8
DEFAULT_255_1_234
10
11.8359307
20
70.1247
11
11.6825245
21
70.1247
0
LINE
8
DEFAULT_255_1_234
10
11.6825245
20
70.1247
11
11.6825245
21
71.1672196
0
LINE
8
DEFAULT_255_1_234
10
11.6825245
20
71.1672196
11
11.3074423
21
71.1672196
0
LINE
8
DEFAULT_255_1_234
10
11.3074423
20
71.1672196
11
11.3074423
21
71.2941211
0
LINE
8
DEFAULT_255_1_234
10
11.3074423
20
71.2941211
11
12.211816
21
71.2941211
0
LINE
8
DEFAULT_255_1_234
10
12.5507554
20
71.2941211
11
12.5507554
21
70.1247
0
LINE
8
DEFAULT_255_1_234
10
12.5507554
20
70.1247
11
12.396546
21
70.1247
0
LINE
8
DEFAULT_255_1_234
10
12.396546
20
70.1247
11
12.396546
21
71.2941211
0
LINE
8
DEFAULT_255_1_234
10
12.396546
20
71.2941211
11
12.5507554
21
71.2941211
0
LINE
8
DEFAULT_255_1_234
10
13.537856
20
70.4957663
11
13.6928686
21
70.4957663
0
LINE
8
DEFAULT_255_1_234
10
12.7925107
20
70.6547947
11
12.7925107
21
70.7672391
0
LINE
8
DEFAULT_255_1_234
10
13.6928686
20
70.9182357
11
13.537856
21
70.9182357
0
LINE
8
DEFAULT_255_1_234
10
12.9475232
20
70.7632232
11
12.9475232
21
70.6499757
0
ARC
8
DEFAULT_255_1_234
10
13.1448072
20
70.5554846
40
0.5513052
50
340.1774281
51
353.7814284
0
ARC
8
DEFAULT_255_1_234
10
13.3019425
20
70.4969582
40
0.3836379
50
311.4558989
51
340.4421614
0
ARC
8
DEFAULT_255_1_234
10
13.2986093
20
70.5080528
40
0.3941894
50
282.4333181
51
310.7513653
0
ARC
8
DEFAULT_255_1_234
10
13.2546832
20
70.6895679
40
0.5809175
50
269.9358511
51
282.809604
0
ARC
8
DEFAULT_255_1_234
10
13.2494899
20
70.8353212
40
0.7266847
50
270.0021091
51
270.3581957
0
ARC
8
DEFAULT_255_1_234
10
13.2442315
20
70.5752585
40
0.4666519
50
250.7884749
51
270.6489167
0
ARC
8
DEFAULT_255_1_234
10
13.227415
20
70.5115319
40
0.4009729
50
219.3627325
51
250.0611886
0
ARC
8
DEFAULT_255_1_234
10
13.3103361
20
70.5820042
40
0.5097822
50
193.5479632
51
219.5756669
0
ARC
8
DEFAULT_255_1_234
10
13.5474982
20
70.6435919
40
0.7547848
50
181.1218675
51
193.87563
0
ARC
8
DEFAULT_255_1_234
10
13.7545163
20
70.654658
40
0.9620055
50
179.9918545
51
181.5394234
0
ARC
8
DEFAULT_255_1_234
10
13.5694265
20
70.7709788
40
0.7769248
50
169.5837241
51
180.2757934
0
ARC
8
DEFAULT_255_1_234
10
13.3857203
20
70.8049229
40
0.590109
50
155.0365899
51
169.6003176
0
ARC
8
DEFAULT_255_1_234
10
13.2721667
20
70.8596677
40
0.4640625
50
136.783148
51
155.2472683
0
ARC
8
DEFAULT_255_1_234
10
13.2332144
20
70.8927562
40
0.4130255
50
121.7633186
51
136.428115
0
ARC
8
DEFAULT_255_1_234
10
13.2467106
20
70.8678227
40
0.4413323
50
95.6459699
51
121.5490577
0
ARC
8
DEFAULT_255_1_234
10
13.2624388
20
70.7569949
40
0.55319
50
89.924208
51
96.1377933
0
ARC
8
DEFAULT_255_1_234
10
13.2674821
20
70.7688542
40
0.5413475
50
76.6779277
51
90.4563316
0
ARC
8
DEFAULT_255_1_234
10
13.3068444
20
70.9279114
40
0.3775041
50
47.485847
51
76.9287264
0
ARC
8
DEFAULT_255_1_234
10
13.2921417
20
70.9179159
40
0.3948286
50
16.5424086
51
46.8933463
0
ARC
8
DEFAULT_255_1_234
10
13.1313574
20
70.8650861
40
0.564021
50
5.4072051
51
17.0365086
0
ARC
8
DEFAULT_255_1_234
10
12.9874591
20
70.8419679
40
0.5556559
50
7.8891745
51
15.9239216
0
ARC
8
DEFAULT_255_1_234
10
13.1861605
20
70.8996631
40
0.3487515
50
15.7653144
51
27.9410532
0
ARC
8
DEFAULT_255_1_234
10
13.2965822
20
70.958779
40
0.2235026
50
27.8166557
51
46.4008329
0
ARC
8
DEFAULT_255_1_234
10
13.3015465
20
70.9582082
40
0.2205286
50
47.4371857
51
75.0698205
0
ARC
8
DEFAULT_255_1_234
10
13.270686
20
70.8507765
40
0.3322915
50
74.7008593
51
87.8124495
0
ARC
8
DEFAULT_255_1_234
10
13.2633547
20
70.7451844
40
0.4380987
50
87.3814673
51
90.0240855
0
ARC
8
DEFAULT_255_1_234
10
13.2595091
20
70.8629291
40
0.3203749
50
89.3451631
51
108.5745436
0
ARC
8
DEFAULT_255_1_234
10
13.2458196
20
70.9142908
40
0.2673494
50
109.2998449
51
143.3037509
0
ARC
8
DEFAULT_255_1_234
10
13.3220268
20
70.8556881
40
0.3634757
50
143.0753173
51
163.1916937
0
ARC
8
DEFAULT_255_1_234
10
13.5171996
20
70.7940967
40
0.5681262
50
162.9373603
51
174.6208611
0
ARC
8
DEFAULT_255_1_234
10
13.7798038
20
70.765301
40
0.8322832
50
174.3419979
51
180.1430411
0
ARC
8
DEFAULT_255_1_234
10
13.6867194
20
70.6458698
40
0.7392076
50
179.6817502
51
189.150529
0
ARC
8
DEFAULT_255_1_234
10
13.4366443
20
70.604219
40
0.4856932
50
188.9910863
51
203.5773039
0
ARC
8
DEFAULT_255_1_234
10
13.3286775
20
70.5594211
40
0.3688271
50
203.9077269
51
215.1312379
0
ARC
8
DEFAULT_255_1_234
10
13.2363869
20
70.4878941
40
0.2522457
50
213.9071664
51
263.8849284
0
ARC
8
DEFAULT_255_1_234
10
13.2489198
20
70.5663518
40
0.3316174
50
263.1758525
51
270.1031083
0
ARC
8
DEFAULT_255_1_234
10
13.252129
20
70.6910365
40
0.4563091
50
269.6719807
51
279.0609165
0
ARC
8
DEFAULT_255_1_234
10
13.2788058
20
70.5297907
40
0.2928759
50
278.8750225
51
293.6346586
0
ARC
8
DEFAULT_255_1_234
10
13.3108266
20
70.45459
40
0.2111472
50
293.8553404
51
310.0518804
0
ARC
8
DEFAULT_255_1_234
10
13.311312
20
70.4483516
40
0.2060917
50
311.0646779
51
332.0108348
0
ARC
8
DEFAULT_255_1_234
10
13.1920847
20
70.5140978
40
0.3422352
50
331.6588543
51
343.2878891
0
ARC
8
DEFAULT_255_1_234
10
12.9858362
20
70.5774798
40
0.5580003
50
343.1446044
51
351.010618
0
ARC
8
DEFAULT_255_1_234
10
12.8317008
20
70.6055871
40
0.7146438
50
350.7157277
51
351.1602153
0
LINE
8
DEFAULT_255_1_234
10
14.9715213
20
70.7913343
11
14.9715213
21
70.665236
0
LINE
8
DEFAULT_255_1_234
10
14.9715213
20
70.665236
11
14.4647186
21
70.665236
0
LINE
8
DEFAULT_255_1_234
10
14.4647186
20
70.665236
11
14.4647186
21
70.2507983
0
LINE
8
DEFAULT_255_1_234
10
14.4647186
20
70.2507983
11
15.053445
21
70.2507983
0
LINE
8
DEFAULT_255_1_234
10
15.053445
20
70.2507983
11
15.053445
21
70.1247
0
LINE
8
DEFAULT_255_1_234
10
15.053445
20
70.1247
11
14.3105092
21
70.1247
0
LINE
8
DEFAULT_255_1_234
10
14.3105092
20
70.1247
11
14.3105092
21
71.2941211
0
LINE
8
DEFAULT_255_1_234
10
14.3105092
20
71.2941211
11
15.0454133
21
71.2941211
0
LINE
8
DEFAULT_255_1_234
10
15.0454133
20
71.2941211
11
15.0454133
21
71.1672196
0
LINE
8
DEFAULT_255_1_234
10
15.0454133
20
71.1672196
11
14.4647186
21
71.1672196
0
LINE
8
DEFAULT_255_1_234
10
14.4647186
20
71.1672196
11
14.4647186
21
70.7913343
0
LINE
8
DEFAULT_255_1_234
10
14.4647186
20
70.7913343
11
14.9715213
21
70.7913343
0
LINE
8
DEFAULT_255_1_234
10
16.0694599
20
71.2941211
11
16.0694599
21
71.1672196
0
LINE
8
DEFAULT_255_1_234
10
16.0694599
20
71.1672196
11
15.6935746
21
71.1672196
0
LINE
8
DEFAULT_255_1_234
10
15.6935746
20
71.1672196
11
15.6935746
21
70.1247
0
LINE
8
DEFAULT_255_1_234
10
15.6935746
20
70.1247
11
15.5401684
21
70.1247
0
LINE
8
DEFAULT_255_1_234
10
15.5401684
20
70.1247
11
15.5401684
21
71.1672196
0
LINE
8
DEFAULT_255_1_234
10
15.5401684
20
71.1672196
11
15.1650862
21
71.1672196
0
LINE
8
DEFAULT_255_1_234
10
15.1650862
20
71.1672196
11
15.1650862
21
71.2941211
0
LINE
8
DEFAULT_255_1_234
10
15.1650862
20
71.2941211
11
16.0694599
21
71.2941211
0
LINE
8
DEFAULT_255_1_234
10
16.9706209
20
70.2459792
11
16.9706209
21
70.1247
0
LINE
8
DEFAULT_255_1_234
10
16.9706209
20
70.1247
11
16.2043931
21
70.1247
0
LINE
8
DEFAULT_255_1_234
10
16.2043931
20
70.1247
11
16.2043931
21
70.2315221
0
LINE
8
DEFAULT_255_1_234
10
16.2043931
20
70.2315221
11
16.6091927
21
70.6812995
0
LINE
8
DEFAULT_255_1_234
10
16.3304914
20
70.9495595
11
16.1819042
21
70.9495595
0
LINE
8
DEFAULT_255_1_234
10
16.6967387
20
70.5857218
11
16.3835009
21
70.2459792
0
LINE
8
DEFAULT_255_1_234
10
16.3835009
20
70.2459792
11
16.9706209
21
70.2459792
0
ARC
8
DEFAULT_255_1_234
10
15.2601761
20
71.8742527
40
1.8008286
50
318.5132453
51
320.7828378
0
ARC
8
DEFAULT_255_1_234
10
15.7888735
20
71.4439426
40
1.1191493
50
320.7372736
51
323.9737074
0
ARC
8
DEFAULT_255_1_234
10
16.1808591
20
71.1599361
40
0.6350923
50
323.8961724
51
328.6421089
0
ARC
8
DEFAULT_255_1_234
10
16.3855187
20
71.0337031
40
0.3946393
50
328.8299013
51
331.789948
0
ARC
8
DEFAULT_255_1_234
10
16.4852365
20
70.9822509
40
0.2824501
50
331.4255242
51
352.9364833
0
ARC
8
DEFAULT_255_1_234
10
16.4988866
20
70.9791976
40
0.2685315
50
353.2248685
51
0.0169286
0
ARC
8
DEFAULT_255_1_234
10
16.5198743
20
70.981495
40
0.2475536
50
359.4866256
51
15.9339782
0
ARC
8
DEFAULT_255_1_234
10
16.5705728
20
70.9951286
40
0.1950618
50
16.1714718
51
43.5284424
0
ARC
8
DEFAULT_255_1_234
10
16.5783037
20
71.0028573
40
0.184134
50
43.4415429
51
83.1661404
0
ARC
8
DEFAULT_255_1_234
10
16.5648955
20
70.9291771
40
0.258926
50
82.160215
51
90.1505798
0
ARC
8
DEFAULT_255_1_234
10
16.5617382
20
70.8754865
40
0.3126255
50
89.5460705
51
102.5418777
0
ARC
8
DEFAULT_255_1_234
10
16.5374468
20
70.9785665
40
0.2067346
50
102.1739365
51
129.2061916
0
ARC
8
DEFAULT_255_1_234
10
16.529554
20
70.9910094
40
0.1921118
50
129.7279328
51
135.7542026
0
ARC
8
DEFAULT_255_1_234
10
16.5417068
20
70.9813045
40
0.2075944
50
136.175737
51
166.3674722
0
ARC
8
DEFAULT_255_1_234
10
16.6423987
20
70.9543182
40
0.3118201
50
165.9092917
51
178.8683903
0
ARC
8
DEFAULT_255_1_234
10
16.7288848
20
70.9496179
40
0.3983935
50
178.438168
51
180.0083905
0
ARC
8
DEFAULT_255_1_234
10
16.588745
20
70.9535231
40
0.4068601
50
163.2878735
51
180.5581814
0
ARC
8
DEFAULT_255_1_234
10
16.5085712
20
70.975584
40
0.3237344
50
133.454115
51
162.9470031
0
ARC
8
DEFAULT_255_1_234
10
16.5264253
20
70.9566
40
0.349795
50
100.7869394
51
133.4384016
0
ARC
8
DEFAULT_255_1_234
10
16.5612024
20
70.8017319
40
0.5084616
50
89.6605301
51
101.3704185
0
ARC
8
DEFAULT_255_1_234
10
16.5678363
20
70.8078496
40
0.502348
50
78.2171172
51
90.4130393
0
ARC
8
DEFAULT_255_1_234
10
16.6033442
20
70.9702637
40
0.3361092
50
55.9268222
51
78.4888551
0
ARC
8
DEFAULT_255_1_234
10
16.6229882
20
71.0041324
40
0.2970617
50
47.9292255
51
55.4054003
0
ARC
8
DEFAULT_255_1_234
10
16.6331442
20
71.0144502
40
0.2825983
50
4.3347696
51
48.0560701
0
ARC
8
DEFAULT_255_1_234
10
16.5235836
20
70.9974601
40
0.393225
50
359.925209
51
5.5967654
0
ARC
8
DEFAULT_255_1_234
10
16.5664728
20
71.0030816
40
0.3503892
50
337.8914096
51
358.9967724
0
ARC
8
DEFAULT_255_1_234
10
16.295114
20
71.1077706
40
0.6412172
50
326.9135351
51
338.3505194
0
ARC
8
DEFAULT_255_1_234
10
15.8965444
20
71.3632284
40
1.1146189
50
319.6472867
51
327.095818
0
ARC
8
DEFAULT_255_1_234
10
15.5132447
20
71.6794
40
1.6114559
50
317.2586784
51
319.9046139
0
LINE
8
DEFAULT_255_1_234
10
17.8613407
20
70.8162327
11
17.8613407
21
70.6234709
0
LINE
8
DEFAULT_255_1_234
10
17.123224
20
70.6033916
11
17.123224
21
70.8017755
0
LINE
8
DEFAULT_255_1_234
10
17.7127536
20
70.5833123
11
17.7127536
21
70.8266739
0
LINE
8
DEFAULT_255_1_234
10
17.2718111
20
70.8379184
11
17.2718111
21
70.6001789
0
ARC
8
DEFAULT_255_1_234
10
16.6366297
20
70.6185805
40
1.2247208
50
353.8441951
51
0.2287902
0
ARC
8
DEFAULT_255_1_234
10
17.10058
20
70.5667806
40
0.7578929
50
344.4934747
51
353.9765454
0
ARC
8
DEFAULT_255_1_234
10
17.3998391
20
70.4816981
40
0.4467846
50
329.2803592
51
344.7472793
0
ARC
8
DEFAULT_255_1_234
10
17.4991216
20
70.4272018
40
0.3336173
50
324.9352394
51
328.6160465
0
ARC
8
DEFAULT_255_1_234
10
17.5368324
20
70.4008427
40
0.2876076
50
280.580143
51
324.9173126
0
ARC
8
DEFAULT_255_1_234
10
17.4967117
20
70.5679099
40
0.4592847
50
269.5977311
51
281.6734359
0
ARC
8
DEFAULT_255_1_234
10
17.4895022
20
70.5559173
40
0.4472986
50
256.6228859
51
270.51044
0
ARC
8
DEFAULT_255_1_234
10
17.4493
20
70.4010877
40
0.2873874
50
215.8618325
51
257.2788573
0
ARC
8
DEFAULT_255_1_234
10
17.5514032
20
70.4695977
40
0.4102928
50
197.9693508
51
215.2623606
0
ARC
8
DEFAULT_255_1_234
10
17.7999147
20
70.5534709
40
0.6725652
50
187.8816417
51
198.2346507
0
ARC
8
DEFAULT_255_1_234
10
18.1957356
20
70.6106079
40
1.0724845
50
180.8976217
51
188.0055519
0
ARC
8
DEFAULT_255_1_234
10
18.4757544
20
70.6209777
40
1.3526448
50
180.7449369
51
181.1510016
0
ARC
8
DEFAULT_255_1_234
10
18.3180273
20
70.8066042
40
1.1948131
50
173.7675579
51
180.231553
0
ARC
8
DEFAULT_255_1_234
10
17.866242
20
70.8576666
40
0.7401564
50
164.3058563
51
173.9002247
0
ARC
8
DEFAULT_255_1_234
10
17.5750488
20
70.9415656
40
0.4371288
50
148.7922025
51
164.568378
0
ARC
8
DEFAULT_255_1_234
10
17.4798941
20
70.9946929
40
0.3282386
50
144.5883898
51
148.1176286
0
ARC
8
DEFAULT_255_1_234
10
17.4455838
20
71.0186315
40
0.2864044
50
101.6440918
51
144.514236
0
ARC
8
DEFAULT_255_1_234
10
17.4880905
20
70.8497069
40
0.4604934
50
89.5284041
51
102.5819763
0
ARC
8
DEFAULT_255_1_234
10
17.4959993
20
70.8458018
40
0.464401
50
77.0437873
51
90.5081339
0
ARC
8
DEFAULT_255_1_234
10
17.5361995
20
71.0100615
40
0.2953195
50
48.2778575
51
77.4994676
0
ARC
8
DEFAULT_255_1_234
10
17.5434626
20
71.0229746
40
0.2808655
50
36.3142134
51
47.6305865
0
ARC
8
DEFAULT_255_1_234
10
17.4565933
20
70.9644515
40
0.3855453
50
18.2931786
51
35.6769206
0
ARC
8
DEFAULT_255_1_234
10
17.2022692
20
70.8771593
40
0.654423
50
8.024666
51
18.5605216
0
ARC
8
DEFAULT_255_1_234
10
16.7859612
20
70.8156792
40
1.0752407
50
1.1274072
51
8.1718305
0
ARC
8
DEFAULT_255_1_234
10
16.4623802
20
70.8029885
40
1.3990231
50
0.5424119
51
1.3863029
0
ARC
8
DEFAULT_255_1_234
10
16.644518
20
70.8302342
40
1.0682415
50
359.8090433
51
4.9407866
0
ARC
8
DEFAULT_255_1_234
10
17.0655194
20
70.8678113
40
0.6455691
50
4.8362157
51
12.2904523
0
ARC
8
DEFAULT_255_1_234
10
17.3410309
20
70.9291965
40
0.3633074
50
12.0805627
51
23.8173984
0
ARC
8
DEFAULT_255_1_234
10
17.4584014
20
70.9788919
40
0.2358723
50
24.2871213
51
31.3935614
0
ARC
8
DEFAULT_255_1_234
10
17.5108712
20
71.0132233
40
0.1732111
50
30.7407893
51
82.4657128
0
ARC
8
DEFAULT_255_1_234
10
17.4928846
20
70.9248691
40
0.263235
50
81.1060089
51
90.2184952
0
ARC
8
DEFAULT_255_1_234
10
17.4893145
20
70.9506924
40
0.2374236
50
89.3806855
51
105.6762551
0
ARC
8
DEFAULT_255_1_234
10
17.4709775
20
71.0173567
40
0.1682847
50
105.7981136
51
149.7388061
0
ARC
8
DEFAULT_255_1_234
10
17.5773854
20
70.953395
40
0.2924306
50
149.4208916
51
163.6286378
0
ARC
8
DEFAULT_255_1_234
10
17.7864742
20
70.889625
40
0.5110213
50
163.3763315
51
172.1410975
0
ARC
8
DEFAULT_255_1_234
10
18.1165461
20
70.8423518
40
0.8444586
50
172.0259487
51
178.0703232
0
ARC
8
DEFAULT_255_1_234
10
18.419555
20
70.8279906
40
1.1477868
50
177.8631668
51
179.5044149
0
ARC
8
DEFAULT_255_1_234
10
18.3122955
20
70.5965389
40
1.0404907
50
179.7995573
51
185.2460446
0
ARC
8
DEFAULT_255_1_234
10
17.9079994
20
70.5582513
40
0.6343885
50
185.1411642
51
193.0079639
0
ARC
8
DEFAULT_255_1_234
10
17.6436467
20
70.4957641
40
0.3627568
50
192.7897626
51
205.2507664
0
ARC
8
DEFAULT_255_1_234
10
17.5390014
20
70.4490415
40
0.2481908
50
205.8005384
51
211.2537509
0
ARC
8
DEFAULT_255_1_234
10
17.4866454
20
70.413958
40
0.1852521
50
210.3789793
51
238.4008143
0
ARC
8
DEFAULT_255_1_234
10
17.4846976
20
70.4186376
40
0.1882621
50
239.6520629
51
265.9793761
0
ARC
8
DEFAULT_255_1_234
10
17.4932176
20
70.4858427
40
0.2559272
50
265.1315437
51
270.060332
0
ARC
8
DEFAULT_255_1_234
10
17.4960955
20
70.4534534
40
0.2235528
50
269.3314664
51
287.2178029
0
ARC
8
DEFAULT_255_1_234
10
17.5098807
20
70.4031279
40
0.1714108
50
287.7958004
51
329.080874
0
ARC
8
DEFAULT_255_1_234
10
17.4141264
20
70.462893
40
0.2842745
50
328.6634704
51
343.3325132
0
ARC
8
DEFAULT_255_1_234
10
17.1968284
20
70.5305863
40
0.5118644
50
343.0499468
51
351.9393422
0
ARC
8
DEFAULT_255_1_234
10
16.8501584
20
70.5816949
40
0.8622784
50
351.8069023
51
357.7959224
0
ARC
8
DEFAULT_255_1_234
10
16.526614
20
70.5984721
40
1.1862365
50
357.5871873
51
359.2677531
0
LINE
8
DEFAULT_255_1_234
10
18.7849906
20
70.8162327
11
18.7849906
21
70.6234709
0
LINE
8
DEFAULT_255_1_234
10
18.0468739
20
70.6033916
11
18.0468739
21
70.8017755
0
LINE
8
DEFAULT_255_1_234
10
18.6364035
20
70.5833123
11
18.6364035
21
70.8266739
0
LINE
8
DEFAULT_255_1_234
10
18.195461
20
70.8379184
11
18.195461
21
70.6001789
0
ARC
8
DEFAULT_255_1_234
10
17.5602796
20
70.6185805
40
1.2247208
50
353.8441951
51
0.2287902
0
ARC
8
DEFAULT_255_1_234
10
18.0242299
20
70.5667806
40
0.7578929
50
344.4934747
51
353.9765454
0
ARC
8
DEFAULT_255_1_234
10
18.323489
20
70.4816981
40
0.4467846
50
329.2803592
51
344.7472793
0
ARC
8
DEFAULT_255_1_234
10
18.4227715
20
70.4272018
40
0.3336173
50
324.9352394
51
328.6160465
0
ARC
8
DEFAULT_255_1_234
10
18.4604823
20
70.4008427
40
0.2876076
50
280.580143
51
324.9173126
0
ARC
8
DEFAULT_255_1_234
10
18.4203616
20
70.5679099
40
0.4592847
50
269.5977311
51
281.6734359
0
ARC
8
DEFAULT_255_1_234
10
18.4131521
20
70.5559173
40
0.4472986
50
256.6228859
51
270.51044
0
ARC
8
DEFAULT_255_1_234
10
18.3729499
20
70.4010877
40
0.2873874
50
215.8618325
51
257.2788573
0
ARC
8
DEFAULT_255_1_234
10
18.4750531
20
70.4695977
40
0.4102928
50
197.9693508
51
215.2623606
0
ARC
8
DEFAULT_255_1_234
10
18.7235647
20
70.5534709
40
0.6725652
50
187.8816417
51
198.2346507
0
ARC
8
DEFAULT_255_1_234
10
19.1193855
20
70.6106079
40
1.0724845
50
180.8976217
51
188.0055519
0
ARC
8
DEFAULT_255_1_234
10
19.3994043
20
70.6209777
40
1.3526448
50
180.7449369
51
181.1510016
0
ARC
8
DEFAULT_255_1_234
10
19.2416772
20
70.8066042
40
1.1948131
50
173.7675579
51
180.231553
0
ARC
8
DEFAULT_255_1_234
10
18.7898919
20
70.8576666
40
0.7401564
50
164.3058563
51
173.9002247
0
ARC
8
DEFAULT_255_1_234
10
18.4986987
20
70.9415656
40
0.4371288
50
148.7922025
51
164.568378
0
ARC
8
DEFAULT_255_1_234
10
18.403544
20
70.9946929
40
0.3282386
50
144.5883898
51
148.1176286
0
ARC
8
DEFAULT_255_1_234
10
18.3692337
20
71.0186315
40
0.2864044
50
101.6440918
51
144.514236
0
ARC
8
DEFAULT_255_1_234
10
18.4117404
20
70.8497069
40
0.4604934
50
89.5284041
51
102.5819763
0
ARC
8
DEFAULT_255_1_234
10
18.4196492
20
70.8458018
40
0.464401
50
77.0437873
51
90.5081339
0
ARC
8
DEFAULT_255_1_234
10
18.4598494
20
71.0100615
40
0.2953195
50
48.2778575
51
77.4994676
0
ARC
8
DEFAULT_255_1_234
10
18.4671125
20
71.0229746
40
0.2808655
50
36.3142134
51
47.6305865
0
ARC
8
DEFAULT_255_1_234
10
18.3802432
20
70.9644515
40
0.3855453
50
18.2931786
51
35.6769206
0
ARC
8
DEFAULT_255_1_234
10
18.1259191
20
70.8771593
40
0.654423
50
8.024666
51
18.5605216
0
ARC
8
DEFAULT_255_1_234
10
17.7096111
20
70.8156792
40
1.0752407
50
1.1274072
51
8.1718305
0
ARC
8
DEFAULT_255_1_234
10
17.3860301
20
70.8029885
40
1.3990231
50
0.5424119
51
1.3863029
0
ARC
8
DEFAULT_255_1_234
10
17.5681679
20
70.8302342
40
1.0682415
50
359.8090433
51
4.9407866
0
ARC
8
DEFAULT_255_1_234
10
17.9891693
20
70.8678113
40
0.6455691
50
4.8362157
51
12.2904523
0
ARC
8
DEFAULT_255_1_234
10
18.2646808
20
70.9291965
40
0.3633074
50
12.0805627
51
23.8173984
0
ARC
8
DEFAULT_255_1_234
10
18.3820513
20
70.9788919
40
0.2358723
50
24.2871213
51
31.3935614
0
ARC
8
DEFAULT_255_1_234
10
18.4345211
20
71.0132233
40
0.1732111
50
30.7407893
51
82.4657128
0
ARC
8
DEFAULT_255_1_234
10
18.4165345
20
70.9248691
40
0.263235
50
81.1060089
51
90.2184952
0
ARC
8
DEFAULT_255_1_234
10
18.4129644
20
70.9506924
40
0.2374236
50
89.3806855
51
105.6762551
0
ARC
8
DEFAULT_255_1_234
10
18.3946274
20
71.0173567
40
0.1682847
50
105.7981136
51
149.7388061
0
ARC
8
DEFAULT_255_1_234
10
18.5010353
20
70.953395
40
0.2924306
50
149.4208916
51
163.6286378
0
ARC
8
DEFAULT_255_1_234
10
18.7101241
20
70.889625
40
0.5110213
50
163.3763315
51
172.1410975
0
ARC
8
DEFAULT_255_1_234
10
19.040196
20
70.8423518
40
0.8444586
50
172.0259487
51
178.0703232
0
ARC
8
DEFAULT_255_1_234
10
19.3432049
20
70.8279906
40
1.1477868
50
177.8631668
51
179.5044149
0
ARC
8
DEFAULT_255_1_234
10
19.2359454
20
70.5965389
40
1.0404907
50
179.7995573
51
185.2460446
0
ARC
8
DEFAULT_255_1_234
10
18.8316493
20
70.5582513
40
0.6343885
50
185.1411642
51
193.0079639
0
ARC
8
DEFAULT_255_1_234
10
18.5672966
20
70.4957641
40
0.3627568
50
192.7897626
51
205.2507664
0
ARC
8
DEFAULT_255_1_234
10
18.4626513
20
70.4490415
40
0.2481908
50
205.8005384
51
211.2537509
0
ARC
8
DEFAULT_255_1_234
10
18.4102953
20
70.413958
40
0.1852521
50
210.3789793
51
238.4008143
0
ARC
8
DEFAULT_255_1_234
10
18.4083475
20
70.4186376
40
0.1882621
50
239.6520629
51
265.9793761
0
ARC
8
DEFAULT_255_1_234
10
18.4168675
20
70.4858427
40
0.2559272
50
265.1315437
51
270.060332
0
ARC
8
DEFAULT_255_1_234
10
18.4197454
20
70.4534534
40
0.2235528
50
269.3314664
51
287.2178029
0
ARC
8
DEFAULT_255_1_234
10
18.4335306
20
70.4031279
40
0.1714108
50
287.7958004
51
329.080874
0
ARC
8
DEFAULT_255_1_234
10
18.3377763
20
70.462893
40
0.2842745
50
328.6634704
51
343.3325132
0
ARC
8
DEFAULT_255_1_234
10
18.1204783
20
70.5305863
40
0.5118644
50
343.0499468
51
351.9393422
0
ARC
8
DEFAULT_255_1_234
10
17.7738083
20
70.5816949
40
0.8622784
50
351.8069023
51
357.7959224
0
ARC
8
DEFAULT_255_1_234
10
17.4502639
20
70.5984721
40
1.1862365
50
357.5871873
51
359.2677531
0
LINE
8
DEFAULT_255_1_234
10
19.7897611
20
70.9559849
11
19.6347485
21
70.9559849
0
LINE
8
DEFAULT_255_1_234
10
18.9424127
20
70.4636394
11
19.0974252
21
70.4636394
0
ARC
8
DEFAULT_255_1_234
10
19.7006298
20
71.8506768
40
1.252368
50
248.9199003
51
254.1439814
0
ARC
8
DEFAULT_255_1_234
10
19.5325793
20
71.4180234
40
0.788226
50
241.633709
51
249.0064503
0
ARC
8
DEFAULT_255_1_234
10
19.3797187
20
71.1379317
40
0.4691427
50
230.498225
51
241.8087113
0
ARC
8
DEFAULT_255_1_234
10
19.3012762
20
71.0379906
40
0.3421437
50
227.4064532
51
229.9881192
0
ARC
8
DEFAULT_255_1_234
10
19.2525282
20
70.9904088
40
0.2741476
50
200.6781896
51
228.1763934
0
ARC
8
DEFAULT_255_1_234
10
19.2597593
20
70.9889077
40
0.2804109
50
179.5061581
51
199.8694617
0
ARC
8
DEFAULT_255_1_234
10
19.2588345
20
70.996321
40
0.2795204
50
132.4834203
51
181.0242172
0
ARC
8
DEFAULT_255_1_234
10
19.3183927
20
70.9400704
40
0.3612768
50
129.2532479
51
133.4242687
0
ARC
8
DEFAULT_255_1_234
10
19.3330377
20
70.9180965
40
0.3875675
50
101.98776
51
128.8742646
0
ARC
8
DEFAULT_255_1_234
10
19.3728987
20
70.7459741
40
0.5642249
50
89.5906553
51
102.3169264
0
ARC
8
DEFAULT_255_1_234
10
19.3799479
20
70.7778148
40
0.5323783
50
77.2360837
51
90.3248275
0
ARC
8
DEFAULT_255_1_234
10
19.4006558
20
70.87454
40
0.4334697
50
63.837784
51
77.0809408
0
ARC
8
DEFAULT_255_1_234
10
19.428432
20
70.9262911
40
0.3747796
50
45.9864267
51
64.1607727
0
ARC
8
DEFAULT_255_1_234
10
19.4545201
20
70.9560866
40
0.3352302
50
32.2747395
51
45.6547121
0
ARC
8
DEFAULT_255_1_234
10
19.4611642
20
70.957988
40
0.328603
50
359.6507365
51
32.6130309
0
ARC
8
DEFAULT_255_1_234
10
19.3668737
20
70.958466
40
0.2678863
50
359.469343
51
14.9832209
0
ARC
8
DEFAULT_255_1_234
10
19.43738
20
70.9773539
40
0.1948938
50
14.9781179
51
48.2004265
0
ARC
8
DEFAULT_255_1_234
10
19.4209444
20
70.9566983
40
0.2212521
50
48.5927837
51
74.1241538
0
ARC
8
DEFAULT_255_1_234
10
19.3875934
20
70.8466248
40
0.3362561
50
73.7888341
51
86.6652678
0
ARC
8
DEFAULT_255_1_234
10
19.3773499
20
70.7258881
40
0.4573953
50
86.2640471
51
90.0526343
0
ARC
8
DEFAULT_255_1_234
10
19.3745212
20
70.7654192
40
0.4178709
50
89.6697524
51
99.2309573
0
ARC
8
DEFAULT_255_1_234
10
19.3502663
20
70.9098964
40
0.2713749
50
99.069534
51
113.7658566
0
ARC
8
DEFAULT_255_1_234
10
19.3228854
20
70.9744677
40
0.2012469
50
114.0401004
51
127.9850673
0
ARC
8
DEFAULT_255_1_234
10
19.2988418
20
71.004073
40
0.1631167
50
127.7287463
51
176.7105154
0
ARC
8
DEFAULT_255_1_234
10
19.3667135
20
70.9939693
40
0.2315392
50
175.1779447
51
180.0581938
0
ARC
8
DEFAULT_255_1_234
10
19.2823982
20
70.9927428
40
0.1472271
50
179.6142195
51
228.1246017
0
ARC
8
DEFAULT_255_1_234
10
19.3265651
20
71.0336308
40
0.2072299
50
226.5779593
51
230.8800004
0
ARC
8
DEFAULT_255_1_234
10
19.3736729
20
71.0961636
40
0.2854818
50
231.4635071
51
241.9260842
0
ARC
8
DEFAULT_255_1_234
10
19.4933907
20
71.31648
40
0.53622
50
241.7178533
51
248.3259551
0
ARC
8
DEFAULT_255_1_234
10
19.6319279
20
71.6597064
40
0.9063478
50
248.2007737
51
252.4528373
0
ARC
8
DEFAULT_255_1_234
10
19.7523004
20
72.0318441
40
1.2974635
50
252.3391078
51
254.3469452
0
ARC
8
DEFAULT_255_1_234
10
18.9980707
20
69.3341148
40
1.5037162
50
71.0197183
51
74.4087047
0
ARC
8
DEFAULT_255_1_234
10
19.1675392
20
69.8233111
40
0.9859993
50
66.1847285
51
71.086374
0
ARC
8
DEFAULT_255_1_234
10
19.3231704
20
70.17372
40
0.6025855
50
59.3536294
51
66.2691831
0
ARC
8
DEFAULT_255_1_234
10
19.4120357
20
70.3240609
40
0.4279449
50
49.1020879
51
59.3293958
0
ARC
8
DEFAULT_255_1_234
10
19.4939097
20
70.4173834
40
0.3038015
50
32.7919921
51
49.2505539
0
ARC
8
DEFAULT_255_1_234
10
19.5260186
20
70.4402191
40
0.264448
50
31.1181161
51
32.4005348
0
ARC
8
DEFAULT_255_1_234
10
19.5171724
20
70.4366779
40
0.2738556
50
8.1116974
51
30.7958831
0
ARC
8
DEFAULT_255_1_234
10
19.4361392
20
70.4228753
40
0.3560327
50
359.8389159
51
8.4706516
0
ARC
8
DEFAULT_255_1_234
10
19.4987184
20
70.4180137
40
0.2934776
50
337.4731098
51
0.7537279
0
ARC
8
DEFAULT_255_1_234
10
19.5165879
20
70.4160387
40
0.2762607
50
307.5917067
51
336.4315538
0
ARC
8
DEFAULT_255_1_234
10
19.4705707
20
70.4673102
40
0.3449979
50
307.6551545
51
308.4529766
0
ARC
8
DEFAULT_255_1_234
10
19.4475425
20
70.502825
40
0.3871988
50
284.3734338
51
307.1424381
0
ARC
8
DEFAULT_255_1_234
10
19.3980256
20
70.6849932
40
0.5759636
50
272.4382747
51
284.646547
0
ARC
8
DEFAULT_255_1_234
10
19.3853464
20
70.8649893
40
0.7563528
50
269.9708387
51
272.8178037
0
ARC
8
DEFAULT_255_1_234
10
19.3810504
20
70.6611716
40
0.5525489
50
248.2707594
51
270.4055579
0
ARC
8
DEFAULT_255_1_234
10
19.3756245
20
70.6421192
40
0.5328452
50
246.1383403
51
248.0542782
0
ARC
8
DEFAULT_255_1_234
10
19.3337624
20
70.5541843
40
0.4355005
50
233.1670131
51
246.4950969
0
ARC
8
DEFAULT_255_1_234
10
19.2783529
20
70.4793812
40
0.3424126
50
215.3403242
51
233.0843104
0
ARC
8
DEFAULT_255_1_234
10
19.251096
20
70.4595549
40
0.3087104
50
179.2419209
51
215.2648451
0
ARC
8
DEFAULT_255_1_234
10
19.3278554
20
70.4609666
40
0.2304457
50
179.335461
51
199.1045811
0
ARC
8
DEFAULT_255_1_234
10
19.2946231
20
70.4522766
40
0.1962176
50
199.8828939
51
232.7063202
0
ARC
8
DEFAULT_255_1_234
10
19.3418499
20
70.5116788
40
0.2720938
50
232.3738199
51
255.5136649
0
ARC
8
DEFAULT_255_1_234
10
19.3759366
20
70.6360835
40
0.4010747
50
255.2446292
51
267.5320849
0
ARC
8
DEFAULT_255_1_234
10
19.3846989
20
70.7593702
40
0.5246356
50
267.1557994
51
270.0286766
0
ARC
8
DEFAULT_255_1_234
10
19.3874761
20
70.714995
40
0.4802668
50
269.7000017
51
278.1660162
0
ARC
8
DEFAULT_255_1_234
10
19.4130766
20
70.5419515
40
0.3053425
50
278.0231263
51
290.625471
0
ARC
8
DEFAULT_255_1_234
10
19.4478453
20
70.4492025
40
0.206291
50
290.6619762
51
307.0370976
0
ARC
8
DEFAULT_255_1_234
10
19.4778842
20
70.4123504
40
0.1587906
50
306.3943566
51
355.3030547
0
ARC
8
DEFAULT_255_1_234
10
19.4266774
20
70.4200113
40
0.2104809
50
354.3660432
51
0.0698737
0
ARC
8
DEFAULT_255_1_234
10
19.4409119
20
70.4222617
40
0.1962563
50
359.417946
51
16.1971788
0
ARC
8
DEFAULT_255_1_234
10
19.4864429
20
70.4347418
40
0.149053
50
16.4723299
51
52.6262157
0
ARC
8
DEFAULT_255_1_234
10
19.4043483
20
70.3263433
40
0.2850296
50
52.7386432
51
62.4979148
0
ARC
8
DEFAULT_255_1_234
10
19.265856
20
70.0657283
40
0.5801521
50
62.2515216
51
68.1220564
0
ARC
8
DEFAULT_255_1_234
10
19.0938471
20
69.6429872
40
1.0365451
50
68.0062803
51
71.8053402
0
ARC
8
DEFAULT_255_1_234
10
18.9142843
20
69.1044758
40
1.6042013
50
71.7183119
51
73.9258742
0
LINE
8
DEFAULT_255_1_234
10
20.4194494
20
70.5825091
11
20.1439607
21
70.5825091
0
LINE
8
DEFAULT_255_1_234
10
20.1439607
20
70.5825091
11
20.1439607
21
70.1247
0
LINE
8
DEFAULT_255_1_234
10
20.1439607
20
70.1247
11
19.9897514
21
70.1247
0
LINE
8
DEFAULT_255_1_234
10
19.9897514
20
70.1247
11
19.9897514
21
71.2941211
0
LINE
8
DEFAULT_255_1_234
10
19.9897514
20
71.2941211
11
20.4210557
21
71.2941211
0
LINE
8
DEFAULT_255_1_234
10
20.1439607
20
71.1672196
11
20.1439607
21
70.7086074
0
LINE
8
DEFAULT_255_1_234
10
20.1439607
20
70.7086074
11
20.4210557
21
70.7086074
0
LINE
8
DEFAULT_255_1_234
10
20.4298906
20
71.1672196
11
20.1439607
21
71.1672196
0
ARC
8
DEFAULT_255_1_234
10
20.4252684
20
70.6882195
40
0.6059162
50
78.8378113
51
90.3983573
0
ARC
8
DEFAULT_255_1_234
10
20.4668697
20
70.8902879
40
0.3996205
50
58.9632738
51
79.0810598
0
ARC
8
DEFAULT_255_1_234
10
20.497024
20
70.9462721
40
0.3361177
50
48.0197965
51
58.447194
0
ARC
8
DEFAULT_255_1_234
10
20.5059101
20
70.9548225
40
0.3238191
50
3.3375044
51
48.1766626
0
ARC
8
DEFAULT_255_1_234
10
20.382894
20
70.9371171
40
0.4477806
50
359.9477528
51
4.6829065
0
ARC
8
DEFAULT_255_1_234
10
20.3952257
20
70.9328628
40
0.4354656
50
346.1877825
51
0.5060252
0
ARC
8
DEFAULT_255_1_234
10
20.5311125
20
70.8975731
40
0.295089
50
310.8831995
51
346.5426355
0
ARC
8
DEFAULT_255_1_234
10
20.5002545
20
70.9392695
40
0.3468331
50
286.6925341
51
310.2288297
0
ARC
8
DEFAULT_255_1_234
10
20.4433375
20
71.1182882
40
0.5346654
50
274.6850312
51
287.0245141
0
ARC
8
DEFAULT_255_1_234
10
20.4208099
20
71.3391932
40
0.7566852
50
269.8969846
51
275.018904
0
ARC
8
DEFAULT_255_1_234
10
20.423569
20
71.1312707
40
0.4226708
50
269.6593078
51
279.4153575
0
ARC
8
DEFAULT_255_1_234
10
20.4492965
20
70.9822133
40
0.2714146
50
279.2049762
51
294.9900808
0
ARC
8
DEFAULT_255_1_234
10
20.4783291
20
70.9174508
40
0.2004525
50
295.2888114
51
311.2911209
0
ARC
8
DEFAULT_255_1_234
10
20.4854185
20
70.906922
40
0.1878703
50
311.7854996
51
347.2861051
0
ARC
8
DEFAULT_255_1_234
10
20.3870344
20
70.9322092
40
0.2894234
50
346.6893224
51
0.1059443
0
ARC
8
DEFAULT_255_1_234
10
20.3115239
20
70.9350685
40
0.3649409
50
359.6350983
51
0.0053152
0
ARC
8
DEFAULT_255_1_234
10
20.4085567
20
70.9375937
40
0.2679199
50
359.4672059
51
15.5933957
0
ARC
8
DEFAULT_255_1_234
10
20.4710456
20
70.9544779
40
0.2031932
50
15.7442113
51
46.6203375
0
ARC
8
DEFAULT_255_1_234
10
20.4562676
20
70.9374484
40
0.2257226
50
46.8628658
51
75.6676503
0
ARC
8
DEFAULT_255_1_234
10
20.4268497
20
70.8315718
40
0.3355939
50
75.276167
51
88.2915297
0
ARC
8
DEFAULT_255_1_234
10
20.4210204
20
70.7437524
40
0.4235602
50
87.8575022
51
88.8000139
0
ARC
8
DEFAULT_255_2_778
10
7.7537439
20
76.1073128
40
3.0466403
50
251.6724781
51
258.5987661
0
ARC
8
DEFAULT_255_2_778
10
7.5394558
20
75.0261316
40
1.9444375
50
258.4907215
51
268.3974115
0
ARC
8
DEFAULT_255_2_778
10
7.5171542
20
74.5954995
40
1.5133848
50
268.7854544
51
269.9953942
0
ARC
8
DEFAULT_255_2_778
10
7.5274263
20
74.1461726
40
1.0641086
50
269.4403512
51
279.6841037
0
ARC
8
DEFAULT_255_2_778
10
7.6415978
20
73.5166567
40
0.4244099
50
278.7863046
51
300.3428271
0
ARC
8
DEFAULT_255_2_778
10
7.7606279
20
73.31403
40
0.1894089
50
300.2328316
51
1.9014863
0
ARC
8
DEFAULT_255_2_778
10
7.745908
20
73.3231715
40
0.2040445
50
359.1977832
51
359.9996968
0
ARC
8
DEFAULT_255_2_778
10
7.752475
20
73.3240013
40
0.1974794
50
359.7589479
51
47.2071953
0
ARC
8
DEFAULT_255_2_778
10
7.618413
20
73.1750429
40
0.3978723
50
47.6130098
51
60.824453
0
ARC
8
DEFAULT_255_2_778
10
7.0178997
20
72.1580677
40
1.5788249
50
59.7878046
51
64.8721208
0
ARC
8
DEFAULT_255_2_778
10
6.0919837
20
70.2268461
40
3.7205057
50
64.5916011
51
66.820345
0
ARC
8
DEFAULT_255_2_778
10
9.6372482
20
78.5849609
40
5.3584611
50
244.3087082
51
247.1497851
0
ARC
8
DEFAULT_255_2_778
10
8.548378
20
76.329372
40
2.8538059
50
240.2312866
51
244.3765687
0
ARC
8
DEFAULT_255_2_778
10
7.7790999
20
74.9949805
40
1.3135689
50
233.2094737
51
240.4596791
0
ARC
8
DEFAULT_255_2_778
10
7.3558445
20
74.4249409
40
0.603585
50
225.678902
51
232.9782433
0
ARC
8
DEFAULT_255_2_778
10
7.396101
20
74.4497518
40
0.6495632
50
178.2741582
51
224.667467
0
ARC
8
DEFAULT_255_2_778
10
7.506051
20
74.4831559
40
0.7593447
50
157.036112
51
181.044431
0
ARC
8
DEFAULT_255_2_778
10
7.3786854
20
74.5239246
40
0.6262846
50
124.9253006
51
155.9241303
0
ARC
8
DEFAULT_255_2_778
10
7.5959789
20
74.2155358
40
1.0035357
50
100.4079723
51
125.0168617
0
ARC
8
DEFAULT_255_2_778
10
7.6990521
20
73.7214723
40
1.5081396
50
89.6483922
51
100.8684975
0
ARC
8
DEFAULT_255_2_778
10
7.7082565
20
73.3692665
40
1.8603169
50
89.5079487
51
89.9984402
0
ARC
8
DEFAULT_255_2_778
10
7.7098896
20
73.3040371
40
1.9255311
50
83.9170631
51
89.5732113
0
ARC
8
DEFAULT_255_2_778
10
7.507084
20
71.2964635
40
3.9433074
50
80.7325723
51
84.0779772
0
ARC
8
DEFAULT_255_2_778
10
7.020778
20
68.2735497
40
7.0050837
50
78.5086351
51
80.7886813
0
ARC
8
DEFAULT_255_2_778
10
7.66195
20
72.8730221
40
1.9415426
50
67.135818
51
78.0934208
0
ARC
8
DEFAULT_255_2_778
10
7.7851137
20
73.4434486
40
1.3579807
50
78.2126325
51
89.7333975
0
ARC
8
DEFAULT_255_2_778
10
7.7793169
20
73.8578048
40
0.9436877
50
89.2643807
51
100.5577599
0
ARC
8
DEFAULT_255_2_778
10
7.6665349
20
74.4265957
40
0.3639224
50
99.5099416
51
124.0285213
0
ARC
8
DEFAULT_255_2_778
10
7.57032
20
74.5766933
40
0.1857341
50
125.3416971
51
182.2767689
0
ARC
8
DEFAULT_255_2_778
10
7.5498732
20
74.5700853
40
0.1651425
50
180.2673353
51
239.6912529
0
ARC
8
DEFAULT_255_2_778
10
7.9317524
20
75.168404
40
0.8748407
50
237.8744287
51
242.8176978
0
ARC
8
DEFAULT_255_2_778
10
9.4128979
20
77.9790997
40
4.0518771
50
242.3429481
51
244.0446069
0
ARC
8
DEFAULT_255_2_778
10
12.366878
20
84.0129499
40
10.7700062
50
243.963828
51
244.8175572
0
ARC
8
DEFAULT_255_2_778
10
15.3890528
20
90.4046513
40
17.8401724
50
244.7685545
51
244.971514
0
ARC
8
DEFAULT_255_2_778
10
5.8608283
20
69.9098652
40
4.7613433
50
62.2451122
51
65.4192096
0
ARC
8
DEFAULT_255_2_778
10
6.9253351
20
71.921774
40
2.4851839
50
57.2979848
51
62.3628589
0
ARC
8
DEFAULT_255_2_778
10
7.6799627
20
73.087458
40
1.0965802
50
48.7493094
51
57.571194
0
ARC
8
DEFAULT_255_2_778
10
8.0114821
20
73.4757759
40
0.586081
50
44.3424824
51
48.0852666
0
ARC
8
DEFAULT_255_2_778
10
7.9782325
20
73.4562146
40
0.6236013
50
1.3523843
51
43.4925744
0
ARC
8
DEFAULT_255_2_778
10
7.7102854
20
73.4232828
40
0.8926473
50
359.9763756
51
3.0599076
0
ARC
8
DEFAULT_255_2_778
10
7.8642098
20
73.4081968
40
0.7388693
50
333.0409438
51
1.1413791
0
ARC
8
DEFAULT_255_2_778
10
7.8947469
20
73.4150035
40
0.7150136
50
300.8436672
51
331.44521
0
ARC
8
DEFAULT_255_2_778
10
7.6945587
20
73.7290479
40
1.0873327
50
281.4188469
51
301.4162372
0
ARC
8
DEFAULT_255_2_778
10
7.5631994
20
74.3378698
40
1.7101299
50
270.2272327
51
281.6944092
0
ARC
8
DEFAULT_255_2_778
10
7.5453128
20
74.8135692
40
2.185955
50
269.9983113
51
270.6466065
0
LINE
8
DEFAULT_255_2_778
10
7.5452484
20
72.6276142
11
7.5437325
21
72.6276147
0
ARC
8
DEFAULT_255_2_778
10
7.5508484
20
75.8105647
40
3.1829579
50
256.2431122
51
269.871909
0
ARC
8
DEFAULT_255_2_778
10
21.7540021
20
76.0293817
40
2.9666503
50
251.5318157
51
258.7258279
0
ARC
8
DEFAULT_255_2_778
10
21.5537563
20
75.007451
40
1.9252941
50
258.62435
51
268.8252909
0
ARC
8
DEFAULT_255_2_778
10
21.5354665
20
74.6125972
40
1.5301823
50
269.2068806
51
269.9987259
0
ARC
8
DEFAULT_255_2_778
10
21.5473171
20
74.1483861
40
1.0660376
50
269.3612297
51
279.5899087
0
ARC
8
DEFAULT_255_2_778
10
21.6607762
20
73.5169001
40
0.424527
50
278.6895227
51
300.2363944
0
ARC
8
DEFAULT_255_2_778
10
21.7798406
20
73.313447
40
0.188796
50
300.1108484
51
1.9024905
0
ARC
8
DEFAULT_255_2_778
10
21.74389
20
73.3240898
40
0.2246851
50
358.8842611
51
0.0019649
0
ARC
8
DEFAULT_255_2_778
10
21.7769114
20
73.3280062
40
0.1917038
50
358.831716
51
47.0900458
0
ARC
8
DEFAULT_255_2_778
10
21.6376597
20
73.1695519
40
0.402612
50
47.9285592
51
61.0836101
0
ARC
8
DEFAULT_255_2_778
10
21.0429796
20
72.1512787
40
1.5817315
50
60.0631222
51
65.1602386
0
ARC
8
DEFAULT_255_2_778
10
20.1314272
20
70.225206
40
3.7125866
50
64.8807046
51
67.1209578
0
ARC
8
DEFAULT_255_2_778
10
23.627479
20
78.5146565
40
5.2839333
50
244.2656926
51
247.1407051
0
ARC
8
DEFAULT_255_2_778
10
22.559432
20
76.3064327
40
2.8309849
50
240.1545061
51
244.3326325
0
ARC
8
DEFAULT_255_2_778
10
21.7855871
20
74.9704023
40
1.2870531
50
232.697515
51
240.4357497
0
ARC
8
DEFAULT_255_2_778
10
21.3704829
20
74.4193895
40
0.5972006
50
225.5850892
51
232.3393736
0
ARC
8
DEFAULT_255_2_778
10
21.4133264
20
74.448961
40
0.6483829
50
178.7795739
51
224.7095916
0
ARC
8
DEFAULT_255_2_778
10
21.6668642
20
74.4729812
40
0.9018316
50
179.997867
51
180.6487041
0
ARC
8
DEFAULT_255_2_778
10
21.5167061
20
74.4867926
40
0.7517998
50
156.9195758
51
181.050088
0
ARC
8
DEFAULT_255_2_778
10
21.3927805
20
74.5262389
40
0.6224513
50
124.7111133
51
155.7879672
0
ARC
8
DEFAULT_255_2_778
10
21.6049077
20
74.2359843
40
0.9818859
50
101.7943006
51
125.2417472
0
ARC
8
DEFAULT_255_2_778
10
21.7294568
20
73.6825359
40
1.5491324
50
89.5237779
51
102.119608
0
ARC
8
DEFAULT_255_2_778
10
21.727965
20
73.1277684
40
2.1038954
50
83.2897778
51
89.6087235
0
ARC
8
DEFAULT_255_2_778
10
21.5234013
20
71.3154907
40
3.9276711
50
79.3121016
51
83.4152109
0
ARC
8
DEFAULT_255_2_778
10
21.2067148
20
69.5508502
40
5.7204535
50
78.2244786
51
79.4731175
0
ARC
8
DEFAULT_255_2_778
10
21.6833903
20
72.8845601
40
1.9313541
50
67.1320052
51
78.3124693
0
ARC
8
DEFAULT_255_2_778
10
21.8010805
20
73.436809
40
1.3667182
50
78.4541134
51
89.7546716
0
ARC
8
DEFAULT_255_2_778
10
21.7948662
20
73.8654688
40
0.9381236
50
89.263032
51
100.5789495
0
ARC
8
DEFAULT_255_2_778
10
21.6820638
20
74.4321991
40
0.3603816
50
99.4915893
51
124.3627674
0
ARC
8
DEFAULT_255_2_778
10
21.5871509
20
74.5792673
40
0.1854666
50
125.8028369
51
182.2896157
0
ARC
8
DEFAULT_255_2_778
10
21.5489799
20
74.571772
40
0.1471476
50
179.9666171
51
180.1001736
0
ARC
8
DEFAULT_255_2_778
10
21.5661858
20
74.5717311
40
0.1643535
50
180.0754351
51
239.8483251
0
ARC
8
DEFAULT_255_2_778
10
21.9354551
20
75.153813
40
0.8535847
50
238.0402264
51
243.0370307
0
ARC
8
DEFAULT_255_2_778
10
23.4787463
20
78.1059461
40
4.1847343
50
242.5305029
51
244.1852103
0
ARC
8
DEFAULT_255_2_778
10
26.6265515
20
84.5761116
40
11.3799845
50
244.1038809
51
244.9214171
0
ARC
8
DEFAULT_255_2_778
10
29.8771528
20
91.484826
40
19.0152051
50
244.8737354
51
245.0669821
0
ARC
8
DEFAULT_255_2_778
10
19.8876742
20
69.951571
40
4.7223648
50
62.036831
51
65.2981624
0
ARC
8
DEFAULT_255_2_778
10
20.9516164
20
71.9461714
40
2.4617531
50
57.1110762
51
62.1404081
0
ARC
8
DEFAULT_255_2_778
10
21.7042272
20
73.099297
40
1.0847836
50
48.3568195
51
57.4187314
0
ARC
8
DEFAULT_255_2_778
10
22.028946
20
73.4756639
40
0.5878002
50
44.453022
51
47.6325253
0
ARC
8
DEFAULT_255_2_778
10
21.9973779
20
73.4574098
40
0.6231843
50
1.0876759
51
43.6183889
0
ARC
8
DEFAULT_255_2_778
10
21.7304111
20
73.4253301
40
0.8911213
50
359.9797211
51
2.8243422
0
ARC
8
DEFAULT_255_2_778
10
21.8798151
20
73.4102736
40
0.7418639
50
333.2156265
51
1.138567
0
ARC
8
DEFAULT_255_2_778
10
21.9146495
20
73.4147363
40
0.7130495
50
300.9658303
51
331.6339563
0
ARC
8
DEFAULT_255_2_778
10
21.7181382
20
73.72397
40
1.0793606
50
281.9136331
51
301.4645182
0
ARC
8
DEFAULT_255_2_778
10
21.5849532
20
74.3211054
40
1.6911426
50
270.5804277
51
282.1523279
0
ARC
8
DEFAULT_255_2_778
10
21.5638102
20
74.8150177
40
2.1853034
50
269.9959061
51
271.0035609
0
LINE
8
DEFAULT_255_2_778
10
21.5636541
20
72.6297142
11
21.5621325
21
72.6297147
0
ARC
8
DEFAULT_255_2_778
10
21.5690949
20
75.8138913
40
3.1841842
50
256.2458002
51
269.8747201
0
LINE
8
DEFAULT_255_2_778
10
6.7957325
20
72.7204147
11
6.7957325
21
73.2152147
0
LINE
8
DEFAULT_255_2_778
10
8.4163325
20
75.1382147
11
8.4163325
21
74.6620147
0
LINE
8
DEFAULT_255_2_778
10
6.7939325
20
72.7189147
11
6.7957325
21
72.7204147
0
LINE
8
DEFAULT_255_2_778
10
8.9865325
20
75.1877147
11
9.6628325
21
75.1877147
0
LINE
8
DEFAULT_255_2_778
10
9.6628325
20
75.1877147
11
9.6628325
21
72.6802147
0
LINE
8
DEFAULT_255_2_778
10
9.6628325
20
72.6802147
11
8.9865325
21
72.6802147
0
LINE
8
DEFAULT_255_2_778
10
8.9865325
20
72.6802147
11
8.9865325
21
75.1877147
0
LINE
8
DEFAULT_255_2_778
10
10.2808325
20
72.6802147
11
10.2808325
21
75.1877147
0
LINE
8
DEFAULT_255_2_778
10
10.2808325
20
75.1877147
11
12.0131325
21
75.1877147
0
LINE
8
DEFAULT_255_2_778
10
12.0131325
20
75.1877147
11
12.0131325
21
74.7339147
0
LINE
8
DEFAULT_255_2_778
10
12.0131325
20
74.7339147
11
10.9320325
21
74.7339147
0
LINE
8
DEFAULT_255_2_778
10
10.9320325
20
74.7339147
11
10.9320325
21
74.1677147
0
LINE
8
DEFAULT_255_2_778
10
10.9320325
20
74.1677147
11
11.8734325
21
74.1677147
0
LINE
8
DEFAULT_255_2_778
10
11.8734325
20
74.1677147
11
11.8734325
21
73.7542147
0
LINE
8
DEFAULT_255_2_778
10
11.8734325
20
73.7542147
11
10.9320325
21
73.7542147
0
LINE
8
DEFAULT_255_2_778
10
10.9320325
20
73.7542147
11
10.9320325
21
73.1589147
0
LINE
8
DEFAULT_255_2_778
10
10.9320325
20
73.1589147
11
12.0411325
21
73.1589147
0
LINE
8
DEFAULT_255_2_778
10
12.0411325
20
73.1589147
11
12.0411325
21
72.6786147
0
LINE
8
DEFAULT_255_2_778
10
12.0411325
20
72.6786147
11
10.2808325
21
72.6802147
0
LINE
8
DEFAULT_255_2_778
10
12.4816325
20
72.6802147
11
12.4816325
21
75.1877147
0
LINE
8
DEFAULT_255_2_778
10
12.4816325
20
75.1877147
11
13.3574325
21
75.1877147
0
LINE
8
DEFAULT_255_2_778
10
13.3574325
20
75.1877147
11
13.9670325
21
73.5854147
0
LINE
8
DEFAULT_255_2_778
10
13.9670325
20
73.5854147
11
14.5896325
21
75.1877147
0
LINE
8
DEFAULT_255_2_778
10
14.5896325
20
75.1877147
11
15.4214325
21
75.1877147
0
LINE
8
DEFAULT_255_2_778
10
15.4214325
20
75.1877147
11
15.4214325
21
72.6802147
0
LINE
8
DEFAULT_255_2_778
10
15.4214325
20
72.6802147
11
14.7811325
21
72.6802147
0
LINE
8
DEFAULT_255_2_778
10
14.7811325
20
72.6802147
11
14.7811325
21
74.4561147
0
LINE
8
DEFAULT_255_2_778
10
14.7811325
20
74.4561147
11
14.0723325
21
72.6559147
0
LINE
8
DEFAULT_255_2_778
10
14.0723325
20
72.6559147
11
13.6514325
21
72.6559147
0
LINE
8
DEFAULT_255_2_778
10
13.6514325
20
72.6559147
11
12.9558325
21
74.4561147
0
LINE
8
DEFAULT_255_2_778
10
12.9558325
20
74.4561147
11
12.9558325
21
72.6800147
0
LINE
8
DEFAULT_255_2_778
10
12.9558325
20
72.6800147
11
12.4816325
21
72.6802147
0
LINE
8
DEFAULT_255_2_778
10
16.0408325
20
72.6802147
11
16.0408325
21
75.1877147
0
LINE
8
DEFAULT_255_2_778
10
16.0408325
20
75.1877147
11
17.7730325
21
75.1877147
0
LINE
8
DEFAULT_255_2_778
10
17.7730325
20
75.1877147
11
17.7730325
21
74.7339147
0
LINE
8
DEFAULT_255_2_778
10
17.7730325
20
74.7339147
11
16.6920325
21
74.7339147
0
LINE
8
DEFAULT_255_2_778
10
16.6920325
20
74.7339147
11
16.6920325
21
74.1677147
0
LINE
8
DEFAULT_255_2_778
10
16.6920325
20
74.1677147
11
17.6333325
21
74.1677147
0
LINE
8
DEFAULT_255_2_778
10
17.6333325
20
74.1677147
11
17.6333325
21
73.7542147
0
LINE
8
DEFAULT_255_2_778
10
17.6333325
20
73.7542147
11
16.6920325
21
73.7542147
0
LINE
8
DEFAULT_255_2_778
10
16.6920325
20
73.7542147
11
16.6920325
21
73.1589147
0
LINE
8
DEFAULT_255_2_778
10
16.6920325
20
73.1589147
11
17.8029325
21
73.1589147
0
LINE
8
DEFAULT_255_2_778
10
17.8029325
20
73.1589147
11
17.8029325
21
72.6786147
0
LINE
8
DEFAULT_255_2_778
10
17.8029325
20
72.6786147
11
16.0408325
21
72.6802147
0
LINE
8
DEFAULT_255_2_778
10
18.2453325
20
72.6802147
11
18.2453325
21
75.1877147
0
LINE
8
DEFAULT_255_2_778
10
18.2453325
20
75.1877147
11
19.0282325
21
75.1877147
0
LINE
8
DEFAULT_255_2_778
10
19.0282325
20
75.1877147
11
19.8585325
21
73.5089147
0
LINE
8
DEFAULT_255_2_778
10
19.8585325
20
73.5089147
11
19.8585325
21
75.1877147
0
LINE
8
DEFAULT_255_2_778
10
19.8585325
20
75.1877147
11
20.3342325
21
75.1877147
0
LINE
8
DEFAULT_255_2_778
10
20.3342325
20
75.1877147
11
20.3342325
21
72.6802147
0
LINE
8
DEFAULT_255_2_778
10
20.3342325
20
72.6802147
11
19.5738325
21
72.6802147
0
LINE
8
DEFAULT_255_2_778
10
19.5738325
20
72.6802147
11
18.7213325
21
74.3815147
0
LINE
8
DEFAULT_255_2_778
10
18.7213325
20
74.3815147
11
18.7213325
21
72.6802147
0
LINE
8
DEFAULT_255_2_778
10
18.7213325
20
72.6802147
11
18.2453325
21
72.6802147
0
LINE
8
DEFAULT_255_2_778
10
20.8142325
20
72.7207147
11
20.8142325
21
73.2155147
0
LINE
8
DEFAULT_255_2_778
10
22.3741325
20
75.1509147
11
22.4339325
21
75.1403147
0
LINE
8
DEFAULT_255_2_778
10
22.4339325
20
75.1403147
11
22.4339325
21
74.6641147
0
LINE
8
DEFAULT_255_2_778
10
20.8120325
20
72.7210147
11
20.8142325
21
72.7207147
0
LINE
8
DEFAULT_255_2_778
10
19.9760417
20
60.721908
11
18.6531417
21
60.721908
0
LINE
8
DEFAULT_255_2_778
10
18.6531417
20
60.721908
11
18.6531417
21
35.586508
0
LINE
8
DEFAULT_255_2_778
10
17.3301834
20
35.5864333
11
19.9759834
21
35.5864333
0
LINE
8
DEFAULT_255_2_778
10
19.9759834
20
35.5864333
11
19.9759834
21
30.2947333
0
LINE
8
DEFAULT_255_2_778
10
19.9759834
20
30.2947333
11
17.3301834
21
30.2947333
0
LINE
8
DEFAULT_255_2_778
10
17.3301834
20
30.2947333
11
17.3301834
21
35.5864333
0
ARC
8
DEFAULT_255_2_778_1
10
21.1297591
20
30.397177
40
4.816461
50
120.9442904
51
122.351755
0
ARC
8
DEFAULT_255_2_778_1
10
20.6831523
20
31.1008039
40
3.9830657
50
122.3407904
51
124.1946752
0
ARC
8
DEFAULT_255_2_778_1
10
20.2432464
20
31.7473306
40
3.2010724
50
124.1855758
51
126.4338849
0
ARC
8
DEFAULT_255_2_778_1
10
19.8573129
20
32.2700611
40
2.5513094
50
126.4326926
51
128.8877368
0
ARC
8
DEFAULT_255_2_778_1
10
19.5224968
20
32.6844658
40
2.0185498
50
128.8749205
51
131.8726567
0
ARC
8
DEFAULT_255_2_778_1
10
19.2253677
20
33.0154854
40
1.5737356
50
131.8616166
51
135.4168838
0
ARC
8
DEFAULT_255_2_778_1
10
18.962568
20
33.2736765
40
1.2053256
50
135.3893975
51
139.9687014
0
ARC
8
DEFAULT_255_2_778_1
10
18.7296889
20
33.4685102
40
0.9016937
50
139.9301659
51
145.9260426
0
ARC
8
DEFAULT_255_2_778_1
10
18.533554
20
33.6005104
40
0.6652776
50
145.8787362
51
153.8146208
0
ARC
8
DEFAULT_255_2_778_1
10
18.3814553
20
33.6748797
40
0.4959714
50
153.770634
51
164.3484794
0
ARC
8
DEFAULT_255_2_778_1
10
18.2801387
20
33.7030786
40
0.3908039
50
164.3220276
51
179.8083066
0
ARC
8
DEFAULT_255_2_778_1
10
18.3011789
20
33.711215
40
0.4118985
50
180.9499449
51
213.8111542
0
ARC
8
DEFAULT_255_2_778_1
10
18.5770828
20
33.8807896
40
0.73561
50
212.8271214
51
224.258472
0
ARC
8
DEFAULT_255_2_778_1
10
18.9599335
20
34.2501236
40
1.267567
50
224.1376218
51
231.4508261
0
ARC
8
DEFAULT_255_2_778_1
10
19.6026195
20
35.0531168
40
2.2960809
50
231.3955893
51
236.1256478
0
ARC
8
DEFAULT_255_2_778_1
10
21.4349223
20
37.7996293
40
5.5976905
50
236.2233172
51
239.1314682
0
ARC
8
DEFAULT_255_2_778_1
10
33.384827
20
57.5273568
40
28.6623793
50
238.8606853
51
239.0711101
0
ARC
8
DEFAULT_255_2_778_1
10
14.2126281
20
25.4302653
40
8.7248518
50
57.2420924
51
59.4062964
0
ARC
8
DEFAULT_255_2_778_1
10
17.4403241
20
30.4612102
40
2.747542
50
52.8289294
51
57.079028
0
ARC
8
DEFAULT_255_2_778_1
10
18.2149783
20
31.4815488
40
1.466457
50
46.3041868
51
52.8596521
0
ARC
8
DEFAULT_255_2_778_1
10
18.6472073
20
31.9316842
40
0.8424061
50
36.2174211
51
46.4090895
0
ARC
8
DEFAULT_255_2_778_1
10
18.9317088
20
32.1365128
40
0.4918609
50
17.400375
51
36.5489745
0
ARC
8
DEFAULT_255_2_778_1
10
19.0457994
20
32.1763754
40
0.3710912
50
0.0676858
51
16.7951297
0
ARC
8
DEFAULT_255_2_778_1
10
19.0247613
20
32.1782428
40
0.3921317
50
343.8035191
51
359.7912046
0
ARC
8
DEFAULT_255_2_778_1
10
18.9184912
20
32.2087167
40
0.5026844
50
333.2506233
51
343.8465691
0
ARC
8
DEFAULT_255_2_778_1
10
18.7646757
20
32.2854313
40
0.6745679
50
325.6600948
51
333.3122657
0
ARC
8
DEFAULT_255_2_778_1
10
18.5692344
20
32.4182296
40
0.9108568
50
319.7560915
51
325.6976089
0
ARC
8
DEFAULT_255_2_778_1
10
18.341099
20
32.6100002
40
1.2088854
50
315.4577584
51
319.8037947
0
ARC
8
DEFAULT_255_2_778_1
10
18.0777127
20
32.8688507
40
1.5781764
50
311.7298824
51
315.4670864
0
ARC
8
DEFAULT_255_2_778_1
10
17.7686879
20
33.2144074
40
2.0417554
50
308.723055
51
311.7470879
0
ARC
8
DEFAULT_255_2_778_1
10
17.414489
20
33.6556492
40
2.6075745
50
306.1165163
51
308.7300151
0
ARC
8
DEFAULT_255_2_778_1
10
17.0115091
20
34.2069523
40
3.2904564
50
303.9559446
51
306.1266333
0
ARC
8
DEFAULT_255_2_778_1
10
16.5999432
20
34.816215
40
4.0257023
50
302.3733397
51
303.9712246
0
ARC
8
DEFAULT_255_2_778_1
10
16.1803347
20
35.4777058
40
4.8090549
50
300.9434827
51
302.3758078
0
LINE
8
DEFAULT_255_2_778
10
18.6531417
20
30.294808
11
18.6531417
21
5.159408
0
LINE
8
DEFAULT_255_2_778
10
18.6531417
20
5.159408
11
19.9760417
21
5.159408
0
LINE
8
DEFAULT_255_1_234
10
4.2454489
20
69.3098211
11
4.2454489
21
68.2664983
0
LINE
8
DEFAULT_255_1_234
10
4.2454489
20
68.2664983
11
4.7996389
21
68.2664983
0
LINE
8
DEFAULT_255_1_234
10
4.7996389
20
68.2664983
11
4.7996389
21
68.1404
0
LINE
8
DEFAULT_255_1_234
10
4.7996389
20
68.1404
11
4.0904364
21
68.1404
0
LINE
8
DEFAULT_255_1_234
10
4.0904364
20
68.1404
11
4.0904364
21
69.3098211
0
LINE
8
DEFAULT_255_1_234
10
4.0904364
20
69.3098211
11
4.2454489
21
69.3098211
0
LINE
8
DEFAULT_255_1_234
10
5.377924
20
69.1090276
11
5.377924
21
68.7676788
0
LINE
8
DEFAULT_255_1_234
10
5.377924
20
68.7676788
11
5.7040126
21
68.7676788
0
LINE
8
DEFAULT_255_1_234
10
5.7040126
20
68.7676788
11
5.7040126
21
68.6271233
0
LINE
8
DEFAULT_255_1_234
10
5.7040126
20
68.6271233
11
5.377924
21
68.6271233
0
LINE
8
DEFAULT_255_1_234
10
5.377924
20
68.6271233
11
5.377924
21
68.2576634
0
LINE
8
DEFAULT_255_1_234
10
5.377924
20
68.2576634
11
5.2285337
21
68.2576634
0
LINE
8
DEFAULT_255_1_234
10
5.2285337
20
68.2576634
11
5.2285337
21
68.6271233
0
LINE
8
DEFAULT_255_1_234
10
5.2285337
20
68.6271233
11
4.9024451
21
68.6271233
0
LINE
8
DEFAULT_255_1_234
10
4.9024451
20
68.6271233
11
4.9024451
21
68.7676788
0
LINE
8
DEFAULT_255_1_234
10
4.9024451
20
68.7676788
11
5.2285337
21
68.7676788
0
LINE
8
DEFAULT_255_1_234
10
5.2285337
20
68.7676788
11
5.2285337
21
69.1090276
0
LINE
8
DEFAULT_255_1_234
10
5.2285337
20
69.1090276
11
5.377924
21
69.1090276
0
LINE
8
DEFAULT_255_1_234
10
23.0448364
20
69.3098211
11
23.2440235
21
69.3098211
0
LINE
8
DEFAULT_255_1_234
10
23.2440235
20
69.3098211
11
23.6263342
21
68.3556506
0
LINE
8
DEFAULT_255_1_234
10
23.6263342
20
68.3556506
11
24.008645
21
69.3098211
0
LINE
8
DEFAULT_255_1_234
10
24.008645
20
69.3098211
11
24.2086353
21
69.3098211
0
LINE
8
DEFAULT_255_1_234
10
24.2086353
20
69.3098211
11
24.2086353
21
68.1404
0
LINE
8
DEFAULT_255_1_234
10
24.2086353
20
68.1404
11
24.0544259
21
68.1404
0
LINE
8
DEFAULT_255_1_234
10
24.0544259
20
68.1404
11
24.0544259
21
68.5957996
0
LINE
8
DEFAULT_255_1_234
10
24.0544259
20
68.5957996
11
24.068883
21
69.0873419
0
LINE
8
DEFAULT_255_1_234
10
24.068883
20
69.0873419
11
23.6849659
21
68.1404
0
LINE
8
DEFAULT_255_1_234
10
23.6849659
20
68.1404
11
23.5668994
21
68.1404
0
LINE
8
DEFAULT_255_1_234
10
23.5668994
20
68.1404
11
23.1837854
21
69.0849324
0
LINE
8
DEFAULT_255_1_234
10
23.1837854
20
69.0849324
11
23.1990458
21
68.5957996
0
LINE
8
DEFAULT_255_1_234
10
23.1990458
20
68.5957996
11
23.1990458
21
68.1404
0
LINE
8
DEFAULT_255_1_234
10
23.1990458
20
68.1404
11
23.0448364
21
68.1404
0
LINE
8
DEFAULT_255_1_234
10
23.0448364
20
68.1404
11
23.0448364
21
69.3098211
0
LINE
8
DEFAULT_255_1_234
10
21.8470119
20
4.7616792
11
21.8470119
21
4.6404
0
LINE
8
DEFAULT_255_1_234
10
21.8470119
20
4.6404
11
21.080784
21
4.6404
0
LINE
8
DEFAULT_255_1_234
10
21.080784
20
4.6404
11
21.080784
21
4.7472221
0
LINE
8
DEFAULT_255_1_234
10
21.080784
20
4.7472221
11
21.4855836
21
5.1969995
0
LINE
8
DEFAULT_255_1_234
10
21.2068823
20
5.4652595
11
21.0582952
21
5.4652595
0
LINE
8
DEFAULT_255_1_234
10
21.5731296
20
5.1014218
11
21.2598918
21
4.7616792
0
LINE
8
DEFAULT_255_1_234
10
21.2598918
20
4.7616792
11
21.8470119
21
4.7616792
0
ARC
8
DEFAULT_255_1_234
10
20.136567
20
6.3899527
40
1.8008286
50
318.5132453
51
320.7828378
0
ARC
8
DEFAULT_255_1_234
10
20.6652644
20
5.9596426
40
1.1191493
50
320.7372736
51
323.9737074
0
ARC
8
DEFAULT_255_1_234
10
21.0572501
20
5.6756361
40
0.6350923
50
323.8961724
51
328.6421089
0
ARC
8
DEFAULT_255_1_234
10
21.2619096
20
5.5494031
40
0.3946393
50
328.8299013
51
331.789948
0
ARC
8
DEFAULT_255_1_234
10
21.3616274
20
5.4979509
40
0.2824501
50
331.4255242
51
352.9364833
0
ARC
8
DEFAULT_255_1_234
10
21.3752775
20
5.4948976
40
0.2685315
50
353.2248685
51
0.0169286
0
ARC
8
DEFAULT_255_1_234
10
21.3962652
20
5.497195
40
0.2475536
50
359.4866256
51
15.9339782
0
ARC
8
DEFAULT_255_1_234
10
21.4469637
20
5.5108286
40
0.1950618
50
16.1714718
51
43.5284424
0
ARC
8
DEFAULT_255_1_234
10
21.4546946
20
5.5185573
40
0.184134
50
43.4415429
51
83.1661404
0
ARC
8
DEFAULT_255_1_234
10
21.4412864
20
5.4448771
40
0.258926
50
82.160215
51
90.1505798
0
ARC
8
DEFAULT_255_1_234
10
21.4381291
20
5.3911865
40
0.3126255
50
89.5460705
51
102.5418777
0
ARC
8
DEFAULT_255_1_234
10
21.4138377
20
5.4942665
40
0.2067346
50
102.1739365
51
129.2061916
0
ARC
8
DEFAULT_255_1_234
10
21.4059449
20
5.5067094
40
0.1921118
50
129.7279328
51
135.7542026
0
ARC
8
DEFAULT_255_1_234
10
21.4180977
20
5.4970045
40
0.2075944
50
136.175737
51
166.3674722
0
ARC
8
DEFAULT_255_1_234
10
21.5187896
20
5.4700182
40
0.3118201
50
165.9092917
51
178.8683903
0
ARC
8
DEFAULT_255_1_234
10
21.6052757
20
5.4653179
40
0.3983935
50
178.438168
51
180.0083905
0
ARC
8
DEFAULT_255_1_234
10
21.4651359
20
5.4692231
40
0.4068601
50
163.2878735
51
180.5581814
0
ARC
8
DEFAULT_255_1_234
10
21.3849621
20
5.491284
40
0.3237344
50
133.454115
51
162.9470031
0
ARC
8
DEFAULT_255_1_234
10
21.4028162
20
5.4723
40
0.349795
50
100.7869394
51
133.4384016
0
ARC
8
DEFAULT_255_1_234
10
21.4375934
20
5.3174319
40
0.5084616
50
89.6605301
51
101.3704185
0
ARC
8
DEFAULT_255_1_234
10
21.4442273
20
5.3235496
40
0.502348
50
78.2171172
51
90.4130393
0
ARC
8
DEFAULT_255_1_234
10
21.4797351
20
5.4859637
40
0.3361092
50
55.9268222
51
78.4888551
0
ARC
8
DEFAULT_255_1_234
10
21.4993791
20
5.5198324
40
0.2970617
50
47.9292255
51
55.4054003
0
ARC
8
DEFAULT_255_1_234
10
21.5095352
20
5.5301502
40
0.2825983
50
4.3347696
51
48.0560701
0
ARC
8
DEFAULT_255_1_234
10
21.3999745
20
5.5131601
40
0.393225
50
359.925209
51
5.5967654
0
ARC
8
DEFAULT_255_1_234
10
21.4428637
20
5.5187816
40
0.3503892
50
337.8914096
51
358.9967724
0
ARC
8
DEFAULT_255_1_234
10
21.1715049
20
5.6234706
40
0.6412172
50
326.9135351
51
338.3505194
0
ARC
8
DEFAULT_255_1_234
10
20.7729353
20
5.8789284
40
1.1146189
50
319.6472867
51
327.095818
0
ARC
8
DEFAULT_255_1_234
10
20.3896356
20
6.1951
40
1.6114559
50
317.2586784
51
319.9046139
0
LINE
8
DEFAULT_255_1_234
10
22.0429863
20
5.8098211
11
22.2421734
21
5.8098211
0
LINE
8
DEFAULT_255_1_234
10
22.2421734
20
5.8098211
11
22.6244841
21
4.8556506
0
LINE
8
DEFAULT_255_1_234
10
22.6244841
20
4.8556506
11
23.0067949
21
5.8098211
0
LINE
8
DEFAULT_255_1_234
10
23.0067949
20
5.8098211
11
23.2067852
21
5.8098211
0
LINE
8
DEFAULT_255_1_234
10
23.2067852
20
5.8098211
11
23.2067852
21
4.6404
0
LINE
8
DEFAULT_255_1_234
10
23.2067852
20
4.6404
11
23.0525758
21
4.6404
0
LINE
8
DEFAULT_255_1_234
10
23.0525758
20
4.6404
11
23.0525758
21
5.0957996
0
LINE
8
DEFAULT_255_1_234
10
23.0525758
20
5.0957996
11
23.0670329
21
5.5873419
0
LINE
8
DEFAULT_255_1_234
10
23.0670329
20
5.5873419
11
22.6831158
21
4.6404
0
LINE
8
DEFAULT_255_1_234
10
22.6831158
20
4.6404
11
22.5650493
21
4.6404
0
LINE
8
DEFAULT_255_1_234
10
22.5650493
20
4.6404
11
22.1819354
21
5.5849324
0
LINE
8
DEFAULT_255_1_234
10
22.1819354
20
5.5849324
11
22.1971957
21
5.0957996
0
LINE
8
DEFAULT_255_1_234
10
22.1971957
20
5.0957996
11
22.1971957
21
4.6404
0
LINE
8
DEFAULT_255_1_234
10
22.1971957
20
4.6404
11
22.0429863
21
4.6404
0
LINE
8
DEFAULT_255_1_234
10
22.0429863
20
4.6404
11
22.0429863
21
5.8098211
0
LINE
8
DEFAULT_255_1_234
10
23.9288384
20
5.8154433
11
23.9288384
21
4.6404
0
LINE
8
DEFAULT_255_1_234
10
23.9288384
20
4.6404
11
23.7794481
21
4.6404
0
LINE
8
DEFAULT_255_1_234
10
23.7794481
20
4.6404
11
23.7794481
21
5.6307133
0
LINE
8
DEFAULT_255_1_234
10
23.7794481
20
5.6307133
11
23.4798643
21
5.5206785
0
LINE
8
DEFAULT_255_1_234
10
23.4798643
20
5.5206785
11
23.4798643
21
5.6556117
0
LINE
8
DEFAULT_255_1_234
10
23.4798643
20
5.6556117
11
23.9055464
21
5.8154433
0
LINE
8
DEFAULT_255_1_234
10
23.9055464
20
5.8154433
11
23.9288384
21
5.8154433
0
LINE
8
DEFAULT_255_1_234
10
21.1261119
20
12.6991792
11
21.1261119
21
12.5779
0
LINE
8
DEFAULT_255_1_234
10
21.1261119
20
12.5779
11
20.359884
21
12.5779
0
LINE
8
DEFAULT_255_1_234
10
20.359884
20
12.5779
11
20.359884
21
12.6847221
0
LINE
8
DEFAULT_255_1_234
10
20.359884
20
12.6847221
11
20.7646836
21
13.1344995
0
LINE
8
DEFAULT_255_1_234
10
20.4859823
20
13.4027595
11
20.3373952
21
13.4027595
0
LINE
8
DEFAULT_255_1_234
10
20.8522296
20
13.0389218
11
20.5389918
21
12.6991792
0
LINE
8
DEFAULT_255_1_234
10
20.5389918
20
12.6991792
11
21.1261119
21
12.6991792
0
ARC
8
DEFAULT_255_1_234
10
19.415667
20
14.3274527
40
1.8008286
50
318.5132453
51
320.7828378
0
ARC
8
DEFAULT_255_1_234
10
19.9443644
20
13.8971426
40
1.1191493
50
320.7372736
51
323.9737074
0
ARC
8
DEFAULT_255_1_234
10
20.3363501
20
13.6131361
40
0.6350923
50
323.8961724
51
328.6421089
0
ARC
8
DEFAULT_255_1_234
10
20.5410096
20
13.4869031
40
0.3946393
50
328.8299013
51
331.789948
0
ARC
8
DEFAULT_255_1_234
10
20.6407274
20
13.4354509
40
0.2824501
50
331.4255242
51
352.9364833
0
ARC
8
DEFAULT_255_1_234
10
20.6543775
20
13.4323976
40
0.2685315
50
353.2248685
51
0.0169286
0
ARC
8
DEFAULT_255_1_234
10
20.6753652
20
13.434695
40
0.2475536
50
359.4866256
51
15.9339782
0
ARC
8
DEFAULT_255_1_234
10
20.7260637
20
13.4483286
40
0.1950618
50
16.1714718
51
43.5284424
0
ARC
8
DEFAULT_255_1_234
10
20.7337946
20
13.4560573
40
0.184134
50
43.4415429
51
83.1661404
0
ARC
8
DEFAULT_255_1_234
10
20.7203864
20
13.3823771
40
0.258926
50
82.160215
51
90.1505798
0
ARC
8
DEFAULT_255_1_234
10
20.7172291
20
13.3286865
40
0.3126255
50
89.5460705
51
102.5418777
0
ARC
8
DEFAULT_255_1_234
10
20.6929377
20
13.4317665
40
0.2067346
50
102.1739365
51
129.2061916
0
ARC
8
DEFAULT_255_1_234
10
20.6850449
20
13.4442094
40
0.1921118
50
129.7279328
51
135.7542026
0
ARC
8
DEFAULT_255_1_234
10
20.6971977
20
13.4345045
40
0.2075944
50
136.175737
51
166.3674722
0
ARC
8
DEFAULT_255_1_234
10
20.7978896
20
13.4075182
40
0.3118201
50
165.9092917
51
178.8683903
0
ARC
8
DEFAULT_255_1_234
10
20.8843757
20
13.4028179
40
0.3983935
50
178.438168
51
180.0083905
0
ARC
8
DEFAULT_255_1_234
10
20.7442359
20
13.4067231
40
0.4068601
50
163.2878735
51
180.5581814
0
ARC
8
DEFAULT_255_1_234
10
20.6640621
20
13.428784
40
0.3237344
50
133.454115
51
162.9470031
0
ARC
8
DEFAULT_255_1_234
10
20.6819162
20
13.4098
40
0.349795
50
100.7869394
51
133.4384016
0
ARC
8
DEFAULT_255_1_234
10
20.7166934
20
13.2549319
40
0.5084616
50
89.6605301
51
101.3704185
0
ARC
8
DEFAULT_255_1_234
10
20.7233273
20
13.2610496
40
0.502348
50
78.2171172
51
90.4130393
0
ARC
8
DEFAULT_255_1_234
10
20.7588351
20
13.4234637
40
0.3361092
50
55.9268222
51
78.4888551
0
ARC
8
DEFAULT_255_1_234
10
20.7784791
20
13.4573324
40
0.2970617
50
47.9292255
51
55.4054003
0
ARC
8
DEFAULT_255_1_234
10
20.7886352
20
13.4676502
40
0.2825983
50
4.3347696
51
48.0560701
0
ARC
8
DEFAULT_255_1_234
10
20.6790745
20
13.4506601
40
0.393225
50
359.925209
51
5.5967654
0
ARC
8
DEFAULT_255_1_234
10
20.7219637
20
13.4562816
40
0.3503892
50
337.8914096
51
358.9967724
0
ARC
8
DEFAULT_255_1_234
10
20.4506049
20
13.5609706
40
0.6412172
50
326.9135351
51
338.3505194
0
ARC
8
DEFAULT_255_1_234
10
20.0520353
20
13.8164284
40
1.1146189
50
319.6472867
51
327.095818
0
ARC
8
DEFAULT_255_1_234
10
19.6687356
20
14.1326
40
1.6114559
50
317.2586784
51
319.9046139
0
LINE
8
DEFAULT_255_1_234
10
21.9903269
20
13.7473211
11
22.1453395
21
13.7473211
0
LINE
8
DEFAULT_255_1_234
10
22.1453395
20
13.7473211
11
22.1453395
21
12.952179
0
LINE
8
DEFAULT_255_1_234
10
21.7614224
20
12.5634429
11
21.7204605
21
12.5618365
0
LINE
8
DEFAULT_255_1_234
10
21.2987942
20
12.9505727
11
21.2987942
21
13.7473211
0
LINE
8
DEFAULT_255_1_234
10
21.2987942
20
13.7473211
11
21.4513973
21
13.7473211
0
LINE
8
DEFAULT_255_1_234
10
21.4513973
20
13.7473211
11
21.4513973
21
12.9553917
0
LINE
8
DEFAULT_255_1_234
10
21.9903269
20
12.9545885
11
21.9903269
21
13.7473211
0
ARC
8
DEFAULT_255_1_234
10
21.7100293
20
12.9501928
40
0.4353147
50
343.0898354
51
0.2614217
0
ARC
8
DEFAULT_255_1_234
10
21.7928694
20
12.9270837
40
0.3493402
50
315.3345598
51
342.7641223
0
ARC
8
DEFAULT_255_1_234
10
21.7705143
20
12.9502682
40
0.3815385
50
284.6606969
51
315.2182466
0
ARC
8
DEFAULT_255_1_234
10
21.7249856
20
13.1048755
40
0.5426573
50
273.8500273
51
285.1797701
0
ARC
8
DEFAULT_255_1_234
10
21.7161907
20
13.1390475
40
0.5772268
50
257.6317484
51
270.4238298
0
ARC
8
DEFAULT_255_1_234
10
21.6737105
20
12.9569198
40
0.3902347
50
230.6087562
51
257.9964012
0
ARC
8
DEFAULT_255_1_234
10
21.6605107
20
12.9362802
40
0.3659186
50
227.7440991
51
230.1551448
0
ARC
8
DEFAULT_255_1_234
10
21.6470938
20
12.9201471
40
0.3449568
50
189.2524587
51
227.5916061
0
ARC
8
DEFAULT_255_1_234
10
21.7992625
20
12.9529013
40
0.5004737
50
180.2665968
51
190.1525252
0
ARC
8
DEFAULT_255_1_234
10
21.8214645
20
12.9525918
40
0.3700778
50
179.5665184
51
191.9952995
0
ARC
8
DEFAULT_255_1_234
10
21.6986751
20
12.9252043
40
0.2442808
50
191.6974072
51
215.1404042
0
ARC
8
DEFAULT_255_1_234
10
21.6748666
20
12.9110108
40
0.2166522
50
215.6950207
51
224.8513522
0
ARC
8
DEFAULT_255_1_234
10
21.6804409
20
12.9189697
40
0.2262237
50
225.2846858
51
255.0111758
0
ARC
8
DEFAULT_255_1_234
10
21.7128369
20
13.0303455
40
0.3421979
50
254.5944985
51
267.9129803
0
ARC
8
DEFAULT_255_1_234
10
21.720285
20
13.1387903
40
0.4508556
50
267.4689655
51
270.0223026
0
ARC
8
DEFAULT_255_1_234
10
21.7232995
20
13.0798849
40
0.3919604
50
269.5849941
51
281.1843768
0
ARC
8
DEFAULT_255_1_234
10
21.751176
20
12.9446059
40
0.2538457
50
280.9344262
51
300.9743589
0
ARC
8
DEFAULT_255_1_234
10
21.7724365
20
12.9054688
40
0.2093566
50
301.4980046
51
315.1466847
0
ARC
8
DEFAULT_255_1_234
10
21.7579904
20
12.9173236
40
0.2279656
50
315.5952539
51
345.6678731
0
ARC
8
DEFAULT_255_1_234
10
21.646042
20
12.9485009
40
0.3441564
50
345.2524969
51
358.6304371
0
ARC
8
DEFAULT_255_1_234
10
21.5442774
20
12.9544916
40
0.4460494
50
358.1735671
51
0.0124524
0
LINE
8
DEFAULT_255_1_234
10
22.4433169
20
13.7473211
11
22.7758309
21
12.7827093
0
LINE
8
DEFAULT_255_1_234
10
22.7758309
20
12.7827093
11
23.1099512
21
13.7473211
0
LINE
8
DEFAULT_255_1_234
10
23.1099512
20
13.7473211
11
23.2786177
21
13.7473211
0
LINE
8
DEFAULT_255_1_234
10
23.2786177
20
13.7473211
11
22.8449039
21
12.5779
0
LINE
8
DEFAULT_255_1_234
10
22.8449039
20
12.5779
11
22.7083643
21
12.5779
0
LINE
8
DEFAULT_255_1_234
10
22.7083643
20
12.5779
11
22.2754536
21
13.7473211
0
LINE
8
DEFAULT_255_1_234
10
22.2754536
20
13.7473211
11
22.4433169
21
13.7473211
0
LINE
8
DEFAULT_255_1_234
10
23.885014
20
13.7529433
11
23.885014
21
12.5779
0
LINE
8
DEFAULT_255_1_234
10
23.885014
20
12.5779
11
23.7356236
21
12.5779
0
LINE
8
DEFAULT_255_1_234
10
23.7356236
20
12.5779
11
23.7356236
21
13.5682133
0
LINE
8
DEFAULT_255_1_234
10
23.7356236
20
13.5682133
11
23.4360398
21
13.4581785
0
LINE
8
DEFAULT_255_1_234
10
23.4360398
20
13.4581785
11
23.4360398
21
13.5931117
0
LINE
8
DEFAULT_255_1_234
10
23.4360398
20
13.5931117
11
23.8617219
21
13.7529433
0
LINE
8
DEFAULT_255_1_234
10
23.8617219
20
13.7529433
11
23.885014
21
13.7529433
0
LINE
8
DEFAULT_255_1_234
10
20.8482137
20
21.6904433
11
20.8482137
21
20.5154
0
LINE
8
DEFAULT_255_1_234
10
20.8482137
20
20.5154
11
20.6988234
21
20.5154
0
LINE
8
DEFAULT_255_1_234
10
20.6988234
20
20.5154
11
20.6988234
21
21.5057133
0
LINE
8
DEFAULT_255_1_234
10
20.6988234
20
21.5057133
11
20.3992396
21
21.3956785
0
LINE
8
DEFAULT_255_1_234
10
20.3992396
20
21.3956785
11
20.3992396
21
21.5306117
0
LINE
8
DEFAULT_255_1_234
10
20.3992396
20
21.5306117
11
20.8249217
21
21.6904433
0
LINE
8
DEFAULT_255_1_234
10
20.8249217
20
21.6904433
11
20.8482137
21
21.6904433
0
LINE
8
DEFAULT_255_1_234
10
21.9903269
20
21.6848211
11
22.1453395
21
21.6848211
0
LINE
8
DEFAULT_255_1_234
10
22.1453395
20
21.6848211
11
22.1453395
21
20.889679
0
LINE
8
DEFAULT_255_1_234
10
21.7614224
20
20.5009429
11
21.7204605
21
20.4993365
0
LINE
8
DEFAULT_255_1_234
10
21.2987942
20
20.8880727
11
21.2987942
21
21.6848211
0
LINE
8
DEFAULT_255_1_234
10
21.2987942
20
21.6848211
11
21.4513973
21
21.6848211
0
LINE
8
DEFAULT_255_1_234
10
21.4513973
20
21.6848211
11
21.4513973
21
20.8928917
0
LINE
8
DEFAULT_255_1_234
10
21.9903269
20
20.8920885
11
21.9903269
21
21.6848211
0
ARC
8
DEFAULT_255_1_234
10
21.7100293
20
20.8876928
40
0.4353147
50
343.0898354
51
0.2614217
0
ARC
8
DEFAULT_255_1_234
10
21.7928694
20
20.8645837
40
0.3493402
50
315.3345598
51
342.7641223
0
ARC
8
DEFAULT_255_1_234
10
21.7705143
20
20.8877682
40
0.3815385
50
284.6606969
51
315.2182466
0
ARC
8
DEFAULT_255_1_234
10
21.7249856
20
21.0423755
40
0.5426573
50
273.8500273
51
285.1797701
0
ARC
8
DEFAULT_255_1_234
10
21.7161907
20
21.0765475
40
0.5772268
50
257.6317484
51
270.4238298
0
ARC
8
DEFAULT_255_1_234
10
21.6737105
20
20.8944198
40
0.3902347
50
230.6087562
51
257.9964012
0
ARC
8
DEFAULT_255_1_234
10
21.6605107
20
20.8737802
40
0.3659186
50
227.7440991
51
230.1551448
0
ARC
8
DEFAULT_255_1_234
10
21.6470938
20
20.8576471
40
0.3449568
50
189.2524587
51
227.5916061
0
ARC
8
DEFAULT_255_1_234
10
21.7992625
20
20.8904013
40
0.5004737
50
180.2665968
51
190.1525252
0
ARC
8
DEFAULT_255_1_234
10
21.8214645
20
20.8900918
40
0.3700778
50
179.5665184
51
191.9952995
0
ARC
8
DEFAULT_255_1_234
10
21.6986751
20
20.8627043
40
0.2442808
50
191.6974072
51
215.1404042
0
ARC
8
DEFAULT_255_1_234
10
21.6748666
20
20.8485108
40
0.2166522
50
215.6950207
51
224.8513522
0
ARC
8
DEFAULT_255_1_234
10
21.6804409
20
20.8564697
40
0.2262237
50
225.2846858
51
255.0111758
0
ARC
8
DEFAULT_255_1_234
10
21.7128369
20
20.9678455
40
0.3421979
50
254.5944985
51
267.9129803
0
ARC
8
DEFAULT_255_1_234
10
21.720285
20
21.0762903
40
0.4508556
50
267.4689655
51
270.0223026
0
ARC
8
DEFAULT_255_1_234
10
21.7232995
20
21.0173849
40
0.3919604
50
269.5849941
51
281.1843768
0
ARC
8
DEFAULT_255_1_234
10
21.751176
20
20.8821059
40
0.2538457
50
280.9344262
51
300.9743589
0
ARC
8
DEFAULT_255_1_234
10
21.7724365
20
20.8429688
40
0.2093566
50
301.4980046
51
315.1466847
0
ARC
8
DEFAULT_255_1_234
10
21.7579904
20
20.8548236
40
0.2279656
50
315.5952539
51
345.6678731
0
ARC
8
DEFAULT_255_1_234
10
21.646042
20
20.8860009
40
0.3441564
50
345.2524969
51
358.6304371
0
ARC
8
DEFAULT_255_1_234
10
21.5442774
20
20.8919916
40
0.4460494
50
358.1735671
51
0.0124524
0
LINE
8
DEFAULT_255_1_234
10
22.4433169
20
21.6848211
11
22.7758309
21
20.7202093
0
LINE
8
DEFAULT_255_1_234
10
22.7758309
20
20.7202093
11
23.1099512
21
21.6848211
0
LINE
8
DEFAULT_255_1_234
10
23.1099512
20
21.6848211
11
23.2786177
21
21.6848211
0
LINE
8
DEFAULT_255_1_234
10
23.2786177
20
21.6848211
11
22.8449039
21
20.5154
0
LINE
8
DEFAULT_255_1_234
10
22.8449039
20
20.5154
11
22.7083643
21
20.5154
0
LINE
8
DEFAULT_255_1_234
10
22.7083643
20
20.5154
11
22.2754536
21
21.6848211
0
LINE
8
DEFAULT_255_1_234
10
22.2754536
20
21.6848211
11
22.4433169
21
21.6848211
0
LINE
8
DEFAULT_255_1_234
10
23.885014
20
21.6904433
11
23.885014
21
20.5154
0
LINE
8
DEFAULT_255_1_234
10
23.885014
20
20.5154
11
23.7356236
21
20.5154
0
LINE
8
DEFAULT_255_1_234
10
23.7356236
20
20.5154
11
23.7356236
21
21.5057133
0
LINE
8
DEFAULT_255_1_234
10
23.7356236
20
21.5057133
11
23.4360398
21
21.3956785
0
LINE
8
DEFAULT_255_1_234
10
23.4360398
20
21.3956785
11
23.4360398
21
21.5306117
0
LINE
8
DEFAULT_255_1_234
10
23.4360398
20
21.5306117
11
23.8617219
21
21.6904433
0
LINE
8
DEFAULT_255_1_234
10
23.8617219
20
21.6904433
11
23.885014
21
21.6904433
0
LINE
8
DEFAULT_255_1_234
10
21.8382119
20
28.5741792
11
21.8382119
21
28.4529
0
LINE
8
DEFAULT_255_1_234
10
21.8382119
20
28.4529
11
21.071984
21
28.4529
0
LINE
8
DEFAULT_255_1_234
10
21.071984
20
28.4529
11
21.071984
21
28.5597221
0
LINE
8
DEFAULT_255_1_234
10
21.071984
20
28.5597221
11
21.4767836
21
29.0094995
0
LINE
8
DEFAULT_255_1_234
10
21.1980823
20
29.2777595
11
21.0494952
21
29.2777595
0
LINE
8
DEFAULT_255_1_234
10
21.5643296
20
28.9139218
11
21.2510918
21
28.5741792
0
LINE
8
DEFAULT_255_1_234
10
21.2510918
20
28.5741792
11
21.8382119
21
28.5741792
0
ARC
8
DEFAULT_255_1_234
10
20.127767
20
30.2024527
40
1.8008286
50
318.5132453
51
320.7828378
0
ARC
8
DEFAULT_255_1_234
10
20.6564644
20
29.7721426
40
1.1191493
50
320.7372736
51
323.9737074
0
ARC
8
DEFAULT_255_1_234
10
21.0484501
20
29.4881361
40
0.6350923
50
323.8961724
51
328.6421089
0
ARC
8
DEFAULT_255_1_234
10
21.2531096
20
29.3619031
40
0.3946393
50
328.8299013
51
331.789948
0
ARC
8
DEFAULT_255_1_234
10
21.3528274
20
29.3104509
40
0.2824501
50
331.4255242
51
352.9364833
0
ARC
8
DEFAULT_255_1_234
10
21.3664775
20
29.3073976
40
0.2685315
50
353.2248685
51
0.0169286
0
ARC
8
DEFAULT_255_1_234
10
21.3874652
20
29.309695
40
0.2475536
50
359.4866256
51
15.9339782
0
ARC
8
DEFAULT_255_1_234
10
21.4381637
20
29.3233286
40
0.1950618
50
16.1714718
51
43.5284424
0
ARC
8
DEFAULT_255_1_234
10
21.4458946
20
29.3310573
40
0.184134
50
43.4415429
51
83.1661404
0
ARC
8
DEFAULT_255_1_234
10
21.4324864
20
29.2573771
40
0.258926
50
82.160215
51
90.1505798
0
ARC
8
DEFAULT_255_1_234
10
21.4293291
20
29.2036865
40
0.3126255
50
89.5460705
51
102.5418777
0
ARC
8
DEFAULT_255_1_234
10
21.4050377
20
29.3067665
40
0.2067346
50
102.1739365
51
129.2061916
0
ARC
8
DEFAULT_255_1_234
10
21.3971449
20
29.3192094
40
0.1921118
50
129.7279328
51
135.7542026
0
ARC
8
DEFAULT_255_1_234
10
21.4092977
20
29.3095045
40
0.2075944
50
136.175737
51
166.3674722
0
ARC
8
DEFAULT_255_1_234
10
21.5099896
20
29.2825182
40
0.3118201
50
165.9092917
51
178.8683903
0
ARC
8
DEFAULT_255_1_234
10
21.5964757
20
29.2778179
40
0.3983935
50
178.438168
51
180.0083905
0
ARC
8
DEFAULT_255_1_234
10
21.4563359
20
29.2817231
40
0.4068601
50
163.2878735
51
180.5581814
0
ARC
8
DEFAULT_255_1_234
10
21.3761621
20
29.303784
40
0.3237344
50
133.454115
51
162.9470031
0
ARC
8
DEFAULT_255_1_234
10
21.3940162
20
29.2848
40
0.349795
50
100.7869394
51
133.4384016
0
ARC
8
DEFAULT_255_1_234
10
21.4287934
20
29.1299319
40
0.5084616
50
89.6605301
51
101.3704185
0
ARC
8
DEFAULT_255_1_234
10
21.4354273
20
29.1360496
40
0.502348
50
78.2171172
51
90.4130393
0
ARC
8
DEFAULT_255_1_234
10
21.4709351
20
29.2984637
40
0.3361092
50
55.9268222
51
78.4888551
0
ARC
8
DEFAULT_255_1_234
10
21.4905791
20
29.3323324
40
0.2970617
50
47.9292255
51
55.4054003
0
ARC
8
DEFAULT_255_1_234
10
21.5007352
20
29.3426502
40
0.2825983
50
4.3347696
51
48.0560701
0
ARC
8
DEFAULT_255_1_234
10
21.3911745
20
29.3256601
40
0.393225
50
359.925209
51
5.5967654
0
ARC
8
DEFAULT_255_1_234
10
21.4340637
20
29.3312816
40
0.3503892
50
337.8914096
51
358.9967724
0
ARC
8
DEFAULT_255_1_234
10
21.1627049
20
29.4359706
40
0.6412172
50
326.9135351
51
338.3505194
0
ARC
8
DEFAULT_255_1_234
10
20.7641353
20
29.6914284
40
1.1146189
50
319.6472867
51
327.095818
0
ARC
8
DEFAULT_255_1_234
10
20.3808356
20
30.0076
40
1.6114559
50
317.2586784
51
319.9046139
0
LINE
8
DEFAULT_255_1_234
10
22.0341863
20
29.6223211
11
22.2333734
21
29.6223211
0
LINE
8
DEFAULT_255_1_234
10
22.2333734
20
29.6223211
11
22.6156841
21
28.6681506
0
LINE
8
DEFAULT_255_1_234
10
22.6156841
20
28.6681506
11
22.9979949
21
29.6223211
0
LINE
8
DEFAULT_255_1_234
10
22.9979949
20
29.6223211
11
23.1979852
21
29.6223211
0
LINE
8
DEFAULT_255_1_234
10
23.1979852
20
29.6223211
11
23.1979852
21
28.4529
0
LINE
8
DEFAULT_255_1_234
10
23.1979852
20
28.4529
11
23.0437758
21
28.4529
0
LINE
8
DEFAULT_255_1_234
10
23.0437758
20
28.4529
11
23.0437758
21
28.9082996
0
LINE
8
DEFAULT_255_1_234
10
23.0437758
20
28.9082996
11
23.0582329
21
29.3998419
0
LINE
8
DEFAULT_255_1_234
10
23.0582329
20
29.3998419
11
22.6743158
21
28.4529
0
LINE
8
DEFAULT_255_1_234
10
22.6743158
20
28.4529
11
22.5562493
21
28.4529
0
LINE
8
DEFAULT_255_1_234
10
22.5562493
20
28.4529
11
22.1731354
21
29.3974324
0
LINE
8
DEFAULT_255_1_234
10
22.1731354
20
29.3974324
11
22.1883957
21
28.9082996
0
LINE
8
DEFAULT_255_1_234
10
22.1883957
20
28.9082996
11
22.1883957
21
28.4529
0
LINE
8
DEFAULT_255_1_234
10
22.1883957
20
28.4529
11
22.0341863
21
28.4529
0
LINE
8
DEFAULT_255_1_234
10
22.0341863
20
28.4529
11
22.0341863
21
29.6223211
0
LINE
8
DEFAULT_255_1_234
10
24.1650064
20
29.1444327
11
24.1650064
21
28.9516709
0
LINE
8
DEFAULT_255_1_234
10
23.4268897
20
28.9315916
11
23.4268897
21
29.1299755
0
LINE
8
DEFAULT_255_1_234
10
24.0164193
20
28.9115123
11
24.0164193
21
29.1548739
0
LINE
8
DEFAULT_255_1_234
10
23.5754769
20
29.1661184
11
23.5754769
21
28.9283789
0
ARC
8
DEFAULT_255_1_234
10
22.9402954
20
28.9467805
40
1.2247208
50
353.8441951
51
0.2287902
0
ARC
8
DEFAULT_255_1_234
10
23.4042458
20
28.8949806
40
0.7578929
50
344.4934747
51
353.9765454
0
ARC
8
DEFAULT_255_1_234
10
23.7035048
20
28.8098981
40
0.4467846
50
329.2803592
51
344.7472793
0
ARC
8
DEFAULT_255_1_234
10
23.8027873
20
28.7554018
40
0.3336173
50
324.9352394
51
328.6160465
0
ARC
8
DEFAULT_255_1_234
10
23.8404981
20
28.7290427
40
0.2876076
50
280.580143
51
324.9173126
0
ARC
8
DEFAULT_255_1_234
10
23.8003774
20
28.8961099
40
0.4592847
50
269.5977311
51
281.6734359
0
ARC
8
DEFAULT_255_1_234
10
23.793168
20
28.8841173
40
0.4472986
50
256.6228859
51
270.51044
0
ARC
8
DEFAULT_255_1_234
10
23.7529658
20
28.7292877
40
0.2873874
50
215.8618325
51
257.2788573
0
ARC
8
DEFAULT_255_1_234
10
23.8550689
20
28.7977977
40
0.4102928
50
197.9693508
51
215.2623606
0
ARC
8
DEFAULT_255_1_234
10
24.1035805
20
28.8816709
40
0.6725652
50
187.8816417
51
198.2346507
0
ARC
8
DEFAULT_255_1_234
10
24.4994013
20
28.9388079
40
1.0724845
50
180.8976217
51
188.0055519
0
ARC
8
DEFAULT_255_1_234
10
24.7794201
20
28.9491777
40
1.3526448
50
180.7449369
51
181.1510016
0
ARC
8
DEFAULT_255_1_234
10
24.621693
20
29.1348042
40
1.1948131
50
173.7675579
51
180.231553
0
ARC
8
DEFAULT_255_1_234
10
24.1699077
20
29.1858666
40
0.7401564
50
164.3058563
51
173.9002247
0
ARC
8
DEFAULT_255_1_234
10
23.8787146
20
29.2697656
40
0.4371288
50
148.7922025
51
164.568378
0
ARC
8
DEFAULT_255_1_234
10
23.7835598
20
29.3228929
40
0.3282386
50
144.5883898
51
148.1176286
0
ARC
8
DEFAULT_255_1_234
10
23.7492496
20
29.3468315
40
0.2864044
50
101.6440918
51
144.514236
0
ARC
8
DEFAULT_255_1_234
10
23.7917563
20
29.1779069
40
0.4604934
50
89.5284041
51
102.5819763
0
ARC
8
DEFAULT_255_1_234
10
23.799665
20
29.1740018
40
0.464401
50
77.0437873
51
90.5081339
0
ARC
8
DEFAULT_255_1_234
10
23.8398652
20
29.3382615
40
0.2953195
50
48.2778575
51
77.4994676
0
ARC
8
DEFAULT_255_1_234
10
23.8471283
20
29.3511746
40
0.2808655
50
36.3142134
51
47.6305865
0
ARC
8
DEFAULT_255_1_234
10
23.760259
20
29.2926515
40
0.3855453
50
18.2931786
51
35.6769206
0
ARC
8
DEFAULT_255_1_234
10
23.5059349
20
29.2053593
40
0.654423
50
8.024666
51
18.5605216
0
ARC
8
DEFAULT_255_1_234
10
23.0896269
20
29.1438792
40
1.0752407
50
1.1274072
51
8.1718305
0
ARC
8
DEFAULT_255_1_234
10
22.766046
20
29.1311885
40
1.3990231
50
0.5424119
51
1.3863029
0
ARC
8
DEFAULT_255_1_234
10
22.9481838
20
29.1584342
40
1.0682415
50
359.8090433
51
4.9407866
0
ARC
8
DEFAULT_255_1_234
10
23.3691852
20
29.1960113
40
0.6455691
50
4.8362157
51
12.2904523
0
ARC
8
DEFAULT_255_1_234
10
23.6446966
20
29.2573965
40
0.3633074
50
12.0805627
51
23.8173984
0
ARC
8
DEFAULT_255_1_234
10
23.7620672
20
29.3070919
40
0.2358723
50
24.2871213
51
31.3935614
0
ARC
8
DEFAULT_255_1_234
10
23.8145369
20
29.3414233
40
0.1732111
50
30.7407893
51
82.4657128
0
ARC
8
DEFAULT_255_1_234
10
23.7965503
20
29.2530691
40
0.263235
50
81.1060089
51
90.2184952
0
ARC
8
DEFAULT_255_1_234
10
23.7929802
20
29.2788924
40
0.2374236
50
89.3806855
51
105.6762551
0
ARC
8
DEFAULT_255_1_234
10
23.7746433
20
29.3455567
40
0.1682847
50
105.7981136
51
149.7388061
0
ARC
8
DEFAULT_255_1_234
10
23.8810511
20
29.281595
40
0.2924306
50
149.4208916
51
163.6286378
0
ARC
8
DEFAULT_255_1_234
10
24.0901399
20
29.217825
40
0.5110213
50
163.3763315
51
172.1410975
0
ARC
8
DEFAULT_255_1_234
10
24.4202118
20
29.1705518
40
0.8444586
50
172.0259487
51
178.0703232
0
ARC
8
DEFAULT_255_1_234
10
24.7232208
20
29.1561906
40
1.1477868
50
177.8631668
51
179.5044149
0
ARC
8
DEFAULT_255_1_234
10
24.6159612
20
28.9247389
40
1.0404907
50
179.7995573
51
185.2460446
0
ARC
8
DEFAULT_255_1_234
10
24.2116651
20
28.8864513
40
0.6343885
50
185.1411642
51
193.0079639
0
ARC
8
DEFAULT_255_1_234
10
23.9473124
20
28.8239641
40
0.3627568
50
192.7897626
51
205.2507664
0
ARC
8
DEFAULT_255_1_234
10
23.8426671
20
28.7772415
40
0.2481908
50
205.8005384
51
211.2537509
0
ARC
8
DEFAULT_255_1_234
10
23.7903111
20
28.742158
40
0.1852521
50
210.3789793
51
238.4008143
0
ARC
8
DEFAULT_255_1_234
10
23.7883633
20
28.7468376
40
0.1882621
50
239.6520629
51
265.9793761
0
ARC
8
DEFAULT_255_1_234
10
23.7968833
20
28.8140427
40
0.2559272
50
265.1315437
51
270.060332
0
ARC
8
DEFAULT_255_1_234
10
23.7997612
20
28.7816534
40
0.2235528
50
269.3314664
51
287.2178029
0
ARC
8
DEFAULT_255_1_234
10
23.8135464
20
28.7313279
40
0.1714108
50
287.7958004
51
329.080874
0
ARC
8
DEFAULT_255_1_234
10
23.7177921
20
28.791093
40
0.2842745
50
328.6634704
51
343.3325132
0
ARC
8
DEFAULT_255_1_234
10
23.5004941
20
28.8587863
40
0.5118644
50
343.0499468
51
351.9393422
0
ARC
8
DEFAULT_255_1_234
10
23.1538241
20
28.9098949
40
0.8622784
50
351.8069023
51
357.7959224
0
ARC
8
DEFAULT_255_1_234
10
22.8302797
20
28.9266721
40
1.1862365
50
357.5871873
51
359.2677531
0
LINE
8
DEFAULT_255_1_234
10
21.1181119
20
36.5116792
11
21.1181119
21
36.3904
0
LINE
8
DEFAULT_255_1_234
10
21.1181119
20
36.3904
11
20.351884
21
36.3904
0
LINE
8
DEFAULT_255_1_234
10
20.351884
20
36.3904
11
20.351884
21
36.4972221
0
LINE
8
DEFAULT_255_1_234
10
20.351884
20
36.4972221
11
20.7566836
21
36.9469995
0
LINE
8
DEFAULT_255_1_234
10
20.4779823
20
37.2152595
11
20.3293952
21
37.2152595
0
LINE
8
DEFAULT_255_1_234
10
20.8442296
20
36.8514218
11
20.5309918
21
36.5116792
0
LINE
8
DEFAULT_255_1_234
10
20.5309918
20
36.5116792
11
21.1181119
21
36.5116792
0
ARC
8
DEFAULT_255_1_234
10
19.407667
20
38.1399527
40
1.8008286
50
318.5132453
51
320.7828378
0
ARC
8
DEFAULT_255_1_234
10
19.9363644
20
37.7096426
40
1.1191493
50
320.7372736
51
323.9737074
0
ARC
8
DEFAULT_255_1_234
10
20.3283501
20
37.4256361
40
0.6350923
50
323.8961724
51
328.6421089
0
ARC
8
DEFAULT_255_1_234
10
20.5330096
20
37.2994031
40
0.3946393
50
328.8299013
51
331.789948
0
ARC
8
DEFAULT_255_1_234
10
20.6327274
20
37.2479509
40
0.2824501
50
331.4255242
51
352.9364833
0
ARC
8
DEFAULT_255_1_234
10
20.6463775
20
37.2448976
40
0.2685315
50
353.2248685
51
0.0169286
0
ARC
8
DEFAULT_255_1_234
10
20.6673652
20
37.247195
40
0.2475536
50
359.4866256
51
15.9339782
0
ARC
8
DEFAULT_255_1_234
10
20.7180637
20
37.2608286
40
0.1950618
50
16.1714718
51
43.5284424
0
ARC
8
DEFAULT_255_1_234
10
20.7257946
20
37.2685573
40
0.184134
50
43.4415429
51
83.1661404
0
ARC
8
DEFAULT_255_1_234
10
20.7123864
20
37.1948771
40
0.258926
50
82.160215
51
90.1505798
0
ARC
8
DEFAULT_255_1_234
10
20.7092291
20
37.1411865
40
0.3126255
50
89.5460705
51
102.5418777
0
ARC
8
DEFAULT_255_1_234
10
20.6849377
20
37.2442665
40
0.2067346
50
102.1739365
51
129.2061916
0
ARC
8
DEFAULT_255_1_234
10
20.6770449
20
37.2567094
40
0.1921118
50
129.7279328
51
135.7542026
0
ARC
8
DEFAULT_255_1_234
10
20.6891977
20
37.2470045
40
0.2075944
50
136.175737
51
166.3674722
0
ARC
8
DEFAULT_255_1_234
10
20.7898896
20
37.2200182
40
0.3118201
50
165.9092917
51
178.8683903
0
ARC
8
DEFAULT_255_1_234
10
20.8763757
20
37.2153179
40
0.3983935
50
178.438168
51
180.0083905
0
ARC
8
DEFAULT_255_1_234
10
20.7362359
20
37.2192231
40
0.4068601
50
163.2878735
51
180.5581814
0
ARC
8
DEFAULT_255_1_234
10
20.6560621
20
37.241284
40
0.3237344
50
133.454115
51
162.9470031
0
ARC
8
DEFAULT_255_1_234
10
20.6739162
20
37.2223
40
0.349795
50
100.7869394
51
133.4384016
0
ARC
8
DEFAULT_255_1_234
10
20.7086934
20
37.0674319
40
0.5084616
50
89.6605301
51
101.3704185
0
ARC
8
DEFAULT_255_1_234
10
20.7153273
20
37.0735496
40
0.502348
50
78.2171172
51
90.4130393
0
ARC
8
DEFAULT_255_1_234
10
20.7508351
20
37.2359637
40
0.3361092
50
55.9268222
51
78.4888551
0
ARC
8
DEFAULT_255_1_234
10
20.7704791
20
37.2698324
40
0.2970617
50
47.9292255
51
55.4054003
0
ARC
8
DEFAULT_255_1_234
10
20.7806352
20
37.2801502
40
0.2825983
50
4.3347696
51
48.0560701
0
ARC
8
DEFAULT_255_1_234
10
20.6710745
20
37.2631601
40
0.393225
50
359.925209
51
5.5967654
0
ARC
8
DEFAULT_255_1_234
10
20.7139637
20
37.2687816
40
0.3503892
50
337.8914096
51
358.9967724
0
ARC
8
DEFAULT_255_1_234
10
20.4426049
20
37.3734706
40
0.6412172
50
326.9135351
51
338.3505194
0
ARC
8
DEFAULT_255_1_234
10
20.0440353
20
37.6289284
40
1.1146189
50
319.6472867
51
327.095818
0
ARC
8
DEFAULT_255_1_234
10
19.6607356
20
37.9451
40
1.6114559
50
317.2586784
51
319.9046139
0
LINE
8
DEFAULT_255_1_234
10
21.9823269
20
37.5598211
11
22.1373395
21
37.5598211
0
LINE
8
DEFAULT_255_1_234
10
22.1373395
20
37.5598211
11
22.1373395
21
36.764679
0
LINE
8
DEFAULT_255_1_234
10
21.7534224
20
36.3759429
11
21.7124605
21
36.3743365
0
LINE
8
DEFAULT_255_1_234
10
21.2907942
20
36.7630727
11
21.2907942
21
37.5598211
0
LINE
8
DEFAULT_255_1_234
10
21.2907942
20
37.5598211
11
21.4433973
21
37.5598211
0
LINE
8
DEFAULT_255_1_234
10
21.4433973
20
37.5598211
11
21.4433973
21
36.7678917
0
LINE
8
DEFAULT_255_1_234
10
21.9823269
20
36.7670885
11
21.9823269
21
37.5598211
0
ARC
8
DEFAULT_255_1_234
10
21.7020293
20
36.7626928
40
0.4353147
50
343.0898354
51
0.2614217
0
ARC
8
DEFAULT_255_1_234
10
21.7848694
20
36.7395837
40
0.3493402
50
315.3345598
51
342.7641223
0
ARC
8
DEFAULT_255_1_234
10
21.7625143
20
36.7627682
40
0.3815385
50
284.6606969
51
315.2182466
0
ARC
8
DEFAULT_255_1_234
10
21.7169856
20
36.9173755
40
0.5426573
50
273.8500273
51
285.1797701
0
ARC
8
DEFAULT_255_1_234
10
21.7081907
20
36.9515475
40
0.5772268
50
257.6317484
51
270.4238298
0
ARC
8
DEFAULT_255_1_234
10
21.6657105
20
36.7694198
40
0.3902347
50
230.6087562
51
257.9964012
0
ARC
8
DEFAULT_255_1_234
10
21.6525107
20
36.7487802
40
0.3659186
50
227.7440991
51
230.1551448
0
ARC
8
DEFAULT_255_1_234
10
21.6390938
20
36.7326471
40
0.3449568
50
189.2524587
51
227.5916061
0
ARC
8
DEFAULT_255_1_234
10
21.7912625
20
36.7654013
40
0.5004737
50
180.2665968
51
190.1525252
0
ARC
8
DEFAULT_255_1_234
10
21.8134645
20
36.7650918
40
0.3700778
50
179.5665184
51
191.9952995
0
ARC
8
DEFAULT_255_1_234
10
21.6906751
20
36.7377043
40
0.2442808
50
191.6974072
51
215.1404042
0
ARC
8
DEFAULT_255_1_234
10
21.6668666
20
36.7235108
40
0.2166522
50
215.6950207
51
224.8513522
0
ARC
8
DEFAULT_255_1_234
10
21.6724409
20
36.7314697
40
0.2262237
50
225.2846858
51
255.0111758
0
ARC
8
DEFAULT_255_1_234
10
21.7048369
20
36.8428455
40
0.3421979
50
254.5944985
51
267.9129803
0
ARC
8
DEFAULT_255_1_234
10
21.712285
20
36.9512903
40
0.4508556
50
267.4689655
51
270.0223026
0
ARC
8
DEFAULT_255_1_234
10
21.7152995
20
36.8923849
40
0.3919604
50
269.5849941
51
281.1843768
0
ARC
8
DEFAULT_255_1_234
10
21.743176
20
36.7571059
40
0.2538457
50
280.9344262
51
300.9743589
0
ARC
8
DEFAULT_255_1_234
10
21.7644365
20
36.7179688
40
0.2093566
50
301.4980046
51
315.1466847
0
ARC
8
DEFAULT_255_1_234
10
21.7499904
20
36.7298236
40
0.2279656
50
315.5952539
51
345.6678731
0
ARC
8
DEFAULT_255_1_234
10
21.638042
20
36.7610009
40
0.3441564
50
345.2524969
51
358.6304371
0
ARC
8
DEFAULT_255_1_234
10
21.5362774
20
36.7669916
40
0.4460494
50
358.1735671
51
0.0124524
0
LINE
8
DEFAULT_255_1_234
10
22.4353169
20
37.5598211
11
22.7678309
21
36.5952093
0
LINE
8
DEFAULT_255_1_234
10
22.7678309
20
36.5952093
11
23.1019512
21
37.5598211
0
LINE
8
DEFAULT_255_1_234
10
23.1019512
20
37.5598211
11
23.2706177
21
37.5598211
0
LINE
8
DEFAULT_255_1_234
10
23.2706177
20
37.5598211
11
22.8369039
21
36.3904
0
LINE
8
DEFAULT_255_1_234
10
22.8369039
20
36.3904
11
22.7003643
21
36.3904
0
LINE
8
DEFAULT_255_1_234
10
22.7003643
20
36.3904
11
22.2674536
21
37.5598211
0
LINE
8
DEFAULT_255_1_234
10
22.2674536
20
37.5598211
11
22.4353169
21
37.5598211
0
LINE
8
DEFAULT_255_1_234
10
24.121982
20
37.0819327
11
24.121982
21
36.8891709
0
LINE
8
DEFAULT_255_1_234
10
23.3838652
20
36.8690916
11
23.3838652
21
37.0674755
0
LINE
8
DEFAULT_255_1_234
10
23.9733948
20
36.8490123
11
23.9733948
21
37.0923739
0
LINE
8
DEFAULT_255_1_234
10
23.5324524
20
37.1036184
11
23.5324524
21
36.8658789
0
ARC
8
DEFAULT_255_1_234
10
22.8972709
20
36.8842805
40
1.2247208
50
353.8441951
51
0.2287902
0
ARC
8
DEFAULT_255_1_234
10
23.3612213
20
36.8324806
40
0.7578929
50
344.4934747
51
353.9765454
0
ARC
8
DEFAULT_255_1_234
10
23.6604803
20
36.7473981
40
0.4467846
50
329.2803592
51
344.7472793
0
ARC
8
DEFAULT_255_1_234
10
23.7597628
20
36.6929018
40
0.3336173
50
324.9352394
51
328.6160465
0
ARC
8
DEFAULT_255_1_234
10
23.7974737
20
36.6665427
40
0.2876076
50
280.580143
51
324.9173126
0
ARC
8
DEFAULT_255_1_234
10
23.7573529
20
36.8336099
40
0.4592847
50
269.5977311
51
281.6734359
0
ARC
8
DEFAULT_255_1_234
10
23.7501435
20
36.8216173
40
0.4472986
50
256.6228859
51
270.51044
0
ARC
8
DEFAULT_255_1_234
10
23.7099413
20
36.6667877
40
0.2873874
50
215.8618325
51
257.2788573
0
ARC
8
DEFAULT_255_1_234
10
23.8120444
20
36.7352977
40
0.4102928
50
197.9693508
51
215.2623606
0
ARC
8
DEFAULT_255_1_234
10
24.060556
20
36.8191709
40
0.6725652
50
187.8816417
51
198.2346507
0
ARC
8
DEFAULT_255_1_234
10
24.4563768
20
36.8763079
40
1.0724845
50
180.8976217
51
188.0055519
0
ARC
8
DEFAULT_255_1_234
10
24.7363957
20
36.8866777
40
1.3526448
50
180.7449369
51
181.1510016
0
ARC
8
DEFAULT_255_1_234
10
24.5786686
20
37.0723042
40
1.1948131
50
173.7675579
51
180.231553
0
ARC
8
DEFAULT_255_1_234
10
24.1268832
20
37.1233666
40
0.7401564
50
164.3058563
51
173.9002247
0
ARC
8
DEFAULT_255_1_234
10
23.8356901
20
37.2072656
40
0.4371288
50
148.7922025
51
164.568378
0
ARC
8
DEFAULT_255_1_234
10
23.7405353
20
37.2603929
40
0.3282386
50
144.5883898
51
148.1176286
0
ARC
8
DEFAULT_255_1_234
10
23.7062251
20
37.2843315
40
0.2864044
50
101.6440918
51
144.514236
0
ARC
8
DEFAULT_255_1_234
10
23.7487318
20
37.1154069
40
0.4604934
50
89.5284041
51
102.5819763
0
ARC
8
DEFAULT_255_1_234
10
23.7566406
20
37.1115018
40
0.464401
50
77.0437873
51
90.5081339
0
ARC
8
DEFAULT_255_1_234
10
23.7968407
20
37.2757615
40
0.2953195
50
48.2778575
51
77.4994676
0
ARC
8
DEFAULT_255_1_234
10
23.8041039
20
37.2886746
40
0.2808655
50
36.3142134
51
47.6305865
0
ARC
8
DEFAULT_255_1_234
10
23.7172346
20
37.2301515
40
0.3855453
50
18.2931786
51
35.6769206
0
ARC
8
DEFAULT_255_1_234
10
23.4629104
20
37.1428593
40
0.654423
50
8.024666
51
18.5605216
0
ARC
8
DEFAULT_255_1_234
10
23.0466024
20
37.0813792
40
1.0752407
50
1.1274072
51
8.1718305
0
ARC
8
DEFAULT_255_1_234
10
22.7230215
20
37.0686885
40
1.3990231
50
0.5424119
51
1.3863029
0
ARC
8
DEFAULT_255_1_234
10
22.9051593
20
37.0959342
40
1.0682415
50
359.8090433
51
4.9407866
0
ARC
8
DEFAULT_255_1_234
10
23.3261607
20
37.1335113
40
0.6455691
50
4.8362157
51
12.2904523
0
ARC
8
DEFAULT_255_1_234
10
23.6016722
20
37.1948965
40
0.3633074
50
12.0805627
51
23.8173984
0
ARC
8
DEFAULT_255_1_234
10
23.7190427
20
37.2445919
40
0.2358723
50
24.2871213
51
31.3935614
0
ARC
8
DEFAULT_255_1_234
10
23.7715124
20
37.2789233
40
0.1732111
50
30.7407893
51
82.4657128
0
ARC
8
DEFAULT_255_1_234
10
23.7535259
20
37.1905691
40
0.263235
50
81.1060089
51
90.2184952
0
ARC
8
DEFAULT_255_1_234
10
23.7499557
20
37.2163924
40
0.2374236
50
89.3806855
51
105.6762551
0
ARC
8
DEFAULT_255_1_234
10
23.7316188
20
37.2830567
40
0.1682847
50
105.7981136
51
149.7388061
0
ARC
8
DEFAULT_255_1_234
10
23.8380266
20
37.219095
40
0.2924306
50
149.4208916
51
163.6286378
0
ARC
8
DEFAULT_255_1_234
10
24.0471154
20
37.155325
40
0.5110213
50
163.3763315
51
172.1410975
0
ARC
8
DEFAULT_255_1_234
10
24.3771873
20
37.1080518
40
0.8444586
50
172.0259487
51
178.0703232
0
ARC
8
DEFAULT_255_1_234
10
24.6801963
20
37.0936906
40
1.1477868
50
177.8631668
51
179.5044149
0
ARC
8
DEFAULT_255_1_234
10
24.5729367
20
36.8622389
40
1.0404907
50
179.7995573
51
185.2460446
0
ARC
8
DEFAULT_255_1_234
10
24.1686407
20
36.8239513
40
0.6343885
50
185.1411642
51
193.0079639
0
ARC
8
DEFAULT_255_1_234
10
23.9042879
20
36.7614641
40
0.3627568
50
192.7897626
51
205.2507664
0
ARC
8
DEFAULT_255_1_234
10
23.7996426
20
36.7147415
40
0.2481908
50
205.8005384
51
211.2537509
0
ARC
8
DEFAULT_255_1_234
10
23.7472867
20
36.679658
40
0.1852521
50
210.3789793
51
238.4008143
0
ARC
8
DEFAULT_255_1_234
10
23.7453389
20
36.6843376
40
0.1882621
50
239.6520629
51
265.9793761
0
ARC
8
DEFAULT_255_1_234
10
23.7538589
20
36.7515427
40
0.2559272
50
265.1315437
51
270.060332
0
ARC
8
DEFAULT_255_1_234
10
23.7567367
20
36.7191534
40
0.2235528
50
269.3314664
51
287.2178029
0
ARC
8
DEFAULT_255_1_234
10
23.7705219
20
36.6688279
40
0.1714108
50
287.7958004
51
329.080874
0
ARC
8
DEFAULT_255_1_234
10
23.6747676
20
36.728593
40
0.2842745
50
328.6634704
51
343.3325132
0
ARC
8
DEFAULT_255_1_234
10
23.4574696
20
36.7962863
40
0.5118644
50
343.0499468
51
351.9393422
0
ARC
8
DEFAULT_255_1_234
10
23.1107996
20
36.8473949
40
0.8622784
50
351.8069023
51
357.7959224
0
ARC
8
DEFAULT_255_1_234
10
22.7872552
20
36.8641721
40
1.1862365
50
357.5871873
51
359.2677531
0
LINE
8
DEFAULT_255_1_234
10
20.8402137
20
45.5029433
11
20.8402137
21
44.3279
0
LINE
8
DEFAULT_255_1_234
10
20.8402137
20
44.3279
11
20.6908234
21
44.3279
0
LINE
8
DEFAULT_255_1_234
10
20.6908234
20
44.3279
11
20.6908234
21
45.3182133
0
LINE
8
DEFAULT_255_1_234
10
20.6908234
20
45.3182133
11
20.3912396
21
45.2081785
0
LINE
8
DEFAULT_255_1_234
10
20.3912396
20
45.2081785
11
20.3912396
21
45.3431117
0
LINE
8
DEFAULT_255_1_234
10
20.3912396
20
45.3431117
11
20.8169217
21
45.5029433
0
LINE
8
DEFAULT_255_1_234
10
20.8169217
20
45.5029433
11
20.8402137
21
45.5029433
0
LINE
8
DEFAULT_255_1_234
10
21.9823269
20
45.4973211
11
22.1373395
21
45.4973211
0
LINE
8
DEFAULT_255_1_234
10
22.1373395
20
45.4973211
11
22.1373395
21
44.702179
0
LINE
8
DEFAULT_255_1_234
10
21.7534224
20
44.3134429
11
21.7124605
21
44.3118365
0
LINE
8
DEFAULT_255_1_234
10
21.2907942
20
44.7005727
11
21.2907942
21
45.4973211
0
LINE
8
DEFAULT_255_1_234
10
21.2907942
20
45.4973211
11
21.4433973
21
45.4973211
0
LINE
8
DEFAULT_255_1_234
10
21.4433973
20
45.4973211
11
21.4433973
21
44.7053917
0
LINE
8
DEFAULT_255_1_234
10
21.9823269
20
44.7045885
11
21.9823269
21
45.4973211
0
ARC
8
DEFAULT_255_1_234
10
21.7020293
20
44.7001928
40
0.4353147
50
343.0898354
51
0.2614217
0
ARC
8
DEFAULT_255_1_234
10
21.7848694
20
44.6770837
40
0.3493402
50
315.3345598
51
342.7641223
0
ARC
8
DEFAULT_255_1_234
10
21.7625143
20
44.7002682
40
0.3815385
50
284.6606969
51
315.2182466
0
ARC
8
DEFAULT_255_1_234
10
21.7169856
20
44.8548755
40
0.5426573
50
273.8500273
51
285.1797701
0
ARC
8
DEFAULT_255_1_234
10
21.7081907
20
44.8890475
40
0.5772268
50
257.6317484
51
270.4238298
0
ARC
8
DEFAULT_255_1_234
10
21.6657105
20
44.7069198
40
0.3902347
50
230.6087562
51
257.9964012
0
ARC
8
DEFAULT_255_1_234
10
21.6525107
20
44.6862802
40
0.3659186
50
227.7440991
51
230.1551448
0
ARC
8
DEFAULT_255_1_234
10
21.6390938
20
44.6701471
40
0.3449568
50
189.2524587
51
227.5916061
0
ARC
8
DEFAULT_255_1_234
10
21.7912625
20
44.7029013
40
0.5004737
50
180.2665968
51
190.1525252
0
ARC
8
DEFAULT_255_1_234
10
21.8134645
20
44.7025918
40
0.3700778
50
179.5665184
51
191.9952995
0
ARC
8
DEFAULT_255_1_234
10
21.6906751
20
44.6752043
40
0.2442808
50
191.6974072
51
215.1404042
0
ARC
8
DEFAULT_255_1_234
10
21.6668666
20
44.6610108
40
0.2166522
50
215.6950207
51
224.8513522
0
ARC
8
DEFAULT_255_1_234
10
21.6724409
20
44.6689697
40
0.2262237
50
225.2846858
51
255.0111758
0
ARC
8
DEFAULT_255_1_234
10
21.7048369
20
44.7803455
40
0.3421979
50
254.5944985
51
267.9129803
0
ARC
8
DEFAULT_255_1_234
10
21.712285
20
44.8887903
40
0.4508556
50
267.4689655
51
270.0223026
0
ARC
8
DEFAULT_255_1_234
10
21.7152995
20
44.8298849
40
0.3919604
50
269.5849941
51
281.1843768
0
ARC
8
DEFAULT_255_1_234
10
21.743176
20
44.6946059
40
0.2538457
50
280.9344262
51
300.9743589
0
ARC
8
DEFAULT_255_1_234
10
21.7644365
20
44.6554688
40
0.2093566
50
301.4980046
51
315.1466847
0
ARC
8
DEFAULT_255_1_234
10
21.7499904
20
44.6673236
40
0.2279656
50
315.5952539
51
345.6678731
0
ARC
8
DEFAULT_255_1_234
10
21.638042
20
44.6985009
40
0.3441564
50
345.2524969
51
358.6304371
0
ARC
8
DEFAULT_255_1_234
10
21.5362774
20
44.7044916
40
0.4460494
50
358.1735671
51
0.0124524
0
LINE
8
DEFAULT_255_1_234
10
22.4353169
20
45.4973211
11
22.7678309
21
44.5327093
0
LINE
8
DEFAULT_255_1_234
10
22.7678309
20
44.5327093
11
23.1019512
21
45.4973211
0
LINE
8
DEFAULT_255_1_234
10
23.1019512
20
45.4973211
11
23.2706177
21
45.4973211
0
LINE
8
DEFAULT_255_1_234
10
23.2706177
20
45.4973211
11
22.8369039
21
44.3279
0
LINE
8
DEFAULT_255_1_234
10
22.8369039
20
44.3279
11
22.7003643
21
44.3279
0
LINE
8
DEFAULT_255_1_234
10
22.7003643
20
44.3279
11
22.2674536
21
45.4973211
0
LINE
8
DEFAULT_255_1_234
10
22.2674536
20
45.4973211
11
22.4353169
21
45.4973211
0
LINE
8
DEFAULT_255_1_234
10
24.121982
20
45.0194327
11
24.121982
21
44.8266709
0
LINE
8
DEFAULT_255_1_234
10
23.3838652
20
44.8065916
11
23.3838652
21
45.0049755
0
LINE
8
DEFAULT_255_1_234
10
23.9733948
20
44.7865123
11
23.9733948
21
45.0298739
0
LINE
8
DEFAULT_255_1_234
10
23.5324524
20
45.0411184
11
23.5324524
21
44.8033789
0
ARC
8
DEFAULT_255_1_234
10
22.8972709
20
44.8217805
40
1.2247208
50
353.8441951
51
0.2287902
0
ARC
8
DEFAULT_255_1_234
10
23.3612213
20
44.7699806
40
0.7578929
50
344.4934747
51
353.9765454
0
ARC
8
DEFAULT_255_1_234
10
23.6604803
20
44.6848981
40
0.4467846
50
329.2803592
51
344.7472793
0
ARC
8
DEFAULT_255_1_234
10
23.7597628
20
44.6304018
40
0.3336173
50
324.9352394
51
328.6160465
0
ARC
8
DEFAULT_255_1_234
10
23.7974737
20
44.6040427
40
0.2876076
50
280.580143
51
324.9173126
0
ARC
8
DEFAULT_255_1_234
10
23.7573529
20
44.7711099
40
0.4592847
50
269.5977311
51
281.6734359
0
ARC
8
DEFAULT_255_1_234
10
23.7501435
20
44.7591173
40
0.4472986
50
256.6228859
51
270.51044
0
ARC
8
DEFAULT_255_1_234
10
23.7099413
20
44.6042877
40
0.2873874
50
215.8618325
51
257.2788573
0
ARC
8
DEFAULT_255_1_234
10
23.8120444
20
44.6727977
40
0.4102928
50
197.9693508
51
215.2623606
0
ARC
8
DEFAULT_255_1_234
10
24.060556
20
44.7566709
40
0.6725652
50
187.8816417
51
198.2346507
0
ARC
8
DEFAULT_255_1_234
10
24.4563768
20
44.8138079
40
1.0724845
50
180.8976217
51
188.0055519
0
ARC
8
DEFAULT_255_1_234
10
24.7363957
20
44.8241777
40
1.3526448
50
180.7449369
51
181.1510016
0
ARC
8
DEFAULT_255_1_234
10
24.5786686
20
45.0098042
40
1.1948131
50
173.7675579
51
180.231553
0
ARC
8
DEFAULT_255_1_234
10
24.1268832
20
45.0608666
40
0.7401564
50
164.3058563
51
173.9002247
0
ARC
8
DEFAULT_255_1_234
10
23.8356901
20
45.1447656
40
0.4371288
50
148.7922025
51
164.568378
0
ARC
8
DEFAULT_255_1_234
10
23.7405353
20
45.1978929
40
0.3282386
50
144.5883898
51
148.1176286
0
ARC
8
DEFAULT_255_1_234
10
23.7062251
20
45.2218315
40
0.2864044
50
101.6440918
51
144.514236
0
ARC
8
DEFAULT_255_1_234
10
23.7487318
20
45.0529069
40
0.4604934
50
89.5284041
51
102.5819763
0
ARC
8
DEFAULT_255_1_234
10
23.7566406
20
45.0490018
40
0.464401
50
77.0437873
51
90.5081339
0
ARC
8
DEFAULT_255_1_234
10
23.7968407
20
45.2132615
40
0.2953195
50
48.2778575
51
77.4994676
0
ARC
8
DEFAULT_255_1_234
10
23.8041039
20
45.2261746
40
0.2808655
50
36.3142134
51
47.6305865
0
ARC
8
DEFAULT_255_1_234
10
23.7172346
20
45.1676515
40
0.3855453
50
18.2931786
51
35.6769206
0
ARC
8
DEFAULT_255_1_234
10
23.4629104
20
45.0803593
40
0.654423
50
8.024666
51
18.5605216
0
ARC
8
DEFAULT_255_1_234
10
23.0466024
20
45.0188792
40
1.0752407
50
1.1274072
51
8.1718305
0
ARC
8
DEFAULT_255_1_234
10
22.7230215
20
45.0061885
40
1.3990231
50
0.5424119
51
1.3863029
0
ARC
8
DEFAULT_255_1_234
10
22.9051593
20
45.0334342
40
1.0682415
50
359.8090433
51
4.9407866
0
ARC
8
DEFAULT_255_1_234
10
23.3261607
20
45.0710113
40
0.6455691
50
4.8362157
51
12.2904523
0
ARC
8
DEFAULT_255_1_234
10
23.6016722
20
45.1323965
40
0.3633074
50
12.0805627
51
23.8173984
0
ARC
8
DEFAULT_255_1_234
10
23.7190427
20
45.1820919
40
0.2358723
50
24.2871213
51
31.3935614
0
ARC
8
DEFAULT_255_1_234
10
23.7715124
20
45.2164233
40
0.1732111
50
30.7407893
51
82.4657128
0
ARC
8
DEFAULT_255_1_234
10
23.7535259
20
45.1280691
40
0.263235
50
81.1060089
51
90.2184952
0
ARC
8
DEFAULT_255_1_234
10
23.7499557
20
45.1538924
40
0.2374236
50
89.3806855
51
105.6762551
0
ARC
8
DEFAULT_255_1_234
10
23.7316188
20
45.2205567
40
0.1682847
50
105.7981136
51
149.7388061
0
ARC
8
DEFAULT_255_1_234
10
23.8380266
20
45.156595
40
0.2924306
50
149.4208916
51
163.6286378
0
ARC
8
DEFAULT_255_1_234
10
24.0471154
20
45.092825
40
0.5110213
50
163.3763315
51
172.1410975
0
ARC
8
DEFAULT_255_1_234
10
24.3771873
20
45.0455518
40
0.8444586
50
172.0259487
51
178.0703232
0
ARC
8
DEFAULT_255_1_234
10
24.6801963
20
45.0311906
40
1.1477868
50
177.8631668
51
179.5044149
0
ARC
8
DEFAULT_255_1_234
10
24.5729367
20
44.7997389
40
1.0404907
50
179.7995573
51
185.2460446
0
ARC
8
DEFAULT_255_1_234
10
24.1686407
20
44.7614513
40
0.6343885
50
185.1411642
51
193.0079639
0
ARC
8
DEFAULT_255_1_234
10
23.9042879
20
44.6989641
40
0.3627568
50
192.7897626
51
205.2507664
0
ARC
8
DEFAULT_255_1_234
10
23.7996426
20
44.6522415
40
0.2481908
50
205.8005384
51
211.2537509
0
ARC
8
DEFAULT_255_1_234
10
23.7472867
20
44.617158
40
0.1852521
50
210.3789793
51
238.4008143
0
ARC
8
DEFAULT_255_1_234
10
23.7453389
20
44.6218376
40
0.1882621
50
239.6520629
51
265.9793761
0
ARC
8
DEFAULT_255_1_234
10
23.7538589
20
44.6890427
40
0.2559272
50
265.1315437
51
270.060332
0
ARC
8
DEFAULT_255_1_234
10
23.7567367
20
44.6566534
40
0.2235528
50
269.3314664
51
287.2178029
0
ARC
8
DEFAULT_255_1_234
10
23.7705219
20
44.6063279
40
0.1714108
50
287.7958004
51
329.080874
0
ARC
8
DEFAULT_255_1_234
10
23.6747676
20
44.666093
40
0.2842745
50
328.6634704
51
343.3325132
0
ARC
8
DEFAULT_255_1_234
10
23.4574696
20
44.7337863
40
0.5118644
50
343.0499468
51
351.9393422
0
ARC
8
DEFAULT_255_1_234
10
23.1107996
20
44.7848949
40
0.8622784
50
351.8069023
51
357.7959224
0
ARC
8
DEFAULT_255_1_234
10
22.7872552
20
44.8016721
40
1.1862365
50
357.5871873
51
359.2677531
0
LINE
8
DEFAULT_255_1_234
10
22.7732902
20
53.4348211
11
22.7732902
21
52.2654
0
LINE
8
DEFAULT_255_1_234
10
22.7732902
20
52.2654
11
22.6190808
21
52.2654
0
LINE
8
DEFAULT_255_1_234
10
22.6190808
20
52.2654
11
22.6190808
21
53.4348211
0
LINE
8
DEFAULT_255_1_234
10
22.6190808
20
53.4348211
11
22.7732902
21
53.4348211
0
LINE
8
DEFAULT_255_1_234
10
23.7499496
20
52.9569327
11
23.7499496
21
52.7641709
0
LINE
8
DEFAULT_255_1_234
10
23.0118328
20
52.7440916
11
23.0118328
21
52.9424755
0
LINE
8
DEFAULT_255_1_234
10
23.6013624
20
52.7240123
11
23.6013624
21
52.9673739
0
LINE
8
DEFAULT_255_1_234
10
23.16042
20
52.9786184
11
23.16042
21
52.7408789
0
ARC
8
DEFAULT_255_1_234
10
22.5252385
20
52.7592805
40
1.2247208
50
353.8441951
51
0.2287902
0
ARC
8
DEFAULT_255_1_234
10
22.9891889
20
52.7074806
40
0.7578929
50
344.4934747
51
353.9765454
0
ARC
8
DEFAULT_255_1_234
10
23.2884479
20
52.6223981
40
0.4467846
50
329.2803592
51
344.7472793
0
ARC
8
DEFAULT_255_1_234
10
23.3877304
20
52.5679018
40
0.3336173
50
324.9352394
51
328.6160465
0
ARC
8
DEFAULT_255_1_234
10
23.4254413
20
52.5415427
40
0.2876076
50
280.580143
51
324.9173126
0
ARC
8
DEFAULT_255_1_234
10
23.3853205
20
52.7086099
40
0.4592847
50
269.5977311
51
281.6734359
0
ARC
8
DEFAULT_255_1_234
10
23.3781111
20
52.6966173
40
0.4472986
50
256.6228859
51
270.51044
0
ARC
8
DEFAULT_255_1_234
10
23.3379089
20
52.5417877
40
0.2873874
50
215.8618325
51
257.2788573
0
ARC
8
DEFAULT_255_1_234
10
23.440012
20
52.6102977
40
0.4102928
50
197.9693508
51
215.2623606
0
ARC
8
DEFAULT_255_1_234
10
23.6885236
20
52.6941709
40
0.6725652
50
187.8816417
51
198.2346507
0
ARC
8
DEFAULT_255_1_234
10
24.0843444
20
52.7513079
40
1.0724845
50
180.8976217
51
188.0055519
0
ARC
8
DEFAULT_255_1_234
10
24.3643632
20
52.7616777
40
1.3526448
50
180.7449369
51
181.1510016
0
ARC
8
DEFAULT_255_1_234
10
24.2066361
20
52.9473042
40
1.1948131
50
173.7675579
51
180.231553
0
ARC
8
DEFAULT_255_1_234
10
23.7548508
20
52.9983666
40
0.7401564
50
164.3058563
51
173.9002247
0
ARC
8
DEFAULT_255_1_234
10
23.4636577
20
53.0822656
40
0.4371288
50
148.7922025
51
164.568378
0
ARC
8
DEFAULT_255_1_234
10
23.3685029
20
53.1353929
40
0.3282386
50
144.5883898
51
148.1176286
0
ARC
8
DEFAULT_255_1_234
10
23.3341927
20
53.1593315
40
0.2864044
50
101.6440918
51
144.514236
0
ARC
8
DEFAULT_255_1_234
10
23.3766994
20
52.9904069
40
0.4604934
50
89.5284041
51
102.5819763
0
ARC
8
DEFAULT_255_1_234
10
23.3846081
20
52.9865018
40
0.464401
50
77.0437873
51
90.5081339
0
ARC
8
DEFAULT_255_1_234
10
23.4248083
20
53.1507615
40
0.2953195
50
48.2778575
51
77.4994676
0
ARC
8
DEFAULT_255_1_234
10
23.4320714
20
53.1636746
40
0.2808655
50
36.3142134
51
47.6305865
0
ARC
8
DEFAULT_255_1_234
10
23.3452021
20
53.1051515
40
0.3855453
50
18.2931786
51
35.6769206
0
ARC
8
DEFAULT_255_1_234
10
23.090878
20
53.0178593
40
0.654423
50
8.024666
51
18.5605216
0
ARC
8
DEFAULT_255_1_234
10
22.67457
20
52.9563792
40
1.0752407
50
1.1274072
51
8.1718305
0
ARC
8
DEFAULT_255_1_234
10
22.3509891
20
52.9436885
40
1.3990231
50
0.5424119
51
1.3863029
0
ARC
8
DEFAULT_255_1_234
10
22.5331269
20
52.9709342
40
1.0682415
50
359.8090433
51
4.9407866
0
ARC
8
DEFAULT_255_1_234
10
22.9541283
20
53.0085113
40
0.6455691
50
4.8362157
51
12.2904523
0
ARC
8
DEFAULT_255_1_234
10
23.2296398
20
53.0698965
40
0.3633074
50
12.0805627
51
23.8173984
0
ARC
8
DEFAULT_255_1_234
10
23.3470103
20
53.1195919
40
0.2358723
50
24.2871213
51
31.3935614
0
ARC
8
DEFAULT_255_1_234
10
23.39948
20
53.1539233
40
0.1732111
50
30.7407893
51
82.4657128
0
ARC
8
DEFAULT_255_1_234
10
23.3814934
20
53.0655691
40
0.263235
50
81.1060089
51
90.2184952
0
ARC
8
DEFAULT_255_1_234
10
23.3779233
20
53.0913924
40
0.2374236
50
89.3806855
51
105.6762551
0
ARC
8
DEFAULT_255_1_234
10
23.3595864
20
53.1580567
40
0.1682847
50
105.7981136
51
149.7388061
0
ARC
8
DEFAULT_255_1_234
10
23.4659942
20
53.094095
40
0.2924306
50
149.4208916
51
163.6286378
0
ARC
8
DEFAULT_255_1_234
10
23.675083
20
53.030325
40
0.5110213
50
163.3763315
51
172.1410975
0
ARC
8
DEFAULT_255_1_234
10
24.0051549
20
52.9830518
40
0.8444586
50
172.0259487
51
178.0703232
0
ARC
8
DEFAULT_255_1_234
10
24.3081639
20
52.9686906
40
1.1477868
50
177.8631668
51
179.5044149
0
ARC
8
DEFAULT_255_1_234
10
24.2009043
20
52.7372389
40
1.0404907
50
179.7995573
51
185.2460446
0
ARC
8
DEFAULT_255_1_234
10
23.7966083
20
52.6989513
40
0.6343885
50
185.1411642
51
193.0079639
0
ARC
8
DEFAULT_255_1_234
10
23.5322555
20
52.6364641
40
0.3627568
50
192.7897626
51
205.2507664
0
ARC
8
DEFAULT_255_1_234
10
23.4276102
20
52.5897415
40
0.2481908
50
205.8005384
51
211.2537509
0
ARC
8
DEFAULT_255_1_234
10
23.3752543
20
52.554658
40
0.1852521
50
210.3789793
51
238.4008143
0
ARC
8
DEFAULT_255_1_234
10
23.3733064
20
52.5593376
40
0.1882621
50
239.6520629
51
265.9793761
0
ARC
8
DEFAULT_255_1_234
10
23.3818265
20
52.6265427
40
0.2559272
50
265.1315437
51
270.060332
0
ARC
8
DEFAULT_255_1_234
10
23.3847043
20
52.5941534
40
0.2235528
50
269.3314664
51
287.2178029
0
ARC
8
DEFAULT_255_1_234
10
23.3984895
20
52.5438279
40
0.1714108
50
287.7958004
51
329.080874
0
ARC
8
DEFAULT_255_1_234
10
23.3027352
20
52.603593
40
0.2842745
50
328.6634704
51
343.3325132
0
ARC
8
DEFAULT_255_1_234
10
23.0854372
20
52.6712863
40
0.5118644
50
343.0499468
51
351.9393422
0
ARC
8
DEFAULT_255_1_234
10
22.7387672
20
52.7223949
40
0.8622784
50
351.8069023
51
357.7959224
0
ARC
8
DEFAULT_255_1_234
10
22.4152228
20
52.7391721
40
1.1862365
50
357.5871873
51
359.2677531
0
LINE
8
DEFAULT_255_1_234
10
24.264784
20
52.8228026
11
24.264784
21
52.7015234
0
LINE
8
DEFAULT_255_1_234
10
24.264784
20
52.7015234
11
23.8728352
21
52.7015234
0
LINE
8
DEFAULT_255_1_234
10
23.8728352
20
52.7015234
11
23.8728352
21
52.8228026
0
LINE
8
DEFAULT_255_1_234
10
23.8728352
20
52.8228026
11
24.264784
21
52.8228026
0
LINE
8
DEFAULT_255_1_234
10
22.3217902
20
61.3723211
11
22.3217902
21
60.2029
0
LINE
8
DEFAULT_255_1_234
10
22.3217902
20
60.2029
11
22.1675808
21
60.2029
0
LINE
8
DEFAULT_255_1_234
10
22.1675808
20
60.2029
11
22.1675808
21
61.3723211
0
LINE
8
DEFAULT_255_1_234
10
22.1675808
20
61.3723211
11
22.3217902
21
61.3723211
0
LINE
8
DEFAULT_255_1_234
10
23.2984496
20
60.8944327
11
23.2984496
21
60.7016709
0
LINE
8
DEFAULT_255_1_234
10
22.5603328
20
60.6815916
11
22.5603328
21
60.8799755
0
LINE
8
DEFAULT_255_1_234
10
23.1498624
20
60.6615123
11
23.1498624
21
60.9048739
0
LINE
8
DEFAULT_255_1_234
10
22.70892
20
60.9161184
11
22.70892
21
60.6783789
0
ARC
8
DEFAULT_255_1_234
10
22.0737385
20
60.6967805
40
1.2247208
50
353.8441951
51
0.2287902
0
ARC
8
DEFAULT_255_1_234
10
22.5376889
20
60.6449806
40
0.7578929
50
344.4934747
51
353.9765454
0
ARC
8
DEFAULT_255_1_234
10
22.8369479
20
60.5598981
40
0.4467846
50
329.2803592
51
344.7472793
0
ARC
8
DEFAULT_255_1_234
10
22.9362304
20
60.5054018
40
0.3336173
50
324.9352394
51
328.6160465
0
ARC
8
DEFAULT_255_1_234
10
22.9739413
20
60.4790427
40
0.2876076
50
280.580143
51
324.9173126
0
ARC
8
DEFAULT_255_1_234
10
22.9338205
20
60.6461099
40
0.4592847
50
269.5977311
51
281.6734359
0
ARC
8
DEFAULT_255_1_234
10
22.9266111
20
60.6341173
40
0.4472986
50
256.6228859
51
270.51044
0
ARC
8
DEFAULT_255_1_234
10
22.8864089
20
60.4792877
40
0.2873874
50
215.8618325
51
257.2788573
0
ARC
8
DEFAULT_255_1_234
10
22.988512
20
60.5477977
40
0.4102928
50
197.9693508
51
215.2623606
0
ARC
8
DEFAULT_255_1_234
10
23.2370236
20
60.6316709
40
0.6725652
50
187.8816417
51
198.2346507
0
ARC
8
DEFAULT_255_1_234
10
23.6328444
20
60.6888079
40
1.0724845
50
180.8976217
51
188.0055519
0
ARC
8
DEFAULT_255_1_234
10
23.9128632
20
60.6991777
40
1.3526448
50
180.7449369
51
181.1510016
0
ARC
8
DEFAULT_255_1_234
10
23.7551361
20
60.8848042
40
1.1948131
50
173.7675579
51
180.231553
0
ARC
8
DEFAULT_255_1_234
10
23.3033508
20
60.9358666
40
0.7401564
50
164.3058563
51
173.9002247
0
ARC
8
DEFAULT_255_1_234
10
23.0121577
20
61.0197656
40
0.4371288
50
148.7922025
51
164.568378
0
ARC
8
DEFAULT_255_1_234
10
22.9170029
20
61.0728929
40
0.3282386
50
144.5883898
51
148.1176286
0
ARC
8
DEFAULT_255_1_234
10
22.8826927
20
61.0968315
40
0.2864044
50
101.6440918
51
144.514236
0
ARC
8
DEFAULT_255_1_234
10
22.9251994
20
60.9279069
40
0.4604934
50
89.5284041
51
102.5819763
0
ARC
8
DEFAULT_255_1_234
10
22.9331081
20
60.9240018
40
0.464401
50
77.0437873
51
90.5081339
0
ARC
8
DEFAULT_255_1_234
10
22.9733083
20
61.0882615
40
0.2953195
50
48.2778575
51
77.4994676
0
ARC
8
DEFAULT_255_1_234
10
22.9805714
20
61.1011746
40
0.2808655
50
36.3142134
51
47.6305865
0
ARC
8
DEFAULT_255_1_234
10
22.8937021
20
61.0426515
40
0.3855453
50
18.2931786
51
35.6769206
0
ARC
8
DEFAULT_255_1_234
10
22.639378
20
60.9553593
40
0.654423
50
8.024666
51
18.5605216
0
ARC
8
DEFAULT_255_1_234
10
22.22307
20
60.8938792
40
1.0752407
50
1.1274072
51
8.1718305
0
ARC
8
DEFAULT_255_1_234
10
21.8994891
20
60.8811885
40
1.3990231
50
0.5424119
51
1.3863029
0
ARC
8
DEFAULT_255_1_234
10
22.0816269
20
60.9084342
40
1.0682415
50
359.8090433
51
4.9407866
0
ARC
8
DEFAULT_255_1_234
10
22.5026283
20
60.9460113
40
0.6455691
50
4.8362157
51
12.2904523
0
ARC
8
DEFAULT_255_1_234
10
22.7781398
20
61.0073965
40
0.3633074
50
12.0805627
51
23.8173984
0
ARC
8
DEFAULT_255_1_234
10
22.8955103
20
61.0570919
40
0.2358723
50
24.2871213
51
31.3935614
0
ARC
8
DEFAULT_255_1_234
10
22.94798
20
61.0914233
40
0.1732111
50
30.7407893
51
82.4657128
0
ARC
8
DEFAULT_255_1_234
10
22.9299934
20
61.0030691
40
0.263235
50
81.1060089
51
90.2184952
0
ARC
8
DEFAULT_255_1_234
10
22.9264233
20
61.0288924
40
0.2374236
50
89.3806855
51
105.6762551
0
ARC
8
DEFAULT_255_1_234
10
22.9080864
20
61.0955567
40
0.1682847
50
105.7981136
51
149.7388061
0
ARC
8
DEFAULT_255_1_234
10
23.0144942
20
61.031595
40
0.2924306
50
149.4208916
51
163.6286378
0
ARC
8
DEFAULT_255_1_234
10
23.223583
20
60.967825
40
0.5110213
50
163.3763315
51
172.1410975
0
ARC
8
DEFAULT_255_1_234
10
23.5536549
20
60.9205518
40
0.8444586
50
172.0259487
51
178.0703232
0
ARC
8
DEFAULT_255_1_234
10
23.8566639
20
60.9061906
40
1.1477868
50
177.8631668
51
179.5044149
0
ARC
8
DEFAULT_255_1_234
10
23.7494043
20
60.6747389
40
1.0404907
50
179.7995573
51
185.2460446
0
ARC
8
DEFAULT_255_1_234
10
23.3451083
20
60.6364513
40
0.6343885
50
185.1411642
51
193.0079639
0
ARC
8
DEFAULT_255_1_234
10
23.0807555
20
60.5739641
40
0.3627568
50
192.7897626
51
205.2507664
0
ARC
8
DEFAULT_255_1_234
10
22.9761102
20
60.5272415
40
0.2481908
50
205.8005384
51
211.2537509
0
ARC
8
DEFAULT_255_1_234
10
22.9237543
20
60.492158
40
0.1852521
50
210.3789793
51
238.4008143
0
ARC
8
DEFAULT_255_1_234
10
22.9218064
20
60.4968376
40
0.1882621
50
239.6520629
51
265.9793761
0
ARC
8
DEFAULT_255_1_234
10
22.9303265
20
60.5640427
40
0.2559272
50
265.1315437
51
270.060332
0
ARC
8
DEFAULT_255_1_234
10
22.9332043
20
60.5316534
40
0.2235528
50
269.3314664
51
287.2178029
0
ARC
8
DEFAULT_255_1_234
10
22.9469895
20
60.4813279
40
0.1714108
50
287.7958004
51
329.080874
0
ARC
8
DEFAULT_255_1_234
10
22.8512352
20
60.541093
40
0.2842745
50
328.6634704
51
343.3325132
0
ARC
8
DEFAULT_255_1_234
10
22.6339372
20
60.6087863
40
0.5118644
50
343.0499468
51
351.9393422
0
ARC
8
DEFAULT_255_1_234
10
22.2872672
20
60.6598949
40
0.8622784
50
351.8069023
51
357.7959224
0
ARC
8
DEFAULT_255_1_234
10
21.9637228
20
60.6766721
40
1.1862365
50
357.5871873
51
359.2677531
0
LINE
8
DEFAULT_255_1_234
10
23.9297442
20
61.1715276
11
23.9297442
21
60.8301788
0
LINE
8
DEFAULT_255_1_234
10
23.9297442
20
60.8301788
11
24.2558328
21
60.8301788
0
LINE
8
DEFAULT_255_1_234
10
24.2558328
20
60.8301788
11
24.2558328
21
60.6896233
0
LINE
8
DEFAULT_255_1_234
10
24.2558328
20
60.6896233
11
23.9297442
21
60.6896233
0
LINE
8
DEFAULT_255_1_234
10
23.9297442
20
60.6896233
11
23.9297442
21
60.3201634
0
LINE
8
DEFAULT_255_1_234
10
23.9297442
20
60.3201634
11
23.7803539
21
60.3201634
0
LINE
8
DEFAULT_255_1_234
10
23.7803539
20
60.3201634
11
23.7803539
21
60.6896233
0
LINE
8
DEFAULT_255_1_234
10
23.7803539
20
60.6896233
11
23.4542653
21
60.6896233
0
LINE
8
DEFAULT_255_1_234
10
23.4542653
20
60.6896233
11
23.4542653
21
60.8301788
0
LINE
8
DEFAULT_255_1_234
10
23.4542653
20
60.8301788
11
23.7803539
21
60.8301788
0
LINE
8
DEFAULT_255_1_234
10
23.7803539
20
60.8301788
11
23.7803539
21
61.1715276
0
LINE
8
DEFAULT_255_1_234
10
23.7803539
20
61.1715276
11
23.9297442
21
61.1715276
0
ENDSEC
0
EOF