0
SECTION
2
HEADER
9
$MEASUREMENT
70
1
0
ENDSEC
0
SECTION
2
TABLES
0
TABLE
2
LTYPE
0
LTYPE
72
65
70
64
2
CONTINUOUS
3
______
73
0
40
0
0
ENDTAB
0
TABLE
2
LAYER
0
LAYER
2
DEFAULT_255_2_778
70
0
62
255
6
CONTINUOUS
0
ENDTAB
0
ENDSEC
0
SECTION
2
ENTITIES
0
LINE
8
DEFAULT_255_2_778
10
14.2227054
20
1.7728638
11
14.2227054
21
2.0056638
0
LINE
8
DEFAULT_255_2_778
10
14.2227054
20
2.0056638
11
1.0557054
21
2.0056638
0
LINE
8
DEFAULT_255_2_778
10
1.0557054
20
2.0056638
11
1.0557054
21
1.7728638
0
LINE
8
DEFAULT_255_2_778
10
1.8399054
20
55.0225638
11
1.1398054
21
55.7226638
0
LINE
8
DEFAULT_255_2_778
10
1.1398054
20
55.7226638
11
1.1398054
21
58.9233638
0
LINE
8
DEFAULT_255_2_778
10
1.1398054
20
58.9233638
11
14.1399054
21
58.9233638
0
LINE
8
DEFAULT_255_2_778
10
14.1399054
20
58.9233638
11
14.1399054
21
55.7226638
0
LINE
8
DEFAULT_255_2_778
10
14.1399054
20
55.7226638
11
13.4398054
21
55.0225638
0
LINE
8
DEFAULT_255_2_778
10
13.4398054
20
55.0225638
11
13.4398054
21
30.3226638
0
LINE
8
DEFAULT_255_2_778
10
13.4398054
20
30.3226638
11
14.1399054
21
29.6225638
0
LINE
8
DEFAULT_255_2_778
10
14.1399054
20
29.6225638
11
14.1399054
21
26.4227638
0
LINE
8
DEFAULT_255_2_778
10
14.1399054
20
26.4227638
11
1.1398054
21
26.4227638
0
LINE
8
DEFAULT_255_2_778
10
1.1398054
20
26.4227638
11
1.1398054
21
29.6225638
0
LINE
8
DEFAULT_255_2_778
10
1.1398054
20
29.6225638
11
1.8399054
21
30.3226638
0
LINE
8
DEFAULT_255_2_778
10
1.8399054
20
30.3226638
11
1.8399054
21
55.0225638
0
LINE
8
DEFAULT_255_2_778
10
2.9374521
20
16.8951312
11
2.9374521
21
16.8980312
0
LINE
8
DEFAULT_255_2_778
10
2.9374521
20
16.8980312
11
2.5397521
21
15.7150312
0
LINE
8
DEFAULT_255_2_778
10
2.5397521
20
15.7150312
11
2.5397521
21
15.7121312
0
LINE
8
DEFAULT_255_2_778
10
2.5397521
20
15.7121312
11
2.9374521
21
16.8951312
0
LINE
8
DEFAULT_255_2_778
10
2.9374521
20
16.8951312
11
3.0440521
21
16.8951312
0
LINE
8
DEFAULT_255_2_778
10
3.0440521
20
16.8951312
11
3.0440521
21
16.8980312
0
LINE
8
DEFAULT_255_2_778
10
3.0440521
20
16.8980312
11
2.9374521
21
16.8980312
0
LINE
8
DEFAULT_255_2_778
10
5.0376888
20
2.0056647
11
5.0376888
21
1.7728647
0
LINE
8
DEFAULT_255_2_778
10
5.0376888
20
1.7728647
11
0.1396888
21
1.7728647
0
LINE
8
DEFAULT_255_2_778
10
0.1396888
20
1.7728647
11
0.1396888
21
71.0727647
0
LINE
8
DEFAULT_255_2_778
10
0.1396888
20
71.0727647
11
5.0376888
21
71.0727647
0
LINE
8
DEFAULT_255_2_778
10
5.0376888
20
71.0727647
11
5.0376888
21
70.8399647
0
LINE
8
DEFAULT_255_2_778
10
10.2297888
20
2.0056647
11
10.2297888
21
1.7728647
0
LINE
8
DEFAULT_255_2_778
10
10.2297888
20
1.7728647
11
15.1396888
21
1.7728647
0
LINE
8
DEFAULT_255_2_778
10
15.1396888
20
1.7728647
11
15.1396888
21
71.0727647
0
LINE
8
DEFAULT_255_2_778
10
15.1396888
20
71.0727647
11
10.2297888
21
71.0727647
0
LINE
8
DEFAULT_255_2_778
10
10.2297888
20
71.0727647
11
10.2297888
21
70.8399647
0
LINE
8
DEFAULT_255_2_778
10
12.1846344
20
68.4409677
11
12.0737344
21
68.4409677
0
LINE
8
DEFAULT_255_2_778
10
12.0737344
20
68.4409677
11
12.0737344
21
66.8431677
0
LINE
8
DEFAULT_255_2_778
10
12.0737344
20
66.8431677
11
12.1846344
21
66.8431677
0
LINE
8
DEFAULT_255_2_778
10
12.1846344
20
66.8431677
11
12.1846344
21
67.6360677
0
LINE
8
DEFAULT_255_2_778
10
12.1846344
20
67.6360677
11
12.8547344
21
67.6360677
0
LINE
8
DEFAULT_255_2_778
10
12.8547344
20
67.6360677
11
12.8547344
21
66.8431677
0
LINE
8
DEFAULT_255_2_778
10
12.8547344
20
66.8431677
11
12.9680344
21
66.8431677
0
LINE
8
DEFAULT_255_2_778
10
12.9680344
20
66.8431677
11
12.9680344
21
68.4409677
0
LINE
8
DEFAULT_255_2_778
10
12.9680344
20
68.4409677
11
12.8547344
21
68.4409677
0
LINE
8
DEFAULT_255_2_778
10
12.8547344
20
68.4409677
11
12.8547344
21
67.7490677
0
LINE
8
DEFAULT_255_2_778
10
12.8547344
20
67.7490677
11
12.1846344
21
67.7490677
0
LINE
8
DEFAULT_255_2_778
10
12.1846344
20
67.7490677
11
12.1846344
21
68.4409677
0
LINE
8
DEFAULT_255_2_778
10
14.0999344
20
67.6339677
11
13.4919344
21
67.6339677
0
LINE
8
DEFAULT_255_2_778
10
13.4919344
20
67.6339677
11
13.4919344
21
66.8452677
0
LINE
8
DEFAULT_255_2_778
10
13.4919344
20
66.8452677
11
13.3786344
21
66.8452677
0
LINE
8
DEFAULT_255_2_778
10
13.3786344
20
66.8452677
11
13.3786344
21
68.4430677
0
LINE
8
DEFAULT_255_2_778
10
13.3786344
20
68.4430677
11
14.1398344
21
68.4430677
0
LINE
8
DEFAULT_255_2_778
10
14.1398344
20
68.4430677
11
14.1398344
21
68.3263677
0
LINE
8
DEFAULT_255_2_778
10
14.1398344
20
68.3263677
11
13.4919344
21
68.3263677
0
LINE
8
DEFAULT_255_2_778
10
13.4916054
20
67.6303075
11
14.0997054
21
67.6303075
0
LINE
8
DEFAULT_255_2_778
10
14.0997054
20
67.6303075
11
14.0997054
21
67.7449075
0
LINE
8
DEFAULT_255_2_778
10
14.0997054
20
67.7449075
11
13.4916054
21
67.7449075
0
LINE
8
DEFAULT_255_2_778
10
13.4916054
20
67.7449075
11
13.4916054
21
68.3301075
0
LINE
8
DEFAULT_255_2_778
10
13.4916054
20
68.3301075
11
14.1396054
21
68.3301075
0
LINE
8
DEFAULT_255_2_778
10
14.2227054
20
71.0728075
11
14.2227054
21
70.8400075
0
LINE
8
DEFAULT_255_2_778
10
14.2227054
20
70.8400075
11
1.0557054
21
70.8400075
0
LINE
8
DEFAULT_255_2_778
10
1.0557054
20
70.8400075
11
1.0557054
21
71.0728075
0
LINE
8
DEFAULT_255_2_778
10
6.2339054
20
20.8835075
11
5.1340054
21
20.8835075
0
LINE
8
DEFAULT_255_2_778
10
5.1340054
20
20.8835075
11
5.1340054
21
19.7801075
0
LINE
8
DEFAULT_255_2_778
10
5.1340054
20
19.7801075
11
6.2339054
21
19.7801075
0
LINE
8
DEFAULT_255_2_778
10
6.2339054
20
19.7801075
11
6.2339054
21
20.8835075
0
LINE
8
DEFAULT_255_2_778
10
6.2336054
20
15.0362075
11
5.1337054
21
15.0362075
0
LINE
8
DEFAULT_255_2_778
10
5.1337054
20
15.0362075
11
5.1337054
21
13.9334075
0
LINE
8
DEFAULT_255_2_778
10
5.1337054
20
13.9334075
11
6.2336054
21
13.9334075
0
LINE
8
DEFAULT_255_2_778
10
6.2336054
20
13.9334075
11
6.2336054
21
15.0362075
0
LINE
8
DEFAULT_255_2_778
10
6.2333054
20
18.9348075
11
5.1335054
21
18.9348075
0
LINE
8
DEFAULT_255_2_778
10
5.1335054
20
18.9348075
11
5.1335054
21
17.8318075
0
LINE
8
DEFAULT_255_2_778
10
5.1335054
20
17.8318075
11
6.2333054
21
17.8318075
0
LINE
8
DEFAULT_255_2_778
10
6.2333054
20
17.8318075
11
6.2333054
21
18.9348075
0
LINE
8
DEFAULT_255_2_778
10
6.2341054
20
22.8332075
11
5.1343054
21
22.8332075
0
LINE
8
DEFAULT_255_2_778
10
5.1343054
20
22.8332075
11
5.1343054
21
21.7293075
0
LINE
8
DEFAULT_255_2_778
10
5.1343054
20
21.7293075
11
6.2341054
21
21.7293075
0
LINE
8
DEFAULT_255_2_778
10
6.2341054
20
21.7293075
11
6.2341054
21
22.8332075
0
LINE
8
DEFAULT_255_2_778
10
3.0806054
20
18.4638075
11
2.6247054
21
18.4638075
0
LINE
8
DEFAULT_255_2_778
10
2.6247054
20
18.4638075
11
2.6247054
21
18.9031075
0
LINE
8
DEFAULT_255_2_778
10
2.6247054
20
18.9031075
11
3.1107054
21
18.9031075
0
LINE
8
DEFAULT_255_2_778
10
3.1107054
20
18.9031075
11
3.1107054
21
18.9909075
0
LINE
8
DEFAULT_255_2_778
10
3.1107054
20
18.9909075
11
2.5397054
21
18.9909075
0
LINE
8
DEFAULT_255_2_778
10
2.5397054
20
18.9909075
11
2.5397054
21
17.7918075
0
LINE
8
DEFAULT_255_2_778
10
2.5397054
20
17.7918075
11
2.6247054
21
17.7918075
0
LINE
8
DEFAULT_255_2_778
10
2.6247054
20
17.7918075
11
2.6247054
21
18.3808075
0
LINE
8
DEFAULT_255_2_778
10
2.6247054
20
18.3808075
11
3.0808054
21
18.3808075
0
LINE
8
DEFAULT_255_2_778
10
3.0808054
20
18.3808075
11
3.0808054
21
18.4668075
0
LINE
8
DEFAULT_255_2_778
10
3.0808054
20
18.4668075
11
2.6247054
21
18.4668075
0
LINE
8
DEFAULT_255_2_778
10
2.1841054
20
22.8332075
11
1.0843054
21
22.8332075
0
LINE
8
DEFAULT_255_2_778
10
1.0843054
20
22.8332075
11
1.0843054
21
21.7293075
0
LINE
8
DEFAULT_255_2_778
10
1.0843054
20
21.7293075
11
2.1841054
21
21.7293075
0
LINE
8
DEFAULT_255_2_778
10
2.1841054
20
21.7293075
11
2.1841054
21
22.8332075
0
LINE
8
DEFAULT_255_2_778
10
2.9373888
20
20.9392528
11
3.0439888
21
20.9392528
0
LINE
8
DEFAULT_255_2_778
10
3.0439888
20
20.9392528
11
3.0439888
21
20.9421528
0
LINE
8
DEFAULT_255_2_778
10
3.0439888
20
20.9421528
11
2.9373888
21
20.9421528
0
LINE
8
DEFAULT_255_2_778
10
6.2337888
20
13.0869528
11
5.1339888
21
13.0869528
0
LINE
8
DEFAULT_255_2_778
10
5.1339888
20
13.0869528
11
5.1339888
21
11.9841528
0
LINE
8
DEFAULT_255_2_778
10
5.1339888
20
11.9841528
11
6.2337888
21
11.9841528
0
LINE
8
DEFAULT_255_2_778
10
6.2337888
20
11.9841528
11
6.2337888
21
13.0869528
0
LINE
8
DEFAULT_255_2_778
10
6.2337888
20
16.9853528
11
5.1339888
21
16.9853528
0
LINE
8
DEFAULT_255_2_778
10
5.1339888
20
16.9853528
11
5.1339888
21
15.8825528
0
LINE
8
DEFAULT_255_2_778
10
5.1339888
20
15.8825528
11
6.2337888
21
15.8825528
0
LINE
8
DEFAULT_255_2_778
10
6.2337888
20
15.8825528
11
6.2337888
21
16.9853528
0
LINE
8
DEFAULT_255_2_778
10
2.1840888
20
13.0869528
11
1.0842888
21
13.0869528
0
LINE
8
DEFAULT_255_2_778
10
1.0842888
20
13.0869528
11
1.0842888
21
11.9841528
0
LINE
8
DEFAULT_255_2_778
10
1.0842888
20
11.9841528
11
2.1840888
21
11.9841528
0
LINE
8
DEFAULT_255_2_778
10
2.1840888
20
11.9841528
11
2.1840888
21
13.0869528
0
LINE
8
DEFAULT_255_2_778
10
2.1838888
20
16.9853528
11
1.0839888
21
16.9853528
0
LINE
8
DEFAULT_255_2_778
10
1.0839888
20
16.9853528
11
1.0839888
21
15.8825528
0
LINE
8
DEFAULT_255_2_778
10
1.0839888
20
15.8825528
11
2.1838888
21
15.8825528
0
LINE
8
DEFAULT_255_2_778
10
2.1838888
20
15.8825528
11
2.1838888
21
16.9853528
0
LINE
8
DEFAULT_255_2_778
10
15.1396888
20
3.4568528
11
0.1396888
21
3.4568528
0
LINE
8
DEFAULT_255_2_778
10
5.8570888
20
2.0056528
11
5.8570888
21
-0.1771472
0
LINE
8
DEFAULT_255_2_778
10
5.8570888
20
-0.1771472
11
9.4220888
21
-0.1771472
0
LINE
8
DEFAULT_255_2_778
10
9.4220888
20
-0.1771472
11
9.4220888
21
2.0056528
0
LINE
8
DEFAULT_255_2_778
10
2.1841325
20
9.1383389
11
1.0843325
21
9.1383389
0
LINE
8
DEFAULT_255_2_778
10
1.0843325
20
9.1383389
11
1.0843325
21
8.0350389
0
LINE
8
DEFAULT_255_2_778
10
1.0843325
20
8.0350389
11
2.1841325
21
8.0350389
0
LINE
8
DEFAULT_255_2_778
10
2.1841325
20
8.0350389
11
2.1841325
21
9.1383389
0
LINE
8
DEFAULT_255_2_778
10
6.2336325
20
11.1381389
11
5.1337325
21
11.1381389
0
LINE
8
DEFAULT_255_2_778
10
5.1337325
20
11.1381389
11
5.1337325
21
10.0350389
0
LINE
8
DEFAULT_255_2_778
10
5.1337325
20
10.0350389
11
6.2336325
21
10.0350389
0
LINE
8
DEFAULT_255_2_778
10
6.2336325
20
10.0350389
11
6.2336325
21
11.1381389
0
LINE
8
DEFAULT_255_2_778
10
2.1844325
20
11.1381389
11
1.0845325
21
11.1381389
0
LINE
8
DEFAULT_255_2_778
10
1.0845325
20
11.1381389
11
1.0845325
21
10.0350389
0
LINE
8
DEFAULT_255_2_778
10
1.0845325
20
10.0350389
11
2.1844325
21
10.0350389
0
LINE
8
DEFAULT_255_2_778
10
2.1844325
20
10.0350389
11
2.1844325
21
11.1381389
0
LINE
8
DEFAULT_255_2_778
10
2.1844325
20
20.8837389
11
1.0845325
21
20.8837389
0
LINE
8
DEFAULT_255_2_778
10
1.0845325
20
20.8837389
11
1.0845325
21
19.7804389
0
LINE
8
DEFAULT_255_2_778
10
1.0845325
20
19.7804389
11
2.1844325
21
19.7804389
0
LINE
8
DEFAULT_255_2_778
10
2.1844325
20
19.7804389
11
2.1844325
21
20.8837389
0
LINE
8
DEFAULT_255_2_778
10
2.1841325
20
15.0362389
11
1.0843325
21
15.0362389
0
LINE
8
DEFAULT_255_2_778
10
1.0843325
20
15.0362389
11
1.0843325
21
13.9334389
0
LINE
8
DEFAULT_255_2_778
10
1.0843325
20
13.9334389
11
2.1841325
21
13.9334389
0
LINE
8
DEFAULT_255_2_778
10
2.1841325
20
13.9334389
11
2.1841325
21
15.0362389
0
LINE
8
DEFAULT_255_2_778
10
2.1839325
20
18.9348389
11
1.0840325
21
18.9348389
0
LINE
8
DEFAULT_255_2_778
10
1.0840325
20
18.9348389
11
1.0840325
21
17.8317389
0
LINE
8
DEFAULT_255_2_778
10
1.0840325
20
17.8317389
11
2.1839325
21
17.8317389
0
LINE
8
DEFAULT_255_2_778
10
2.1839325
20
17.8317389
11
2.1839325
21
18.9348389
0
LINE
8
DEFAULT_255_2_778
10
3.7150325
20
16.8848389
11
3.6317325
21
16.8848389
0
LINE
8
DEFAULT_255_2_778
10
3.6317325
20
16.8848389
11
3.6317325
21
15.6857389
0
LINE
8
DEFAULT_255_2_778
10
3.6317325
20
15.6857389
11
3.7150325
21
15.6857389
0
LINE
8
DEFAULT_255_2_778
10
3.7150325
20
15.6857389
11
3.7150325
21
16.8848389
0
LINE
8
DEFAULT_255_2_778
10
2.1841325
20
24.7831389
11
1.0843325
21
24.7831389
0
LINE
8
DEFAULT_255_2_778
10
1.0843325
20
24.7831389
11
1.0843325
21
23.6785389
0
LINE
8
DEFAULT_255_2_778
10
1.0843325
20
23.6785389
11
2.1841325
21
23.6785389
0
LINE
8
DEFAULT_255_2_778
10
2.1841325
20
23.6785389
11
2.1841325
21
24.7831389
0
LINE
8
DEFAULT_255_2_778
10
6.2341325
20
24.7831389
11
5.1342325
21
24.7831389
0
LINE
8
DEFAULT_255_2_778
10
5.1342325
20
24.7831389
11
5.1342325
21
23.6785389
0
LINE
8
DEFAULT_255_2_778
10
5.1342325
20
23.6785389
11
6.2341325
21
23.6785389
0
LINE
8
DEFAULT_255_2_778
10
6.2341325
20
23.6785389
11
6.2341325
21
24.7831389
0
LINE
8
DEFAULT_255_2_778
10
14.1354325
20
24.7853389
11
9.5853325
21
24.7853389
0
LINE
8
DEFAULT_255_2_778
10
9.5853325
20
24.7853389
11
9.5853325
21
20.2328389
0
LINE
8
DEFAULT_255_2_778
10
9.5853325
20
20.2328389
11
14.1354325
21
20.2328389
0
LINE
8
DEFAULT_255_2_778
10
14.1354325
20
20.2328389
11
14.1354325
21
24.7853389
0
LINE
8
DEFAULT_255_2_778
10
15.2061325
20
58.1815389
11
15.1397325
21
58.1815389
0
LINE
8
DEFAULT_255_2_778
10
15.2061325
20
57.7026389
11
15.1397325
21
57.7026389
0
LINE
8
DEFAULT_255_2_778
10
15.1396835
20
60.2158468
11
15.2060835
21
60.2158468
0
LINE
8
DEFAULT_255_2_778
10
15.2060835
20
60.2158468
11
15.2060835
21
57.5832468
0
LINE
8
DEFAULT_255_2_778
10
15.2060835
20
57.5832468
11
15.1396835
21
57.5832468
0
LINE
8
DEFAULT_255_2_778
10
1.0844835
20
63.2358468
11
2.1840835
21
63.2358468
0
LINE
8
DEFAULT_255_2_778
10
2.1840835
20
63.2358468
11
2.1840835
21
62.1311468
0
LINE
8
DEFAULT_255_2_778
10
2.1840835
20
62.1311468
11
1.0844835
21
62.1311468
0
LINE
8
DEFAULT_255_2_778
10
1.0844835
20
62.1311468
11
1.0844835
21
63.2358468
0
LINE
8
DEFAULT_255_2_778
10
15.1396835
20
63.6009468
11
0.1396835
21
63.6009468
0
LINE
8
DEFAULT_255_2_778
10
15.1396835
20
61.6909468
11
0.1396835
21
61.6909468
0
LINE
8
DEFAULT_255_2_778
10
14.1398835
20
57.4226468
11
1.1397835
21
57.4226468
0
LINE
8
DEFAULT_255_2_778
10
9.5969835
20
65.6853468
11
9.4971835
21
65.7363468
0
LINE
8
DEFAULT_255_2_778
10
9.4971835
20
65.7363468
11
9.4971835
21
65.7400468
0
LINE
8
DEFAULT_255_2_778
10
9.4971835
20
65.7400468
11
9.5339835
21
65.8025468
0
LINE
8
DEFAULT_255_2_778
10
9.5339835
20
65.8025468
11
9.5895835
21
65.8618468
0
LINE
8
DEFAULT_255_2_778
10
9.5895835
20
65.8618468
11
9.6553835
21
65.9062468
0
LINE
8
DEFAULT_255_2_778
10
9.6553835
20
65.9062468
11
9.7429835
21
65.9372468
0
LINE
8
DEFAULT_255_2_778
10
9.7429835
20
65.9372468
11
9.8741835
21
65.9451468
0
LINE
8
DEFAULT_255_2_778
10
9.8741835
20
65.9451468
11
10.0072835
21
65.9160468
0
LINE
8
DEFAULT_255_2_778
10
10.0072835
20
65.9160468
11
10.0895835
21
65.8708468
0
LINE
8
DEFAULT_255_2_778
10
10.0895835
20
65.8708468
11
10.1512835
21
65.8073468
0
LINE
8
DEFAULT_255_2_778
10
10.1512835
20
65.8073468
11
10.1813835
21
65.7586468
0
LINE
8
DEFAULT_255_2_778
10
10.1813835
20
65.7586468
11
10.1959835
21
65.7250468
0
LINE
8
DEFAULT_255_2_778
10
10.1959835
20
65.7250468
11
10.2088835
21
65.6824468
0
LINE
8
DEFAULT_255_2_778
10
10.2088835
20
65.6824468
11
10.2147835
21
65.6551468
0
LINE
8
DEFAULT_255_2_778
10
10.2147835
20
65.6551468
11
10.2197835
21
65.6191468
0
LINE
8
DEFAULT_255_2_778
10
10.2197835
20
65.6191468
11
10.2200835
21
65.4993468
0
LINE
8
DEFAULT_255_2_778
10
10.2200835
20
65.4993468
11
10.2165835
21
65.4710468
0
LINE
8
DEFAULT_255_2_778
10
10.2165835
20
65.4710468
11
10.2094835
21
65.4302468
0
LINE
8
DEFAULT_255_2_778
10
10.2094835
20
65.4302468
11
10.1930835
21
65.3686468
0
LINE
8
DEFAULT_255_2_778
10
10.1930835
20
65.3686468
11
10.1668835
21
65.3014468
0
LINE
8
DEFAULT_255_2_778
10
10.1668835
20
65.3014468
11
10.1332835
21
65.2373468
0
LINE
8
DEFAULT_255_2_778
10
10.1332835
20
65.2373468
11
10.0668835
21
65.1352468
0
LINE
8
DEFAULT_255_2_778
10
10.0668835
20
65.1352468
11
9.9207835
21
64.9444468
0
LINE
8
DEFAULT_255_2_778
10
9.9207835
20
64.9444468
11
9.5479835
21
64.5023468
0
LINE
8
DEFAULT_255_2_778
10
9.5479835
20
64.5023468
11
9.5479835
21
64.4491468
0
LINE
8
DEFAULT_255_2_778
10
9.5479835
20
64.4491468
11
10.2890835
21
64.4491468
0
LINE
8
DEFAULT_255_2_778
10
10.2890835
20
64.4491468
11
10.2890835
21
64.3346468
0
LINE
8
DEFAULT_255_2_778
10
10.2890835
20
64.3346468
11
9.4371835
21
64.3346468
0
LINE
8
DEFAULT_255_2_778
10
9.4371835
20
64.3346468
11
9.4371835
21
64.5423468
0
LINE
8
DEFAULT_255_2_778
10
9.4371835
20
64.5423468
11
9.8411835
21
65.0169468
0
LINE
8
DEFAULT_255_2_778
10
9.8411835
20
65.0169468
11
9.9591835
21
65.1725468
0
LINE
8
DEFAULT_255_2_778
10
9.9591835
20
65.1725468
11
10.0287835
21
65.2834468
0
LINE
8
DEFAULT_255_2_778
10
10.0287835
20
65.2834468
11
10.0639835
21
65.3535468
0
LINE
8
DEFAULT_255_2_778
10
10.0639835
20
65.3535468
11
10.0837835
21
65.4035468
0
LINE
8
DEFAULT_255_2_778
10
10.0837835
20
65.4035468
11
10.1012835
21
65.4657468
0
LINE
8
DEFAULT_255_2_778
10
10.1012835
20
65.4657468
11
10.1054835
21
65.4884468
0
LINE
8
DEFAULT_255_2_778
10
10.1054835
20
65.4884468
11
10.1062835
21
65.6157468
0
LINE
8
DEFAULT_255_2_778
10
10.1062835
20
65.6157468
11
10.0975835
21
65.6543468
0
LINE
8
DEFAULT_255_2_778
10
10.0975835
20
65.6543468
11
10.0871835
21
65.6848468
0
LINE
8
DEFAULT_255_2_778
10
10.0871835
20
65.6848468
11
10.0649835
21
65.7292468
0
LINE
8
DEFAULT_255_2_778
10
10.0649835
20
65.7292468
11
10.0250835
21
65.7774468
0
LINE
8
DEFAULT_255_2_778
10
10.0250835
20
65.7774468
11
9.9723835
21
65.8104468
0
LINE
8
DEFAULT_255_2_778
10
9.9723835
20
65.8104468
11
9.8712835
21
65.8342468
0
LINE
8
DEFAULT_255_2_778
10
9.8712835
20
65.8342468
11
9.7749835
21
65.8295468
0
LINE
8
DEFAULT_255_2_778
10
9.7749835
20
65.8295468
11
9.6874835
21
65.7943468
0
LINE
8
DEFAULT_255_2_778
10
9.6874835
20
65.7943468
11
9.6294835
21
65.7416468
0
LINE
8
DEFAULT_255_2_778
10
9.6294835
20
65.7416468
11
9.5961835
21
65.6890468
0
LINE
8
DEFAULT_255_2_778
10
9.5961835
20
65.6890468
11
9.5961835
21
65.6853468
0
LINE
8
DEFAULT_255_2_778
10
9.5961835
20
65.6853468
11
9.6426835
21
65.7533468
0
LINE
8
DEFAULT_255_2_778
10
9.6426835
20
65.7533468
11
9.7278835
21
65.8118468
0
LINE
8
DEFAULT_255_2_778
10
9.7278835
20
65.8118468
11
9.8630835
21
65.8313468
0
LINE
8
DEFAULT_255_2_778
10
9.8630835
20
65.8313468
11
10.0027835
21
65.7906468
0
LINE
8
DEFAULT_255_2_778
10
10.0027835
20
65.7906468
11
10.0578835
21
65.7361468
0
LINE
8
DEFAULT_255_2_778
10
10.0578835
20
65.7361468
11
10.0906835
21
65.6707468
0
LINE
8
DEFAULT_255_2_778
10
10.0906835
20
65.6707468
11
10.1035835
21
65.6236468
0
LINE
8
DEFAULT_255_2_778
10
10.1035835
20
65.6236468
11
10.1080835
21
65.5940468
0
LINE
8
DEFAULT_255_2_778
10
10.4647888
20
65.006194
11
10.9706888
21
65.006194
0
LINE
8
DEFAULT_255_2_778
10
10.9706888
20
65.006194
11
10.9706888
21
64.889494
0
LINE
8
DEFAULT_255_2_778
10
10.9706888
20
64.889494
11
10.4647888
21
64.889494
0
LINE
8
DEFAULT_255_2_778
10
10.4647888
20
64.889494
11
10.4647888
21
65.006194
0
LINE
8
DEFAULT_255_2_778
10
15.1396888
20
69.388494
11
0.1396888
21
69.388494
0
LINE
8
DEFAULT_255_2_778
10
9.4220888
20
70.839994
11
9.4220888
21
73.022794
0
LINE
8
DEFAULT_255_2_778
10
9.4220888
20
73.022794
11
5.8570888
21
73.022794
0
LINE
8
DEFAULT_255_2_778
10
5.8570888
20
73.022794
11
5.8570888
21
70.839994
0
LINE
8
DEFAULT_255_2_778
10
2.6246888
20
14.371294
11
3.0807888
21
14.371294
0
LINE
8
DEFAULT_255_2_778
10
3.0807888
20
14.371294
11
3.0807888
21
14.286094
0
LINE
8
DEFAULT_255_2_778
10
3.0807888
20
14.286094
11
2.6246888
21
14.286094
0
LINE
8
DEFAULT_255_2_778
10
2.6246888
20
14.286094
11
2.6246888
21
13.703994
0
LINE
8
DEFAULT_255_2_778
10
2.6246888
20
13.703994
11
2.5396888
21
13.703994
0
LINE
8
DEFAULT_255_2_778
10
2.5396888
20
13.703994
11
2.5396888
21
14.888794
0
LINE
8
DEFAULT_255_2_778
10
2.5396888
20
14.888794
11
3.1106888
21
14.888794
0
LINE
8
DEFAULT_255_2_778
10
3.1106888
20
14.888794
11
3.1106888
21
14.801994
0
LINE
8
DEFAULT_255_2_778
10
3.1106888
20
14.801994
11
2.6246888
21
14.801994
0
LINE
8
DEFAULT_255_2_778
10
2.6246888
20
14.801994
11
2.6246888
21
14.368094
0
LINE
8
DEFAULT_255_2_778
10
2.6246888
20
14.368094
11
3.0807888
21
14.368094
0
LINE
8
DEFAULT_255_2_778
10
3.0439888
20
16.898094
11
3.4318888
21
15.715094
0
LINE
8
DEFAULT_255_2_778
10
3.4318888
20
15.715094
11
3.4318888
21
15.712194
0
LINE
8
DEFAULT_255_2_778
10
3.4318888
20
15.712194
11
3.3503888
21
15.685494
0
LINE
8
DEFAULT_255_2_778
10
3.3503888
20
15.685494
11
3.2437888
21
16.009894
0
LINE
8
DEFAULT_255_2_778
10
3.2437888
20
16.009894
11
2.7293888
21
16.009894
0
LINE
8
DEFAULT_255_2_778
10
2.7293888
20
16.009894
11
2.6195888
21
15.685494
0
LINE
8
DEFAULT_255_2_778
10
2.6195888
20
15.685494
11
2.5396888
21
15.712194
0
LINE
8
DEFAULT_255_2_778
10
2.5396888
20
19.756394
11
2.5396888
21
19.759294
0
LINE
8
DEFAULT_255_2_778
10
2.5396888
20
19.759294
11
2.9373888
21
20.942494
0
LINE
8
DEFAULT_255_2_778
10
2.9373888
20
20.942494
11
2.9373888
21
20.939594
0
LINE
8
DEFAULT_255_2_778
10
2.9373888
20
20.939594
11
2.5396888
21
19.756394
0
LINE
8
DEFAULT_255_2_778
10
2.5396888
20
19.756394
11
2.6195888
21
19.729594
0
LINE
8
DEFAULT_255_2_778
10
2.6195888
20
19.729594
11
2.7293888
21
20.053994
0
LINE
8
DEFAULT_255_2_778
10
2.7293888
20
20.053994
11
3.2437888
21
20.053994
0
LINE
8
DEFAULT_255_2_778
10
3.2437888
20
20.053994
11
3.3503888
21
19.729594
0
LINE
8
DEFAULT_255_2_778
10
3.3503888
20
19.729594
11
3.4318888
21
19.756394
0
LINE
8
DEFAULT_255_2_778
10
3.4318888
20
19.756394
11
3.4318888
21
19.759294
0
LINE
8
DEFAULT_255_2_778
10
3.4318888
20
19.759294
11
3.0439888
21
20.942494
0
LINE
8
DEFAULT_255_2_778
10
3.7146888
20
24.836894
11
3.6313888
21
24.836894
0
LINE
8
DEFAULT_255_2_778
10
3.6313888
20
24.836894
11
3.6313888
21
23.637494
0
LINE
8
DEFAULT_255_2_778
10
3.6313888
20
23.637494
11
3.7146888
21
23.637494
0
LINE
8
DEFAULT_255_2_778
10
3.7146888
20
23.637494
11
3.7146888
21
24.836894
0
LINE
8
DEFAULT_255_2_778
10
3.7146888
20
20.937194
11
3.6313888
21
20.937194
0
LINE
8
DEFAULT_255_2_778
10
3.6313888
20
20.937194
11
3.6313888
21
19.737794
0
LINE
8
DEFAULT_255_2_778
10
3.6313888
20
19.737794
11
3.7146888
21
19.737794
0
LINE
8
DEFAULT_255_2_778
10
3.7146888
20
19.737794
11
3.7146888
21
20.937194
0
LINE
8
DEFAULT_255_2_778
10
3.0804888
20
22.363294
11
2.6246888
21
22.363294
0
LINE
8
DEFAULT_255_2_778
10
2.6246888
20
22.363294
11
2.6246888
21
22.802494
0
LINE
8
DEFAULT_255_2_778
10
2.6246888
20
22.802494
11
3.1106888
21
22.802494
0
LINE
8
DEFAULT_255_2_778
10
3.1106888
20
22.802494
11
3.1106888
21
22.890294
0
LINE
8
DEFAULT_255_2_778
10
3.1106888
20
22.890294
11
2.5396888
21
22.890294
0
LINE
8
DEFAULT_255_2_778
10
2.5396888
20
22.890294
11
2.5396888
21
21.690994
0
LINE
8
DEFAULT_255_2_778
10
2.5396888
20
21.690994
11
2.6246888
21
21.690994
0
LINE
8
DEFAULT_255_2_778
10
2.6246888
20
21.690994
11
2.6246888
21
22.280194
0
LINE
8
DEFAULT_255_2_778
10
2.6246888
20
22.280194
11
3.0807888
21
22.280194
0
LINE
8
DEFAULT_255_2_778
10
3.0807888
20
22.280194
11
3.0807888
21
22.366194
0
LINE
8
DEFAULT_255_2_778
10
3.0807888
20
22.366194
11
2.6246888
21
22.366194
0
LINE
8
DEFAULT_255_2_778
10
3.0046313
20
20.7902284
11
3.2154313
21
20.1388284
0
LINE
8
DEFAULT_255_2_778
10
3.2154313
20
20.1388284
11
2.7577313
21
20.1388284
0
LINE
8
DEFAULT_255_2_778
10
2.7577313
20
20.1388284
11
2.9908313
21
20.8328284
0
LINE
8
DEFAULT_255_2_778
10
2.9908313
20
20.8328284
11
3.0046313
21
20.7902284
0
LINE
8
DEFAULT_255_2_778
10
3.0186313
20
16.7019284
11
2.9908313
21
16.7887284
0
LINE
8
DEFAULT_255_2_778
10
2.9908313
20
16.7887284
11
2.7577313
21
16.0949284
0
LINE
8
DEFAULT_255_2_778
10
2.7577313
20
16.0949284
11
3.2154313
21
16.0949284
0
LINE
8
DEFAULT_255_2_778
10
3.2154313
20
16.0949284
11
3.0186313
21
16.7019284
0
LINE
8
DEFAULT_255_2_778
10
2.5955313
20
68.4388284
11
2.7064313
21
68.4388284
0
LINE
8
DEFAULT_255_2_778
10
2.7064313
20
68.4388284
11
2.7064313
21
66.8410284
0
LINE
8
DEFAULT_255_2_778
10
2.7064313
20
66.8410284
11
2.5955313
21
66.8410284
0
LINE
8
DEFAULT_255_2_778
10
2.5955313
20
66.8410284
11
2.5955313
21
68.4388284
0
LINE
8
DEFAULT_255_2_778
10
1.3927313
20
67.2622284
11
2.0785313
21
67.2622284
0
LINE
8
DEFAULT_255_2_778
10
2.0785313
20
67.2622284
11
2.0785313
21
67.2659284
0
LINE
8
DEFAULT_255_2_778
10
2.0785313
20
67.2659284
11
1.3927313
21
67.2659284
0
LINE
8
DEFAULT_255_2_778
10
1.7412313
20
68.3036284
11
2.0407313
21
67.3791284
0
LINE
8
DEFAULT_255_2_778
10
2.0407313
20
67.3791284
11
1.4306313
21
67.3791284
0
LINE
8
DEFAULT_255_2_778
10
1.4306313
20
67.3791284
11
1.7412313
21
68.3036284
0
LINE
8
DEFAULT_255_2_778
10
1.7412313
20
68.3036284
11
1.7412313
21
68.2999284
0
LINE
8
DEFAULT_255_2_778
10
1.7412313
20
68.2999284
11
1.4316313
21
67.3791284
0
LINE
8
DEFAULT_255_2_778
10
2.2203313
20
66.8299284
11
2.0783313
21
67.2622284
0
LINE
8
DEFAULT_255_2_778
10
1.2461313
20
66.8299284
11
1.2461313
21
66.8336284
0
LINE
8
DEFAULT_255_2_778
10
1.2461313
20
66.8336284
11
1.3927313
21
67.2659284
0
LINE
8
DEFAULT_255_2_778
10
1.3927313
20
67.2659284
11
1.3927313
21
67.2622284
0
LINE
8
DEFAULT_255_2_778
10
1.3927313
20
67.2622284
11
1.2461313
21
66.8299284
0
LINE
8
DEFAULT_255_2_778
10
1.2461313
20
66.8299284
11
1.1395313
21
66.8653284
0
LINE
8
DEFAULT_255_2_778
10
1.1395313
20
66.8653284
11
1.1395313
21
66.8690284
0
LINE
8
DEFAULT_255_2_778
10
1.1395313
20
66.8690284
11
1.6703313
21
68.4454284
0
LINE
8
DEFAULT_255_2_778
10
1.6703313
20
68.4454284
11
1.8124313
21
68.4454284
0
LINE
8
DEFAULT_255_2_778
10
1.8124313
20
68.4454284
11
2.3293313
21
66.8690284
0
LINE
8
DEFAULT_255_2_778
10
2.3293313
20
66.8690284
11
2.3293313
21
66.8653284
0
LINE
8
DEFAULT_255_2_778
10
2.3293313
20
66.8653284
11
2.2206313
21
66.8299284
0
LINE
8
DEFAULT_255_2_778
10
2.2206313
20
66.8299284
11
2.2206313
21
66.8336284
0
LINE
8
DEFAULT_255_2_778
10
2.2206313
20
66.8336284
11
2.3293313
21
66.8690284
0
LINE
8
DEFAULT_255_2_778
10
1.5335313
20
65.5892284
11
1.5271313
21
65.6265284
0
LINE
8
DEFAULT_255_2_778
10
1.5271313
20
65.6265284
11
1.5144313
21
65.6705284
0
LINE
8
DEFAULT_255_2_778
10
1.5144313
20
65.6705284
11
1.4832313
21
65.7273284
0
LINE
8
DEFAULT_255_2_778
10
1.4832313
20
65.7273284
11
1.4253313
21
65.7784284
0
LINE
8
DEFAULT_255_2_778
10
1.4253313
20
65.7784284
11
1.3237313
21
65.8144284
0
LINE
8
DEFAULT_255_2_778
10
1.3237313
20
65.8144284
11
1.1596313
21
65.8112284
0
LINE
8
DEFAULT_255_2_778
10
1.1596313
20
65.8112284
11
1.0636313
21
65.7713284
0
LINE
8
DEFAULT_255_2_778
10
1.0636313
20
65.7713284
11
1.0157313
21
65.7250284
0
LINE
8
DEFAULT_255_2_778
10
1.0157313
20
65.7250284
11
0.9898313
21
65.6781284
0
LINE
8
DEFAULT_255_2_778
10
0.9898313
20
65.6781284
11
0.9789313
21
65.6445284
0
LINE
8
DEFAULT_255_2_778
10
0.9789313
20
65.6445284
11
0.9728313
21
65.6154284
0
LINE
8
DEFAULT_255_2_778
10
0.9728313
20
65.6154284
11
0.9686313
21
65.5821284
0
LINE
8
DEFAULT_255_2_778
10
0.9686313
20
65.5821284
11
0.9699313
21
65.4815284
0
LINE
8
DEFAULT_255_2_778
10
0.9699313
20
65.4815284
11
0.9784313
21
65.4437284
0
LINE
8
DEFAULT_255_2_778
10
0.9784313
20
65.4437284
11
1.0046313
21
65.3842284
0
LINE
8
DEFAULT_255_2_778
10
1.0046313
20
65.3842284
11
1.0702313
21
65.3109284
0
LINE
8
DEFAULT_255_2_778
10
1.0702313
20
65.3109284
11
1.2173313
21
65.2347284
0
LINE
8
DEFAULT_255_2_778
10
1.2173313
20
65.2347284
11
1.2565313
21
65.2220284
0
LINE
8
DEFAULT_255_2_778
10
1.2565313
20
65.2220284
11
1.3840313
21
65.2773284
0
LINE
8
DEFAULT_255_2_778
10
1.3840313
20
65.2773284
11
1.4628313
21
65.3434284
0
LINE
8
DEFAULT_255_2_778
10
1.4628313
20
65.3434284
11
1.5060313
21
65.4045284
0
LINE
8
DEFAULT_255_2_778
10
1.5060313
20
65.4045284
11
1.5253313
21
65.4514284
0
LINE
8
DEFAULT_255_2_778
10
1.5253313
20
65.4514284
11
1.5324313
21
65.4829284
0
LINE
8
DEFAULT_255_2_778
10
1.5324313
20
65.4829284
11
1.5335313
21
65.5892284
0
LINE
8
DEFAULT_255_2_778
10
0.8575313
20
65.4667284
11
0.8588313
21
65.6202284
0
LINE
8
DEFAULT_255_2_778
10
0.8588313
20
65.6202284
11
0.8649313
21
65.6543284
0
LINE
8
DEFAULT_255_2_778
10
0.8649313
20
65.6543284
11
0.8733313
21
65.6879284
0
LINE
8
DEFAULT_255_2_778
10
0.8733313
20
65.6879284
11
0.8919313
21
65.7369284
0
LINE
8
DEFAULT_255_2_778
10
0.8919313
20
65.7369284
11
0.9173313
21
65.7816284
0
LINE
8
DEFAULT_255_2_778
10
0.9173313
20
65.7816284
11
0.9622313
21
65.8337284
0
LINE
8
DEFAULT_255_2_778
10
0.9622313
20
65.8337284
11
1.0482313
21
65.8914284
0
LINE
8
DEFAULT_255_2_778
10
1.0482313
20
65.8914284
11
1.1808313
21
65.9287284
0
LINE
8
DEFAULT_255_2_778
10
1.1808313
20
65.9287284
11
1.3329313
21
65.9271284
0
LINE
8
DEFAULT_255_2_778
10
1.3329313
20
65.9271284
11
1.4517313
21
65.8924284
0
LINE
8
DEFAULT_255_2_778
10
1.4517313
20
65.8924284
11
1.5372313
21
65.8358284
0
LINE
8
DEFAULT_255_2_778
10
1.5372313
20
65.8358284
11
1.5840313
21
65.7818284
0
LINE
8
DEFAULT_255_2_778
10
1.5840313
20
65.7818284
11
1.6089313
21
65.7387284
0
LINE
8
DEFAULT_255_2_778
10
1.6089313
20
65.7387284
11
1.6279313
21
65.6898284
0
LINE
8
DEFAULT_255_2_778
10
1.6279313
20
65.6898284
11
1.6380313
21
65.6519284
0
LINE
8
DEFAULT_255_2_778
10
1.6380313
20
65.6519284
11
1.6438313
21
65.6199284
0
LINE
8
DEFAULT_255_2_778
10
1.6438313
20
65.6199284
11
1.6428313
21
65.4524284
0
LINE
8
DEFAULT_255_2_778
10
1.6428313
20
65.4524284
11
1.6340313
21
65.4178284
0
LINE
8
DEFAULT_255_2_778
10
1.6340313
20
65.4178284
11
1.6150313
21
65.3683284
0
LINE
8
DEFAULT_255_2_778
10
1.6150313
20
65.3683284
11
1.5708313
21
65.2955284
0
LINE
8
DEFAULT_255_2_778
10
1.5708313
20
65.2955284
11
1.5099313
21
65.2299284
0
LINE
8
DEFAULT_255_2_778
10
1.5099313
20
65.2299284
11
1.4128313
21
65.1630284
0
LINE
8
DEFAULT_255_2_778
10
1.4128313
20
65.1630284
11
1.5234313
21
65.0918284
0
LINE
8
DEFAULT_255_2_778
10
1.5234313
20
65.0918284
11
1.5859313
21
65.0241284
0
LINE
8
DEFAULT_255_2_778
10
1.5859313
20
65.0241284
11
1.6150313
21
64.9770284
0
LINE
8
DEFAULT_255_2_778
10
1.6150313
20
64.9770284
11
1.6385313
21
64.9230284
0
LINE
8
DEFAULT_255_2_778
10
1.6385313
20
64.9230284
11
1.6488313
21
64.8891284
0
LINE
8
DEFAULT_255_2_778
10
1.6488313
20
64.8891284
11
1.6568313
21
64.8526284
0
LINE
8
DEFAULT_255_2_778
10
1.6568313
20
64.8526284
11
1.6568313
21
64.6534284
0
LINE
8
DEFAULT_255_2_778
10
1.6568313
20
64.6534284
11
1.6502313
21
64.6142284
0
LINE
8
DEFAULT_255_2_778
10
1.6502313
20
64.6142284
11
1.6412313
21
64.5769284
0
LINE
8
DEFAULT_255_2_778
10
1.6412313
20
64.5769284
11
1.6287313
21
64.5391284
0
LINE
8
DEFAULT_255_2_778
10
1.6287313
20
64.5391284
11
1.6036313
21
64.4862284
0
LINE
8
DEFAULT_255_2_778
10
1.6036313
20
64.4862284
11
1.5576313
21
64.4251284
0
LINE
8
DEFAULT_255_2_778
10
1.5576313
20
64.4251284
11
1.4877313
21
64.3711284
0
LINE
8
DEFAULT_255_2_778
10
1.4877313
20
64.3711284
11
1.3806313
21
64.3298284
0
LINE
8
DEFAULT_255_2_778
10
1.3806313
20
64.3298284
11
1.2348313
21
64.3163284
0
LINE
8
DEFAULT_255_2_778
10
1.2348313
20
64.3163284
11
1.0866313
21
64.3399284
0
LINE
8
DEFAULT_255_2_778
10
1.0866313
20
64.3399284
11
0.9985313
21
64.3819284
0
LINE
8
DEFAULT_255_2_778
10
0.9985313
20
64.3819284
11
0.9350313
21
64.4372284
0
LINE
8
DEFAULT_255_2_778
10
0.9350313
20
64.4372284
11
0.8987313
21
64.4883284
0
LINE
8
DEFAULT_255_2_778
10
0.8987313
20
64.4883284
11
0.8749313
21
64.5391284
0
LINE
8
DEFAULT_255_2_778
10
0.8749313
20
64.5391284
11
0.8583313
21
64.5933284
0
LINE
8
DEFAULT_255_2_778
10
0.8583313
20
64.5933284
11
0.8493313
21
64.6380284
0
LINE
8
DEFAULT_255_2_778
10
0.8493313
20
64.6380284
11
0.8453313
21
64.6672284
0
LINE
8
DEFAULT_255_2_778
10
0.8453313
20
64.6672284
11
0.8461313
21
64.8510284
0
LINE
8
DEFAULT_255_2_778
10
0.8461313
20
64.8510284
11
0.8540313
21
64.8907284
0
LINE
8
DEFAULT_255_2_778
10
0.8540313
20
64.8907284
11
0.8649313
21
64.9270284
0
LINE
8
DEFAULT_255_2_778
10
0.8649313
20
64.9270284
11
0.8863313
21
64.9778284
0
LINE
8
DEFAULT_255_2_778
10
0.8863313
20
64.9778284
11
0.9162313
21
65.0280284
0
LINE
8
DEFAULT_255_2_778
10
0.9162313
20
65.0280284
11
0.9649313
21
65.0841284
0
LINE
8
DEFAULT_255_2_778
10
0.9649313
20
65.0841284
11
1.0421313
21
65.1405284
0
LINE
8
DEFAULT_255_2_778
10
1.0421313
20
65.1405284
11
1.0911313
21
65.1654284
0
LINE
8
DEFAULT_255_2_778
10
1.0911313
20
65.1654284
11
0.9919313
21
65.2297284
0
LINE
8
DEFAULT_255_2_778
10
0.9919313
20
65.2297284
11
0.9305313
21
65.2929284
0
LINE
8
DEFAULT_255_2_778
10
0.9305313
20
65.2929284
11
0.8940313
21
65.3511284
0
LINE
8
DEFAULT_255_2_778
10
0.8940313
20
65.3511284
11
0.8739313
21
65.4000284
0
LINE
8
DEFAULT_255_2_778
10
0.8739313
20
65.4000284
11
0.8612313
21
65.4490284
0
LINE
8
DEFAULT_255_2_778
10
0.8612313
20
65.4490284
11
0.8575313
21
65.4667284
0
LINE
8
DEFAULT_255_2_778
10
0.9530313
20
64.7645284
11
0.9551313
21
64.8037284
0
LINE
8
DEFAULT_255_2_778
10
0.9551313
20
64.8037284
11
0.9580313
21
64.8280284
0
LINE
8
DEFAULT_255_2_778
10
0.9580313
20
64.8280284
11
0.9654313
21
64.8653284
0
LINE
8
DEFAULT_255_2_778
10
0.9654313
20
64.8653284
11
0.9847313
21
64.9188284
0
LINE
8
DEFAULT_255_2_778
10
0.9847313
20
64.9188284
11
1.0355313
21
64.9902284
0
LINE
8
DEFAULT_255_2_778
10
1.0355313
20
64.9902284
11
1.1604313
21
65.0683284
0
LINE
8
DEFAULT_255_2_778
10
1.1604313
20
65.0683284
11
1.2546313
21
65.0992284
0
LINE
8
DEFAULT_255_2_778
10
1.2546313
20
65.0992284
11
1.2546313
21
65.1029284
0
LINE
8
DEFAULT_255_2_778
10
1.2546313
20
65.1029284
11
1.0855313
21
65.0333284
0
LINE
8
DEFAULT_255_2_778
10
1.0855313
20
65.0333284
11
1.0107313
21
64.9653284
0
LINE
8
DEFAULT_255_2_778
10
1.0107313
20
64.9653284
11
0.9805313
21
64.9132284
0
LINE
8
DEFAULT_255_2_778
10
0.9805313
20
64.9132284
11
0.9646313
21
64.8664284
0
LINE
8
DEFAULT_255_2_778
10
0.9646313
20
64.8664284
11
0.9591313
21
64.8397284
0
LINE
8
DEFAULT_255_2_778
10
0.9591313
20
64.8397284
11
0.9612313
21
64.6613284
0
LINE
8
DEFAULT_255_2_778
10
0.9612313
20
64.6613284
11
0.9715313
21
64.6222284
0
LINE
8
DEFAULT_255_2_778
10
0.9715313
20
64.6222284
11
0.9964313
21
64.5682284
0
LINE
8
DEFAULT_255_2_778
10
0.9964313
20
64.5682284
11
1.0705313
21
64.4846284
0
LINE
8
DEFAULT_255_2_778
10
1.0705313
20
64.4846284
11
1.1509313
21
64.4420284
0
LINE
8
DEFAULT_255_2_778
10
1.1509313
20
64.4420284
11
1.2914313
21
64.4290284
0
LINE
8
DEFAULT_255_2_778
10
1.2914313
20
64.4290284
11
1.4202313
21
64.4618284
0
LINE
8
DEFAULT_255_2_778
10
1.4202313
20
64.4618284
11
1.4840313
21
64.5110284
0
LINE
8
DEFAULT_255_2_778
10
1.4840313
20
64.5110284
11
1.5181313
21
64.5674284
0
LINE
8
DEFAULT_255_2_778
10
1.5181313
20
64.5674284
11
1.5322313
21
64.6076284
0
LINE
8
DEFAULT_255_2_778
10
1.5322313
20
64.6076284
11
1.5398313
21
64.6407284
0
LINE
8
DEFAULT_255_2_778
10
1.5398313
20
64.6407284
11
1.5457313
21
64.6788284
0
LINE
8
DEFAULT_255_2_778
10
1.5457313
20
64.6788284
11
1.5433313
21
64.8402284
0
LINE
8
DEFAULT_255_2_778
10
1.5433313
20
64.8402284
11
1.5337313
21
64.8796284
0
LINE
8
DEFAULT_255_2_778
10
1.5337313
20
64.8796284
11
1.5134313
21
64.9291284
0
LINE
8
DEFAULT_255_2_778
10
1.5134313
20
64.9291284
11
1.4758313
21
64.9812284
0
LINE
8
DEFAULT_255_2_778
10
1.4758313
20
64.9812284
11
1.3964313
21
65.0437284
0
LINE
8
DEFAULT_255_2_778
10
1.3964313
20
65.0437284
11
1.2549313
21
65.1027284
0
LINE
8
DEFAULT_255_2_778
10
2.6949636
20
64.3748281
11
2.5994636
21
64.3171281
0
LINE
8
DEFAULT_255_2_778
10
2.5994636
20
64.3171281
11
2.5994636
21
64.3134281
0
LINE
8
DEFAULT_255_2_778
10
2.5994636
20
64.3134281
11
2.6949636
21
64.3711281
0
LINE
8
DEFAULT_255_2_778
10
2.6949636
20
64.3711281
11
2.6949636
21
64.3748281
0
LINE
8
DEFAULT_255_2_778
10
2.6949636
20
64.3748281
11
2.3642636
21
64.9093281
0
LINE
8
DEFAULT_255_2_778
10
2.3642636
20
64.9093281
11
2.6727636
21
65.3948281
0
LINE
8
DEFAULT_255_2_778
10
2.6727636
20
65.3948281
11
2.6727636
21
65.3911281
0
LINE
8
DEFAULT_255_2_778
10
2.6727636
20
65.3911281
11
2.3655636
21
64.9072281
0
LINE
8
DEFAULT_255_2_778
10
2.6727636
20
65.3948281
11
2.5796636
21
65.4546281
0
LINE
8
DEFAULT_255_2_778
10
2.5796636
20
65.4546281
11
2.2999636
21
65.0133281
0
LINE
8
DEFAULT_255_2_778
10
2.2999636
20
65.0133281
11
2.0226636
21
65.4591281
0
LINE
8
DEFAULT_255_2_778
10
2.0226636
20
65.4591281
11
1.9271636
21
65.3993281
0
LINE
8
DEFAULT_255_2_778
10
1.9271636
20
65.3993281
11
1.9271636
21
65.3956281
0
LINE
8
DEFAULT_255_2_778
10
1.9271636
20
65.3956281
11
2.2322636
21
64.9074281
0
LINE
8
DEFAULT_255_2_778
10
1.9271636
20
65.3993281
11
2.2332636
21
64.9093281
0
LINE
8
DEFAULT_255_2_778
10
2.2332636
20
64.9093281
11
1.9004636
21
64.3814281
0
LINE
8
DEFAULT_255_2_778
10
1.9004636
20
64.3814281
11
1.9004636
21
64.3777281
0
LINE
8
DEFAULT_255_2_778
10
1.9004636
20
64.3777281
11
1.9959636
21
64.3179281
0
LINE
8
DEFAULT_255_2_778
10
2.5994636
20
64.3171281
11
2.2975636
21
64.8029281
0
LINE
8
DEFAULT_255_2_778
10
2.2975636
20
64.8029281
11
2.2975636
21
64.7992281
0
LINE
8
DEFAULT_255_2_778
10
2.2975636
20
64.7992281
11
1.9956636
21
64.3179281
0
LINE
8
DEFAULT_255_2_778
10
1.9956636
20
64.3179281
11
1.9956636
21
64.3216281
0
LINE
8
DEFAULT_255_2_778
10
1.9956636
20
64.3216281
11
2.2975636
21
64.8029281
0
LINE
8
DEFAULT_255_2_778
10
3.6644636
20
64.5743281
11
3.6662636
21
64.5174281
0
LINE
8
DEFAULT_255_2_778
10
3.6662636
20
64.5174281
11
3.6697636
21
64.4809281
0
LINE
8
DEFAULT_255_2_778
10
3.6697636
20
64.4809281
11
3.6792636
21
64.4230281
0
LINE
8
DEFAULT_255_2_778
10
3.6792636
20
64.4230281
11
3.7012636
21
64.3412281
0
LINE
8
DEFAULT_255_2_778
10
3.7012636
20
64.3412281
11
3.7094636
21
64.3182281
0
LINE
8
DEFAULT_255_2_778
10
3.7094636
20
64.3182281
11
3.7094636
21
64.3219281
0
LINE
8
DEFAULT_255_2_778
10
3.7094636
20
64.3219281
11
3.6940636
21
64.3679281
0
LINE
8
DEFAULT_255_2_778
10
3.6940636
20
64.3679281
11
3.6818636
21
64.4145281
0
LINE
8
DEFAULT_255_2_778
10
3.6818636
20
64.4145281
11
3.6713636
21
64.4727281
0
LINE
8
DEFAULT_255_2_778
10
3.6713636
20
64.4727281
11
3.6683636
21
64.4968281
0
LINE
8
DEFAULT_255_2_778
10
3.6683636
20
64.4968281
11
3.6662636
21
64.7587281
0
LINE
8
DEFAULT_255_2_778
10
3.6662636
20
64.7587281
11
3.6646636
21
64.7852281
0
LINE
8
DEFAULT_255_2_778
10
3.6646636
20
64.7852281
11
3.6612636
21
64.8212281
0
LINE
8
DEFAULT_255_2_778
10
3.6612636
20
64.8212281
11
3.6541636
21
64.8648281
0
LINE
8
DEFAULT_255_2_778
10
3.6541636
20
64.8648281
11
3.6437636
21
64.9058281
0
LINE
8
DEFAULT_255_2_778
10
3.6437636
20
64.9058281
11
3.6226636
21
64.9604281
0
LINE
8
DEFAULT_255_2_778
10
3.6226636
20
64.9604281
11
3.5871636
21
65.0167281
0
LINE
8
DEFAULT_255_2_778
10
3.5871636
20
65.0167281
11
3.5249636
21
65.0717281
0
LINE
8
DEFAULT_255_2_778
10
3.5249636
20
65.0717281
11
3.4292636
21
65.1109281
0
LINE
8
DEFAULT_255_2_778
10
3.4292636
20
65.1109281
11
3.0722636
21
65.1202281
0
LINE
8
DEFAULT_255_2_778
10
3.0722636
20
65.1202281
11
3.0722636
21
64.3293281
0
LINE
8
DEFAULT_255_2_778
10
3.0722636
20
64.3293281
11
2.9590636
21
64.3293281
0
LINE
8
DEFAULT_255_2_778
10
2.9590636
20
64.3293281
11
2.9590636
21
65.9319281
0
LINE
8
DEFAULT_255_2_778
10
2.9590636
20
65.9319281
11
3.4265636
21
65.9237281
0
LINE
8
DEFAULT_255_2_778
10
3.4265636
20
65.9237281
11
3.5345636
21
65.8925281
0
LINE
8
DEFAULT_255_2_778
10
3.5345636
20
65.8925281
11
3.6205636
21
65.8419281
0
LINE
8
DEFAULT_255_2_778
10
3.6205636
20
65.8419281
11
3.6990636
21
65.7628281
0
LINE
8
DEFAULT_255_2_778
10
3.6990636
20
65.7628281
11
3.7419636
21
65.6911281
0
LINE
8
DEFAULT_255_2_778
10
3.7419636
20
65.6911281
11
3.7633636
21
65.6335281
0
LINE
8
DEFAULT_255_2_778
10
3.7633636
20
65.6335281
11
3.7723636
21
65.5961281
0
LINE
8
DEFAULT_255_2_778
10
3.7723636
20
65.5961281
11
3.7755636
21
65.5771281
0
LINE
8
DEFAULT_255_2_778
10
3.7755636
20
65.5771281
11
3.7750636
21
65.4578281
0
LINE
8
DEFAULT_255_2_778
10
3.7750636
20
65.4578281
11
3.7676636
21
65.4207281
0
LINE
8
DEFAULT_255_2_778
10
3.7676636
20
65.4207281
11
3.7538636
21
65.3765281
0
LINE
8
DEFAULT_255_2_778
10
3.7538636
20
65.3765281
11
3.7308636
21
65.3260281
0
LINE
8
DEFAULT_255_2_778
10
3.7308636
20
65.3260281
11
3.6945636
21
65.2718281
0
LINE
8
DEFAULT_255_2_778
10
3.6945636
20
65.2718281
11
3.6369636
21
65.2157281
0
LINE
8
DEFAULT_255_2_778
10
3.6369636
20
65.2157281
11
3.5734636
21
65.1760281
0
LINE
8
DEFAULT_255_2_778
10
3.5734636
20
65.1760281
11
3.6572636
21
65.1051281
0
LINE
8
DEFAULT_255_2_778
10
3.6572636
20
65.1051281
11
3.7107636
21
65.0291281
0
LINE
8
DEFAULT_255_2_778
10
3.7107636
20
65.0291281
11
3.7408636
21
64.9630281
0
LINE
8
DEFAULT_255_2_778
10
3.7408636
20
64.9630281
11
3.7565636
21
64.9101281
0
LINE
8
DEFAULT_255_2_778
10
3.7565636
20
64.9101281
11
3.7668636
21
64.8564281
0
LINE
8
DEFAULT_255_2_778
10
3.7668636
20
64.8564281
11
3.7699636
21
64.8339281
0
LINE
8
DEFAULT_255_2_778
10
3.7699636
20
64.8339281
11
3.7734636
21
64.8019281
0
LINE
8
DEFAULT_255_2_778
10
3.7734636
20
64.8019281
11
3.7758636
21
64.5643281
0
LINE
8
DEFAULT_255_2_778
10
3.6654636
20
65.5432281
11
3.6617636
21
65.5713281
0
LINE
8
DEFAULT_255_2_778
10
3.6617636
20
65.5713281
11
3.6538636
21
65.6043281
0
LINE
8
DEFAULT_255_2_778
10
3.6538636
20
65.6043281
11
3.6247636
21
65.6692281
0
LINE
8
DEFAULT_255_2_778
10
3.6247636
20
65.6692281
11
3.5702636
21
65.7343281
0
LINE
8
DEFAULT_255_2_778
10
3.5702636
20
65.7343281
11
3.4747636
21
65.7927281
0
LINE
8
DEFAULT_255_2_778
10
3.4747636
20
65.7927281
11
3.3532636
21
65.8184281
0
LINE
8
DEFAULT_255_2_778
10
3.3532636
20
65.8184281
11
3.0720636
21
65.8195281
0
LINE
8
DEFAULT_255_2_778
10
3.0720636
20
65.8195281
11
3.0720636
21
65.2339281
0
LINE
8
DEFAULT_255_2_778
10
3.0720636
20
65.2339281
11
3.4374636
21
65.2429281
0
LINE
8
DEFAULT_255_2_778
10
3.4374636
20
65.2429281
11
3.5440636
21
65.2868281
0
LINE
8
DEFAULT_255_2_778
10
3.5440636
20
65.2868281
11
3.6101636
21
65.3464281
0
LINE
8
DEFAULT_255_2_778
10
3.6101636
20
65.3464281
11
3.6459636
21
65.4078281
0
LINE
8
DEFAULT_255_2_778
10
3.6459636
20
65.4078281
11
3.6578636
21
65.4435281
0
LINE
8
DEFAULT_255_2_778
10
3.6578636
20
65.4435281
11
3.6644636
21
65.4768281
0
LINE
8
DEFAULT_255_2_778
10
3.6644636
20
65.4768281
11
3.6654636
21
65.5432281
0
LINE
8
DEFAULT_255_2_778
10
3.7758636
20
64.5664281
11
3.7784636
21
64.5084281
0
LINE
8
DEFAULT_255_2_778
10
3.7784636
20
64.5084281
11
3.7805636
21
64.4891281
0
LINE
8
DEFAULT_255_2_778
10
3.7805636
20
64.4891281
11
3.7869636
21
64.4497281
0
LINE
8
DEFAULT_255_2_778
10
3.7869636
20
64.4497281
11
3.7953636
21
64.4140281
0
LINE
8
DEFAULT_255_2_778
10
3.7953636
20
64.4140281
11
3.8131636
21
64.3621281
0
LINE
8
DEFAULT_255_2_778
10
3.7088636
20
64.3185281
11
3.8131636
21
64.3584281
0
LINE
8
DEFAULT_255_2_778
10
3.8131636
20
64.3584281
11
3.8131636
21
64.3621281
0
LINE
8
DEFAULT_255_2_778
10
3.8131636
20
64.3621281
11
3.7088636
21
64.3222281
0
LINE
8
DEFAULT_255_2_778
10
3.9910156
20
65.8163
11
4.4482156
21
65.8163
0
LINE
8
DEFAULT_255_2_778
10
4.4482156
20
65.8163
11
4.4482156
21
64.3291
0
LINE
8
DEFAULT_255_2_778
10
4.4482156
20
64.3291
11
4.5614156
21
64.3291
0
LINE
8
DEFAULT_255_2_778
10
4.5614156
20
64.3291
11
4.5614156
21
65.8163
0
LINE
8
DEFAULT_255_2_778
10
4.5614156
20
65.8163
11
5.0364156
21
65.8163
0
LINE
8
DEFAULT_255_2_778
10
4.5614156
20
65.8126
11
5.0364156
21
65.8126
0
LINE
8
DEFAULT_255_2_778
10
5.0364156
20
65.8126
11
5.0364156
21
65.9293
0
LINE
8
DEFAULT_255_2_778
10
5.0364156
20
65.9293
11
3.9913156
21
65.9293
0
LINE
8
DEFAULT_255_2_778
10
3.9913156
20
65.9293
11
3.9913156
21
65.8126
0
LINE
8
DEFAULT_255_2_778
10
3.9913156
20
65.8126
11
4.4485156
21
65.8126
0
LINE
8
DEFAULT_255_2_778
10
6.0570573
20
65.3128198
11
6.0520573
21
65.3562198
0
LINE
8
DEFAULT_255_2_778
10
6.0520573
20
65.3562198
11
6.0467573
21
65.3935198
0
LINE
8
DEFAULT_255_2_778
10
6.0467573
20
65.3935198
11
6.0398573
21
65.4319198
0
LINE
8
DEFAULT_255_2_778
10
6.0398573
20
65.4319198
11
6.0313573
21
65.4697198
0
LINE
8
DEFAULT_255_2_778
10
6.0313573
20
65.4697198
11
6.0181573
21
65.5173198
0
LINE
8
DEFAULT_255_2_778
10
6.0181573
20
65.5173198
11
5.9996573
21
65.5681198
0
LINE
8
DEFAULT_255_2_778
10
5.9996573
20
65.5681198
11
5.9784573
21
65.6129198
0
LINE
8
DEFAULT_255_2_778
10
5.9784573
20
65.6129198
11
5.9382573
21
65.6756198
0
LINE
8
DEFAULT_255_2_778
10
5.9382573
20
65.6756198
11
5.8869573
21
65.7306198
0
LINE
8
DEFAULT_255_2_778
10
5.8869573
20
65.7306198
11
5.8266573
21
65.7729198
0
LINE
8
DEFAULT_255_2_778
10
5.8266573
20
65.7729198
11
5.7400573
21
65.8057198
0
LINE
8
DEFAULT_255_2_778
10
5.7400573
20
65.8057198
11
5.5953573
21
65.8224198
0
LINE
8
DEFAULT_255_2_778
10
5.5953573
20
65.8224198
11
5.3754573
21
65.8232198
0
LINE
8
DEFAULT_255_2_778
10
5.3754573
20
65.8232198
11
5.3754573
21
64.4484198
0
LINE
8
DEFAULT_255_2_778
10
5.3754573
20
64.4484198
11
5.6294573
21
64.4542198
0
LINE
8
DEFAULT_255_2_778
10
5.6294573
20
64.4542198
11
5.7943573
21
64.4868198
0
LINE
8
DEFAULT_255_2_778
10
5.7943573
20
64.4868198
11
5.8750573
21
64.5310198
0
LINE
8
DEFAULT_255_2_778
10
5.8750573
20
64.5310198
11
5.9284573
21
64.5815198
0
LINE
8
DEFAULT_255_2_778
10
5.9284573
20
64.5815198
11
5.9708573
21
64.6416198
0
LINE
8
DEFAULT_255_2_778
10
5.9708573
20
64.6416198
11
5.9917573
21
64.6831198
0
LINE
8
DEFAULT_255_2_778
10
5.9917573
20
64.6831198
11
6.0139573
21
64.7421198
0
LINE
8
DEFAULT_255_2_778
10
6.0139573
20
64.7421198
11
6.0242573
21
64.7773198
0
LINE
8
DEFAULT_255_2_778
10
6.0242573
20
64.7773198
11
6.0406573
21
64.8485198
0
LINE
8
DEFAULT_255_2_778
10
6.0406573
20
64.8485198
11
6.0475573
21
64.8860198
0
LINE
8
DEFAULT_255_2_778
10
6.0475573
20
64.8860198
11
6.0533573
21
64.9247198
0
LINE
8
DEFAULT_255_2_778
10
6.0533573
20
64.9247198
11
6.0581573
21
64.9646198
0
LINE
8
DEFAULT_255_2_778
10
6.0581573
20
64.9646198
11
6.0607573
21
64.9924198
0
LINE
8
DEFAULT_255_2_778
10
6.0607573
20
64.9924198
11
6.0636573
21
65.0358198
0
LINE
8
DEFAULT_255_2_778
10
6.0636573
20
65.0358198
11
6.0634573
21
65.2305198
0
LINE
8
DEFAULT_255_2_778
10
6.0634573
20
65.2305198
11
6.0597573
21
65.2837198
0
LINE
8
DEFAULT_255_2_778
10
6.0597573
20
65.2837198
11
6.0570573
21
65.3128198
0
LINE
8
DEFAULT_255_2_778
10
6.1689573
20
64.9548198
11
6.1613573
21
64.8940198
0
LINE
8
DEFAULT_255_2_778
10
6.1613573
20
64.8940198
11
6.1509573
21
64.8347198
0
LINE
8
DEFAULT_255_2_778
10
6.1509573
20
64.8347198
11
6.1369573
21
64.7723198
0
LINE
8
DEFAULT_255_2_778
10
6.1369573
20
64.7723198
11
6.1205573
21
64.7141198
0
LINE
8
DEFAULT_255_2_778
10
6.1205573
20
64.7141198
11
6.0951573
21
64.6424198
0
LINE
8
DEFAULT_255_2_778
10
6.0951573
20
64.6424198
11
6.0618573
21
64.5720198
0
LINE
8
DEFAULT_255_2_778
10
6.0618573
20
64.5720198
11
6.0123573
21
64.5003198
0
LINE
8
DEFAULT_255_2_778
10
6.0123573
20
64.5003198
11
5.9520573
21
64.4442198
0
LINE
8
DEFAULT_255_2_778
10
5.9520573
20
64.4442198
11
5.8496573
21
64.3862198
0
LINE
8
DEFAULT_255_2_778
10
5.8496573
20
64.3862198
11
5.6924573
21
64.3423198
0
LINE
8
DEFAULT_255_2_778
10
5.6924573
20
64.3423198
11
5.4273573
21
64.3272198
0
LINE
8
DEFAULT_255_2_778
10
5.4273573
20
64.3272198
11
5.2627573
21
64.3399198
0
LINE
8
DEFAULT_255_2_778
10
5.2627573
20
64.3399198
11
5.2627573
21
65.9359198
0
LINE
8
DEFAULT_255_2_778
10
5.2627573
20
65.9359198
11
5.6445573
21
65.9330198
0
LINE
8
DEFAULT_255_2_778
10
5.6445573
20
65.9330198
11
5.7771573
21
65.9116198
0
LINE
8
DEFAULT_255_2_778
10
5.7771573
20
65.9116198
11
5.8654573
21
65.8790198
0
LINE
8
DEFAULT_255_2_778
10
5.8654573
20
65.8790198
11
5.9464573
21
65.8274198
0
LINE
8
DEFAULT_255_2_778
10
5.9464573
20
65.8274198
11
6.0001573
21
65.7766198
0
LINE
8
DEFAULT_255_2_778
10
6.0001573
20
65.7766198
11
6.0517573
21
65.7092198
0
LINE
8
DEFAULT_255_2_778
10
6.0517573
20
65.7092198
11
6.0882573
21
65.6435198
0
LINE
8
DEFAULT_255_2_778
10
6.0882573
20
65.6435198
11
6.1123573
21
65.5861198
0
LINE
8
DEFAULT_255_2_778
10
6.1123573
20
65.5861198
11
6.1269573
21
65.5425198
0
LINE
8
DEFAULT_255_2_778
10
6.1269573
20
65.5425198
11
6.1390573
21
65.4983198
0
LINE
8
DEFAULT_255_2_778
10
6.1390573
20
65.4983198
11
6.1475573
21
65.4607198
0
LINE
8
DEFAULT_255_2_778
10
6.1475573
20
65.4607198
11
6.1549573
21
65.4213198
0
LINE
8
DEFAULT_255_2_778
10
6.1549573
20
65.4213198
11
6.1613573
21
65.3798198
0
LINE
8
DEFAULT_255_2_778
10
6.1613573
20
65.3798198
11
6.1681573
21
65.3186198
0
LINE
8
DEFAULT_255_2_778
10
6.1681573
20
65.3186198
11
6.1721573
21
65.2694198
0
LINE
8
DEFAULT_255_2_778
10
6.1721573
20
65.2694198
11
6.1729573
21
64.9998198
0
LINE
8
DEFAULT_255_2_778
10
6.1729573
20
64.9998198
11
6.1676573
21
64.9435198
0
LINE
8
DEFAULT_255_2_778
10
6.1676573
20
64.9435198
11
6.1620573
21
64.9001198
0
LINE
8
DEFAULT_255_2_778
10
6.1620573
20
64.9001198
11
6.1552573
21
64.8580198
0
LINE
8
DEFAULT_255_2_778
10
6.1552573
20
64.8580198
11
6.1470573
21
64.8170198
0
LINE
8
DEFAULT_255_2_778
10
6.1470573
20
64.8170198
11
6.1348573
21
64.7662198
0
LINE
8
DEFAULT_255_2_778
10
6.1348573
20
64.7662198
11
6.1118573
21
64.6897198
0
LINE
8
DEFAULT_255_2_778
10
6.1118573
20
64.6897198
11
6.0896573
21
64.6320198
0
LINE
8
DEFAULT_255_2_778
10
6.0896573
20
64.6320198
11
6.0578573
21
64.5685198
0
LINE
8
DEFAULT_255_2_778
10
6.0578573
20
64.5685198
11
6.0157573
21
64.5077198
0
LINE
8
DEFAULT_255_2_778
10
6.0157573
20
64.5077198
11
5.9670573
21
64.4595198
0
LINE
8
DEFAULT_255_2_778
10
5.9670573
20
64.4595198
11
5.8903573
21
64.4090198
0
LINE
8
DEFAULT_255_2_778
10
5.8903573
20
64.4090198
11
5.7623573
21
64.3603198
0
LINE
8
DEFAULT_255_2_778
10
5.7623573
20
64.3603198
11
5.6268573
21
64.3373198
0
LINE
8
DEFAULT_255_2_778
10
5.6268573
20
64.3373198
11
5.4008573
21
64.3312198
0
LINE
8
DEFAULT_255_2_778
10
5.4008573
20
64.3312198
11
5.2622573
21
64.3429198
0
LINE
8
DEFAULT_255_2_778
10
6.2782573
20
64.1008198
11
6.8177573
21
65.9745198
0
LINE
8
DEFAULT_255_2_778
10
6.8177573
20
65.9745198
11
6.8177573
21
65.9782198
0
LINE
8
DEFAULT_255_2_778
10
6.8177573
20
65.9782198
11
6.7089573
21
66.0092198
0
LINE
8
DEFAULT_255_2_778
10
6.7089573
20
66.0092198
11
6.1700573
21
64.1354198
0
LINE
8
DEFAULT_255_2_778
10
6.1697573
20
64.1354198
11
6.2785573
21
64.1045198
0
LINE
8
DEFAULT_255_2_778
10
6.2785573
20
64.1045198
11
6.2785573
21
64.1008198
0
LINE
8
DEFAULT_255_2_778
10
6.2785573
20
64.1008198
11
6.1697573
21
64.1317198
0
LINE
8
DEFAULT_255_2_778
10
6.1697573
20
64.1317198
11
6.1697573
21
64.1354198
0
LINE
8
DEFAULT_255_2_778
10
6.8979156
20
65.8163
11
7.3551156
21
65.8163
0
LINE
8
DEFAULT_255_2_778
10
7.3551156
20
65.8163
11
7.3551156
21
64.3291
0
LINE
8
DEFAULT_255_2_778
10
7.3551156
20
64.3291
11
7.4683156
21
64.3291
0
LINE
8
DEFAULT_255_2_778
10
7.4683156
20
64.3291
11
7.4683156
21
65.8163
0
LINE
8
DEFAULT_255_2_778
10
7.4683156
20
65.8163
11
7.9433156
21
65.8163
0
LINE
8
DEFAULT_255_2_778
10
7.4683156
20
65.8126
11
7.9433156
21
65.8126
0
LINE
8
DEFAULT_255_2_778
10
7.9433156
20
65.8126
11
7.9433156
21
65.9293
0
LINE
8
DEFAULT_255_2_778
10
7.9433156
20
65.9293
11
6.8982156
21
65.9293
0
LINE
8
DEFAULT_255_2_778
10
6.8982156
20
65.9293
11
6.8982156
21
65.8126
0
LINE
8
DEFAULT_255_2_778
10
6.8982156
20
65.8126
11
7.3553156
21
65.8126
0
LINE
8
DEFAULT_255_2_778
10
8.9926626
20
64.5854604
11
8.8883626
21
64.6230604
0
LINE
8
DEFAULT_255_2_778
10
8.8883626
20
64.6230604
11
8.8698626
21
64.5774604
0
LINE
8
DEFAULT_255_2_778
10
8.8698626
20
64.5774604
11
8.8388626
21
64.5303604
0
LINE
8
DEFAULT_255_2_778
10
8.8388626
20
64.5303604
11
8.7907626
21
64.4856604
0
LINE
8
DEFAULT_255_2_778
10
8.7907626
20
64.4856604
11
8.7182626
21
64.4489604
0
LINE
8
DEFAULT_255_2_778
10
8.7182626
20
64.4489604
11
8.5936626
21
64.4327604
0
LINE
8
DEFAULT_255_2_778
10
8.5936626
20
64.4327604
11
8.4438626
21
64.4399604
0
LINE
8
DEFAULT_255_2_778
10
8.4438626
20
64.4399604
11
8.3721626
21
64.4666604
0
LINE
8
DEFAULT_255_2_778
10
8.3721626
20
64.4666604
11
8.3068626
21
64.5198604
0
LINE
8
DEFAULT_255_2_778
10
8.3068626
20
64.5198604
11
8.2695626
21
64.5735604
0
LINE
8
DEFAULT_255_2_778
10
8.2695626
20
64.5735604
11
8.2520626
21
64.6108604
0
LINE
8
DEFAULT_255_2_778
10
8.2520626
20
64.6108604
11
8.2382626
21
64.6505604
0
LINE
8
DEFAULT_255_2_778
10
8.2382626
20
64.6505604
11
8.2277626
21
64.6909604
0
LINE
8
DEFAULT_255_2_778
10
8.2277626
20
64.6909604
11
8.2197626
21
64.7317604
0
LINE
8
DEFAULT_255_2_778
10
8.2197626
20
64.7317604
11
8.2150626
21
64.7632604
0
LINE
8
DEFAULT_255_2_778
10
8.2150626
20
64.7632604
11
8.2097626
21
64.8137604
0
LINE
8
DEFAULT_255_2_778
10
8.2097626
20
64.8137604
11
8.2110626
21
65.4990604
0
LINE
8
DEFAULT_255_2_778
10
8.2110626
20
65.4990604
11
8.2144626
21
65.5278604
0
LINE
8
DEFAULT_255_2_778
10
8.2144626
20
65.5278604
11
8.2221626
21
65.5710604
0
LINE
8
DEFAULT_255_2_778
10
8.2221626
20
65.5710604
11
8.2332626
21
65.6128604
0
LINE
8
DEFAULT_255_2_778
10
8.2332626
20
65.6128604
11
8.2483626
21
65.6527604
0
LINE
8
DEFAULT_255_2_778
10
8.2483626
20
65.6527604
11
8.2803626
21
65.7099604
0
LINE
8
DEFAULT_255_2_778
10
8.2803626
20
65.7099604
11
8.3208626
21
65.7559604
0
LINE
8
DEFAULT_255_2_778
10
8.3208626
20
65.7559604
11
8.3840626
21
65.7953604
0
LINE
8
DEFAULT_255_2_778
10
8.3840626
20
65.7953604
11
8.5139626
21
65.8244604
0
LINE
8
DEFAULT_255_2_778
10
8.5139626
20
65.8244604
11
8.6695626
21
65.8215604
0
LINE
8
DEFAULT_255_2_778
10
8.6695626
20
65.8215604
11
8.7798626
21
65.7858604
0
LINE
8
DEFAULT_255_2_778
10
8.7798626
20
65.7858604
11
8.8341626
21
65.7392604
0
LINE
8
DEFAULT_255_2_778
10
8.8341626
20
65.7392604
11
8.8590626
21
65.7009604
0
LINE
8
DEFAULT_255_2_778
10
8.8590626
20
65.7009604
11
8.8740626
21
65.6673604
0
LINE
8
DEFAULT_255_2_778
10
8.8740626
20
65.6673604
11
8.8854626
21
65.6273604
0
LINE
8
DEFAULT_255_2_778
10
8.8854626
20
65.6273604
11
8.9942626
21
65.6540604
0
LINE
8
DEFAULT_255_2_778
10
8.9942626
20
65.6540604
11
8.9942626
21
65.6503604
0
LINE
8
DEFAULT_255_2_778
10
8.9942626
20
65.6503604
11
8.8854626
21
65.6236604
0
LINE
8
DEFAULT_255_2_778
10
8.8854626
20
65.6236604
11
8.8854626
21
65.6273604
0
LINE
8
DEFAULT_255_2_778
10
8.9942626
20
65.6540604
11
8.9857626
21
65.6929604
0
LINE
8
DEFAULT_255_2_778
10
8.9857626
20
65.6929604
11
8.9717626
21
65.7331604
0
LINE
8
DEFAULT_255_2_778
10
8.9717626
20
65.7331604
11
8.9500626
21
65.7744604
0
LINE
8
DEFAULT_255_2_778
10
8.9500626
20
65.7744604
11
8.9010626
21
65.8339604
0
LINE
8
DEFAULT_255_2_778
10
8.9010626
20
65.8339604
11
8.8420626
21
65.8795604
0
LINE
8
DEFAULT_255_2_778
10
8.8420626
20
65.8795604
11
8.7695626
21
65.9141604
0
LINE
8
DEFAULT_255_2_778
10
8.7695626
20
65.9141604
11
8.6690626
21
65.9369604
0
LINE
8
DEFAULT_255_2_778
10
8.6690626
20
65.9369604
11
8.4944626
21
65.9350604
0
LINE
8
DEFAULT_255_2_778
10
8.4944626
20
65.9350604
11
8.3899626
21
65.9136604
0
LINE
8
DEFAULT_255_2_778
10
8.3899626
20
65.9136604
11
8.3070626
21
65.8787604
0
LINE
8
DEFAULT_255_2_778
10
8.3070626
20
65.8787604
11
8.2499626
21
65.8403604
0
LINE
8
DEFAULT_255_2_778
10
8.2499626
20
65.8403604
11
8.1988626
21
65.7876604
0
LINE
8
DEFAULT_255_2_778
10
8.1988626
20
65.7876604
11
8.1700626
21
65.7450604
0
LINE
8
DEFAULT_255_2_778
10
8.1700626
20
65.7450604
11
8.1464626
21
65.6990604
0
LINE
8
DEFAULT_255_2_778
10
8.1464626
20
65.6990604
11
8.1282626
21
65.6511604
0
LINE
8
DEFAULT_255_2_778
10
8.1282626
20
65.6511604
11
8.1200626
21
65.6236604
0
LINE
8
DEFAULT_255_2_778
10
8.1200626
20
65.6236604
11
8.1128626
21
65.5945604
0
LINE
8
DEFAULT_255_2_778
10
8.1128626
20
65.5945604
11
8.1046626
21
65.5514604
0
LINE
8
DEFAULT_255_2_778
10
8.1046626
20
65.5514604
11
8.0999626
21
65.5167604
0
LINE
8
DEFAULT_255_2_778
10
8.0999626
20
65.5167604
11
8.0959626
21
65.4791604
0
LINE
8
DEFAULT_255_2_778
10
8.0959626
20
65.4791604
11
8.0964626
21
64.8124604
0
LINE
8
DEFAULT_255_2_778
10
8.0964626
20
64.8124604
11
8.1007626
21
64.7711604
0
LINE
8
DEFAULT_255_2_778
10
8.1007626
20
64.7711604
11
8.1060626
21
64.7328604
0
LINE
8
DEFAULT_255_2_778
10
8.1060626
20
64.7328604
11
8.1115626
21
64.7010604
0
LINE
8
DEFAULT_255_2_778
10
8.1115626
20
64.7010604
11
8.1187626
21
64.6663604
0
LINE
8
DEFAULT_255_2_778
10
8.1187626
20
64.6663604
11
8.1319626
21
64.6163604
0
LINE
8
DEFAULT_255_2_778
10
8.1319626
20
64.6163604
11
8.1509626
21
64.5616604
0
LINE
8
DEFAULT_255_2_778
10
8.1509626
20
64.5616604
11
8.1774626
21
64.5065604
0
LINE
8
DEFAULT_255_2_778
10
8.1774626
20
64.5065604
11
8.2189626
21
64.4478604
0
LINE
8
DEFAULT_255_2_778
10
8.2189626
20
64.4478604
11
8.2763626
21
64.3951604
0
LINE
8
DEFAULT_255_2_778
10
8.2763626
20
64.3951604
11
8.3404626
21
64.3592604
0
LINE
8
DEFAULT_255_2_778
10
8.3404626
20
64.3592604
11
8.4391626
21
64.3298604
0
LINE
8
DEFAULT_255_2_778
10
8.4391626
20
64.3298604
11
8.5523626
21
64.3187604
0
LINE
8
DEFAULT_255_2_778
10
8.5523626
20
64.3187604
11
8.6949626
21
64.3314604
0
LINE
8
DEFAULT_255_2_778
10
8.6949626
20
64.3314604
11
8.7965626
21
64.3623604
0
LINE
8
DEFAULT_255_2_778
10
8.7965626
20
64.3623604
11
8.8584626
21
64.3981604
0
LINE
8
DEFAULT_255_2_778
10
8.8584626
20
64.3981604
11
8.9201626
21
64.4539604
0
LINE
8
DEFAULT_255_2_778
10
8.9201626
20
64.4539604
11
8.9492626
21
64.4922604
0
LINE
8
DEFAULT_255_2_778
10
8.9492626
20
64.4922604
11
8.9711626
21
64.5314604
0
LINE
8
DEFAULT_255_2_778
10
8.9711626
20
64.5314604
11
8.9923626
21
64.5854604
0
LINE
8
DEFAULT_255_2_778
10
8.9923626
20
64.5854604
11
8.9907626
21
64.5769604
0
LINE
8
DEFAULT_255_2_778
10
8.9907626
20
64.5769604
11
8.9719626
21
64.5298604
0
LINE
8
DEFAULT_255_2_778
10
8.9719626
20
64.5298604
11
8.9333626
21
64.4668604
0
LINE
8
DEFAULT_255_2_778
10
8.9333626
20
64.4668604
11
8.8719626
21
64.4049604
0
LINE
8
DEFAULT_255_2_778
10
8.8719626
20
64.4049604
11
8.7753626
21
64.3502604
0
LINE
8
DEFAULT_255_2_778
10
8.7753626
20
64.3502604
11
8.6354626
21
64.3192604
0
LINE
8
DEFAULT_255_2_778
10
8.6354626
20
64.3192604
11
8.4549626
21
64.3234604
0
LINE
8
DEFAULT_255_2_778
10
8.4549626
20
64.3234604
11
8.3160626
21
64.3671604
0
LINE
8
DEFAULT_255_2_778
10
8.3160626
20
64.3671604
11
8.2364626
21
64.4256604
0
LINE
8
DEFAULT_255_2_778
10
8.2364626
20
64.4256604
11
8.1824626
21
64.4946604
0
LINE
8
DEFAULT_255_2_778
10
8.1824626
20
64.4946604
11
8.1509626
21
64.5584604
0
LINE
8
DEFAULT_255_2_778
10
8.1509626
20
64.5584604
11
8.1303626
21
64.6182604
0
LINE
8
DEFAULT_255_2_778
10
8.1303626
20
64.6182604
11
8.1202626
21
64.6566604
0
LINE
8
DEFAULT_255_2_778
10
11.8294626
20
65.2921604
11
12.1379626
21
64.3385604
0
LINE
8
DEFAULT_255_2_778
10
12.5729626
20
65.4429604
11
12.4642626
21
65.4739604
0
LINE
8
DEFAULT_255_2_778
10
12.4642626
20
65.4739604
11
12.2001626
21
64.5137604
0
LINE
8
DEFAULT_255_2_778
10
12.2001626
20
64.5137604
11
11.8940626
21
65.4582604
0
LINE
8
DEFAULT_255_2_778
10
11.8940626
20
65.4582604
11
11.7654626
21
65.4582604
0
LINE
8
DEFAULT_255_2_778
10
11.7654626
20
65.4582604
11
11.5649626
21
64.8320604
0
LINE
8
DEFAULT_255_2_778
10
11.5649626
20
64.8320604
11
11.4659626
21
64.5158604
0
LINE
8
DEFAULT_255_2_778
10
11.4659626
20
64.5158604
11
11.2018626
21
65.4739604
0
LINE
8
DEFAULT_255_2_778
10
11.2018626
20
65.4739604
11
11.0931626
21
65.4429604
0
LINE
8
DEFAULT_255_2_778
10
11.0931626
20
65.4429604
11
11.0931626
21
65.4392604
0
LINE
8
DEFAULT_255_2_778
10
11.0931626
20
65.4392604
11
11.3971626
21
64.3348604
0
LINE
8
DEFAULT_255_2_778
10
12.2671626
20
64.3348604
11
12.2671626
21
64.3385604
0
LINE
8
DEFAULT_255_2_778
10
12.2671626
20
64.3385604
11
12.5732626
21
65.4429604
0
LINE
8
DEFAULT_255_2_778
10
12.5732626
20
65.4429604
11
12.5732626
21
65.4392604
0
LINE
8
DEFAULT_255_2_778
10
12.5732626
20
65.4392604
11
12.2671626
21
64.3348604
0
LINE
8
DEFAULT_255_2_778
10
12.2671626
20
64.3348604
11
12.1385626
21
64.3348604
0
LINE
8
DEFAULT_255_2_778
10
12.1385626
20
64.3348604
11
12.1385626
21
64.3385604
0
LINE
8
DEFAULT_255_2_778
10
12.1385626
20
64.3385604
11
12.2671626
21
64.3385604
0
LINE
8
DEFAULT_255_2_778
10
11.7718626
20
65.1100604
11
11.8300626
21
65.2884604
0
LINE
8
DEFAULT_255_2_778
10
11.8300626
20
65.2884604
11
11.8300626
21
65.2921604
0
LINE
8
DEFAULT_255_2_778
10
11.8300626
20
65.2921604
11
11.7305626
21
64.9849604
0
LINE
8
DEFAULT_255_2_778
10
11.7305626
20
64.9849604
11
11.5260626
21
64.3385604
0
LINE
8
DEFAULT_255_2_778
10
11.5260626
20
64.3385604
11
11.5260626
21
64.3348604
0
LINE
8
DEFAULT_255_2_778
10
11.5260626
20
64.3348604
11
11.7718626
21
65.1100604
0
LINE
8
DEFAULT_255_2_778
10
11.5260626
20
64.3348604
11
11.3974626
21
64.3348604
0
LINE
8
DEFAULT_255_2_778
10
11.3974626
20
64.3348604
11
11.3974626
21
64.3385604
0
LINE
8
DEFAULT_255_2_778
10
11.3974626
20
64.3385604
11
11.5260626
21
64.3385604
0
LINE
8
DEFAULT_255_2_778
10
12.7930626
20
65.4585604
11
12.9063626
21
65.4585604
0
LINE
8
DEFAULT_255_2_778
10
12.9063626
20
65.4585604
11
12.9063626
21
64.3348604
0
LINE
8
DEFAULT_255_2_778
10
12.9063626
20
64.3348604
11
12.7930626
21
64.3348604
0
LINE
8
DEFAULT_255_2_778
10
12.7930626
20
64.3348604
11
12.7930626
21
65.4585604
0
LINE
8
DEFAULT_255_2_778
10
12.7930626
20
65.9374604
11
12.9063626
21
65.9374604
0
LINE
8
DEFAULT_255_2_778
10
12.9063626
20
65.9374604
11
12.9063626
21
65.7474604
0
LINE
8
DEFAULT_255_2_778
10
12.9063626
20
65.7474604
11
12.7930626
21
65.7474604
0
LINE
8
DEFAULT_255_2_778
10
12.7930626
20
65.7474604
11
12.7930626
21
65.9374604
0
LINE
8
DEFAULT_255_2_778
10
14.5970626
20
65.0825604
11
14.5906626
21
65.1296604
0
LINE
8
DEFAULT_255_2_778
10
14.5906626
20
65.1296604
11
14.5816626
21
65.1767604
0
LINE
8
DEFAULT_255_2_778
10
14.5816626
20
65.1767604
11
14.5658626
21
65.2241604
0
LINE
8
DEFAULT_255_2_778
10
14.5658626
20
65.2241604
11
14.5306626
21
65.2781604
0
LINE
8
DEFAULT_255_2_778
10
14.5306626
20
65.2781604
11
14.4485626
21
65.3368604
0
LINE
8
DEFAULT_255_2_778
10
14.4485626
20
65.3368604
11
14.3120626
21
65.3630604
0
LINE
8
DEFAULT_255_2_778
10
14.3120626
20
65.3630604
11
14.1652626
21
65.3289604
0
LINE
8
DEFAULT_255_2_778
10
14.1652626
20
65.3289604
11
14.0929626
21
65.2714604
0
LINE
8
DEFAULT_255_2_778
10
14.0929626
20
65.2714604
11
14.0660626
21
65.2251604
0
LINE
8
DEFAULT_255_2_778
10
14.0660626
20
65.2251604
11
14.0556626
21
65.1929604
0
LINE
8
DEFAULT_255_2_778
10
14.0556626
20
65.1929604
11
14.0503626
21
65.1669604
0
LINE
8
DEFAULT_255_2_778
10
14.0503626
20
65.1669604
11
14.0451626
21
65.1259604
0
LINE
8
DEFAULT_255_2_778
10
14.0451626
20
65.1259604
11
14.0339626
21
64.9905604
0
LINE
8
DEFAULT_255_2_778
10
14.0339626
20
64.9905604
11
14.6020626
21
64.9905604
0
LINE
8
DEFAULT_255_2_778
10
14.6020626
20
64.9905604
11
14.5994626
21
65.0616604
0
LINE
8
DEFAULT_255_2_778
10
14.5994626
20
65.0616604
11
14.5970626
21
65.0825604
0
LINE
8
DEFAULT_255_2_778
10
14.7158626
20
64.9124604
11
14.7147626
21
64.8735604
0
LINE
8
DEFAULT_255_2_778
10
14.7147626
20
64.8735604
11
14.7147626
21
64.8772604
0
LINE
8
DEFAULT_255_2_778
10
14.7147626
20
64.8772604
11
14.0329626
21
64.8772604
0
LINE
8
DEFAULT_255_2_778
10
14.0329626
20
64.8772604
11
14.0355626
21
64.8052604
0
LINE
8
DEFAULT_255_2_778
10
14.0355626
20
64.8052604
11
14.0411626
21
64.7383604
0
LINE
8
DEFAULT_255_2_778
10
14.0411626
20
64.7383604
11
14.0458626
21
64.6909604
0
LINE
8
DEFAULT_255_2_778
10
14.0458626
20
64.6909604
11
14.0525626
21
64.6401604
0
LINE
8
DEFAULT_255_2_778
10
14.0525626
20
64.6401604
11
14.0615626
21
64.6028604
0
LINE
8
DEFAULT_255_2_778
10
14.0615626
20
64.6028604
11
14.0797626
21
64.5587604
0
LINE
8
DEFAULT_255_2_778
10
14.0797626
20
64.5587604
11
14.1377626
21
64.4899604
0
LINE
8
DEFAULT_255_2_778
10
14.1377626
20
64.4899604
11
14.2303626
21
64.4449604
0
LINE
8
DEFAULT_255_2_778
10
14.2303626
20
64.4449604
11
14.3753626
21
64.4385604
0
LINE
8
DEFAULT_255_2_778
10
14.3753626
20
64.4385604
11
14.4856626
21
64.4817604
0
LINE
8
DEFAULT_255_2_778
10
14.4856626
20
64.4817604
11
14.5411626
21
64.5378604
0
LINE
8
DEFAULT_255_2_778
10
14.5411626
20
64.5378604
11
14.5676626
21
64.5888604
0
LINE
8
DEFAULT_255_2_778
10
14.5676626
20
64.5888604
11
14.6742626
21
64.5512604
0
LINE
8
DEFAULT_255_2_778
10
14.6742626
20
64.5512604
11
14.6528626
21
64.5023604
0
LINE
8
DEFAULT_255_2_778
10
14.6528626
20
64.5023604
11
14.6200626
21
64.4526604
0
LINE
8
DEFAULT_255_2_778
10
14.6200626
20
64.4526604
11
14.5716626
21
64.4052604
0
LINE
8
DEFAULT_255_2_778
10
14.5716626
20
64.4052604
11
14.4941626
21
64.3586604
0
LINE
8
DEFAULT_255_2_778
10
14.4941626
20
64.3586604
11
14.3858626
21
64.3274604
0
LINE
8
DEFAULT_255_2_778
10
14.3858626
20
64.3274604
11
14.2726626
21
64.3250604
0
LINE
8
DEFAULT_255_2_778
10
14.2726626
20
64.3250604
11
14.1609626
21
64.3510604
0
LINE
8
DEFAULT_255_2_778
10
14.1609626
20
64.3510604
11
14.0800626
21
64.3936604
0
LINE
8
DEFAULT_255_2_778
10
14.0800626
20
64.3936604
11
14.0260626
21
64.4407604
0
LINE
8
DEFAULT_255_2_778
10
14.0260626
20
64.4407604
11
13.9895626
21
64.4888604
0
LINE
8
DEFAULT_255_2_778
10
13.9895626
20
64.4888604
11
13.9699626
21
64.5258604
0
LINE
8
DEFAULT_255_2_778
10
13.9699626
20
64.5258604
11
13.9532626
21
64.5706604
0
LINE
8
DEFAULT_255_2_778
10
13.9532626
20
64.5706604
11
13.9413626
21
64.6169604
0
LINE
8
DEFAULT_255_2_778
10
13.9413626
20
64.6169604
11
13.9329626
21
64.6650604
0
LINE
8
DEFAULT_255_2_778
10
13.9329626
20
64.6650604
11
13.9313626
21
65.1503604
0
LINE
8
DEFAULT_255_2_778
10
13.9313626
20
65.1503604
11
13.9355626
21
65.1754604
0
LINE
8
DEFAULT_255_2_778
10
13.9355626
20
65.1754604
11
13.9466626
21
65.2209604
0
LINE
8
DEFAULT_255_2_778
10
13.9466626
20
65.2209604
11
13.9612626
21
65.2619604
0
LINE
8
DEFAULT_255_2_778
10
13.9612626
20
65.2619604
11
13.9876626
21
65.3117604
0
LINE
8
DEFAULT_255_2_778
10
13.9876626
20
65.3117604
11
14.0382626
21
65.3720604
0
LINE
8
DEFAULT_255_2_778
10
14.0382626
20
65.3720604
11
14.1109626
21
65.4249604
0
LINE
8
DEFAULT_255_2_778
10
14.1109626
20
65.4249604
11
14.2157626
21
65.4641604
0
LINE
8
DEFAULT_255_2_778
10
14.2157626
20
65.4641604
11
14.3295626
21
65.4760604
0
LINE
8
DEFAULT_255_2_778
10
14.3295626
20
65.4760604
11
14.4411626
21
65.4588604
0
LINE
8
DEFAULT_255_2_778
10
14.4411626
20
65.4588604
11
14.5300626
21
65.4180604
0
LINE
8
DEFAULT_255_2_778
10
14.5300626
20
65.4180604
11
14.5919626
21
65.3675604
0
LINE
8
DEFAULT_255_2_778
10
14.5919626
20
65.3675604
11
14.6330626
21
65.3140604
0
LINE
8
DEFAULT_255_2_778
10
14.6330626
20
65.3140604
11
14.6637626
21
65.2542604
0
LINE
8
DEFAULT_255_2_778
10
14.6637626
20
65.2542604
11
14.6795626
21
65.2103604
0
LINE
8
DEFAULT_255_2_778
10
14.6795626
20
65.2103604
11
14.6957626
21
65.1466604
0
LINE
8
DEFAULT_255_2_778
10
14.6957626
20
65.1466604
11
14.7033626
21
65.1021604
0
LINE
8
DEFAULT_255_2_778
10
14.7033626
20
65.1021604
11
14.7086626
21
65.0574604
0
LINE
8
DEFAULT_255_2_778
10
14.7086626
20
65.0574604
11
14.7110626
21
65.0304604
0
LINE
8
DEFAULT_255_2_778
10
14.7110626
20
65.0304604
11
14.7134626
21
64.9918604
0
LINE
8
DEFAULT_255_2_778
10
14.7134626
20
64.9918604
11
14.7139626
21
64.8775604
0
LINE
8
DEFAULT_255_2_778
10
13.3135626
20
65.0002604
11
13.3159626
21
65.0730604
0
LINE
8
DEFAULT_255_2_778
10
13.3159626
20
65.0730604
11
13.3188626
21
65.1016604
0
LINE
8
DEFAULT_255_2_778
10
13.3188626
20
65.1016604
11
13.3246626
21
65.1360604
0
LINE
8
DEFAULT_255_2_778
10
13.3246626
20
65.1360604
11
13.3407626
21
65.1855604
0
LINE
8
DEFAULT_255_2_778
10
13.3407626
20
65.1855604
11
13.3854626
21
65.2503604
0
LINE
8
DEFAULT_255_2_778
10
13.3854626
20
65.2503604
11
13.4833626
21
65.3191604
0
LINE
8
DEFAULT_255_2_778
10
13.4833626
20
65.3191604
11
13.6418626
21
65.3508604
0
LINE
8
DEFAULT_255_2_778
10
13.6418626
20
65.3508604
11
13.6934626
21
65.3484604
0
LINE
8
DEFAULT_255_2_778
10
13.6934626
20
65.3484604
11
13.6934626
21
65.4651604
0
LINE
8
DEFAULT_255_2_778
10
13.6934626
20
65.4651604
11
13.4857626
21
65.4418604
0
LINE
8
DEFAULT_255_2_778
10
13.4857626
20
65.4418604
11
13.3331626
21
65.3506604
0
LINE
8
DEFAULT_255_2_778
10
13.3331626
20
65.3506604
11
13.3161626
21
65.3342604
0
LINE
8
DEFAULT_255_2_778
10
13.3161626
20
65.3342604
11
13.3161626
21
65.4561604
0
LINE
8
DEFAULT_255_2_778
10
13.3161626
20
65.4561604
11
13.2029626
21
65.4561604
0
LINE
8
DEFAULT_255_2_778
10
13.2029626
20
65.4561604
11
13.2029626
21
64.3348604
0
LINE
8
DEFAULT_255_2_778
10
13.2029626
20
64.3348604
11
13.3161626
21
64.3348604
0
LINE
8
DEFAULT_255_2_778
10
13.3161626
20
64.3348604
11
13.3172626
21
65.0899604
0
LINE
8
DEFAULT_255_2_778
10
13.3172626
20
65.0899604
11
13.3196626
21
65.1103604
0
LINE
8
DEFAULT_255_2_778
10
13.3196626
20
65.1103604
11
13.3235626
21
65.1339604
0
LINE
8
DEFAULT_255_2_778
10
13.3235626
20
65.1339604
11
13.3325626
21
65.1680604
0
LINE
8
DEFAULT_255_2_778
10
13.3325626
20
65.1680604
11
13.3487626
21
65.2042604
0
LINE
8
DEFAULT_255_2_778
10
13.3487626
20
65.2042604
11
13.3979626
21
65.2662604
0
LINE
8
DEFAULT_255_2_778
10
13.3979626
20
65.2662604
11
13.4773626
21
65.3199604
0
LINE
8
DEFAULT_255_2_778
10
13.4773626
20
65.3199604
11
13.5931626
21
65.3516604
0
LINE
8
DEFAULT_255_2_778
10
13.5931626
20
65.3516604
11
13.6932626
21
65.3524604
0
LINE
8
DEFAULT_255_2_778
10
14.7150626
20
64.9248604
11
14.7150626
21
64.9285604
0
LINE
8
DEFAULT_255_2_778
10
2.1549823
20
61.1749651
11
2.2451823
21
61.1749651
0
LINE
8
DEFAULT_255_2_778
10
2.2451823
20
61.1749651
11
2.2451823
21
59.8756651
0
LINE
8
DEFAULT_255_2_778
10
2.2451823
20
59.8756651
11
2.1549823
21
59.8756651
0
LINE
8
DEFAULT_255_2_778
10
2.1549823
20
59.8756651
11
2.1549823
21
61.1749651
0
LINE
8
DEFAULT_255_2_778
10
1.7816823
20
60.7095651
11
1.7776823
21
60.7384651
0
LINE
8
DEFAULT_255_2_778
10
1.7776823
20
60.7384651
11
1.7710823
21
60.7754651
0
LINE
8
DEFAULT_255_2_778
10
1.7710823
20
60.7754651
11
1.7549823
21
60.8381651
0
LINE
8
DEFAULT_255_2_778
10
1.7549823
20
60.8381651
11
1.7363823
21
60.8881651
0
LINE
8
DEFAULT_255_2_778
10
1.7363823
20
60.8881651
11
1.7117823
21
60.9360651
0
LINE
8
DEFAULT_255_2_778
10
1.7117823
20
60.9360651
11
1.6710823
21
60.9918651
0
LINE
8
DEFAULT_255_2_778
10
1.6710823
20
60.9918651
11
1.6112823
21
61.0421651
0
LINE
8
DEFAULT_255_2_778
10
1.6112823
20
61.0421651
11
1.5297823
21
61.0752651
0
LINE
8
DEFAULT_255_2_778
10
1.5297823
20
61.0752651
11
1.4112823
21
61.0889651
0
LINE
8
DEFAULT_255_2_778
10
1.4112823
20
61.0889651
11
1.2315823
21
61.0897651
0
LINE
8
DEFAULT_255_2_778
10
1.2315823
20
61.0897651
11
1.2315823
21
59.9724651
0
LINE
8
DEFAULT_255_2_778
10
1.2315823
20
59.9724651
11
1.4789823
21
59.9822651
0
LINE
8
DEFAULT_255_2_778
10
1.4789823
20
59.9822651
11
1.6067823
21
60.0211651
0
LINE
8
DEFAULT_255_2_778
10
1.6067823
20
60.0211651
11
1.6689823
21
60.0650651
0
LINE
8
DEFAULT_255_2_778
10
1.6689823
20
60.0650651
11
1.7133823
21
60.1251651
0
LINE
8
DEFAULT_255_2_778
10
1.7133823
20
60.1251651
11
1.7382823
21
60.1790651
0
LINE
8
DEFAULT_255_2_778
10
1.7382823
20
60.1790651
11
1.7570823
21
60.2357651
0
LINE
8
DEFAULT_255_2_778
10
1.7570823
20
60.2357651
11
1.7713823
21
60.2931651
0
LINE
8
DEFAULT_255_2_778
10
1.7713823
20
60.2931651
11
1.7768823
21
60.3216651
0
LINE
8
DEFAULT_255_2_778
10
1.7768823
20
60.3216651
11
1.7816823
21
60.3510651
0
LINE
8
DEFAULT_255_2_778
10
1.7816823
20
60.3510651
11
1.7855823
21
60.3812651
0
LINE
8
DEFAULT_255_2_778
10
1.7855823
20
60.3812651
11
1.7848823
21
60.6775651
0
LINE
8
DEFAULT_255_2_778
10
1.7848823
20
60.6775651
11
1.7816823
21
60.7095651
0
LINE
8
DEFAULT_255_2_778
10
1.8811823
20
60.4476651
11
1.8789823
21
60.4108651
0
LINE
8
DEFAULT_255_2_778
10
1.8789823
20
60.4108651
11
1.8755823
21
60.3714651
0
LINE
8
DEFAULT_255_2_778
10
1.8755823
20
60.3714651
11
1.8707823
21
60.3328651
0
LINE
8
DEFAULT_255_2_778
10
1.8707823
20
60.3328651
11
1.8623823
21
60.2820651
0
LINE
8
DEFAULT_255_2_778
10
1.8623823
20
60.2820651
11
1.8501823
21
60.2298651
0
LINE
8
DEFAULT_255_2_778
10
1.8501823
20
60.2298651
11
1.8236823
21
60.1499651
0
LINE
8
DEFAULT_255_2_778
10
1.8236823
20
60.1499651
11
1.7906823
21
60.0798651
0
LINE
8
DEFAULT_255_2_778
10
1.7906823
20
60.0798651
11
1.7334823
21
59.9991651
0
LINE
8
DEFAULT_255_2_778
10
1.7334823
20
59.9991651
11
1.6707823
21
59.9457651
0
LINE
8
DEFAULT_255_2_778
10
1.6707823
20
59.9457651
11
1.5636823
21
59.9012651
0
LINE
8
DEFAULT_255_2_778
10
1.5636823
20
59.9012651
11
1.3485823
21
59.8742651
0
LINE
8
DEFAULT_255_2_778
10
1.3485823
20
59.8742651
11
1.1397823
21
59.8843651
0
LINE
8
DEFAULT_255_2_778
10
1.1397823
20
59.8843651
11
1.1397823
21
61.1818651
0
LINE
8
DEFAULT_255_2_778
10
1.1397823
20
61.1818651
11
1.4781823
21
61.1770651
0
LINE
8
DEFAULT_255_2_778
10
1.4781823
20
61.1770651
11
1.5935823
21
61.1509651
0
LINE
8
DEFAULT_255_2_778
10
1.5935823
20
61.1509651
11
1.6771823
21
61.1067651
0
LINE
8
DEFAULT_255_2_778
10
1.6771823
20
61.1067651
11
1.7379823
21
61.0530651
0
LINE
8
DEFAULT_255_2_778
10
1.7379823
20
61.0530651
11
1.7797823
21
60.9995651
0
LINE
8
DEFAULT_255_2_778
10
1.7797823
20
60.9995651
11
1.8096823
21
60.9463651
0
LINE
8
DEFAULT_255_2_778
10
1.8096823
20
60.9463651
11
1.8295823
21
60.8998651
0
LINE
8
DEFAULT_255_2_778
10
1.8295823
20
60.8998651
11
1.8514823
21
60.8289651
0
LINE
8
DEFAULT_255_2_778
10
1.8514823
20
60.8289651
11
1.8583823
21
60.7995651
0
LINE
8
DEFAULT_255_2_778
10
1.8583823
20
60.7995651
11
1.8644823
21
60.7685651
0
LINE
8
DEFAULT_255_2_778
10
1.8644823
20
60.7685651
11
1.8697823
21
60.7355651
0
LINE
8
DEFAULT_255_2_778
10
1.8697823
20
60.7355651
11
1.8758823
21
60.6831651
0
LINE
8
DEFAULT_255_2_778
10
1.8758823
20
60.6831651
11
1.8763823
21
60.3825651
0
LINE
8
DEFAULT_255_2_778
10
1.8763823
20
60.3825651
11
1.8723823
21
60.3473651
0
LINE
8
DEFAULT_255_2_778
10
1.8723823
20
60.3473651
11
1.8652823
21
60.3018651
0
LINE
8
DEFAULT_255_2_778
10
1.8652823
20
60.3018651
11
1.8591823
21
60.2706651
0
LINE
8
DEFAULT_255_2_778
10
1.8591823
20
60.2706651
11
1.8477823
21
60.2251651
0
LINE
8
DEFAULT_255_2_778
10
1.8477823
20
60.2251651
11
1.8266823
21
60.1610651
0
LINE
8
DEFAULT_255_2_778
10
1.8266823
20
60.1610651
11
1.7990823
21
60.0994651
0
LINE
8
DEFAULT_255_2_778
10
1.7990823
20
60.0994651
11
1.7525823
21
60.0256651
0
LINE
8
DEFAULT_255_2_778
10
1.7525823
20
60.0256651
11
1.6988823
21
59.9698651
0
LINE
8
DEFAULT_255_2_778
10
1.6988823
20
59.9698651
11
1.6189823
21
59.9232651
0
LINE
8
DEFAULT_255_2_778
10
1.6189823
20
59.9232651
11
1.5112823
21
59.8941651
0
LINE
8
DEFAULT_255_2_778
10
1.5112823
20
59.8941651
11
1.3268823
21
59.8777651
0
LINE
8
DEFAULT_255_2_778
10
1.3268823
20
59.8777651
11
1.1400823
21
59.8883651
0
LINE
8
DEFAULT_255_2_778
10
2.7354823
20
60.2179651
11
3.2926823
21
60.2179651
0
LINE
8
DEFAULT_255_2_778
10
3.2926823
20
60.2179651
11
3.2926823
21
60.2216651
0
LINE
8
DEFAULT_255_2_778
10
3.2926823
20
60.2216651
11
2.7354823
21
60.2216651
0
LINE
8
DEFAULT_255_2_778
10
3.0185823
20
61.0651651
11
3.2619823
21
60.3137651
0
LINE
8
DEFAULT_255_2_778
10
3.2619823
20
60.3137651
11
2.7661823
21
60.3137651
0
LINE
8
DEFAULT_255_2_778
10
2.7661823
20
60.3137651
11
3.0185823
21
61.0651651
0
LINE
8
DEFAULT_255_2_778
10
3.0185823
20
61.0651651
11
3.0185823
21
61.0614651
0
LINE
8
DEFAULT_255_2_778
10
3.0185823
20
61.0614651
11
2.7674823
21
60.3137651
0
LINE
8
DEFAULT_255_2_778
10
3.4080823
20
59.8666651
11
3.2926823
21
60.2179651
0
LINE
8
DEFAULT_255_2_778
10
2.6163823
20
59.8666651
11
2.6163823
21
59.8703651
0
LINE
8
DEFAULT_255_2_778
10
2.6163823
20
59.8703651
11
2.7354823
21
60.2216651
0
LINE
8
DEFAULT_255_2_778
10
2.7354823
20
60.2216651
11
2.7354823
21
60.2179651
0
LINE
8
DEFAULT_255_2_778
10
2.7354823
20
60.2179651
11
2.6163823
21
59.8666651
0
LINE
8
DEFAULT_255_2_778
10
2.6163823
20
59.8666651
11
2.5298823
21
59.8954651
0
LINE
8
DEFAULT_255_2_778
10
2.5298823
20
59.8954651
11
2.5298823
21
59.8991651
0
LINE
8
DEFAULT_255_2_778
10
2.5298823
20
59.8991651
11
2.9608823
21
61.1805651
0
LINE
8
DEFAULT_255_2_778
10
2.9608823
20
61.1805651
11
3.0762823
21
61.1805651
0
LINE
8
DEFAULT_255_2_778
10
3.0762823
20
61.1805651
11
3.4963823
21
59.8991651
0
LINE
8
DEFAULT_255_2_778
10
3.4963823
20
59.8991651
11
3.4963823
21
59.8954651
0
LINE
8
DEFAULT_255_2_778
10
3.4963823
20
59.8954651
11
3.4080823
21
59.8666651
0
LINE
8
DEFAULT_255_2_778
10
3.4080823
20
59.8666651
11
3.4080823
21
59.8703651
0
LINE
8
DEFAULT_255_2_778
10
3.4080823
20
59.8703651
11
3.4963823
21
59.8991651
0
LINE
8
DEFAULT_255_2_778
10
4.3345823
20
60.9172651
11
4.3221823
21
60.9609651
0
LINE
8
DEFAULT_255_2_778
10
4.3221823
20
60.9609651
11
4.2972823
21
61.0159651
0
LINE
8
DEFAULT_255_2_778
10
4.2972823
20
61.0159651
11
4.2581823
21
61.0577651
0
LINE
8
DEFAULT_255_2_778
10
4.2581823
20
61.0577651
11
4.1888823
21
61.0887651
0
LINE
8
DEFAULT_255_2_778
10
4.1888823
20
61.0887651
11
4.0599823
21
61.0963651
0
LINE
8
DEFAULT_255_2_778
10
4.0599823
20
61.0963651
11
3.9377823
21
61.0683651
0
LINE
8
DEFAULT_255_2_778
10
3.9377823
20
61.0683651
11
3.8895823
21
61.0344651
0
LINE
8
DEFAULT_255_2_778
10
3.8895823
20
61.0344651
11
3.8599823
21
60.9971651
0
LINE
8
DEFAULT_255_2_778
10
3.8599823
20
60.9971651
11
3.8371823
21
60.9524651
0
LINE
8
DEFAULT_255_2_778
10
3.8371823
20
60.9524651
11
3.8236823
21
60.9146651
0
LINE
8
DEFAULT_255_2_778
10
3.8236823
20
60.9146651
11
3.8099823
21
60.8588651
0
LINE
8
DEFAULT_255_2_778
10
3.8099823
20
60.8588651
11
3.8043823
21
60.8267651
0
LINE
8
DEFAULT_255_2_778
10
3.8043823
20
60.8267651
11
3.8001823
21
60.7971651
0
LINE
8
DEFAULT_255_2_778
10
3.8001823
20
60.7971651
11
3.7964823
21
60.7627651
0
LINE
8
DEFAULT_255_2_778
10
3.7964823
20
60.7627651
11
3.7932823
21
60.7246651
0
LINE
8
DEFAULT_255_2_778
10
3.7932823
20
60.7246651
11
3.7916823
21
60.6984651
0
LINE
8
DEFAULT_255_2_778
10
3.7916823
20
60.6984651
11
3.7898823
21
60.6548651
0
LINE
8
DEFAULT_255_2_778
10
3.7898823
20
60.6548651
11
3.7882823
21
60.5532651
0
LINE
8
DEFAULT_255_2_778
10
4.3562823
20
60.5137651
11
4.1274823
21
60.5137651
0
LINE
8
DEFAULT_255_2_778
10
4.1274823
20
60.5137651
11
4.1274823
21
60.6077651
0
LINE
8
DEFAULT_255_2_778
10
4.1274823
20
60.6077651
11
4.4465823
21
60.6077651
0
LINE
8
DEFAULT_255_2_778
10
4.4465823
20
60.6077651
11
4.4465823
21
59.9787651
0
LINE
8
DEFAULT_255_2_778
10
4.4465823
20
59.9787651
11
4.2766823
21
59.8999651
0
LINE
8
DEFAULT_255_2_778
10
4.2766823
20
59.8999651
11
4.1279823
21
59.8700651
0
LINE
8
DEFAULT_255_2_778
10
4.1279823
20
59.8700651
11
4.0258823
21
59.8771651
0
LINE
8
DEFAULT_255_2_778
10
4.0258823
20
59.8771651
11
3.9297823
21
59.9113651
0
LINE
8
DEFAULT_255_2_778
10
3.9297823
20
59.9113651
11
3.8480823
21
59.9700651
0
LINE
8
DEFAULT_255_2_778
10
3.8480823
20
59.9700651
11
3.7951823
21
60.0311651
0
LINE
8
DEFAULT_255_2_778
10
3.7951823
20
60.0311651
11
3.7554823
21
60.1018651
0
LINE
8
DEFAULT_255_2_778
10
3.7554823
20
60.1018651
11
3.7376823
21
60.1473651
0
LINE
8
DEFAULT_255_2_778
10
3.7376823
20
60.1473651
11
3.7284823
21
60.1777651
0
LINE
8
DEFAULT_255_2_778
10
3.7284823
20
60.1777651
11
3.7162823
21
60.2309651
0
LINE
8
DEFAULT_255_2_778
10
3.7162823
20
60.2309651
11
3.7120823
21
60.2568651
0
LINE
8
DEFAULT_255_2_778
10
3.7120823
20
60.2568651
11
3.7077823
21
60.2888651
0
LINE
8
DEFAULT_255_2_778
10
3.7077823
20
60.2888651
11
3.7030823
21
60.3373651
0
LINE
8
DEFAULT_255_2_778
10
3.7030823
20
60.3373651
11
3.6998823
21
60.3851651
0
LINE
8
DEFAULT_255_2_778
10
3.6998823
20
60.3851651
11
3.6998823
21
60.6963651
0
LINE
8
DEFAULT_255_2_778
10
3.6998823
20
60.6963651
11
3.7030823
21
60.7407651
0
LINE
8
DEFAULT_255_2_778
10
3.7030823
20
60.7407651
11
3.7070823
21
60.7818651
0
LINE
8
DEFAULT_255_2_778
10
3.7070823
20
60.7818651
11
3.7130823
21
60.8286651
0
LINE
8
DEFAULT_255_2_778
10
3.7130823
20
60.8286651
11
3.7207823
21
60.8728651
0
LINE
8
DEFAULT_255_2_778
10
3.7207823
20
60.8728651
11
3.7289823
21
60.9093651
0
LINE
8
DEFAULT_255_2_778
10
3.7289823
20
60.9093651
11
3.7432823
21
60.9556651
0
LINE
8
DEFAULT_255_2_778
10
3.7432823
20
60.9556651
11
3.7596823
21
60.9945651
0
LINE
8
DEFAULT_255_2_778
10
3.7596823
20
60.9945651
11
3.7908823
21
61.0466651
0
LINE
8
DEFAULT_255_2_778
10
3.7908823
20
61.0466651
11
3.8456823
21
61.1053651
0
LINE
8
DEFAULT_255_2_778
10
3.8456823
20
61.1053651
11
3.9128823
21
61.1509651
0
LINE
8
DEFAULT_255_2_778
10
3.9128823
20
61.1509651
11
4.0078823
21
61.1831651
0
LINE
8
DEFAULT_255_2_778
10
4.0078823
20
61.1831651
11
4.1657823
21
61.1871651
0
LINE
8
DEFAULT_255_2_778
10
4.1657823
20
61.1871651
11
4.2700823
21
61.1609651
0
LINE
8
DEFAULT_255_2_778
10
4.2700823
20
61.1609651
11
4.3324823
21
61.1173651
0
LINE
8
DEFAULT_255_2_778
10
4.3324823
20
61.1173651
11
4.3703823
21
61.0707651
0
LINE
8
DEFAULT_255_2_778
10
4.3703823
20
61.0707651
11
4.3994823
21
61.0172651
0
LINE
8
DEFAULT_255_2_778
10
4.3994823
20
61.0172651
11
4.4137823
21
60.9794651
0
LINE
8
DEFAULT_255_2_778
10
4.4137823
20
60.9794651
11
4.4232823
21
60.9400651
0
LINE
8
DEFAULT_255_2_778
10
4.4232823
20
60.9400651
11
4.3348823
21
60.9183651
0
LINE
8
DEFAULT_255_2_778
10
4.3348823
20
60.9183651
11
4.3348823
21
60.9146651
0
LINE
8
DEFAULT_255_2_778
10
4.3348823
20
60.9146651
11
4.4232823
21
60.9363651
0
LINE
8
DEFAULT_255_2_778
10
4.4232823
20
60.9363651
11
4.4232823
21
60.9400651
0
LINE
8
DEFAULT_255_2_778
10
3.7884823
20
60.5579651
11
3.7903823
21
60.4359651
0
LINE
8
DEFAULT_255_2_778
10
3.7903823
20
60.4359651
11
3.7921823
21
60.3915651
0
LINE
8
DEFAULT_255_2_778
10
3.7921823
20
60.3915651
11
3.7948823
21
60.3508651
0
LINE
8
DEFAULT_255_2_778
10
3.7948823
20
60.3508651
11
3.7982823
21
60.3113651
0
LINE
8
DEFAULT_255_2_778
10
3.7982823
20
60.3113651
11
3.8022823
21
60.2780651
0
LINE
8
DEFAULT_255_2_778
10
3.8022823
20
60.2780651
11
3.8101823
21
60.2277651
0
LINE
8
DEFAULT_255_2_778
10
3.8101823
20
60.2277651
11
3.8199823
21
60.1857651
0
LINE
8
DEFAULT_255_2_778
10
3.8199823
20
60.1857651
11
3.8302823
21
60.1552651
0
LINE
8
DEFAULT_255_2_778
10
3.8302823
20
60.1552651
11
3.8691823
21
60.0862651
0
LINE
8
DEFAULT_255_2_778
10
3.8691823
20
60.0862651
11
3.9263823
21
60.0227651
0
LINE
8
DEFAULT_255_2_778
10
3.9263823
20
60.0227651
11
3.9935823
21
59.9827651
0
LINE
8
DEFAULT_255_2_778
10
3.9935823
20
59.9827651
11
4.1065823
21
59.9616651
0
LINE
8
DEFAULT_255_2_778
10
4.1065823
20
59.9616651
11
4.2353823
21
59.9827651
0
LINE
8
DEFAULT_255_2_778
10
4.2353823
20
59.9827651
11
4.3565823
21
60.0319651
0
LINE
8
DEFAULT_255_2_778
10
4.3565823
20
60.0319651
11
4.3565823
21
60.5185651
0
LINE
8
DEFAULT_255_2_778
10
4.3565823
20
60.5185651
11
4.1276823
21
60.5185651
0
LINE
8
DEFAULT_255_2_778
10
3.0045823
20
24.6899651
11
3.2154823
21
24.0385651
0
LINE
8
DEFAULT_255_2_778
10
3.2154823
20
24.0385651
11
2.7576823
21
24.0385651
0
LINE
8
DEFAULT_255_2_778
10
2.7576823
20
24.0385651
11
2.9907823
21
24.7325651
0
LINE
8
DEFAULT_255_2_778
10
2.9907823
20
24.7325651
11
3.0045823
21
24.6899651
0
LINE
8
DEFAULT_255_2_778
10
2.5396823
20
23.6557651
11
2.5396823
21
23.6586651
0
LINE
8
DEFAULT_255_2_778
10
2.5396823
20
23.6586651
11
2.9373823
21
24.8418651
0
LINE
8
DEFAULT_255_2_778
10
2.9373823
20
24.8418651
11
2.9373823
21
24.8389651
0
LINE
8
DEFAULT_255_2_778
10
2.9373823
20
24.8389651
11
2.5396823
21
23.6557651
0
LINE
8
DEFAULT_255_2_778
10
2.5396823
20
23.6557651
11
2.6195823
21
23.6290651
0
LINE
8
DEFAULT_255_2_778
10
2.6195823
20
23.6290651
11
2.7293823
21
23.9536651
0
LINE
8
DEFAULT_255_2_778
10
2.7293823
20
23.9536651
11
3.2437823
21
23.9536651
0
LINE
8
DEFAULT_255_2_778
10
3.2437823
20
23.9536651
11
3.3503823
21
23.6290651
0
LINE
8
DEFAULT_255_2_778
10
3.3503823
20
23.6290651
11
3.4318823
21
23.6557651
0
LINE
8
DEFAULT_255_2_778
10
3.4318823
20
23.6557651
11
3.4318823
21
23.6586651
0
LINE
8
DEFAULT_255_2_778
10
3.4318823
20
23.6586651
11
3.0439823
21
24.8418651
0
LINE
8
DEFAULT_255_2_778
10
2.9373823
20
24.8389651
11
3.0439823
21
24.8389651
0
LINE
8
DEFAULT_255_2_778
10
3.0439823
20
24.8389651
11
3.0439823
21
24.8418651
0
LINE
8
DEFAULT_255_2_778
10
3.0439823
20
24.8418651
11
2.9373823
21
24.8418651
0
LINE
8
DEFAULT_255_2_778
10
4.1663823
20
23.6578651
11
4.1012823
21
23.7070651
0
LINE
8
DEFAULT_255_2_778
10
4.1012823
20
23.7070651
11
4.0536823
21
23.7700651
0
LINE
8
DEFAULT_255_2_778
10
4.0536823
20
23.7700651
11
4.0297823
21
23.8211651
0
LINE
8
DEFAULT_255_2_778
10
4.0297823
20
23.8211651
11
4.0176823
21
23.8602651
0
LINE
8
DEFAULT_255_2_778
10
4.0176823
20
23.8602651
11
4.0086823
21
23.9018651
0
LINE
8
DEFAULT_255_2_778
10
4.0086823
20
23.9018651
11
4.0046823
21
23.9274651
0
LINE
8
DEFAULT_255_2_778
10
4.0046823
20
23.9274651
11
3.9993823
21
23.9745651
0
LINE
8
DEFAULT_255_2_778
10
3.9993823
20
23.9745651
11
4.0017823
21
24.5251651
0
LINE
8
DEFAULT_255_2_778
10
4.0017823
20
24.5251651
11
4.0062823
21
24.5566651
0
LINE
8
DEFAULT_255_2_778
10
4.0062823
20
24.5566651
11
4.0168823
21
24.6077651
0
LINE
8
DEFAULT_255_2_778
10
4.0168823
20
24.6077651
11
4.0319823
21
24.6561651
0
LINE
8
DEFAULT_255_2_778
10
4.0319823
20
24.6561651
11
4.0602823
21
24.7159651
0
LINE
8
DEFAULT_255_2_778
10
4.0602823
20
24.7159651
11
4.1057823
21
24.7754651
0
LINE
8
DEFAULT_255_2_778
10
4.1057823
20
24.7754651
11
4.1758823
21
24.8225651
0
LINE
8
DEFAULT_255_2_778
10
4.1758823
20
24.8225651
11
4.3041823
21
24.8479651
0
LINE
8
DEFAULT_255_2_778
10
4.3041823
20
24.8479651
11
4.4240823
21
24.8241651
0
LINE
8
DEFAULT_255_2_778
10
4.4240823
20
24.8241651
11
4.4933823
21
24.7746651
0
LINE
8
DEFAULT_255_2_778
10
4.4933823
20
24.7746651
11
4.5412823
21
24.7143651
0
LINE
8
DEFAULT_255_2_778
10
4.5412823
20
24.7143651
11
4.5695823
21
24.6574651
0
LINE
8
DEFAULT_255_2_778
10
4.5695823
20
24.6574651
11
4.5854823
21
24.6077651
0
LINE
8
DEFAULT_255_2_778
10
4.5854823
20
24.6077651
11
4.5925823
21
24.5738651
0
LINE
8
DEFAULT_255_2_778
10
4.5925823
20
24.5738651
11
4.5994823
21
24.5235651
0
LINE
8
DEFAULT_255_2_778
10
3.9932823
20
24.3693651
11
3.9943823
21
24.4169651
0
LINE
8
DEFAULT_255_2_778
10
3.9943823
20
24.4169651
11
3.9967823
21
24.4661651
0
LINE
8
DEFAULT_255_2_778
10
3.9967823
20
24.4661651
11
3.9991823
21
24.4987651
0
LINE
8
DEFAULT_255_2_778
10
3.9991823
20
24.4987651
11
4.0022823
21
24.5278651
0
LINE
8
DEFAULT_255_2_778
10
4.0022823
20
24.5278651
11
4.0059823
21
24.5542651
0
LINE
8
DEFAULT_255_2_778
10
4.0059823
20
24.5542651
11
4.0168823
21
24.6061651
0
LINE
8
DEFAULT_255_2_778
10
4.0168823
20
24.6061651
11
4.0324823
21
24.6556651
0
LINE
8
DEFAULT_255_2_778
10
4.0324823
20
24.6556651
11
4.0514823
21
24.6979651
0
LINE
8
DEFAULT_255_2_778
10
4.0514823
20
24.6979651
11
4.0832823
21
24.7476651
0
LINE
8
DEFAULT_255_2_778
10
4.0832823
20
24.7476651
11
4.1308823
21
24.7945651
0
LINE
8
DEFAULT_255_2_778
10
4.1308823
20
24.7945651
11
4.2102823
21
24.8320651
0
LINE
8
DEFAULT_255_2_778
10
4.2102823
20
24.8320651
11
4.3454823
21
24.8429651
0
LINE
8
DEFAULT_255_2_778
10
4.3454823
20
24.8429651
11
4.4248823
21
24.8207651
0
LINE
8
DEFAULT_255_2_778
10
4.4248823
20
24.8207651
11
4.4846823
21
24.7796651
0
LINE
8
DEFAULT_255_2_778
10
4.4846823
20
24.7796651
11
4.5322823
21
24.7249651
0
LINE
8
DEFAULT_255_2_778
10
4.5322823
20
24.7249651
11
4.5568823
21
24.6828651
0
LINE
8
DEFAULT_255_2_778
10
4.5568823
20
24.6828651
11
4.5753823
21
24.6381651
0
LINE
8
DEFAULT_255_2_778
10
4.5753823
20
24.6381651
11
4.5883823
21
24.5913651
0
LINE
8
DEFAULT_255_2_778
10
4.5883823
20
24.5913651
11
4.5928823
21
24.5682651
0
LINE
8
DEFAULT_255_2_778
10
4.5928823
20
24.5682651
11
4.5965823
21
24.5436651
0
LINE
8
DEFAULT_255_2_778
10
4.5965823
20
24.5436651
11
4.5994823
21
24.5172651
0
LINE
8
DEFAULT_255_2_778
10
4.5994823
20
24.5172651
11
4.5999823
21
23.9811651
0
LINE
8
DEFAULT_255_2_778
10
4.5999823
20
23.9811651
11
4.5965823
21
23.9499651
0
LINE
8
DEFAULT_255_2_778
10
4.5965823
20
23.9499651
11
4.5920823
21
23.9190651
0
LINE
8
DEFAULT_255_2_778
10
4.5920823
20
23.9190651
11
4.5819823
21
23.8695651
0
LINE
8
DEFAULT_255_2_778
10
4.5819823
20
23.8695651
11
4.5666823
21
23.8192651
0
LINE
8
DEFAULT_255_2_778
10
4.5666823
20
23.8192651
11
4.5459823
21
23.7734651
0
LINE
8
DEFAULT_255_2_778
10
4.5459823
20
23.7734651
11
4.5071823
21
23.7165651
0
LINE
8
DEFAULT_255_2_778
10
4.5071823
20
23.7165651
11
4.4589823
21
23.6737651
0
LINE
8
DEFAULT_255_2_778
10
4.4589823
20
23.6737651
11
4.3700823
21
23.6374651
0
LINE
8
DEFAULT_255_2_778
10
4.3700823
20
23.6374651
11
4.2607823
21
23.6311651
0
LINE
8
DEFAULT_255_2_778
10
4.2607823
20
23.6311651
11
4.1919823
21
23.6470651
0
LINE
8
DEFAULT_255_2_778
10
4.1919823
20
23.6470651
11
4.1242823
21
23.6829651
0
LINE
8
DEFAULT_255_2_778
10
4.6065823
20
24.1396651
11
4.6065823
21
24.1425651
0
LINE
8
DEFAULT_255_2_778
10
4.3290823
20
23.7120651
11
4.3766823
21
23.7261651
0
LINE
8
DEFAULT_255_2_778
10
4.3766823
20
23.7261651
11
4.2975823
21
23.7131651
0
LINE
8
DEFAULT_255_2_778
10
4.2975823
20
23.7131651
11
4.2065823
21
23.7361651
0
LINE
8
DEFAULT_255_2_778
10
4.2065823
20
23.7361651
11
4.1528823
21
23.7755651
0
LINE
8
DEFAULT_255_2_778
10
4.1528823
20
23.7755651
11
4.1292823
21
23.8084651
0
LINE
8
DEFAULT_255_2_778
10
4.1292823
20
23.8084651
11
4.1128823
21
23.8451651
0
LINE
8
DEFAULT_255_2_778
10
4.1128823
20
23.8451651
11
4.1014823
21
23.8840651
0
LINE
8
DEFAULT_255_2_778
10
4.1014823
20
23.8840651
11
4.0935823
21
23.9232651
0
LINE
8
DEFAULT_255_2_778
10
4.0935823
20
23.9232651
11
4.0895823
21
23.9502651
0
LINE
8
DEFAULT_255_2_778
10
4.0895823
20
23.9502651
11
4.0861823
21
23.9787651
0
LINE
8
DEFAULT_255_2_778
10
4.0861823
20
23.9787651
11
4.0840823
21
24.0026651
0
LINE
8
DEFAULT_255_2_778
10
4.0840823
20
24.0026651
11
4.0816823
21
24.0351651
0
LINE
8
DEFAULT_255_2_778
10
4.0816823
20
24.0351651
11
4.0795823
21
24.0825651
0
LINE
8
DEFAULT_255_2_778
10
4.0795823
20
24.0825651
11
4.0776823
21
24.2145651
0
LINE
8
DEFAULT_255_2_778
10
4.3861823
20
23.7306651
11
4.3769823
21
23.7263651
0
LINE
8
DEFAULT_255_2_778
10
4.3769823
20
23.7263651
11
4.4322823
21
23.7636651
0
LINE
8
DEFAULT_255_2_778
10
4.4322823
20
23.7636651
11
4.4660823
21
23.8049651
0
LINE
8
DEFAULT_255_2_778
10
4.4660823
20
23.8049651
11
4.4914823
21
23.8544651
0
LINE
8
DEFAULT_255_2_778
10
4.4914823
20
23.8544651
11
4.5015823
21
23.8853651
0
LINE
8
DEFAULT_255_2_778
10
4.5015823
20
23.8853651
11
4.5084823
21
23.9158651
0
LINE
8
DEFAULT_255_2_778
10
4.5084823
20
23.9158651
11
4.5092823
21
24.5521651
0
LINE
8
DEFAULT_255_2_778
10
4.5092823
20
24.5521651
11
4.5002823
21
24.5984651
0
LINE
8
DEFAULT_255_2_778
10
4.5002823
20
24.5984651
11
4.4859823
21
24.6413651
0
LINE
8
DEFAULT_255_2_778
10
4.4859823
20
24.6413651
11
4.4578823
21
24.6892651
0
LINE
8
DEFAULT_255_2_778
10
4.4578823
20
24.6892651
11
4.4078823
21
24.7310651
0
LINE
8
DEFAULT_255_2_778
10
4.4078823
20
24.7310651
11
4.3205823
21
24.7587651
0
LINE
8
DEFAULT_255_2_778
10
4.3205823
20
24.7587651
11
4.2245823
21
24.7487651
0
LINE
8
DEFAULT_255_2_778
10
4.2245823
20
24.7487651
11
4.1671823
21
24.7159651
0
LINE
8
DEFAULT_255_2_778
10
4.1671823
20
24.7159651
11
4.1343823
21
24.6759651
0
LINE
8
DEFAULT_255_2_778
10
4.1343823
20
24.6759651
11
4.1165823
21
24.6399651
0
LINE
8
DEFAULT_255_2_778
10
4.1165823
20
24.6399651
11
4.1036823
21
24.6018651
0
LINE
8
DEFAULT_255_2_778
10
4.1036823
20
24.6018651
11
4.0940823
21
24.5629651
0
LINE
8
DEFAULT_255_2_778
10
4.0940823
20
24.5629651
11
4.0901823
21
24.5415651
0
LINE
8
DEFAULT_255_2_778
10
4.0901823
20
24.5415651
11
4.0869823
21
24.5185651
0
LINE
8
DEFAULT_255_2_778
10
4.0869823
20
24.5185651
11
4.0835823
21
24.4833651
0
LINE
8
DEFAULT_255_2_778
10
4.0835823
20
24.4833651
11
4.0816823
21
24.4550651
0
LINE
8
DEFAULT_255_2_778
10
4.0816823
20
24.4550651
11
4.0797823
21
24.4031651
0
LINE
8
DEFAULT_255_2_778
10
4.0797823
20
24.4031651
11
4.0779823
21
24.1629651
0
LINE
8
DEFAULT_255_2_778
10
3.3823823
20
21.7081651
11
3.3172823
21
21.7570651
0
LINE
8
DEFAULT_255_2_778
10
3.3172823
20
21.7570651
11
3.2696823
21
21.8200651
0
LINE
8
DEFAULT_255_2_778
10
3.2696823
20
21.8200651
11
3.2458823
21
21.8711651
0
LINE
8
DEFAULT_255_2_778
10
3.2458823
20
21.8711651
11
3.2336823
21
21.9102651
0
LINE
8
DEFAULT_255_2_778
10
3.2336823
20
21.9102651
11
3.2246823
21
21.9518651
0
LINE
8
DEFAULT_255_2_778
10
3.2246823
20
21.9518651
11
3.2206823
21
21.9774651
0
LINE
8
DEFAULT_255_2_778
10
3.2206823
20
21.9774651
11
3.2154823
21
22.0245651
0
LINE
8
DEFAULT_255_2_778
10
3.2154823
20
22.0245651
11
3.2177823
21
22.5754651
0
LINE
8
DEFAULT_255_2_778
10
3.2177823
20
22.5754651
11
3.2222823
21
22.6069651
0
LINE
8
DEFAULT_255_2_778
10
3.2222823
20
22.6069651
11
3.2328823
21
22.6579651
0
LINE
8
DEFAULT_255_2_778
10
3.2328823
20
22.6579651
11
3.2482823
21
22.7064651
0
LINE
8
DEFAULT_255_2_778
10
3.2482823
20
22.7064651
11
3.2765823
21
22.7662651
0
LINE
8
DEFAULT_255_2_778
10
3.2765823
20
22.7662651
11
3.3222823
21
22.8257651
0
LINE
8
DEFAULT_255_2_778
10
3.3222823
20
22.8257651
11
3.3924823
21
22.8728651
0
LINE
8
DEFAULT_255_2_778
10
3.3924823
20
22.8728651
11
3.5207823
21
22.8979651
0
LINE
8
DEFAULT_255_2_778
10
3.5207823
20
22.8979651
11
3.6405823
21
22.8738651
0
LINE
8
DEFAULT_255_2_778
10
3.6405823
20
22.8738651
11
3.7099823
21
22.8244651
0
LINE
8
DEFAULT_255_2_778
10
3.7099823
20
22.8244651
11
3.7578823
21
22.7638651
0
LINE
8
DEFAULT_255_2_778
10
3.7578823
20
22.7638651
11
3.7861823
21
22.7069651
0
LINE
8
DEFAULT_255_2_778
10
3.7861823
20
22.7069651
11
3.8019823
21
22.6572651
0
LINE
8
DEFAULT_255_2_778
10
3.8019823
20
22.6572651
11
3.8091823
21
22.6233651
0
LINE
8
DEFAULT_255_2_778
10
3.8091823
20
22.6233651
11
3.8160823
21
22.5733651
0
LINE
8
DEFAULT_255_2_778
10
3.2098823
20
22.4190651
11
3.2109823
21
22.4667651
0
LINE
8
DEFAULT_255_2_778
10
3.2109823
20
22.4667651
11
3.2132823
21
22.5159651
0
LINE
8
DEFAULT_255_2_778
10
3.2132823
20
22.5159651
11
3.2156823
21
22.5484651
0
LINE
8
DEFAULT_255_2_778
10
3.2156823
20
22.5484651
11
3.2188823
21
22.5775651
0
LINE
8
DEFAULT_255_2_778
10
3.2188823
20
22.5775651
11
3.2225823
21
22.6040651
0
LINE
8
DEFAULT_255_2_778
10
3.2225823
20
22.6040651
11
3.2333823
21
22.6558651
0
LINE
8
DEFAULT_255_2_778
10
3.2333823
20
22.6558651
11
3.2490823
21
22.7053651
0
LINE
8
DEFAULT_255_2_778
10
3.2490823
20
22.7053651
11
3.2680823
21
22.7476651
0
LINE
8
DEFAULT_255_2_778
10
3.2680823
20
22.7476651
11
3.2998823
21
22.7974651
0
LINE
8
DEFAULT_255_2_778
10
3.2998823
20
22.7974651
11
3.3474823
21
22.8442651
0
LINE
8
DEFAULT_255_2_778
10
3.3474823
20
22.8442651
11
3.4268823
21
22.8818651
0
LINE
8
DEFAULT_255_2_778
10
3.4268823
20
22.8818651
11
3.5617823
21
22.8926651
0
LINE
8
DEFAULT_255_2_778
10
3.5617823
20
22.8926651
11
3.6411823
21
22.8704651
0
LINE
8
DEFAULT_255_2_778
10
3.6411823
20
22.8704651
11
3.7009823
21
22.8294651
0
LINE
8
DEFAULT_255_2_778
10
3.7009823
20
22.8294651
11
3.7485823
21
22.7746651
0
LINE
8
DEFAULT_255_2_778
10
3.7485823
20
22.7746651
11
3.7731823
21
22.7326651
0
LINE
8
DEFAULT_255_2_778
10
3.7731823
20
22.7326651
11
3.7916823
21
22.6878651
0
LINE
8
DEFAULT_255_2_778
10
3.7916823
20
22.6878651
11
3.8046823
21
22.6410651
0
LINE
8
DEFAULT_255_2_778
10
3.8046823
20
22.6410651
11
3.8091823
21
22.6180651
0
LINE
8
DEFAULT_255_2_778
10
3.8091823
20
22.6180651
11
3.8128823
21
22.5934651
0
LINE
8
DEFAULT_255_2_778
10
3.8128823
20
22.5934651
11
3.8157823
21
22.5669651
0
LINE
8
DEFAULT_255_2_778
10
3.8157823
20
22.5669651
11
3.8162823
21
22.0309651
0
LINE
8
DEFAULT_255_2_778
10
3.8162823
20
22.0309651
11
3.8128823
21
21.9999651
0
LINE
8
DEFAULT_255_2_778
10
3.8128823
20
21.9999651
11
3.8083823
21
21.9690651
0
LINE
8
DEFAULT_255_2_778
10
3.8083823
20
21.9690651
11
3.7982823
21
21.9195651
0
LINE
8
DEFAULT_255_2_778
10
3.7982823
20
21.9195651
11
3.7829823
21
21.8692651
0
LINE
8
DEFAULT_255_2_778
10
3.7829823
20
21.8692651
11
3.7622823
21
21.8235651
0
LINE
8
DEFAULT_255_2_778
10
3.7622823
20
21.8235651
11
3.7234823
21
21.7668651
0
LINE
8
DEFAULT_255_2_778
10
3.7234823
20
21.7668651
11
3.6752823
21
21.7240651
0
LINE
8
DEFAULT_255_2_778
10
3.6752823
20
21.7240651
11
3.5863823
21
21.6877651
0
LINE
8
DEFAULT_255_2_778
10
3.5863823
20
21.6877651
11
3.4770823
21
21.6814651
0
LINE
8
DEFAULT_255_2_778
10
3.4770823
20
21.6814651
11
3.4082823
21
21.6972651
0
LINE
8
DEFAULT_255_2_778
10
3.4082823
20
21.6972651
11
3.3405823
21
21.7332651
0
LINE
8
DEFAULT_255_2_778
10
3.2942823
20
22.2124651
11
3.2966823
21
22.4709651
0
LINE
8
DEFAULT_255_2_778
10
3.2966823
20
22.4709651
11
3.2979823
21
22.5045651
0
LINE
8
DEFAULT_255_2_778
10
3.2979823
20
22.5045651
11
3.3006823
21
22.5431651
0
LINE
8
DEFAULT_255_2_778
10
3.3006823
20
22.5431651
11
3.3032823
21
22.5677651
0
LINE
8
DEFAULT_255_2_778
10
3.3032823
20
22.5677651
11
3.3064823
21
22.5907651
0
LINE
8
DEFAULT_255_2_778
10
3.3064823
20
22.5907651
11
3.3146823
21
22.6310651
0
LINE
8
DEFAULT_255_2_778
10
3.3146823
20
22.6310651
11
3.3270823
21
22.6733651
0
LINE
8
DEFAULT_255_2_778
10
3.3270823
20
22.6733651
11
3.3439823
21
22.7130651
0
LINE
8
DEFAULT_255_2_778
10
3.3439823
20
22.7130651
11
3.3752823
21
22.7572651
0
LINE
8
DEFAULT_255_2_778
10
3.3752823
20
22.7572651
11
3.4289823
21
22.7934651
0
LINE
8
DEFAULT_255_2_778
10
3.4289823
20
22.7934651
11
3.5223823
21
22.8093651
0
LINE
8
DEFAULT_255_2_778
10
3.5223823
20
22.8093651
11
3.6122823
21
22.7865651
0
LINE
8
DEFAULT_255_2_778
10
3.6122823
20
22.7865651
11
3.6662823
21
22.7476651
0
LINE
8
DEFAULT_255_2_778
10
3.6662823
20
22.7476651
11
3.6964823
21
22.7035651
0
LINE
8
DEFAULT_255_2_778
10
3.6964823
20
22.7035651
11
3.7120823
21
22.6640651
0
LINE
8
DEFAULT_255_2_778
10
3.7120823
20
22.6640651
11
3.7223823
21
22.6220651
0
LINE
8
DEFAULT_255_2_778
10
3.7223823
20
22.6220651
11
3.7257823
21
22.6013651
0
LINE
8
DEFAULT_255_2_778
10
3.7257823
20
22.6013651
11
3.7249823
21
21.9653651
0
LINE
8
DEFAULT_255_2_778
10
3.7249823
20
21.9653651
11
3.7181823
21
21.9348651
0
LINE
8
DEFAULT_255_2_778
10
3.7181823
20
21.9348651
11
3.7001823
21
21.8854651
0
LINE
8
DEFAULT_255_2_778
10
3.7001823
20
21.8854651
11
3.6675823
21
21.8338651
0
LINE
8
DEFAULT_255_2_778
10
3.6675823
20
21.8338651
11
3.6024823
21
21.7803651
0
LINE
8
DEFAULT_255_2_778
10
3.6024823
20
21.7803651
11
3.5284823
21
21.7629651
0
LINE
8
DEFAULT_255_2_778
10
3.5284823
20
21.7629651
11
3.4355823
21
21.7806651
0
LINE
8
DEFAULT_255_2_778
10
3.4355823
20
21.7806651
11
3.3775823
21
21.8171651
0
LINE
8
DEFAULT_255_2_778
10
3.3775823
20
21.8171651
11
3.3455823
21
21.8584651
0
LINE
8
DEFAULT_255_2_778
10
3.3455823
20
21.8584651
11
3.3291823
21
21.8952651
0
LINE
8
DEFAULT_255_2_778
10
3.3291823
20
21.8952651
11
3.3177823
21
21.9340651
0
LINE
8
DEFAULT_255_2_778
10
3.3177823
20
21.9340651
11
3.3098823
21
21.9732651
0
LINE
8
DEFAULT_255_2_778
10
3.3098823
20
21.9732651
11
3.3058823
21
22.0002651
0
LINE
8
DEFAULT_255_2_778
10
3.3058823
20
22.0002651
11
3.3024823
21
22.0288651
0
LINE
8
DEFAULT_255_2_778
10
3.3024823
20
22.0288651
11
3.3003823
21
22.0526651
0
LINE
8
DEFAULT_255_2_778
10
3.3003823
20
22.0526651
11
3.2979823
21
22.0851651
0
LINE
8
DEFAULT_255_2_778
10
3.2979823
20
22.0851651
11
3.2958823
21
22.1325651
0
LINE
8
DEFAULT_255_2_778
10
3.2958823
20
22.1325651
11
3.2939823
21
22.2645651
0
LINE
8
DEFAULT_255_2_778
10
3.7012511
20
18.7019594
11
3.6993511
21
18.6726594
0
LINE
8
DEFAULT_255_2_778
10
3.6993511
20
18.6726594
11
3.6940511
21
18.6403594
0
LINE
8
DEFAULT_255_2_778
10
3.6940511
20
18.6403594
11
3.6813511
21
18.5940594
0
LINE
8
DEFAULT_255_2_778
10
3.6813511
20
18.5940594
11
3.6520511
21
18.5249594
0
LINE
8
DEFAULT_255_2_778
10
3.6520511
20
18.5249594
11
3.5887511
21
18.4204594
0
LINE
8
DEFAULT_255_2_778
10
3.5887511
20
18.4204594
11
3.4758511
21
18.2730594
0
LINE
8
DEFAULT_255_2_778
10
3.4758511
20
18.2730594
11
3.1953511
21
17.9444594
0
LINE
8
DEFAULT_255_2_778
10
3.1953511
20
17.9444594
11
3.1953511
21
17.7886594
0
LINE
8
DEFAULT_255_2_778
10
3.1953511
20
17.7886594
11
3.8345511
21
17.7886594
0
LINE
8
DEFAULT_255_2_778
10
3.8345511
20
17.7886594
11
3.8345511
21
17.8746594
0
LINE
8
DEFAULT_255_2_778
10
3.8345511
20
17.8746594
11
3.2786511
21
17.8746594
0
LINE
8
DEFAULT_255_2_778
10
3.7014511
20
18.7064594
11
3.7001511
21
18.7305594
0
LINE
8
DEFAULT_255_2_778
10
3.7001511
20
18.7305594
11
3.6977511
21
18.7485594
0
LINE
8
DEFAULT_255_2_778
10
3.6977511
20
18.7485594
11
3.6911511
21
18.7765594
0
LINE
8
DEFAULT_255_2_778
10
3.6911511
20
18.7765594
11
3.6729511
21
18.8207594
0
LINE
8
DEFAULT_255_2_778
10
3.6729511
20
18.8207594
11
3.6364511
21
18.8681594
0
LINE
8
DEFAULT_255_2_778
10
3.6364511
20
18.8681594
11
3.5758511
21
18.9022594
0
LINE
8
DEFAULT_255_2_778
10
3.5758511
20
18.9022594
11
3.4755511
21
18.9104594
0
LINE
8
DEFAULT_255_2_778
10
3.4755511
20
18.9104594
11
3.3837511
21
18.8803594
0
LINE
8
DEFAULT_255_2_778
10
3.3837511
20
18.8803594
11
3.3403511
21
18.8414594
0
LINE
8
DEFAULT_255_2_778
10
3.3403511
20
18.8414594
11
3.3154511
21
18.8017594
0
LINE
8
DEFAULT_255_2_778
10
3.3154511
20
18.8017594
11
3.2405511
21
18.8400594
0
LINE
8
DEFAULT_255_2_778
10
3.7848511
20
18.7072594
11
3.7821511
21
18.7530594
0
LINE
8
DEFAULT_255_2_778
10
3.7821511
20
18.7530594
11
3.7779511
21
18.7808594
0
LINE
8
DEFAULT_255_2_778
10
3.7779511
20
18.7808594
11
3.7679511
21
18.8218594
0
LINE
8
DEFAULT_255_2_778
10
3.7679511
20
18.8218594
11
3.7459511
21
18.8715594
0
LINE
8
DEFAULT_255_2_778
10
3.7459511
20
18.8715594
11
3.6856511
21
18.9408594
0
LINE
8
DEFAULT_255_2_778
10
3.6856511
20
18.9408594
11
3.5602511
21
18.9927594
0
LINE
8
DEFAULT_255_2_778
10
3.5602511
20
18.9927594
11
3.3935511
21
18.9824594
0
LINE
8
DEFAULT_255_2_778
10
3.3935511
20
18.9824594
11
3.2932511
21
18.9191594
0
LINE
8
DEFAULT_255_2_778
10
3.2932511
20
18.9191594
11
3.2453511
21
18.8530594
0
LINE
8
DEFAULT_255_2_778
10
3.2453511
20
18.8530594
11
3.2405511
21
18.8429594
0
LINE
8
DEFAULT_255_2_778
10
3.2405511
20
18.8429594
11
3.2405511
21
18.8400594
0
LINE
8
DEFAULT_255_2_778
10
3.2405511
20
18.8400594
11
3.2781511
21
18.8996594
0
LINE
8
DEFAULT_255_2_778
10
3.2781511
20
18.8996594
11
3.3353511
21
18.9509594
0
LINE
8
DEFAULT_255_2_778
10
3.3353511
20
18.9509594
11
3.4138511
21
18.9856594
0
LINE
8
DEFAULT_255_2_778
10
3.4138511
20
18.9856594
11
3.5440511
21
18.9922594
0
LINE
8
DEFAULT_255_2_778
10
3.5440511
20
18.9922594
11
3.6499511
21
18.9604594
0
LINE
8
DEFAULT_255_2_778
10
3.6499511
20
18.9604594
11
3.7139511
21
18.9115594
0
LINE
8
DEFAULT_255_2_778
10
3.7139511
20
18.9115594
11
3.7538511
21
18.8535594
0
LINE
8
DEFAULT_255_2_778
10
3.7538511
20
18.8535594
11
3.7694511
21
18.8138594
0
LINE
8
DEFAULT_255_2_778
10
3.7694511
20
18.8138594
11
3.7784511
21
18.7755594
0
LINE
8
DEFAULT_255_2_778
10
3.7784511
20
18.7755594
11
3.7758511
21
18.6133594
0
LINE
8
DEFAULT_255_2_778
10
3.7758511
20
18.6133594
11
3.7679511
21
18.5789594
0
LINE
8
DEFAULT_255_2_778
10
3.7679511
20
18.5789594
11
3.7509511
21
18.5297594
0
LINE
8
DEFAULT_255_2_778
10
3.7509511
20
18.5297594
11
3.7171511
21
18.4622594
0
LINE
8
DEFAULT_255_2_778
10
3.7171511
20
18.4622594
11
3.6575511
21
18.3720594
0
LINE
8
DEFAULT_255_2_778
10
3.6575511
20
18.3720594
11
3.5583511
21
18.2434594
0
LINE
8
DEFAULT_255_2_778
10
3.5583511
20
18.2434594
11
3.2789511
21
17.9119594
0
LINE
8
DEFAULT_255_2_778
10
3.2789511
20
17.9119594
11
3.2789511
21
17.8719594
0
LINE
8
DEFAULT_255_2_778
10
3.2789511
20
17.8719594
11
3.8348511
21
17.8719594
0
LINE
8
DEFAULT_255_2_778
10
4.4852511
20
20.6516594
11
4.4833511
21
20.6223594
0
LINE
8
DEFAULT_255_2_778
10
4.4833511
20
20.6223594
11
4.4780511
21
20.5900594
0
LINE
8
DEFAULT_255_2_778
10
4.4780511
20
20.5900594
11
4.4653511
21
20.5437594
0
LINE
8
DEFAULT_255_2_778
10
4.4653511
20
20.5437594
11
4.4360511
21
20.4746594
0
LINE
8
DEFAULT_255_2_778
10
4.4360511
20
20.4746594
11
4.3727511
21
20.3701594
0
LINE
8
DEFAULT_255_2_778
10
4.3727511
20
20.3701594
11
4.2598511
21
20.2227594
0
LINE
8
DEFAULT_255_2_778
10
4.2598511
20
20.2227594
11
3.9793511
21
19.8941594
0
LINE
8
DEFAULT_255_2_778
10
3.9793511
20
19.8941594
11
3.9793511
21
19.7383594
0
LINE
8
DEFAULT_255_2_778
10
3.9793511
20
19.7383594
11
4.6185511
21
19.7383594
0
LINE
8
DEFAULT_255_2_778
10
4.6185511
20
19.7383594
11
4.6185511
21
19.8243594
0
LINE
8
DEFAULT_255_2_778
10
4.6185511
20
19.8243594
11
4.0626511
21
19.8243594
0
LINE
8
DEFAULT_255_2_778
10
4.4854511
20
20.6561594
11
4.4841511
21
20.6802594
0
LINE
8
DEFAULT_255_2_778
10
4.4841511
20
20.6802594
11
4.4817511
21
20.6982594
0
LINE
8
DEFAULT_255_2_778
10
4.4817511
20
20.6982594
11
4.4751511
21
20.7262594
0
LINE
8
DEFAULT_255_2_778
10
4.4751511
20
20.7262594
11
4.4569511
21
20.7704594
0
LINE
8
DEFAULT_255_2_778
10
4.4569511
20
20.7704594
11
4.4204511
21
20.8178594
0
LINE
8
DEFAULT_255_2_778
10
4.4204511
20
20.8178594
11
4.3598511
21
20.8519594
0
LINE
8
DEFAULT_255_2_778
10
4.3598511
20
20.8519594
11
4.2595511
21
20.8601594
0
LINE
8
DEFAULT_255_2_778
10
4.2595511
20
20.8601594
11
4.1677511
21
20.8300594
0
LINE
8
DEFAULT_255_2_778
10
4.1677511
20
20.8300594
11
4.1243511
21
20.7911594
0
LINE
8
DEFAULT_255_2_778
10
4.1243511
20
20.7911594
11
4.0994511
21
20.7514594
0
LINE
8
DEFAULT_255_2_778
10
4.0994511
20
20.7514594
11
4.0245511
21
20.7897594
0
LINE
8
DEFAULT_255_2_778
10
4.5688511
20
20.6569594
11
4.5661511
21
20.7027594
0
LINE
8
DEFAULT_255_2_778
10
4.5661511
20
20.7027594
11
4.5619511
21
20.7305594
0
LINE
8
DEFAULT_255_2_778
10
4.5619511
20
20.7305594
11
4.5519511
21
20.7715594
0
LINE
8
DEFAULT_255_2_778
10
4.5519511
20
20.7715594
11
4.5299511
21
20.8212594
0
LINE
8
DEFAULT_255_2_778
10
4.5299511
20
20.8212594
11
4.4696511
21
20.8905594
0
LINE
8
DEFAULT_255_2_778
10
4.4696511
20
20.8905594
11
4.3442511
21
20.9424594
0
LINE
8
DEFAULT_255_2_778
10
4.3442511
20
20.9424594
11
4.1775511
21
20.9321594
0
LINE
8
DEFAULT_255_2_778
10
4.1775511
20
20.9321594
11
4.0772511
21
20.8688594
0
LINE
8
DEFAULT_255_2_778
10
4.0772511
20
20.8688594
11
4.0293511
21
20.8027594
0
LINE
8
DEFAULT_255_2_778
10
4.0293511
20
20.8027594
11
4.0245511
21
20.7926594
0
LINE
8
DEFAULT_255_2_778
10
4.0245511
20
20.7926594
11
4.0245511
21
20.7897594
0
LINE
8
DEFAULT_255_2_778
10
4.0245511
20
20.7897594
11
4.0621511
21
20.8493594
0
LINE
8
DEFAULT_255_2_778
10
4.0621511
20
20.8493594
11
4.1193511
21
20.9006594
0
LINE
8
DEFAULT_255_2_778
10
4.1193511
20
20.9006594
11
4.1978511
21
20.9353594
0
LINE
8
DEFAULT_255_2_778
10
4.1978511
20
20.9353594
11
4.3280511
21
20.9419594
0
LINE
8
DEFAULT_255_2_778
10
4.3280511
20
20.9419594
11
4.4339511
21
20.9101594
0
LINE
8
DEFAULT_255_2_778
10
4.4339511
20
20.9101594
11
4.4979511
21
20.8612594
0
LINE
8
DEFAULT_255_2_778
10
4.4979511
20
20.8612594
11
4.5378511
21
20.8032594
0
LINE
8
DEFAULT_255_2_778
10
4.5378511
20
20.8032594
11
4.5534511
21
20.7635594
0
LINE
8
DEFAULT_255_2_778
10
4.5534511
20
20.7635594
11
4.5624511
21
20.7252594
0
LINE
8
DEFAULT_255_2_778
10
4.5624511
20
20.7252594
11
4.5598511
21
20.5630594
0
LINE
8
DEFAULT_255_2_778
10
4.5598511
20
20.5630594
11
4.5519511
21
20.5286594
0
LINE
8
DEFAULT_255_2_778
10
4.5519511
20
20.5286594
11
4.5349511
21
20.4794594
0
LINE
8
DEFAULT_255_2_778
10
4.5349511
20
20.4794594
11
4.5011511
21
20.4119594
0
LINE
8
DEFAULT_255_2_778
10
4.5011511
20
20.4119594
11
4.4415511
21
20.3217594
0
LINE
8
DEFAULT_255_2_778
10
4.4415511
20
20.3217594
11
4.3423511
21
20.1931594
0
LINE
8
DEFAULT_255_2_778
10
4.3423511
20
20.1931594
11
4.0629511
21
19.8616594
0
LINE
8
DEFAULT_255_2_778
10
4.0629511
20
19.8616594
11
4.0629511
21
19.8216594
0
LINE
8
DEFAULT_255_2_778
10
4.0629511
20
19.8216594
11
4.6188511
21
19.8216594
0
LINE
8
DEFAULT_255_2_778
10
4.2947323
20
16.7887542
11
4.2365323
21
16.7887542
0
LINE
8
DEFAULT_255_2_778
10
4.2365323
20
16.7887542
11
3.9246323
21
16.0945542
0
LINE
8
DEFAULT_255_2_778
10
3.9246323
20
16.0945542
11
3.9246323
21
16.0818542
0
LINE
8
DEFAULT_255_2_778
10
3.9246323
20
16.0818542
11
4.2950323
21
16.0818542
0
LINE
8
DEFAULT_255_2_778
10
4.2950323
20
16.0818542
11
4.2947323
21
16.7887542
0
LINE
8
DEFAULT_255_2_778
10
4.5561323
20
16.0818542
11
4.3797323
21
16.0818542
0
LINE
8
DEFAULT_255_2_778
10
4.3797323
20
16.0818542
11
4.3797323
21
16.8739542
0
LINE
8
DEFAULT_255_2_778
10
4.3797323
20
16.8739542
11
4.1815323
21
16.8739542
0
LINE
8
DEFAULT_255_2_778
10
3.8452323
20
16.1215542
11
4.1815323
21
16.8713542
0
LINE
8
DEFAULT_255_2_778
10
4.1815323
20
16.8713542
11
4.1815323
21
16.8742542
0
LINE
8
DEFAULT_255_2_778
10
4.1815323
20
16.8742542
11
3.8452323
21
16.1244542
0
LINE
8
DEFAULT_255_2_778
10
3.8452323
20
16.1244542
11
3.8452323
21
15.9998542
0
LINE
8
DEFAULT_255_2_778
10
3.8452323
20
15.9998542
11
4.2945323
21
15.9998542
0
LINE
8
DEFAULT_255_2_778
10
4.2945323
20
15.9998542
11
4.2945323
21
15.6857542
0
LINE
8
DEFAULT_255_2_778
10
4.2945323
20
15.6857542
11
4.3794323
21
15.6857542
0
LINE
8
DEFAULT_255_2_778
10
4.3794323
20
15.6857542
11
4.3794323
21
15.9998542
0
LINE
8
DEFAULT_255_2_778
10
4.3794323
20
15.9998542
11
4.5559323
21
15.9998542
0
LINE
8
DEFAULT_255_2_778
10
4.5559323
20
15.9998542
11
4.5559323
21
16.0849542
0
LINE
8
DEFAULT_255_2_778
10
4.5559323
20
16.0849542
11
4.3794323
21
16.0849542
0
LINE
8
DEFAULT_255_2_778
10
3.6245323
20
14.8069542
11
3.5663323
21
14.8069542
0
LINE
8
DEFAULT_255_2_778
10
3.5663323
20
14.8069542
11
3.2544323
21
14.1127542
0
LINE
8
DEFAULT_255_2_778
10
3.2544323
20
14.1127542
11
3.2544323
21
14.1000542
0
LINE
8
DEFAULT_255_2_778
10
3.2544323
20
14.1000542
11
3.6248323
21
14.1000542
0
LINE
8
DEFAULT_255_2_778
10
3.6248323
20
14.1000542
11
3.6245323
21
14.8069542
0
LINE
8
DEFAULT_255_2_778
10
3.8859323
20
14.1000542
11
3.7095323
21
14.1000542
0
LINE
8
DEFAULT_255_2_778
10
3.7095323
20
14.1000542
11
3.7095323
21
14.8921542
0
LINE
8
DEFAULT_255_2_778
10
3.7095323
20
14.8921542
11
3.5113323
21
14.8921542
0
LINE
8
DEFAULT_255_2_778
10
3.1750323
20
14.1397542
11
3.5113323
21
14.8895542
0
LINE
8
DEFAULT_255_2_778
10
3.5113323
20
14.8895542
11
3.5113323
21
14.8924542
0
LINE
8
DEFAULT_255_2_778
10
3.5113323
20
14.8924542
11
3.1750323
21
14.1426542
0
LINE
8
DEFAULT_255_2_778
10
3.1750323
20
14.1426542
11
3.1750323
21
14.0180542
0
LINE
8
DEFAULT_255_2_778
10
3.1750323
20
14.0180542
11
3.6243323
21
14.0180542
0
LINE
8
DEFAULT_255_2_778
10
3.6243323
20
14.0180542
11
3.6243323
21
13.7039542
0
LINE
8
DEFAULT_255_2_778
10
3.6243323
20
13.7039542
11
3.7092323
21
13.7039542
0
LINE
8
DEFAULT_255_2_778
10
3.7092323
20
13.7039542
11
3.7092323
21
14.0180542
0
LINE
8
DEFAULT_255_2_778
10
3.7092323
20
14.0180542
11
3.8857323
21
14.0180542
0
LINE
8
DEFAULT_255_2_778
10
3.8857323
20
14.0180542
11
3.8857323
21
14.1031542
0
LINE
8
DEFAULT_255_2_778
10
3.8857323
20
14.1031542
11
3.7092323
21
14.1031542
0
LINE
8
DEFAULT_255_2_778
10
7.7814053
20
10.9313489
11
7.4436053
21
9.8730489
0
LINE
8
DEFAULT_255_2_778
10
7.4436053
20
9.8730489
11
7.4436053
21
9.8701489
0
LINE
8
DEFAULT_255_2_778
10
7.4436053
20
9.8701489
11
7.7719053
21
10.9022489
0
LINE
8
DEFAULT_255_2_778
10
7.7719053
20
10.9022489
11
7.7812053
21
10.9284489
0
LINE
8
DEFAULT_255_2_778
10
7.7812053
20
10.9284489
11
7.7812053
21
10.9517489
0
LINE
8
DEFAULT_255_2_778
10
7.7812053
20
10.9517489
11
7.2652053
21
10.9517489
0
LINE
8
DEFAULT_255_2_778
10
7.2652053
20
10.9517489
11
7.2652053
21
11.0385489
0
LINE
8
DEFAULT_255_2_778
10
7.2652053
20
11.0385489
11
7.8645053
21
11.0385489
0
LINE
8
DEFAULT_255_2_778
10
7.8645053
20
11.0385489
11
7.8645053
21
10.9157489
0
LINE
8
DEFAULT_255_2_778
10
7.8645053
20
10.9157489
11
7.5232053
21
9.8439489
0
LINE
8
DEFAULT_255_2_778
10
7.5232053
20
9.8439489
11
7.4433053
21
9.8701489
0
LINE
8
DEFAULT_255_2_778
10
6.6747053
20
10.5191489
11
7.1308053
21
10.5191489
0
LINE
8
DEFAULT_255_2_778
10
7.1308053
20
10.5191489
11
7.1308053
21
10.4342489
0
LINE
8
DEFAULT_255_2_778
10
7.1308053
20
10.4342489
11
6.6747053
21
10.4342489
0
LINE
8
DEFAULT_255_2_778
10
6.6747053
20
10.4342489
11
6.6747053
21
9.8524489
0
LINE
8
DEFAULT_255_2_778
10
6.6747053
20
9.8524489
11
6.5897053
21
9.8524489
0
LINE
8
DEFAULT_255_2_778
10
6.5897053
20
9.8524489
11
6.5897053
21
11.0372489
0
LINE
8
DEFAULT_255_2_778
10
6.5897053
20
11.0372489
11
7.1607053
21
11.0372489
0
LINE
8
DEFAULT_255_2_778
10
7.1607053
20
11.0372489
11
7.1607053
21
10.9504489
0
LINE
8
DEFAULT_255_2_778
10
7.1607053
20
10.9504489
11
6.6747053
21
10.9504489
0
LINE
8
DEFAULT_255_2_778
10
6.6747053
20
10.9504489
11
6.6747053
21
10.5165489
0
LINE
8
DEFAULT_255_2_778
10
6.6747053
20
10.5165489
11
7.1308053
21
10.5165489
0
LINE
8
DEFAULT_255_2_778
10
8.5659053
20
12.9919489
11
8.5215053
21
12.8588489
0
LINE
8
DEFAULT_255_2_778
10
8.5215053
20
12.8588489
11
8.2241053
21
11.9233489
0
LINE
8
DEFAULT_255_2_778
10
8.2241053
20
11.9233489
11
8.2241053
21
11.9204489
0
LINE
8
DEFAULT_255_2_778
10
8.2241053
20
11.9204489
11
8.5567053
21
12.9641489
0
LINE
8
DEFAULT_255_2_778
10
8.5567053
20
12.9641489
11
8.5659053
21
12.9890489
0
LINE
8
DEFAULT_255_2_778
10
8.5659053
20
12.9890489
11
8.5659053
21
13.0020489
0
LINE
8
DEFAULT_255_2_778
10
8.5659053
20
13.0020489
11
8.0460053
21
13.0020489
0
LINE
8
DEFAULT_255_2_778
10
8.0460053
20
13.0020489
11
8.0460053
21
13.0888489
0
LINE
8
DEFAULT_255_2_778
10
8.0460053
20
13.0888489
11
8.6453053
21
13.0888489
0
LINE
8
DEFAULT_255_2_778
10
8.6453053
20
13.0888489
11
8.6453053
21
12.9660489
0
LINE
8
DEFAULT_255_2_778
10
8.6453053
20
12.9660489
11
8.3040053
21
11.8942489
0
LINE
8
DEFAULT_255_2_778
10
8.3040053
20
11.8942489
11
8.2241053
21
11.9204489
0
LINE
8
DEFAULT_255_2_778
10
7.7650053
20
13.0946489
11
7.6817053
21
13.0946489
0
LINE
8
DEFAULT_255_2_778
10
7.6817053
20
13.0946489
11
7.6817053
21
11.8957489
0
LINE
8
DEFAULT_255_2_778
10
7.6817053
20
11.8957489
11
7.7650053
21
11.8957489
0
LINE
8
DEFAULT_255_2_778
10
7.7650053
20
11.8957489
11
7.7650053
21
13.0946489
0
LINE
8
DEFAULT_255_2_778
10
7.2655053
20
12.2966489
11
6.8078053
21
12.2966489
0
LINE
8
DEFAULT_255_2_778
10
6.8078053
20
12.2966489
11
7.0409053
21
12.9903489
0
LINE
8
DEFAULT_255_2_778
10
7.0409053
20
12.9903489
11
7.2655053
21
12.2966489
0
LINE
8
DEFAULT_255_2_778
10
6.5897053
20
11.9140489
11
6.5897053
21
11.9169489
0
LINE
8
DEFAULT_255_2_778
10
6.5897053
20
11.9169489
11
6.9874053
21
13.0996489
0
LINE
8
DEFAULT_255_2_778
10
6.9874053
20
13.0996489
11
6.9874053
21
13.0967489
0
LINE
8
DEFAULT_255_2_778
10
6.9874053
20
13.0967489
11
6.5897053
21
11.9140489
0
LINE
8
DEFAULT_255_2_778
10
6.5897053
20
11.9140489
11
6.6696053
21
11.8873489
0
LINE
8
DEFAULT_255_2_778
10
6.6696053
20
11.8873489
11
6.7794053
21
12.2117489
0
LINE
8
DEFAULT_255_2_778
10
6.7794053
20
12.2117489
11
7.2938053
21
12.2117489
0
LINE
8
DEFAULT_255_2_778
10
7.2938053
20
12.2117489
11
7.4004053
21
11.8873489
0
LINE
8
DEFAULT_255_2_778
10
7.4004053
20
11.8873489
11
7.4819053
21
11.9140489
0
LINE
8
DEFAULT_255_2_778
10
7.4819053
20
11.9140489
11
7.4819053
21
11.9169489
0
LINE
8
DEFAULT_255_2_778
10
7.4819053
20
11.9169489
11
7.0940053
21
13.0996489
0
LINE
8
DEFAULT_255_2_778
10
6.9874053
20
13.0967489
11
7.0940053
21
13.0967489
0
LINE
8
DEFAULT_255_2_778
10
7.0940053
20
13.0967489
11
7.0940053
21
13.0996489
0
LINE
8
DEFAULT_255_2_778
10
7.0940053
20
13.0996489
11
6.9874053
21
13.0996489
0
LINE
8
DEFAULT_255_2_778
10
3.7150053
20
13.0864489
11
3.6317053
21
13.0864489
0
LINE
8
DEFAULT_255_2_778
10
3.6317053
20
13.0864489
11
3.6317053
21
11.8875489
0
LINE
8
DEFAULT_255_2_778
10
3.6317053
20
11.8875489
11
3.7150053
21
11.8875489
0
LINE
8
DEFAULT_255_2_778
10
3.7150053
20
11.8875489
11
3.7150053
21
13.0864489
0
LINE
8
DEFAULT_255_2_778
10
4.0827375
20
12.2485302
11
4.0827375
21
12.2527302
0
LINE
8
DEFAULT_255_2_778
10
4.3372375
20
12.6536302
11
4.4428375
21
12.6353302
0
LINE
8
DEFAULT_255_2_778
10
4.4428375
20
12.6353302
11
4.5090375
21
12.5953302
0
LINE
8
DEFAULT_255_2_778
10
4.5090375
20
12.5953302
11
4.5539375
21
12.5424302
0
LINE
8
DEFAULT_255_2_778
10
4.5539375
20
12.5424302
11
4.5738375
21
12.5059302
0
LINE
8
DEFAULT_255_2_778
10
4.5738375
20
12.5059302
11
4.5907375
21
12.4612302
0
LINE
8
DEFAULT_255_2_778
10
4.5907375
20
12.4612302
11
4.5976375
21
12.4355302
0
LINE
8
DEFAULT_255_2_778
10
4.5976375
20
12.4355302
11
4.6026375
21
12.4125302
0
LINE
8
DEFAULT_255_2_778
10
4.6026375
20
12.4125302
11
4.6005375
21
12.1339302
0
LINE
8
DEFAULT_255_2_778
10
4.6005375
20
12.1339302
11
4.5897375
21
12.0916302
0
LINE
8
DEFAULT_255_2_778
10
4.5897375
20
12.0916302
11
4.5719375
21
12.0453302
0
LINE
8
DEFAULT_255_2_778
10
4.5719375
20
12.0453302
11
4.5484375
21
12.0035302
0
LINE
8
DEFAULT_255_2_778
10
4.5484375
20
12.0035302
11
4.4960375
21
11.9471302
0
LINE
8
DEFAULT_255_2_778
10
4.4960375
20
11.9471302
11
4.4267375
21
11.9082302
0
LINE
8
DEFAULT_255_2_778
10
4.4267375
20
11.9082302
11
4.3354375
21
11.8894302
0
LINE
8
DEFAULT_255_2_778
10
4.3354375
20
11.8894302
11
4.2132375
21
11.9000302
0
LINE
8
DEFAULT_255_2_778
10
4.2132375
20
11.9000302
11
4.1401375
21
11.9328302
0
LINE
8
DEFAULT_255_2_778
10
4.1401375
20
11.9328302
11
4.0830375
21
11.9828302
0
LINE
8
DEFAULT_255_2_778
10
4.0830375
20
11.9828302
11
4.0441375
21
12.0410302
0
LINE
8
DEFAULT_255_2_778
10
4.0441375
20
12.0410302
11
4.0258375
21
12.0813302
0
LINE
8
DEFAULT_255_2_778
10
4.0258375
20
12.0813302
11
4.0100375
21
12.1297302
0
LINE
8
DEFAULT_255_2_778
10
4.0100375
20
12.1297302
11
3.9951375
21
12.1958302
0
LINE
8
DEFAULT_255_2_778
10
3.9951375
20
12.1958302
11
3.9883375
21
12.2419302
0
LINE
8
DEFAULT_255_2_778
10
3.9883375
20
12.2419302
11
3.9835375
21
12.2882302
0
LINE
8
DEFAULT_255_2_778
10
3.9835375
20
12.2882302
11
3.9835375
21
12.7184302
0
LINE
8
DEFAULT_255_2_778
10
3.9835375
20
12.7184302
11
3.9872375
21
12.7594302
0
LINE
8
DEFAULT_255_2_778
10
3.9872375
20
12.7594302
11
3.9912375
21
12.7893302
0
LINE
8
DEFAULT_255_2_778
10
3.9912375
20
12.7893302
11
3.9957375
21
12.8171302
0
LINE
8
DEFAULT_255_2_778
10
3.9957375
20
12.8171302
11
4.0081375
21
12.8718302
0
LINE
8
DEFAULT_255_2_778
10
4.0081375
20
12.8718302
11
4.0211375
21
12.9128302
0
LINE
8
DEFAULT_255_2_778
10
4.0211375
20
12.9128302
11
4.0412375
21
12.9570302
0
LINE
8
DEFAULT_255_2_778
10
4.0412375
20
12.9570302
11
4.0832375
21
13.0150302
0
LINE
8
DEFAULT_255_2_778
10
4.0832375
20
13.0150302
11
4.1526375
21
13.0650302
0
LINE
8
DEFAULT_255_2_778
10
4.1526375
20
13.0650302
11
4.2468375
21
13.0906302
0
LINE
8
DEFAULT_255_2_778
10
4.2468375
20
13.0906302
11
4.3634375
21
13.0864302
0
LINE
8
DEFAULT_255_2_778
10
4.3634375
20
13.0864302
11
4.4515375
21
13.0539302
0
LINE
8
DEFAULT_255_2_778
10
4.4515375
20
13.0539302
11
4.5119375
21
13.0076302
0
LINE
8
DEFAULT_255_2_778
10
4.5119375
20
13.0076302
11
4.5518375
21
12.9568302
0
LINE
8
DEFAULT_255_2_778
10
4.5518375
20
12.9568302
11
4.5600375
21
12.9420302
0
LINE
8
DEFAULT_255_2_778
10
4.3071375
20
12.6509302
11
4.3370375
21
12.6525302
0
LINE
8
DEFAULT_255_2_778
10
4.3370375
20
12.6525302
11
4.3370375
21
12.6554302
0
LINE
8
DEFAULT_255_2_778
10
4.3370375
20
12.6554302
11
4.3071375
21
12.6538302
0
LINE
8
DEFAULT_255_2_778
10
3.9869375
20
12.7628302
11
3.9938375
21
12.8118302
0
LINE
8
DEFAULT_255_2_778
10
3.9938375
20
12.8118302
11
4.0044375
21
12.8623302
0
LINE
8
DEFAULT_255_2_778
10
4.0044375
20
12.8623302
11
4.0192375
21
12.9121302
0
LINE
8
DEFAULT_255_2_778
10
4.0192375
20
12.9121302
11
4.0449375
21
12.9676302
0
LINE
8
DEFAULT_255_2_778
10
4.0449375
20
12.9676302
11
4.0957375
21
13.0306302
0
LINE
8
DEFAULT_255_2_778
10
4.0957375
20
13.0306302
11
4.1864375
21
13.0817302
0
LINE
8
DEFAULT_255_2_778
10
4.1864375
20
13.0817302
11
4.3441375
21
13.0925302
0
LINE
8
DEFAULT_255_2_778
10
4.3441375
20
13.0925302
11
4.4751375
21
13.0414302
0
LINE
8
DEFAULT_255_2_778
10
4.4751375
20
13.0414302
11
4.5412375
21
12.9753302
0
LINE
8
DEFAULT_255_2_778
10
4.5412375
20
12.9753302
11
4.5598375
21
12.9449302
0
LINE
8
DEFAULT_255_2_778
10
4.5598375
20
12.9449302
11
4.5598375
21
12.9420302
0
LINE
8
DEFAULT_255_2_778
10
4.5598375
20
12.9420302
11
4.4833375
21
12.9025302
0
LINE
8
DEFAULT_255_2_778
10
4.4833375
20
12.9025302
11
4.4394375
21
12.9599302
0
LINE
8
DEFAULT_255_2_778
10
4.4394375
20
12.9599302
11
4.3581375
21
13.0028302
0
LINE
8
DEFAULT_255_2_778
10
4.3581375
20
13.0028302
11
4.2142375
21
13.0004302
0
LINE
8
DEFAULT_255_2_778
10
4.2142375
20
13.0004302
11
4.1441375
21
12.9552302
0
LINE
8
DEFAULT_255_2_778
10
4.1441375
20
12.9552302
11
4.1121375
21
12.9086302
0
LINE
8
DEFAULT_255_2_778
10
4.1121375
20
12.9086302
11
4.0912375
21
12.8549302
0
LINE
8
DEFAULT_255_2_778
10
4.0912375
20
12.8549302
11
4.0814375
21
12.8152302
0
LINE
8
DEFAULT_255_2_778
10
4.0814375
20
12.8152302
11
4.0753375
21
12.7806302
0
LINE
8
DEFAULT_255_2_778
10
4.0753375
20
12.7806302
11
4.0705375
21
12.7411302
0
LINE
8
DEFAULT_255_2_778
10
4.0705375
20
12.7411302
11
4.0679375
21
12.7062302
0
LINE
8
DEFAULT_255_2_778
10
4.0679375
20
12.7062302
11
4.0660375
21
12.6715302
0
LINE
8
DEFAULT_255_2_778
10
4.0660375
20
12.6715302
11
4.0645375
21
12.6350302
0
LINE
8
DEFAULT_255_2_778
10
4.0645375
20
12.6350302
11
4.0623375
21
12.4866302
0
LINE
8
DEFAULT_255_2_778
10
4.0623375
20
12.4866302
11
4.0623375
21
12.4895302
0
LINE
8
DEFAULT_255_2_778
10
4.0623375
20
12.4895302
11
4.1632375
21
12.6046302
0
LINE
8
DEFAULT_255_2_778
10
4.1632375
20
12.6046302
11
4.3071375
21
12.6538302
0
LINE
8
DEFAULT_255_2_778
10
4.3071375
20
12.6538302
11
4.3071375
21
12.6509302
0
LINE
8
DEFAULT_255_2_778
10
4.3071375
20
12.6509302
11
4.1510375
21
12.5924302
0
LINE
8
DEFAULT_255_2_778
10
4.1510375
20
12.5924302
11
4.0623375
21
12.4866302
0
LINE
8
DEFAULT_255_2_778
10
4.5243375
20
12.3623302
11
4.5190375
21
12.3980302
0
LINE
8
DEFAULT_255_2_778
10
4.5190375
20
12.3980302
11
4.5092375
21
12.4385302
0
LINE
8
DEFAULT_255_2_778
10
4.5092375
20
12.4385302
11
4.4873375
21
12.4903302
0
LINE
8
DEFAULT_255_2_778
10
4.4873375
20
12.4903302
11
4.4460375
21
12.5382302
0
LINE
8
DEFAULT_255_2_778
10
4.4460375
20
12.5382302
11
4.3486375
21
12.5692302
0
LINE
8
DEFAULT_255_2_778
10
4.3486375
20
12.5692302
11
4.2343375
21
12.5469302
0
LINE
8
DEFAULT_255_2_778
10
4.2343375
20
12.5469302
11
4.1679375
21
12.4940302
0
LINE
8
DEFAULT_255_2_778
10
4.1679375
20
12.4940302
11
4.1171375
21
12.4207302
0
LINE
8
DEFAULT_255_2_778
10
4.1171375
20
12.4207302
11
4.0978375
21
12.3728302
0
LINE
8
DEFAULT_255_2_778
10
4.0978375
20
12.3728302
11
4.0885375
21
12.3326302
0
LINE
8
DEFAULT_255_2_778
10
4.0885375
20
12.3326302
11
4.0912375
21
12.1699302
0
LINE
8
DEFAULT_255_2_778
10
4.0912375
20
12.1699302
11
4.1081375
21
12.1210302
0
LINE
8
DEFAULT_255_2_778
10
4.1081375
20
12.1210302
11
4.1409375
21
12.0649302
0
LINE
8
DEFAULT_255_2_778
10
4.1409375
20
12.0649302
11
4.2095375
21
12.0011302
0
LINE
8
DEFAULT_255_2_778
10
4.2095375
20
12.0011302
11
4.2917375
21
11.9730302
0
LINE
8
DEFAULT_255_2_778
10
4.2917375
20
11.9730302
11
4.4037375
21
11.9918302
0
LINE
8
DEFAULT_255_2_778
10
4.4037375
20
11.9918302
11
4.4629375
21
12.0413302
0
LINE
8
DEFAULT_255_2_778
10
4.4629375
20
12.0413302
11
4.4952375
21
12.0948302
0
LINE
8
DEFAULT_255_2_778
10
4.4952375
20
12.0948302
11
4.5092375
21
12.1331302
0
LINE
8
DEFAULT_255_2_778
10
4.5092375
20
12.1331302
11
4.5188375
21
12.1731302
0
LINE
8
DEFAULT_255_2_778
10
4.5188375
20
12.1731302
11
4.5238375
21
12.2085302
0
LINE
8
DEFAULT_255_2_778
10
4.5238375
20
12.2085302
11
4.5243375
21
12.3623302
0
LINE
8
DEFAULT_255_2_778
10
2.5397125
20
11.9140479
11
2.5397125
21
11.9169479
0
LINE
8
DEFAULT_255_2_778
10
2.5397125
20
11.9169479
11
2.9374125
21
13.0996479
0
LINE
8
DEFAULT_255_2_778
10
2.9374125
20
13.0996479
11
2.9374125
21
13.0967479
0
LINE
8
DEFAULT_255_2_778
10
2.9374125
20
13.0967479
11
2.5397125
21
11.9140479
0
LINE
8
DEFAULT_255_2_778
10
2.5397125
20
11.9140479
11
2.6196125
21
11.8873479
0
LINE
8
DEFAULT_255_2_778
10
2.6196125
20
11.8873479
11
2.7294125
21
12.2117479
0
LINE
8
DEFAULT_255_2_778
10
2.7294125
20
12.2117479
11
3.2438125
21
12.2117479
0
LINE
8
DEFAULT_255_2_778
10
3.2438125
20
12.2117479
11
3.3504125
21
11.8873479
0
LINE
8
DEFAULT_255_2_778
10
3.3504125
20
11.8873479
11
3.4319125
21
11.9140479
0
LINE
8
DEFAULT_255_2_778
10
3.4319125
20
11.9140479
11
3.4319125
21
11.9169479
0
LINE
8
DEFAULT_255_2_778
10
3.4319125
20
11.9169479
11
3.0440125
21
13.0996479
0
LINE
8
DEFAULT_255_2_778
10
3.0046125
20
12.9477479
11
3.2154125
21
12.2966479
0
LINE
8
DEFAULT_255_2_778
10
3.2154125
20
12.2966479
11
2.7577125
21
12.2966479
0
LINE
8
DEFAULT_255_2_778
10
2.7577125
20
12.2966479
11
2.9908125
21
12.9903479
0
LINE
8
DEFAULT_255_2_778
10
2.9908125
20
12.9903479
11
3.0046125
21
12.9477479
0
LINE
8
DEFAULT_255_2_778
10
2.9376125
20
13.0967479
11
3.0443125
21
13.0967479
0
LINE
8
DEFAULT_255_2_778
10
3.0443125
20
13.0967479
11
3.0443125
21
13.0996479
0
LINE
8
DEFAULT_255_2_778
10
3.0443125
20
13.0996479
11
2.9376125
21
13.0996479
0
LINE
8
DEFAULT_255_2_778
10
2.6246125
20
10.5189479
11
3.0808125
21
10.5189479
0
LINE
8
DEFAULT_255_2_778
10
3.0808125
20
10.5189479
11
3.0808125
21
10.4339479
0
LINE
8
DEFAULT_255_2_778
10
3.0808125
20
10.4339479
11
2.6246125
21
10.4339479
0
LINE
8
DEFAULT_255_2_778
10
2.6246125
20
10.4339479
11
2.6246125
21
9.8521479
0
LINE
8
DEFAULT_255_2_778
10
2.6246125
20
9.8521479
11
2.5397125
21
9.8521479
0
LINE
8
DEFAULT_255_2_778
10
2.5397125
20
9.8521479
11
2.5397125
21
11.0369479
0
LINE
8
DEFAULT_255_2_778
10
2.5397125
20
11.0369479
11
3.1107125
21
11.0369479
0
LINE
8
DEFAULT_255_2_778
10
3.1107125
20
11.0369479
11
3.1107125
21
10.9501479
0
LINE
8
DEFAULT_255_2_778
10
3.1107125
20
10.9501479
11
2.6246125
21
10.9501479
0
LINE
8
DEFAULT_255_2_778
10
2.6246125
20
10.9501479
11
2.6246125
21
10.5162479
0
LINE
8
DEFAULT_255_2_778
10
2.6246125
20
10.5162479
11
3.0808125
21
10.5162479
0
LINE
8
DEFAULT_255_2_778
10
3.3022375
20
10.2014302
11
3.3022375
21
10.2056302
0
LINE
8
DEFAULT_255_2_778
10
3.5567375
20
10.6065302
11
3.6623375
21
10.5882302
0
LINE
8
DEFAULT_255_2_778
10
3.6623375
20
10.5882302
11
3.7285375
21
10.5482302
0
LINE
8
DEFAULT_255_2_778
10
3.7285375
20
10.5482302
11
3.7734375
21
10.4953302
0
LINE
8
DEFAULT_255_2_778
10
3.7734375
20
10.4953302
11
3.7933375
21
10.4588302
0
LINE
8
DEFAULT_255_2_778
10
3.7933375
20
10.4588302
11
3.8102375
21
10.4141302
0
LINE
8
DEFAULT_255_2_778
10
3.8102375
20
10.4141302
11
3.8171375
21
10.3884302
0
LINE
8
DEFAULT_255_2_778
10
3.8171375
20
10.3884302
11
3.8221375
21
10.3654302
0
LINE
8
DEFAULT_255_2_778
10
3.8221375
20
10.3654302
11
3.8200375
21
10.0868302
0
LINE
8
DEFAULT_255_2_778
10
3.8200375
20
10.0868302
11
3.8092375
21
10.0445302
0
LINE
8
DEFAULT_255_2_778
10
3.8092375
20
10.0445302
11
3.7914375
21
9.9982302
0
LINE
8
DEFAULT_255_2_778
10
3.7914375
20
9.9982302
11
3.7679375
21
9.9564302
0
LINE
8
DEFAULT_255_2_778
10
3.7679375
20
9.9564302
11
3.7155375
21
9.9000302
0
LINE
8
DEFAULT_255_2_778
10
3.7155375
20
9.9000302
11
3.6462375
21
9.8611302
0
LINE
8
DEFAULT_255_2_778
10
3.6462375
20
9.8611302
11
3.5549375
21
9.8423302
0
LINE
8
DEFAULT_255_2_778
10
3.5549375
20
9.8423302
11
3.4327375
21
9.8529302
0
LINE
8
DEFAULT_255_2_778
10
3.4327375
20
9.8529302
11
3.3596375
21
9.8857302
0
LINE
8
DEFAULT_255_2_778
10
3.3596375
20
9.8857302
11
3.3025375
21
9.9357302
0
LINE
8
DEFAULT_255_2_778
10
3.3025375
20
9.9357302
11
3.2636375
21
9.9939302
0
LINE
8
DEFAULT_255_2_778
10
3.2636375
20
9.9939302
11
3.2453375
21
10.0342302
0
LINE
8
DEFAULT_255_2_778
10
3.2453375
20
10.0342302
11
3.2295375
21
10.0826302
0
LINE
8
DEFAULT_255_2_778
10
3.2295375
20
10.0826302
11
3.2146375
21
10.1487302
0
LINE
8
DEFAULT_255_2_778
10
3.2146375
20
10.1487302
11
3.2078375
21
10.1948302
0
LINE
8
DEFAULT_255_2_778
10
3.2078375
20
10.1948302
11
3.2030375
21
10.2411302
0
LINE
8
DEFAULT_255_2_778
10
3.2030375
20
10.2411302
11
3.2030375
21
10.6713302
0
LINE
8
DEFAULT_255_2_778
10
3.2030375
20
10.6713302
11
3.2067375
21
10.7123302
0
LINE
8
DEFAULT_255_2_778
10
3.2067375
20
10.7123302
11
3.2107375
21
10.7422302
0
LINE
8
DEFAULT_255_2_778
10
3.2107375
20
10.7422302
11
3.2152375
21
10.7700302
0
LINE
8
DEFAULT_255_2_778
10
3.2152375
20
10.7700302
11
3.2276375
21
10.8247302
0
LINE
8
DEFAULT_255_2_778
10
3.2276375
20
10.8247302
11
3.2406375
21
10.8657302
0
LINE
8
DEFAULT_255_2_778
10
3.2406375
20
10.8657302
11
3.2607375
21
10.9099302
0
LINE
8
DEFAULT_255_2_778
10
3.2607375
20
10.9099302
11
3.3027375
21
10.9679302
0
LINE
8
DEFAULT_255_2_778
10
3.3027375
20
10.9679302
11
3.3721375
21
11.0179302
0
LINE
8
DEFAULT_255_2_778
10
3.3721375
20
11.0179302
11
3.4663375
21
11.0435302
0
LINE
8
DEFAULT_255_2_778
10
3.4663375
20
11.0435302
11
3.5829375
21
11.0393302
0
LINE
8
DEFAULT_255_2_778
10
3.5829375
20
11.0393302
11
3.6710375
21
11.0068302
0
LINE
8
DEFAULT_255_2_778
10
3.6710375
20
11.0068302
11
3.7314375
21
10.9605302
0
LINE
8
DEFAULT_255_2_778
10
3.7314375
20
10.9605302
11
3.7713375
21
10.9097302
0
LINE
8
DEFAULT_255_2_778
10
3.7713375
20
10.9097302
11
3.7795375
21
10.8949302
0
LINE
8
DEFAULT_255_2_778
10
3.5266375
20
10.6038302
11
3.5565375
21
10.6054302
0
LINE
8
DEFAULT_255_2_778
10
3.5565375
20
10.6054302
11
3.5565375
21
10.6083302
0
LINE
8
DEFAULT_255_2_778
10
3.5565375
20
10.6083302
11
3.5266375
21
10.6067302
0
LINE
8
DEFAULT_255_2_778
10
3.2064375
20
10.7157302
11
3.2133375
21
10.7647302
0
LINE
8
DEFAULT_255_2_778
10
3.2133375
20
10.7647302
11
3.2239375
21
10.8152302
0
LINE
8
DEFAULT_255_2_778
10
3.2239375
20
10.8152302
11
3.2387375
21
10.8650302
0
LINE
8
DEFAULT_255_2_778
10
3.2387375
20
10.8650302
11
3.2644375
21
10.9205302
0
LINE
8
DEFAULT_255_2_778
10
3.2644375
20
10.9205302
11
3.3152375
21
10.9835302
0
LINE
8
DEFAULT_255_2_778
10
3.3152375
20
10.9835302
11
3.4059375
21
11.0346302
0
LINE
8
DEFAULT_255_2_778
10
3.4059375
20
11.0346302
11
3.5636375
21
11.0454302
0
LINE
8
DEFAULT_255_2_778
10
3.5636375
20
11.0454302
11
3.6946375
21
10.9943302
0
LINE
8
DEFAULT_255_2_778
10
3.6946375
20
10.9943302
11
3.7607375
21
10.9282302
0
LINE
8
DEFAULT_255_2_778
10
3.7607375
20
10.9282302
11
3.7793375
21
10.8978302
0
LINE
8
DEFAULT_255_2_778
10
3.7793375
20
10.8978302
11
3.7793375
21
10.8949302
0
LINE
8
DEFAULT_255_2_778
10
3.7793375
20
10.8949302
11
3.7028375
21
10.8554302
0
LINE
8
DEFAULT_255_2_778
10
3.7028375
20
10.8554302
11
3.6589375
21
10.9128302
0
LINE
8
DEFAULT_255_2_778
10
3.6589375
20
10.9128302
11
3.5776375
21
10.9557302
0
LINE
8
DEFAULT_255_2_778
10
3.5776375
20
10.9557302
11
3.4337375
21
10.9533302
0
LINE
8
DEFAULT_255_2_778
10
3.4337375
20
10.9533302
11
3.3636375
21
10.9081302
0
LINE
8
DEFAULT_255_2_778
10
3.3636375
20
10.9081302
11
3.3316375
21
10.8615302
0
LINE
8
DEFAULT_255_2_778
10
3.3316375
20
10.8615302
11
3.3107375
21
10.8078302
0
LINE
8
DEFAULT_255_2_778
10
3.3107375
20
10.8078302
11
3.3009375
21
10.7681302
0
LINE
8
DEFAULT_255_2_778
10
3.3009375
20
10.7681302
11
3.2948375
21
10.7335302
0
LINE
8
DEFAULT_255_2_778
10
3.2948375
20
10.7335302
11
3.2900375
21
10.6940302
0
LINE
8
DEFAULT_255_2_778
10
3.2900375
20
10.6940302
11
3.2874375
21
10.6591302
0
LINE
8
DEFAULT_255_2_778
10
3.2874375
20
10.6591302
11
3.2855375
21
10.6244302
0
LINE
8
DEFAULT_255_2_778
10
3.2855375
20
10.6244302
11
3.2840375
21
10.5879302
0
LINE
8
DEFAULT_255_2_778
10
3.2840375
20
10.5879302
11
3.2818375
21
10.4395302
0
LINE
8
DEFAULT_255_2_778
10
3.2818375
20
10.4395302
11
3.2818375
21
10.4424302
0
LINE
8
DEFAULT_255_2_778
10
3.2818375
20
10.4424302
11
3.3827375
21
10.5575302
0
LINE
8
DEFAULT_255_2_778
10
3.3827375
20
10.5575302
11
3.5266375
21
10.6067302
0
LINE
8
DEFAULT_255_2_778
10
3.5266375
20
10.6067302
11
3.5266375
21
10.6038302
0
LINE
8
DEFAULT_255_2_778
10
3.5266375
20
10.6038302
11
3.3705375
21
10.5453302
0
LINE
8
DEFAULT_255_2_778
10
3.3705375
20
10.5453302
11
3.2818375
21
10.4395302
0
LINE
8
DEFAULT_255_2_778
10
3.7438375
20
10.3152302
11
3.7385375
21
10.3509302
0
LINE
8
DEFAULT_255_2_778
10
3.7385375
20
10.3509302
11
3.7287375
21
10.3914302
0
LINE
8
DEFAULT_255_2_778
10
3.7287375
20
10.3914302
11
3.7068375
21
10.4432302
0
LINE
8
DEFAULT_255_2_778
10
3.7068375
20
10.4432302
11
3.6655375
21
10.4911302
0
LINE
8
DEFAULT_255_2_778
10
3.6655375
20
10.4911302
11
3.5681375
21
10.5221302
0
LINE
8
DEFAULT_255_2_778
10
3.5681375
20
10.5221302
11
3.4538375
21
10.4998302
0
LINE
8
DEFAULT_255_2_778
10
3.4538375
20
10.4998302
11
3.3874375
21
10.4469302
0
LINE
8
DEFAULT_255_2_778
10
3.3874375
20
10.4469302
11
3.3366375
21
10.3736302
0
LINE
8
DEFAULT_255_2_778
10
3.3366375
20
10.3736302
11
3.3173375
21
10.3257302
0
LINE
8
DEFAULT_255_2_778
10
3.3173375
20
10.3257302
11
3.3080375
21
10.2855302
0
LINE
8
DEFAULT_255_2_778
10
3.3080375
20
10.2855302
11
3.3107375
21
10.1228302
0
LINE
8
DEFAULT_255_2_778
10
3.3107375
20
10.1228302
11
3.3276375
21
10.0739302
0
LINE
8
DEFAULT_255_2_778
10
3.3276375
20
10.0739302
11
3.3604375
21
10.0178302
0
LINE
8
DEFAULT_255_2_778
10
3.3604375
20
10.0178302
11
3.4290375
21
9.9540302
0
LINE
8
DEFAULT_255_2_778
10
3.4290375
20
9.9540302
11
3.5112375
21
9.9259302
0
LINE
8
DEFAULT_255_2_778
10
3.5112375
20
9.9259302
11
3.6232375
21
9.9447302
0
LINE
8
DEFAULT_255_2_778
10
3.6232375
20
9.9447302
11
3.6824375
21
9.9942302
0
LINE
8
DEFAULT_255_2_778
10
3.6824375
20
9.9942302
11
3.7147375
21
10.0477302
0
LINE
8
DEFAULT_255_2_778
10
3.7147375
20
10.0477302
11
3.7287375
21
10.0860302
0
LINE
8
DEFAULT_255_2_778
10
3.7287375
20
10.0860302
11
3.7383375
21
10.1260302
0
LINE
8
DEFAULT_255_2_778
10
3.7383375
20
10.1260302
11
3.7433375
21
10.1614302
0
LINE
8
DEFAULT_255_2_778
10
3.7433375
20
10.1614302
11
3.7438375
21
10.3152302
0
LINE
8
DEFAULT_255_2_778
10
7.3604209
20
13.8798926
11
7.2839209
21
13.8454926
0
LINE
8
DEFAULT_255_2_778
10
7.2839209
20
13.8454926
11
7.2839209
21
13.8483926
0
LINE
8
DEFAULT_255_2_778
10
7.2839209
20
13.8483926
11
7.3604209
21
13.8827926
0
LINE
8
DEFAULT_255_2_778
10
7.3604209
20
13.8827926
11
7.3604209
21
13.8798926
0
LINE
8
DEFAULT_255_2_778
10
7.3604209
20
13.8798926
11
7.3951209
21
13.8293926
0
LINE
8
DEFAULT_255_2_778
10
7.3951209
20
13.8293926
11
7.4705209
21
13.7848926
0
LINE
8
DEFAULT_255_2_778
10
7.4705209
20
13.7848926
11
7.5996209
21
13.7817926
0
LINE
8
DEFAULT_255_2_778
10
7.5996209
20
13.7817926
11
7.6702209
21
13.8182926
0
LINE
8
DEFAULT_255_2_778
10
7.6702209
20
13.8182926
11
7.7210209
21
13.8798926
0
LINE
8
DEFAULT_255_2_778
10
7.7210209
20
13.8798926
11
7.7438209
21
13.9290926
0
LINE
8
DEFAULT_255_2_778
10
7.7438209
20
13.9290926
11
7.7562209
21
13.9714926
0
LINE
8
DEFAULT_255_2_778
10
7.7562209
20
13.9714926
11
7.7631209
21
14.0081926
0
LINE
8
DEFAULT_255_2_778
10
7.7631209
20
14.0081926
11
7.7615209
21
14.1748926
0
LINE
8
DEFAULT_255_2_778
10
7.7615209
20
14.1748926
11
7.7549209
21
14.2158926
0
LINE
8
DEFAULT_255_2_778
10
7.7549209
20
14.2158926
11
7.7446209
21
14.2558926
0
LINE
8
DEFAULT_255_2_778
10
7.7446209
20
14.2558926
11
7.7213209
21
14.3116926
0
LINE
8
DEFAULT_255_2_778
10
7.7213209
20
14.3116926
11
7.6813209
21
14.3637926
0
LINE
8
DEFAULT_255_2_778
10
7.6813209
20
14.3637926
11
7.6186209
21
14.3907926
0
LINE
8
DEFAULT_255_2_778
10
7.6186209
20
14.3907926
11
7.5107209
21
14.3780926
0
LINE
8
DEFAULT_255_2_778
10
7.5107209
20
14.3780926
11
7.4437209
21
14.3322926
0
LINE
8
DEFAULT_255_2_778
10
7.4437209
20
14.3322926
11
7.4173209
21
14.2865926
0
LINE
8
DEFAULT_255_2_778
10
7.4173209
20
14.2865926
11
7.4133209
21
14.2701926
0
LINE
8
DEFAULT_255_2_778
10
7.4133209
20
14.2701926
11
7.4067209
21
14.2338926
0
LINE
8
DEFAULT_255_2_778
10
7.4067209
20
14.2338926
11
7.2802209
21
14.2338926
0
LINE
8
DEFAULT_255_2_778
10
7.2802209
20
14.2338926
11
7.2802209
21
14.8876926
0
LINE
8
DEFAULT_255_2_778
10
7.2802209
20
14.8876926
11
7.8345209
21
14.8876926
0
LINE
8
DEFAULT_255_2_778
10
7.8345209
20
14.8876926
11
7.8345209
21
14.8024926
0
LINE
8
DEFAULT_255_2_778
10
7.8345209
20
14.8024926
11
7.3636209
21
14.8024926
0
LINE
8
DEFAULT_255_2_778
10
7.3636209
20
14.8024926
11
7.3636209
21
14.3651926
0
LINE
8
DEFAULT_255_2_778
10
7.3636209
20
14.3651926
11
7.4183209
21
14.4211926
0
LINE
8
DEFAULT_255_2_778
10
7.4183209
20
14.4211926
11
7.5128209
21
14.4656926
0
LINE
8
DEFAULT_255_2_778
10
7.5128209
20
14.4656926
11
7.6440209
21
14.4714926
0
LINE
8
DEFAULT_255_2_778
10
7.6440209
20
14.4714926
11
7.7271209
21
14.4357926
0
LINE
8
DEFAULT_255_2_778
10
7.7271209
20
14.4357926
11
7.7726209
21
14.3897926
0
LINE
8
DEFAULT_255_2_778
10
7.7726209
20
14.3897926
11
7.8001209
21
14.3449926
0
LINE
8
DEFAULT_255_2_778
10
7.8001209
20
14.3449926
11
7.8197209
21
14.2984926
0
LINE
8
DEFAULT_255_2_778
10
7.8197209
20
14.2984926
11
7.8343209
21
14.2463926
0
LINE
8
DEFAULT_255_2_778
10
7.8343209
20
14.2463926
11
7.8438209
21
14.1947926
0
LINE
8
DEFAULT_255_2_778
10
7.8438209
20
14.1947926
11
7.8430209
21
13.9735926
0
LINE
8
DEFAULT_255_2_778
10
7.8430209
20
13.9735926
11
7.8348209
21
13.9356926
0
LINE
8
DEFAULT_255_2_778
10
7.8348209
20
13.9356926
11
7.8187209
21
13.8856926
0
LINE
8
DEFAULT_255_2_778
10
7.8187209
20
13.8856926
11
7.7943209
21
13.8340926
0
LINE
8
DEFAULT_255_2_778
10
7.7943209
20
13.8340926
11
7.7525209
21
13.7758926
0
LINE
8
DEFAULT_255_2_778
10
7.7525209
20
13.7758926
11
7.6898209
21
13.7256926
0
LINE
8
DEFAULT_255_2_778
10
7.6898209
20
13.7256926
11
7.5906209
21
13.6930926
0
LINE
8
DEFAULT_255_2_778
10
7.5906209
20
13.6930926
11
7.4607209
21
13.6988926
0
LINE
8
DEFAULT_255_2_778
10
7.4607209
20
13.6988926
11
7.3765209
21
13.7335926
0
LINE
8
DEFAULT_255_2_778
10
7.3765209
20
13.7335926
11
7.3263209
21
13.7764926
0
LINE
8
DEFAULT_255_2_778
10
7.3263209
20
13.7764926
11
7.2948209
21
13.8224926
0
LINE
8
DEFAULT_255_2_778
10
7.2948209
20
13.8224926
11
7.2842209
21
13.8433926
0
LINE
8
DEFAULT_255_2_778
10
6.6746209
20
14.3711926
11
7.1307209
21
14.3711926
0
LINE
8
DEFAULT_255_2_778
10
7.1307209
20
14.3711926
11
7.1307209
21
14.2859926
0
LINE
8
DEFAULT_255_2_778
10
7.1307209
20
14.2859926
11
6.6746209
21
14.2859926
0
LINE
8
DEFAULT_255_2_778
10
6.6746209
20
14.2859926
11
6.6746209
21
13.7039926
0
LINE
8
DEFAULT_255_2_778
10
6.6746209
20
13.7039926
11
6.5897209
21
13.7039926
0
LINE
8
DEFAULT_255_2_778
10
6.5897209
20
13.7039926
11
6.5897209
21
14.8887926
0
LINE
8
DEFAULT_255_2_778
10
6.5897209
20
14.8887926
11
7.1606209
21
14.8887926
0
LINE
8
DEFAULT_255_2_778
10
7.1606209
20
14.8887926
11
7.1606209
21
14.8019926
0
LINE
8
DEFAULT_255_2_778
10
7.1606209
20
14.8019926
11
6.6746209
21
14.8019926
0
LINE
8
DEFAULT_255_2_778
10
6.6746209
20
14.8019926
11
6.6746209
21
14.3680926
0
LINE
8
DEFAULT_255_2_778
10
6.6746209
20
14.3680926
11
7.1307209
21
14.3680926
0
LINE
8
DEFAULT_255_2_778
10
8.2280209
20
15.8795926
11
8.1515209
21
15.8451926
0
LINE
8
DEFAULT_255_2_778
10
8.1515209
20
15.8451926
11
8.1515209
21
15.8480926
0
LINE
8
DEFAULT_255_2_778
10
8.1515209
20
15.8480926
11
8.2280209
21
15.8824926
0
LINE
8
DEFAULT_255_2_778
10
8.2280209
20
15.8824926
11
8.2280209
21
15.8795926
0
LINE
8
DEFAULT_255_2_778
10
8.2280209
20
15.8795926
11
8.2626209
21
15.8290926
0
LINE
8
DEFAULT_255_2_778
10
8.2626209
20
15.8290926
11
8.3380209
21
15.7845926
0
LINE
8
DEFAULT_255_2_778
10
8.3380209
20
15.7845926
11
8.4671209
21
15.7814926
0
LINE
8
DEFAULT_255_2_778
10
8.4671209
20
15.7814926
11
8.5378209
21
15.8179926
0
LINE
8
DEFAULT_255_2_778
10
8.5378209
20
15.8179926
11
8.5886209
21
15.8795926
0
LINE
8
DEFAULT_255_2_778
10
8.5886209
20
15.8795926
11
8.6113209
21
15.9290926
0
LINE
8
DEFAULT_255_2_778
10
8.6113209
20
15.9290926
11
8.6238209
21
15.9716926
0
LINE
8
DEFAULT_255_2_778
10
8.6238209
20
15.9716926
11
8.6307209
21
16.0084926
0
LINE
8
DEFAULT_255_2_778
10
8.6307209
20
16.0084926
11
8.6291209
21
16.1751926
0
LINE
8
DEFAULT_255_2_778
10
8.6291209
20
16.1751926
11
8.6225209
21
16.2161926
0
LINE
8
DEFAULT_255_2_778
10
8.6225209
20
16.2161926
11
8.6121209
21
16.2560926
0
LINE
8
DEFAULT_255_2_778
10
8.6121209
20
16.2560926
11
8.5889209
21
16.3119926
0
LINE
8
DEFAULT_255_2_778
10
8.5889209
20
16.3119926
11
8.5489209
21
16.3640926
0
LINE
8
DEFAULT_255_2_778
10
8.5489209
20
16.3640926
11
8.4862209
21
16.3910926
0
LINE
8
DEFAULT_255_2_778
10
8.4862209
20
16.3910926
11
8.3782209
21
16.3783926
0
LINE
8
DEFAULT_255_2_778
10
8.3782209
20
16.3783926
11
8.3113209
21
16.3325926
0
LINE
8
DEFAULT_255_2_778
10
8.3113209
20
16.3325926
11
8.2848209
21
16.2867926
0
LINE
8
DEFAULT_255_2_778
10
8.2848209
20
16.2867926
11
8.2809209
21
16.2703926
0
LINE
8
DEFAULT_255_2_778
10
8.2809209
20
16.2703926
11
8.2743209
21
16.2341926
0
LINE
8
DEFAULT_255_2_778
10
8.2743209
20
16.2341926
11
8.1478209
21
16.2341926
0
LINE
8
DEFAULT_255_2_778
10
8.1478209
20
16.2341926
11
8.1478209
21
16.8881926
0
LINE
8
DEFAULT_255_2_778
10
8.1478209
20
16.8881926
11
8.7021209
21
16.8881926
0
LINE
8
DEFAULT_255_2_778
10
8.7021209
20
16.8881926
11
8.7021209
21
16.8029926
0
LINE
8
DEFAULT_255_2_778
10
8.7021209
20
16.8029926
11
8.2311209
21
16.8029926
0
LINE
8
DEFAULT_255_2_778
10
8.2311209
20
16.8029926
11
8.2311209
21
16.3656926
0
LINE
8
DEFAULT_255_2_778
10
8.2311209
20
16.3656926
11
8.2859209
21
16.4217926
0
LINE
8
DEFAULT_255_2_778
10
8.2859209
20
16.4217926
11
8.3804209
21
16.4661926
0
LINE
8
DEFAULT_255_2_778
10
8.3804209
20
16.4661926
11
8.5116209
21
16.4719926
0
LINE
8
DEFAULT_255_2_778
10
8.5116209
20
16.4719926
11
8.5947209
21
16.4362926
0
LINE
8
DEFAULT_255_2_778
10
8.5947209
20
16.4362926
11
8.6402209
21
16.3902926
0
LINE
8
DEFAULT_255_2_778
10
8.6402209
20
16.3902926
11
8.6677209
21
16.3455926
0
LINE
8
DEFAULT_255_2_778
10
8.6677209
20
16.3455926
11
8.6873209
21
16.2989926
0
LINE
8
DEFAULT_255_2_778
10
8.6873209
20
16.2989926
11
8.7018209
21
16.2468926
0
LINE
8
DEFAULT_255_2_778
10
8.7018209
20
16.2468926
11
8.7114209
21
16.1952926
0
LINE
8
DEFAULT_255_2_778
10
8.7114209
20
16.1952926
11
8.7106209
21
15.9740926
0
LINE
8
DEFAULT_255_2_778
10
8.7106209
20
15.9740926
11
8.7024209
21
15.9362926
0
LINE
8
DEFAULT_255_2_778
10
8.7024209
20
15.9362926
11
8.6862209
21
15.8861926
0
LINE
8
DEFAULT_255_2_778
10
8.6862209
20
15.8861926
11
8.6619209
21
15.8346926
0
LINE
8
DEFAULT_255_2_778
10
8.6619209
20
15.8346926
11
8.6201209
21
15.7763926
0
LINE
8
DEFAULT_255_2_778
10
8.6201209
20
15.7763926
11
8.5574209
21
15.7261926
0
LINE
8
DEFAULT_255_2_778
10
8.5574209
20
15.7261926
11
8.4582209
21
15.6935926
0
LINE
8
DEFAULT_255_2_778
10
8.4582209
20
15.6935926
11
8.3282209
21
15.6994926
0
LINE
8
DEFAULT_255_2_778
10
8.3282209
20
15.6994926
11
8.2441209
21
15.7340926
0
LINE
8
DEFAULT_255_2_778
10
8.2441209
20
15.7340926
11
8.1938209
21
15.7769926
0
LINE
8
DEFAULT_255_2_778
10
8.1938209
20
15.7769926
11
8.1623209
21
15.8229926
0
LINE
8
DEFAULT_255_2_778
10
8.1623209
20
15.8229926
11
8.1518209
21
15.8438926
0
LINE
8
DEFAULT_255_2_778
10
7.7649209
20
16.8929926
11
7.6816209
21
16.8929926
0
LINE
8
DEFAULT_255_2_778
10
7.6816209
20
16.8929926
11
7.6816209
21
15.6938926
0
LINE
8
DEFAULT_255_2_778
10
7.6816209
20
15.6938926
11
7.7649209
21
15.6938926
0
LINE
8
DEFAULT_255_2_778
10
7.7649209
20
15.6938926
11
7.7649209
21
16.8929926
0
LINE
8
DEFAULT_255_2_778
10
6.5897209
20
15.7121926
11
6.5897209
21
15.7150926
0
LINE
8
DEFAULT_255_2_778
10
6.5897209
20
15.7150926
11
6.9873209
21
16.8979926
0
LINE
8
DEFAULT_255_2_778
10
6.9873209
20
16.8979926
11
6.9873209
21
16.8950926
0
LINE
8
DEFAULT_255_2_778
10
6.9873209
20
16.8950926
11
6.5897209
21
15.7121926
0
LINE
8
DEFAULT_255_2_778
10
6.5897209
20
15.7121926
11
6.6696209
21
15.6853926
0
LINE
8
DEFAULT_255_2_778
10
6.6696209
20
15.6853926
11
6.7794209
21
16.0097926
0
LINE
8
DEFAULT_255_2_778
10
6.7794209
20
16.0097926
11
7.2937209
21
16.0097926
0
LINE
8
DEFAULT_255_2_778
10
7.2937209
20
16.0097926
11
7.4003209
21
15.6853926
0
LINE
8
DEFAULT_255_2_778
10
7.4003209
20
15.6853926
11
7.4818209
21
15.7121926
0
LINE
8
DEFAULT_255_2_778
10
7.4818209
20
15.7121926
11
7.4818209
21
15.7150926
0
LINE
8
DEFAULT_255_2_778
10
7.4818209
20
15.7150926
11
7.0940209
21
16.8979926
0
LINE
8
DEFAULT_255_2_778
10
7.2654209
20
16.0946926
11
6.8077209
21
16.0946926
0
LINE
8
DEFAULT_255_2_778
10
6.8077209
20
16.0946926
11
7.0408209
21
16.7884926
0
LINE
8
DEFAULT_255_2_778
10
7.0408209
20
16.7884926
11
7.2654209
21
16.0946926
0
LINE
8
DEFAULT_255_2_778
10
6.9873209
20
16.8950926
11
7.0940209
21
16.8950926
0
LINE
8
DEFAULT_255_2_778
10
7.0940209
20
16.8950926
11
7.0940209
21
16.8979926
0
LINE
8
DEFAULT_255_2_778
10
7.0940209
20
16.8979926
11
6.9873209
21
16.8979926
0
LINE
8
DEFAULT_255_2_778
10
7.1305209
20
18.4637926
11
6.6743209
21
18.4637926
0
LINE
8
DEFAULT_255_2_778
10
6.6743209
20
18.4637926
11
6.6743209
21
18.9029926
0
LINE
8
DEFAULT_255_2_778
10
6.6743209
20
18.9029926
11
7.1604209
21
18.9029926
0
LINE
8
DEFAULT_255_2_778
10
7.1604209
20
18.9029926
11
7.1604209
21
18.9908926
0
LINE
8
DEFAULT_255_2_778
10
7.1604209
20
18.9908926
11
6.5894209
21
18.9908926
0
LINE
8
DEFAULT_255_2_778
10
6.5894209
20
18.9908926
11
6.5894209
21
17.7917926
0
LINE
8
DEFAULT_255_2_778
10
6.5894209
20
17.7917926
11
6.6743209
21
17.7917926
0
LINE
8
DEFAULT_255_2_778
10
6.6743209
20
17.7917926
11
6.6743209
21
18.3806926
0
LINE
8
DEFAULT_255_2_778
10
6.6743209
20
18.3806926
11
7.1305209
21
18.3806926
0
LINE
8
DEFAULT_255_2_778
10
7.1305209
20
18.3806926
11
7.1305209
21
18.4666926
0
LINE
8
DEFAULT_255_2_778
10
7.1305209
20
18.4666926
11
6.6743209
21
18.4666926
0
LINE
8
DEFAULT_255_2_778
10
7.3585209
20
17.9692926
11
7.2821209
21
17.9343926
0
LINE
8
DEFAULT_255_2_778
10
7.2821209
20
17.9343926
11
7.2821209
21
17.9314926
0
LINE
8
DEFAULT_255_2_778
10
7.2821209
20
17.9314926
11
7.3585209
21
17.9663926
0
LINE
8
DEFAULT_255_2_778
10
7.3585209
20
17.9663926
11
7.3585209
21
17.9692926
0
LINE
8
DEFAULT_255_2_778
10
7.3585209
20
17.9692926
11
7.3974209
21
17.9113926
0
LINE
8
DEFAULT_255_2_778
10
7.3974209
20
17.9113926
11
7.4816209
21
17.8718926
0
LINE
8
DEFAULT_255_2_778
10
7.4816209
20
17.8718926
11
7.6472209
21
17.8885926
0
LINE
8
DEFAULT_255_2_778
10
7.6472209
20
17.8885926
11
7.7250209
21
17.9528926
0
LINE
8
DEFAULT_255_2_778
10
7.7250209
20
17.9528926
11
7.7522209
21
18.0086926
0
LINE
8
DEFAULT_255_2_778
10
7.7522209
20
18.0086926
11
7.7639209
21
18.0507926
0
LINE
8
DEFAULT_255_2_778
10
7.7639209
20
18.0507926
11
7.7705209
21
18.0891926
0
LINE
8
DEFAULT_255_2_778
10
7.7705209
20
18.0891926
11
7.7734209
21
18.1168926
0
LINE
8
DEFAULT_255_2_778
10
7.7734209
20
18.1168926
11
7.7745209
21
18.1354926
0
LINE
8
DEFAULT_255_2_778
10
7.2821209
20
18.8482926
11
7.3593209
21
18.8114926
0
LINE
8
DEFAULT_255_2_778
10
7.3593209
20
18.8114926
11
7.3985209
21
18.8646926
0
LINE
8
DEFAULT_255_2_778
10
7.3985209
20
18.8646926
11
7.4773209
21
18.9066926
0
LINE
8
DEFAULT_255_2_778
10
7.4773209
20
18.9066926
11
7.6255209
21
18.9048926
0
LINE
8
DEFAULT_255_2_778
10
7.6255209
20
18.9048926
11
7.7004209
21
18.8601926
0
LINE
8
DEFAULT_255_2_778
10
7.7004209
20
18.8601926
11
7.7353209
21
18.8106926
0
LINE
8
DEFAULT_255_2_778
10
7.7353209
20
18.8106926
11
7.7530209
21
18.7648926
0
LINE
8
DEFAULT_255_2_778
10
7.7530209
20
18.7648926
11
7.7594209
21
18.7357926
0
LINE
8
DEFAULT_255_2_778
10
7.7594209
20
18.7357926
11
7.7586209
21
18.6042926
0
LINE
8
DEFAULT_255_2_778
10
7.7586209
20
18.6042926
11
7.7403209
21
18.5616926
0
LINE
8
DEFAULT_255_2_778
10
7.7403209
20
18.5616926
11
7.6848209
21
18.5055926
0
LINE
8
DEFAULT_255_2_778
10
7.6848209
20
18.5055926
11
7.5938209
21
18.4661926
0
LINE
8
DEFAULT_255_2_778
10
7.5938209
20
18.4661926
11
7.5363209
21
18.4486926
0
LINE
8
DEFAULT_255_2_778
10
7.5363209
20
18.4486926
11
7.5414209
21
18.3656926
0
LINE
8
DEFAULT_255_2_778
10
7.5414209
20
18.3656926
11
7.6864209
21
18.3153926
0
LINE
8
DEFAULT_255_2_778
10
7.6864209
20
18.3153926
11
7.7462209
21
18.2573926
0
LINE
8
DEFAULT_255_2_778
10
7.7462209
20
18.2573926
11
7.7644209
21
18.2211926
0
LINE
8
DEFAULT_255_2_778
10
7.7644209
20
18.2211926
11
7.7718209
21
18.1909926
0
LINE
8
DEFAULT_255_2_778
10
7.7718209
20
18.1909926
11
7.7692209
21
18.0811926
0
LINE
8
DEFAULT_255_2_778
10
7.7692209
20
18.0811926
11
7.7594209
21
18.0314926
0
LINE
8
DEFAULT_255_2_778
10
7.7594209
20
18.0314926
11
7.7451209
21
17.9883926
0
LINE
8
DEFAULT_255_2_778
10
7.7451209
20
17.9883926
11
7.7107209
21
17.9319926
0
LINE
8
DEFAULT_255_2_778
10
7.7107209
20
17.9319926
11
7.6467209
21
17.8853926
0
LINE
8
DEFAULT_255_2_778
10
7.6467209
20
17.8853926
11
7.4945209
21
17.8666926
0
LINE
8
DEFAULT_255_2_778
10
7.4945209
20
17.8666926
11
7.4027209
21
17.9025926
0
LINE
8
DEFAULT_255_2_778
10
7.4027209
20
17.9025926
11
7.3675209
21
17.9467926
0
LINE
8
DEFAULT_255_2_778
10
7.3675209
20
17.9467926
11
7.3580209
21
17.9660926
0
LINE
8
DEFAULT_255_2_778
10
7.8491209
20
18.6629926
11
7.8478209
21
18.7013926
0
LINE
8
DEFAULT_255_2_778
10
7.8478209
20
18.7013926
11
7.8462209
21
18.7196926
0
LINE
8
DEFAULT_255_2_778
10
7.8462209
20
18.7196926
11
7.8411209
21
18.7542926
0
LINE
8
DEFAULT_255_2_778
10
7.8411209
20
18.7542926
11
7.8327209
21
18.7915926
0
LINE
8
DEFAULT_255_2_778
10
7.8327209
20
18.7915926
11
7.8115209
21
18.8484926
0
LINE
8
DEFAULT_255_2_778
10
7.8115209
20
18.8484926
11
7.7705209
21
18.9101926
0
LINE
8
DEFAULT_255_2_778
10
7.7705209
20
18.9101926
11
7.7025209
21
18.9635926
0
LINE
8
DEFAULT_255_2_778
10
7.7025209
20
18.9635926
11
7.5874209
21
18.9961926
0
LINE
8
DEFAULT_255_2_778
10
7.5874209
20
18.9961926
11
7.4390209
21
18.9831926
0
LINE
8
DEFAULT_255_2_778
10
7.4390209
20
18.9831926
11
7.3432209
21
18.9304926
0
LINE
8
DEFAULT_255_2_778
10
7.3432209
20
18.9304926
11
7.2985209
21
18.8796926
0
LINE
8
DEFAULT_255_2_778
10
7.2985209
20
18.8796926
11
7.2813209
21
18.8482926
0
LINE
8
DEFAULT_255_2_778
10
7.2813209
20
18.8482926
11
7.2813209
21
18.8511926
0
LINE
8
DEFAULT_255_2_778
10
7.2813209
20
18.8511926
11
7.3210209
21
18.9117926
0
LINE
8
DEFAULT_255_2_778
10
7.3210209
20
18.9117926
11
7.4091209
21
18.9749926
0
LINE
8
DEFAULT_255_2_778
10
7.4091209
20
18.9749926
11
7.5583209
21
19.0006926
0
LINE
8
DEFAULT_255_2_778
10
7.5583209
20
19.0006926
11
7.6948209
21
18.9701926
0
LINE
8
DEFAULT_255_2_778
10
7.6948209
20
18.9701926
11
7.7768209
21
18.9050926
0
LINE
8
DEFAULT_255_2_778
10
7.7768209
20
18.9050926
11
7.8149209
21
18.8434926
0
LINE
8
DEFAULT_255_2_778
10
7.8149209
20
18.8434926
11
7.8321209
21
18.7955926
0
LINE
8
DEFAULT_255_2_778
10
7.8321209
20
18.7955926
11
7.8403209
21
18.7603926
0
LINE
8
DEFAULT_255_2_778
10
7.8403209
20
18.7603926
11
7.8448209
21
18.7325926
0
LINE
8
DEFAULT_255_2_778
10
7.2815209
20
17.9314926
11
7.3247209
21
17.8602926
0
LINE
8
DEFAULT_255_2_778
10
7.3247209
20
17.8602926
11
7.3871209
21
17.8115926
0
LINE
8
DEFAULT_255_2_778
10
7.3871209
20
17.8115926
11
7.4837209
21
17.7827926
0
LINE
8
DEFAULT_255_2_778
10
7.4837209
20
17.7827926
11
7.6427209
21
17.7941926
0
LINE
8
DEFAULT_255_2_778
10
7.6427209
20
17.7941926
11
7.7361209
21
17.8398926
0
LINE
8
DEFAULT_255_2_778
10
7.7361209
20
17.8398926
11
7.7890209
21
17.8938926
0
LINE
8
DEFAULT_255_2_778
10
7.7890209
20
17.8938926
11
7.8261209
21
17.9602926
0
LINE
8
DEFAULT_255_2_778
10
7.8261209
20
17.9602926
11
7.8430209
21
18.0123926
0
LINE
8
DEFAULT_255_2_778
10
7.8430209
20
18.0123926
11
7.8512209
21
18.0515926
0
LINE
8
DEFAULT_255_2_778
10
7.8512209
20
18.0515926
11
7.8562209
21
18.0896926
0
LINE
8
DEFAULT_255_2_778
10
7.8562209
20
18.0896926
11
7.8549209
21
18.2084926
0
LINE
8
DEFAULT_255_2_778
10
7.8549209
20
18.2084926
11
7.8496209
21
18.2335926
0
LINE
8
DEFAULT_255_2_778
10
7.8496209
20
18.2335926
11
7.8366209
21
18.2703926
0
LINE
8
DEFAULT_255_2_778
10
7.8366209
20
18.2703926
11
7.8107209
21
18.3142926
0
LINE
8
DEFAULT_255_2_778
10
7.8107209
20
18.3142926
11
7.7454209
21
18.3727926
0
LINE
8
DEFAULT_255_2_778
10
7.7454209
20
18.3727926
11
7.6792209
21
18.4111926
0
LINE
8
DEFAULT_255_2_778
10
7.6792209
20
18.4111926
11
7.7734209
21
18.4717926
0
LINE
8
DEFAULT_255_2_778
10
7.7734209
20
18.4717926
11
7.8165209
21
18.5240926
0
LINE
8
DEFAULT_255_2_778
10
7.8165209
20
18.5240926
11
7.8364209
21
18.5677926
0
LINE
8
DEFAULT_255_2_778
10
7.8364209
20
18.5677926
11
7.8427209
21
18.5918926
0
LINE
8
DEFAULT_255_2_778
10
7.8427209
20
18.5918926
11
7.8467209
21
18.6169926
0
LINE
8
DEFAULT_255_2_778
10
7.8467209
20
18.6169926
11
7.8488209
21
18.6685926
0
LINE
8
DEFAULT_255_2_778
10
7.7649209
20
20.9370926
11
7.6816209
21
20.9370926
0
LINE
8
DEFAULT_255_2_778
10
7.6816209
20
20.9370926
11
7.6816209
21
19.7377926
0
LINE
8
DEFAULT_255_2_778
10
7.6816209
20
19.7377926
11
7.7649209
21
19.7377926
0
LINE
8
DEFAULT_255_2_778
10
7.7649209
20
19.7377926
11
7.7649209
21
20.9370926
0
LINE
8
DEFAULT_255_2_778
10
8.1425209
20
19.9187926
11
8.0660209
21
19.8837926
0
LINE
8
DEFAULT_255_2_778
10
8.0660209
20
19.8837926
11
8.0660209
21
19.8808926
0
LINE
8
DEFAULT_255_2_778
10
8.0660209
20
19.8808926
11
8.1425209
21
19.9158926
0
LINE
8
DEFAULT_255_2_778
10
8.1425209
20
19.9158926
11
8.1425209
21
19.9187926
0
LINE
8
DEFAULT_255_2_778
10
8.1425209
20
19.9187926
11
8.1814209
21
19.8607926
0
LINE
8
DEFAULT_255_2_778
10
8.1814209
20
19.8607926
11
8.2655209
21
19.8213926
0
LINE
8
DEFAULT_255_2_778
10
8.2655209
20
19.8213926
11
8.4312209
21
19.8380926
0
LINE
8
DEFAULT_255_2_778
10
8.4312209
20
19.8380926
11
8.5090209
21
19.9025926
0
LINE
8
DEFAULT_255_2_778
10
8.5090209
20
19.9025926
11
8.5362209
21
19.9583926
0
LINE
8
DEFAULT_255_2_778
10
8.5362209
20
19.9583926
11
8.5478209
21
20.0004926
0
LINE
8
DEFAULT_255_2_778
10
8.5478209
20
20.0004926
11
8.5545209
21
20.0388926
0
LINE
8
DEFAULT_255_2_778
10
8.5545209
20
20.0388926
11
8.5574209
21
20.0666926
0
LINE
8
DEFAULT_255_2_778
10
8.5574209
20
20.0666926
11
8.5584209
21
20.0851926
0
LINE
8
DEFAULT_255_2_778
10
8.0660209
20
20.7979926
11
8.1433209
21
20.7611926
0
LINE
8
DEFAULT_255_2_778
10
8.1433209
20
20.7611926
11
8.1825209
21
20.8143926
0
LINE
8
DEFAULT_255_2_778
10
8.1825209
20
20.8143926
11
8.2613209
21
20.8563926
0
LINE
8
DEFAULT_255_2_778
10
8.2613209
20
20.8563926
11
8.4095209
21
20.8545926
0
LINE
8
DEFAULT_255_2_778
10
8.4095209
20
20.8545926
11
8.4843209
21
20.8098926
0
LINE
8
DEFAULT_255_2_778
10
8.4843209
20
20.8098926
11
8.5193209
21
20.7603926
0
LINE
8
DEFAULT_255_2_778
10
8.5193209
20
20.7603926
11
8.5370209
21
20.7145926
0
LINE
8
DEFAULT_255_2_778
10
8.5370209
20
20.7145926
11
8.5433209
21
20.6854926
0
LINE
8
DEFAULT_255_2_778
10
8.5433209
20
20.6854926
11
8.5426209
21
20.5539926
0
LINE
8
DEFAULT_255_2_778
10
8.5426209
20
20.5539926
11
8.5243209
21
20.5113926
0
LINE
8
DEFAULT_255_2_778
10
8.5243209
20
20.5113926
11
8.4687209
21
20.4552926
0
LINE
8
DEFAULT_255_2_778
10
8.4687209
20
20.4552926
11
8.3777209
21
20.4158926
0
LINE
8
DEFAULT_255_2_778
10
8.3777209
20
20.4158926
11
8.3203209
21
20.3984926
0
LINE
8
DEFAULT_255_2_778
10
8.3203209
20
20.3984926
11
8.3253209
21
20.3153926
0
LINE
8
DEFAULT_255_2_778
10
8.3253209
20
20.3153926
11
8.4703209
21
20.2650926
0
LINE
8
DEFAULT_255_2_778
10
8.4703209
20
20.2650926
11
8.5301209
21
20.2071926
0
LINE
8
DEFAULT_255_2_778
10
8.5301209
20
20.2071926
11
8.5484209
21
20.1705926
0
LINE
8
DEFAULT_255_2_778
10
8.5484209
20
20.1705926
11
8.5558209
21
20.1404926
0
LINE
8
DEFAULT_255_2_778
10
8.5558209
20
20.1404926
11
8.5531209
21
20.0306926
0
LINE
8
DEFAULT_255_2_778
10
8.5531209
20
20.0306926
11
8.5433209
21
19.9808926
0
LINE
8
DEFAULT_255_2_778
10
8.5433209
20
19.9808926
11
8.5291209
21
19.9377926
0
LINE
8
DEFAULT_255_2_778
10
8.5291209
20
19.9377926
11
8.4947209
21
19.8814926
0
LINE
8
DEFAULT_255_2_778
10
8.4947209
20
19.8814926
11
8.4306209
21
19.8348926
0
LINE
8
DEFAULT_255_2_778
10
8.4306209
20
19.8348926
11
8.2785209
21
19.8160926
0
LINE
8
DEFAULT_255_2_778
10
8.2785209
20
19.8160926
11
8.1867209
21
19.8520926
0
LINE
8
DEFAULT_255_2_778
10
8.1867209
20
19.8520926
11
8.1515209
21
19.8962926
0
LINE
8
DEFAULT_255_2_778
10
8.1515209
20
19.8962926
11
8.1420209
21
19.9155926
0
LINE
8
DEFAULT_255_2_778
10
8.0655209
20
19.8806926
11
8.1086209
21
19.8094926
0
LINE
8
DEFAULT_255_2_778
10
8.1086209
20
19.8094926
11
8.1711209
21
19.7607926
0
LINE
8
DEFAULT_255_2_778
10
8.1711209
20
19.7607926
11
8.2677209
21
19.7319926
0
LINE
8
DEFAULT_255_2_778
10
8.2677209
20
19.7319926
11
8.4267209
21
19.7432926
0
LINE
8
DEFAULT_255_2_778
10
8.4267209
20
19.7432926
11
8.5201209
21
19.7890926
0
LINE
8
DEFAULT_255_2_778
10
8.5201209
20
19.7890926
11
8.5730209
21
19.8430926
0
LINE
8
DEFAULT_255_2_778
10
8.5730209
20
19.8430926
11
8.6100209
21
19.9094926
0
LINE
8
DEFAULT_255_2_778
10
8.6100209
20
19.9094926
11
8.6270209
21
19.9615926
0
LINE
8
DEFAULT_255_2_778
10
8.6270209
20
19.9615926
11
8.6352209
21
20.0007926
0
LINE
8
DEFAULT_255_2_778
10
8.6352209
20
20.0007926
11
8.6402209
21
20.0388926
0
LINE
8
DEFAULT_255_2_778
10
8.6402209
20
20.0388926
11
8.6389209
21
20.1576926
0
LINE
8
DEFAULT_255_2_778
10
8.6389209
20
20.1576926
11
8.6336209
21
20.1827926
0
LINE
8
DEFAULT_255_2_778
10
8.6336209
20
20.1827926
11
8.6206209
21
20.2195926
0
LINE
8
DEFAULT_255_2_778
10
8.6206209
20
20.2195926
11
8.5947209
21
20.2634926
0
LINE
8
DEFAULT_255_2_778
10
8.5947209
20
20.2634926
11
8.5293209
21
20.3219926
0
LINE
8
DEFAULT_255_2_778
10
8.5293209
20
20.3219926
11
8.4632209
21
20.3603926
0
LINE
8
DEFAULT_255_2_778
10
8.4632209
20
20.3603926
11
8.5574209
21
20.4208926
0
LINE
8
DEFAULT_255_2_778
10
8.5574209
20
20.4208926
11
8.6005209
21
20.4732926
0
LINE
8
DEFAULT_255_2_778
10
8.6005209
20
20.4732926
11
8.6203209
21
20.5169926
0
LINE
8
DEFAULT_255_2_778
10
8.6203209
20
20.5169926
11
8.6267209
21
20.5410926
0
LINE
8
DEFAULT_255_2_778
10
8.6267209
20
20.5410926
11
8.6307209
21
20.5661926
0
LINE
8
DEFAULT_255_2_778
10
8.6307209
20
20.5661926
11
8.6296209
21
20.6698926
0
LINE
8
DEFAULT_255_2_778
10
8.6296209
20
20.6698926
11
8.6246209
21
20.7045926
0
LINE
8
DEFAULT_255_2_778
10
8.6246209
20
20.7045926
11
8.6161209
21
20.7418926
0
LINE
8
DEFAULT_255_2_778
10
8.6161209
20
20.7418926
11
8.5949209
21
20.7987926
0
LINE
8
DEFAULT_255_2_778
10
8.5949209
20
20.7987926
11
8.5539209
21
20.8603926
0
LINE
8
DEFAULT_255_2_778
10
8.5539209
20
20.8603926
11
8.4859209
21
20.9138926
0
LINE
8
DEFAULT_255_2_778
10
8.4859209
20
20.9138926
11
8.3708209
21
20.9463926
0
LINE
8
DEFAULT_255_2_778
10
8.3708209
20
20.9463926
11
8.2224209
21
20.9333926
0
LINE
8
DEFAULT_255_2_778
10
8.2224209
20
20.9333926
11
8.1266209
21
20.8807926
0
LINE
8
DEFAULT_255_2_778
10
8.1266209
20
20.8807926
11
8.0819209
21
20.8299926
0
LINE
8
DEFAULT_255_2_778
10
8.0819209
20
20.8299926
11
8.0647209
21
20.7984926
0
LINE
8
DEFAULT_255_2_778
10
8.0647209
20
20.7984926
11
8.0647209
21
20.8013926
0
LINE
8
DEFAULT_255_2_778
10
8.0647209
20
20.8013926
11
8.1044209
21
20.8619926
0
LINE
8
DEFAULT_255_2_778
10
8.1044209
20
20.8619926
11
8.1925209
21
20.9251926
0
LINE
8
DEFAULT_255_2_778
10
8.1925209
20
20.9251926
11
8.3412209
21
20.9508926
0
LINE
8
DEFAULT_255_2_778
10
8.3412209
20
20.9508926
11
8.4777209
21
20.9206926
0
LINE
8
DEFAULT_255_2_778
10
8.4777209
20
20.9206926
11
8.5600209
21
20.8553926
0
LINE
8
DEFAULT_255_2_778
10
8.5600209
20
20.8553926
11
8.5981209
21
20.7936926
0
LINE
8
DEFAULT_255_2_778
10
8.5981209
20
20.7936926
11
8.6156209
21
20.7452926
0
LINE
8
DEFAULT_255_2_778
10
8.6156209
20
20.7452926
11
8.6235209
21
20.7106926
0
LINE
8
DEFAULT_255_2_778
10
8.6235209
20
20.7106926
11
8.6288209
21
20.6740926
0
LINE
8
DEFAULT_255_2_778
10
8.6288209
20
20.6740926
11
8.6304209
21
20.6553926
0
LINE
8
DEFAULT_255_2_778
10
7.2654209
20
20.1388926
11
6.8077209
21
20.1388926
0
LINE
8
DEFAULT_255_2_778
10
6.8077209
20
20.1388926
11
7.0408209
21
20.8328926
0
LINE
8
DEFAULT_255_2_778
10
7.0408209
20
20.8328926
11
7.2654209
21
20.1388926
0
LINE
8
DEFAULT_255_2_778
10
6.9876209
20
20.9392926
11
7.0942209
21
20.9392926
0
LINE
8
DEFAULT_255_2_778
10
7.0942209
20
20.9392926
11
7.0942209
21
20.9421926
0
LINE
8
DEFAULT_255_2_778
10
7.0942209
20
20.9421926
11
6.9876209
21
20.9421926
0
LINE
8
DEFAULT_255_2_778
10
6.5899209
20
19.7562926
11
6.5899209
21
19.7591926
0
LINE
8
DEFAULT_255_2_778
10
6.5899209
20
19.7591926
11
6.9876209
21
20.9423926
0
LINE
8
DEFAULT_255_2_778
10
6.9876209
20
20.9423926
11
6.9876209
21
20.9394926
0
LINE
8
DEFAULT_255_2_778
10
6.9876209
20
20.9394926
11
6.5899209
21
19.7562926
0
LINE
8
DEFAULT_255_2_778
10
6.5899209
20
19.7562926
11
6.6698209
21
19.7295926
0
LINE
8
DEFAULT_255_2_778
10
6.6698209
20
19.7295926
11
6.7796209
21
20.0539926
0
LINE
8
DEFAULT_255_2_778
10
6.7796209
20
20.0539926
11
7.2940209
21
20.0539926
0
LINE
8
DEFAULT_255_2_778
10
7.2940209
20
20.0539926
11
7.4006209
21
19.7295926
0
LINE
8
DEFAULT_255_2_778
10
7.4006209
20
19.7295926
11
7.4821209
21
19.7562926
0
LINE
8
DEFAULT_255_2_778
10
7.4821209
20
19.7562926
11
7.4821209
21
19.7591926
0
LINE
8
DEFAULT_255_2_778
10
7.4821209
20
19.7591926
11
7.0942209
21
20.9423926
0
LINE
8
DEFAULT_255_2_778
10
7.618474
20
22.8836844
11
7.723274
21
22.8836844
0
LINE
8
DEFAULT_255_2_778
10
7.723274
20
22.8836844
11
7.723274
21
21.6858844
0
LINE
8
DEFAULT_255_2_778
10
7.723274
20
21.6858844
11
7.639874
21
21.6858844
0
LINE
8
DEFAULT_255_2_778
10
7.639874
20
21.6858844
11
7.639874
21
22.7775844
0
LINE
8
DEFAULT_255_2_778
10
7.639874
20
22.7775844
11
7.421874
21
22.5844844
0
LINE
8
DEFAULT_255_2_778
10
7.421874
20
22.5844844
11
7.416574
21
22.6730844
0
LINE
8
DEFAULT_255_2_778
10
7.416574
20
22.6730844
11
7.618174
21
22.8807844
0
LINE
8
DEFAULT_255_2_778
10
7.618174
20
22.8807844
11
7.618174
21
22.8836844
0
LINE
8
DEFAULT_255_2_778
10
7.618174
20
22.8836844
11
7.416574
21
22.6759844
0
LINE
8
DEFAULT_255_2_778
10
7.416574
20
22.6759844
11
7.416574
21
22.6730844
0
LINE
8
DEFAULT_255_2_778
10
7.1305146
20
22.3632781
11
6.6743146
21
22.3632781
0
LINE
8
DEFAULT_255_2_778
10
6.6743146
20
22.3632781
11
6.6743146
21
22.8024781
0
LINE
8
DEFAULT_255_2_778
10
6.6743146
20
22.8024781
11
7.1604146
21
22.8024781
0
LINE
8
DEFAULT_255_2_778
10
7.1604146
20
22.8024781
11
7.1604146
21
22.8902781
0
LINE
8
DEFAULT_255_2_778
10
7.1604146
20
22.8902781
11
6.5894146
21
22.8902781
0
LINE
8
DEFAULT_255_2_778
10
6.5894146
20
22.8902781
11
6.5894146
21
21.6908781
0
LINE
8
DEFAULT_255_2_778
10
6.5894146
20
21.6908781
11
6.6743146
21
21.6908781
0
LINE
8
DEFAULT_255_2_778
10
6.6743146
20
21.6908781
11
6.6743146
21
22.2801781
0
LINE
8
DEFAULT_255_2_778
10
6.6743146
20
22.2801781
11
7.1305146
21
22.2801781
0
LINE
8
DEFAULT_255_2_778
10
7.1305146
20
22.2801781
11
7.1305146
21
22.3661781
0
LINE
8
DEFAULT_255_2_778
10
7.1305146
20
22.3661781
11
6.6743146
21
22.3661781
0
LINE
8
DEFAULT_255_2_778
10
8.402174
20
24.8336844
11
8.506974
21
24.8336844
0
LINE
8
DEFAULT_255_2_778
10
8.506974
20
24.8336844
11
8.506974
21
23.6358844
0
LINE
8
DEFAULT_255_2_778
10
8.506974
20
23.6358844
11
8.423574
21
23.6358844
0
LINE
8
DEFAULT_255_2_778
10
8.423574
20
23.6358844
11
8.423574
21
24.7275844
0
LINE
8
DEFAULT_255_2_778
10
8.423574
20
24.7275844
11
8.205574
21
24.5344844
0
LINE
8
DEFAULT_255_2_778
10
8.205574
20
24.5344844
11
8.200274
21
24.6230844
0
LINE
8
DEFAULT_255_2_778
10
8.200274
20
24.6230844
11
8.401874
21
24.8307844
0
LINE
8
DEFAULT_255_2_778
10
8.401874
20
24.8307844
11
8.401874
21
24.8336844
0
LINE
8
DEFAULT_255_2_778
10
8.401874
20
24.8336844
11
8.200274
21
24.6259844
0
LINE
8
DEFAULT_255_2_778
10
8.200274
20
24.6259844
11
8.200274
21
24.6230844
0
ARC
8
DEFAULT_255_2_778
10
16.4778467
20
21.412174
40
13.967131
50
249.9578352
51
250.2993727
0
ARC
8
DEFAULT_255_2_778
10
9.6082199
20
2.3000477
40
6.3426101
50
70.077571
51
70.8281555
0
ARC
8
DEFAULT_255_2_778
10
11.4505544
20
8.370704
40
0.3375036
50
327.7050197
51
340.8849757
0
ARC
8
DEFAULT_255_2_778
10
11.5286067
20
8.3216303
40
0.2453064
50
309.623692
51
327.6537968
0
ARC
8
DEFAULT_255_2_778
10
11.7046432
20
8.4612577
40
0.6076928
50
188.0571449
51
195.3215934
0
ARC
8
DEFAULT_255_2_778
10
12.2240112
20
8.5224865
40
1.1305814
50
179.6656929
51
187.4403466
0
ARC
8
DEFAULT_255_2_778
10
11.5186446
20
8.9270147
40
0.4197994
50
160.9862843
51
171.4147007
0
ARC
8
DEFAULT_255_2_778
10
11.4053695
20
8.9698122
40
0.3013108
50
102.9298035
51
117.4979728
0
ARC
8
DEFAULT_255_2_778
10
11.5141135
20
9.0195954
40
0.2599479
50
9.4293635
51
26.4013976
0
ARC
8
DEFAULT_255_2_778
10
11.4718484
20
9.0111525
40
0.3035302
50
10.234534
51
17.5509365
0
ARC
8
DEFAULT_255_2_778
10
9.0808441
20
19.9021398
40
11.1662677
50
283.506288
51
283.9367633
0
ARC
8
DEFAULT_255_2_778
10
11.4448569
20
8.9977841
40
0.2483604
50
10.8847604
51
18.1580707
0
ARC
8
DEFAULT_255_2_778
10
11.4646619
20
8.7672911
40
0.4291283
50
83.7675489
51
89.2925688
0
ARC
8
DEFAULT_255_2_778
10
11.4646473
20
8.7661181
40
0.4303015
50
89.2925549
51
89.9999875
0
ARC
8
DEFAULT_255_2_778
10
11.4647007
20
8.7650076
40
0.4314121
50
90.0070718
51
100.2884064
0
ARC
8
DEFAULT_255_2_778
10
11.5542892
20
8.9229604
40
0.3715245
50
160.7443483
51
170.2335289
0
ARC
8
DEFAULT_255_2_778
10
11.8116137
20
8.8794754
40
0.6324967
50
170.3056312
51
175.8831256
0
ARC
8
DEFAULT_255_2_778
10
11.5059612
20
8.3981079
40
0.314799
50
196.7691802
51
208.131104
0
ARC
8
DEFAULT_255_2_778
10
11.4809161
20
8.3564768
40
0.219991
50
326.164367
51
342.4341403
0
ARC
8
DEFAULT_255_2_778
10
11.4881491
20
8.3792343
40
0.2283417
50
289.8672379
51
305.3464435
0
ARC
8
DEFAULT_255_2_778
10
11.7424941
20
8.4739231
40
0.5626375
50
191.029433
51
197.313413
0
ARC
8
DEFAULT_255_2_778
10
17.3213467
20
21.415374
40
13.967131
50
249.9578352
51
250.2993727
0
ARC
8
DEFAULT_255_2_778
10
9.9251441
20
19.9050398
40
11.1662677
50
283.506288
51
283.9367633
0
ARC
8
DEFAULT_255_2_778
10
12.2929934
20
8.9993966
40
0.2448442
50
11.3501746
51
18.7460355
0
ARC
8
DEFAULT_255_2_778
10
12.3087313
20
8.7642
40
0.4351445
50
83.9029756
51
88.9319245
0
ARC
8
DEFAULT_255_2_778
10
12.308761
20
8.7650598
40
0.4342843
50
88.9337257
51
89.9999367
0
ARC
8
DEFAULT_255_2_778
10
12.3087049
20
8.7671568
40
0.4321873
50
89.9924942
51
100.2972709
0
ARC
8
DEFAULT_255_2_778
10
12.4120284
20
8.923196
40
0.3856627
50
161.0585043
51
170.238649
0
ARC
8
DEFAULT_255_2_778
10
12.6189202
20
8.8864961
40
0.5957825
50
170.1337156
51
176.0552113
0
ARC
8
DEFAULT_255_2_778
10
12.3640987
20
8.4065882
40
0.3304843
50
196.9965281
51
207.8336453
0
ARC
8
DEFAULT_255_2_778
10
12.3311168
20
8.3564608
40
0.2129148
50
325.8644658
51
342.6542982
0
ARC
8
DEFAULT_255_2_778
10
12.3321491
20
8.3821343
40
0.2283417
50
289.8672379
51
305.3464435
0
ARC
8
DEFAULT_255_2_778
10
12.5242109
20
8.4610704
40
0.4984053
50
190.6239776
51
197.7187847
0
ARC
8
DEFAULT_255_2_778
10
12.3878636
20
8.9256587
40
0.4460323
50
161.3514301
51
171.2275787
0
ARC
8
DEFAULT_255_2_778
10
12.2479415
20
8.9879925
40
0.2895994
50
118.7947763
51
133.9229807
0
ARC
8
DEFAULT_255_2_778
10
12.3360083
20
9.0195386
40
0.2828083
50
9.9661232
51
17.819426
0
ARC
8
DEFAULT_255_2_778
10
12.3534417
20
9.0219707
40
0.2647246
50
9.482499
51
26.1602065
0
ARC
8
DEFAULT_255_2_778
10
12.2543929
20
8.9601816
40
0.3148776
50
103.2450993
51
117.182399
0
ARC
8
DEFAULT_255_2_778
10
12.3630069
20
8.930268
40
0.4198085
50
161.0088382
51
171.4636495
0
ARC
8
DEFAULT_255_2_778
10
12.6869656
20
8.8764656
40
0.7481821
50
171.0716301
51
176.9416638
0
ARC
8
DEFAULT_255_2_778
10
13.0938367
20
8.5276723
40
1.1560964
50
179.7764469
51
179.9999996
0
ARC
8
DEFAULT_255_2_778
10
13.104927
20
8.5279665
40
1.1671868
50
180.0144406
51
187.3185729
0
ARC
8
DEFAULT_255_2_778
10
12.5192096
20
8.4605193
40
0.5777008
50
188.0837188
51
195.7319526
0
ARC
8
DEFAULT_255_2_778
10
12.374102
20
8.324013
40
0.2433384
50
309.5503291
51
327.7274796
0
ARC
8
DEFAULT_255_2_778
10
12.2900644
20
8.3765655
40
0.3424544
50
327.8006727
51
340.7892625
0
ARC
8
DEFAULT_255_2_778
10
20.2585122
20
29.4666834
40
22.5362544
50
249.9580309
51
250.1697895
0
LINE
8
DEFAULT_255_2_778
10
7.7650491
20
24.8368831
11
7.6816491
21
24.8368831
0
LINE
8
DEFAULT_255_2_778
10
7.6816491
20
24.8368831
11
7.6816491
21
23.6375831
0
LINE
8
DEFAULT_255_2_778
10
7.6816491
20
23.6375831
11
7.7650491
21
23.6375831
0
LINE
8
DEFAULT_255_2_778
10
7.7650491
20
23.6375831
11
7.7650491
21
24.8368831
0
LINE
8
DEFAULT_255_2_778
10
6.5897491
20
23.6557831
11
6.5897491
21
23.6586831
0
LINE
8
DEFAULT_255_2_778
10
6.5897491
20
23.6586831
11
6.9873491
21
24.8418831
0
LINE
8
DEFAULT_255_2_778
10
6.9873491
20
24.8418831
11
6.9873491
21
24.8389831
0
LINE
8
DEFAULT_255_2_778
10
6.9873491
20
24.8389831
11
6.5897491
21
23.6557831
0
LINE
8
DEFAULT_255_2_778
10
6.5897491
20
23.6557831
11
6.6696491
21
23.6290831
0
LINE
8
DEFAULT_255_2_778
10
6.6696491
20
23.6290831
11
6.7794491
21
23.9536831
0
LINE
8
DEFAULT_255_2_778
10
6.7794491
20
23.9536831
11
7.2937491
21
23.9536831
0
LINE
8
DEFAULT_255_2_778
10
7.2937491
20
23.9536831
11
7.4004491
21
23.6290831
0
LINE
8
DEFAULT_255_2_778
10
7.4004491
20
23.6290831
11
7.4818491
21
23.6557831
0
LINE
8
DEFAULT_255_2_778
10
7.4818491
20
23.6557831
11
7.4818491
21
23.6586831
0
LINE
8
DEFAULT_255_2_778
10
7.4818491
20
23.6586831
11
7.0940491
21
24.8418831
0
LINE
8
DEFAULT_255_2_778
10
7.2654491
20
24.0386831
11
6.8077491
21
24.0386831
0
LINE
8
DEFAULT_255_2_778
10
6.8077491
20
24.0386831
11
7.0408491
21
24.7326831
0
LINE
8
DEFAULT_255_2_778
10
7.0408491
20
24.7326831
11
7.2654491
21
24.0386831
0
LINE
8
DEFAULT_255_2_778
10
6.9876491
20
24.8392831
11
7.0942491
21
24.8392831
0
LINE
8
DEFAULT_255_2_778
10
7.0942491
20
24.8392831
11
7.0942491
21
24.8421831
0
LINE
8
DEFAULT_255_2_778
10
7.0942491
20
24.8421831
11
6.9876491
21
24.8421831
0
LINE
8
DEFAULT_255_2_778
10
4.5884491
20
9.2185831
11
4.6699491
21
9.1968831
0
LINE
8
DEFAULT_255_2_778
10
4.6699491
20
9.1968831
11
4.3637491
21
8.0117831
0
LINE
8
DEFAULT_255_2_778
10
4.3637491
20
8.0117831
11
4.2489491
21
8.0117831
0
LINE
8
DEFAULT_255_2_778
10
4.2489491
20
8.0117831
11
4.1320491
21
8.4787831
0
LINE
8
DEFAULT_255_2_778
10
4.1320491
20
8.4787831
11
3.9809491
21
9.0952831
0
LINE
8
DEFAULT_255_2_778
10
3.9809491
20
9.0952831
11
3.7097491
21
8.0117831
0
LINE
8
DEFAULT_255_2_778
10
3.7097491
20
8.0117831
11
3.5964491
21
8.0117831
0
LINE
8
DEFAULT_255_2_778
10
3.5964491
20
8.0117831
11
3.2985491
21
9.1968831
0
LINE
8
DEFAULT_255_2_778
10
3.2985491
20
9.1968831
11
3.3800491
21
9.2166831
0
LINE
8
DEFAULT_255_2_778
10
3.3800491
20
9.2166831
11
3.6531491
21
8.1315831
0
LINE
8
DEFAULT_255_2_778
10
3.6531491
20
8.1315831
11
3.9227491
21
9.2118831
0
LINE
8
DEFAULT_255_2_778
10
3.9227491
20
9.2118831
11
4.0375491
21
9.2118831
0
LINE
8
DEFAULT_255_2_778
10
4.0375491
20
9.2118831
11
4.1544491
21
8.7446831
0
LINE
8
DEFAULT_255_2_778
10
4.1544491
20
8.7446831
11
4.3071491
21
8.1284831
0
LINE
8
DEFAULT_255_2_778
10
4.3071491
20
8.1284831
11
4.5884491
21
9.2185831
0
LINE
8
DEFAULT_255_2_778
10
2.5606491
20
9.1968831
11
2.8932491
21
9.1920831
0
LINE
8
DEFAULT_255_2_778
10
2.8932491
20
9.1920831
11
2.9826491
21
9.1650831
0
LINE
8
DEFAULT_255_2_778
10
2.9826491
20
9.1650831
11
3.0540491
21
9.1198831
0
LINE
8
DEFAULT_255_2_778
10
3.0540491
20
9.1198831
11
3.1014491
21
9.0687831
0
LINE
8
DEFAULT_255_2_778
10
3.1014491
20
9.0687831
11
3.1265491
21
9.0272831
0
LINE
8
DEFAULT_255_2_778
10
3.1265491
20
9.0272831
11
3.1416491
21
8.9914831
0
LINE
8
DEFAULT_255_2_778
10
3.1416491
20
8.9914831
11
3.1501491
21
8.9637831
0
LINE
8
DEFAULT_255_2_778
10
3.1501491
20
8.9637831
11
3.1556491
21
8.9356831
0
LINE
8
DEFAULT_255_2_778
10
3.1556491
20
8.9356831
11
3.1556491
21
8.8412831
0
LINE
8
DEFAULT_255_2_778
10
3.1556491
20
8.8412831
11
3.1498491
21
8.8136831
0
LINE
8
DEFAULT_255_2_778
10
3.1498491
20
8.8136831
11
3.1382491
21
8.7782831
0
LINE
8
DEFAULT_255_2_778
10
3.1382491
20
8.7782831
11
3.1170491
21
8.7364831
0
LINE
8
DEFAULT_255_2_778
10
3.1170491
20
8.7364831
11
3.0752491
21
8.6848831
0
LINE
8
DEFAULT_255_2_778
10
3.0752491
20
8.6848831
11
3.0070491
21
8.6348831
0
LINE
8
DEFAULT_255_2_778
10
3.0070491
20
8.6348831
11
2.9249491
21
8.6046831
0
LINE
8
DEFAULT_255_2_778
10
2.9249491
20
8.6046831
11
2.8292491
21
8.5946831
0
LINE
8
DEFAULT_255_2_778
10
2.8292491
20
8.5946831
11
2.6429491
21
8.5946831
0
LINE
8
DEFAULT_255_2_778
10
2.6429491
20
8.5946831
11
2.6429491
21
8.0141831
0
LINE
8
DEFAULT_255_2_778
10
2.6429491
20
8.0141831
11
2.5606491
21
8.0141831
0
LINE
8
DEFAULT_255_2_778
10
2.5606491
20
8.0141831
11
2.5606491
21
9.1968831
0
LINE
8
DEFAULT_255_2_778
10
2.8294491
20
8.6784831
11
2.9323491
21
8.6935831
0
LINE
8
DEFAULT_255_2_778
10
2.9323491
20
8.6935831
11
3.0064491
21
8.7345831
0
LINE
8
DEFAULT_255_2_778
10
3.0064491
20
8.7345831
11
3.0474491
21
8.7814831
0
LINE
8
DEFAULT_255_2_778
10
3.0474491
20
8.7814831
11
3.0646491
21
8.8176831
0
LINE
8
DEFAULT_255_2_778
10
3.0646491
20
8.8176831
11
3.0734491
21
8.8494831
0
LINE
8
DEFAULT_255_2_778
10
3.0734491
20
8.8494831
11
3.0760491
21
8.8687831
0
LINE
8
DEFAULT_255_2_778
10
3.0760491
20
8.8687831
11
3.0752491
21
8.9155831
0
LINE
8
DEFAULT_255_2_778
10
3.0752491
20
8.9155831
11
3.0718491
21
8.9359831
0
LINE
8
DEFAULT_255_2_778
10
3.0718491
20
8.9359831
11
3.0617491
21
8.9695831
0
LINE
8
DEFAULT_255_2_778
10
3.0617491
20
8.9695831
11
3.0421491
21
9.0076831
0
LINE
8
DEFAULT_255_2_778
10
3.0421491
20
9.0076831
11
2.9980491
21
9.0568831
0
LINE
8
DEFAULT_255_2_778
10
2.9980491
20
9.0568831
11
2.9292491
21
9.0965831
0
LINE
8
DEFAULT_255_2_778
10
2.9292491
20
9.0965831
11
2.8294491
21
9.1129831
0
LINE
8
DEFAULT_255_2_778
10
2.8294491
20
9.1129831
11
2.6431491
21
9.1129831
0
LINE
8
DEFAULT_255_2_778
10
2.6431491
20
9.1129831
11
2.6431491
21
8.6784831
0
LINE
8
DEFAULT_255_2_778
10
2.6431491
20
8.6784831
11
2.8294491
21
8.6784831
0
LINE
8
DEFAULT_255_2_778
10
5.2197491
20
9.1163831
11
5.0815491
21
9.1296831
0
LINE
8
DEFAULT_255_2_778
10
5.0815491
20
9.1296831
11
4.9426491
21
9.1290831
0
LINE
8
DEFAULT_255_2_778
10
4.9426491
20
9.1290831
11
4.9426491
21
8.6935831
0
LINE
8
DEFAULT_255_2_778
10
4.9426491
20
8.6935831
11
5.0815491
21
8.6935831
0
LINE
8
DEFAULT_255_2_778
10
5.0815491
20
8.6935831
11
5.2199491
21
8.7023831
0
LINE
8
DEFAULT_255_2_778
10
5.2199491
20
8.7023831
11
5.3369491
21
8.7753831
0
LINE
8
DEFAULT_255_2_778
10
5.3369491
20
8.7753831
11
5.3797491
21
8.9070831
0
LINE
8
DEFAULT_255_2_778
10
5.3797491
20
8.9070831
11
5.3342491
21
9.0380831
0
LINE
8
DEFAULT_255_2_778
10
5.3342491
20
9.0380831
11
5.2197491
21
9.1163831
0
LINE
8
DEFAULT_255_2_778
10
5.4877491
20
8.0453831
11
5.4877491
21
8.0358831
0
LINE
8
DEFAULT_255_2_778
10
5.4877491
20
8.0358831
11
5.4110491
21
8.0061831
0
LINE
8
DEFAULT_255_2_778
10
5.4110491
20
8.0061831
11
5.4110491
21
8.0157831
0
LINE
8
DEFAULT_255_2_778
10
5.4110491
20
8.0157831
11
5.4877491
21
8.0453831
0
LINE
8
DEFAULT_255_2_778
10
5.4877491
20
8.0453831
11
5.4610491
21
8.3313831
0
LINE
8
DEFAULT_255_2_778
10
5.4610491
20
8.3313831
11
5.4271491
21
8.5115831
0
LINE
8
DEFAULT_255_2_778
10
5.4271491
20
8.5115831
11
5.3115491
21
8.6507831
0
LINE
8
DEFAULT_255_2_778
10
5.3115491
20
8.6507831
11
5.4131491
21
8.7390831
0
LINE
8
DEFAULT_255_2_778
10
5.4131491
20
8.7390831
11
5.4604491
21
8.8666831
0
LINE
8
DEFAULT_255_2_778
10
5.4604491
20
8.8666831
11
5.4189491
21
9.0650831
0
LINE
8
DEFAULT_255_2_778
10
5.4189491
20
9.0650831
11
5.2625491
21
9.1917831
0
LINE
8
DEFAULT_255_2_778
10
5.2625491
20
9.1917831
11
5.0617491
21
9.2134831
0
LINE
8
DEFAULT_255_2_778
10
5.0617491
20
9.2134831
11
4.8590491
21
9.2134831
0
LINE
8
DEFAULT_255_2_778
10
4.8590491
20
9.2134831
11
4.8590491
21
8.0146831
0
LINE
8
DEFAULT_255_2_778
10
4.8590491
20
8.0146831
11
4.9424491
21
8.0146831
0
LINE
8
DEFAULT_255_2_778
10
4.9424491
20
8.0146831
11
4.9424491
21
8.6096831
0
LINE
8
DEFAULT_255_2_778
10
4.9424491
20
8.6096831
11
5.1739491
21
8.6078831
0
LINE
8
DEFAULT_255_2_778
10
5.1739491
20
8.6078831
11
5.2826491
21
8.5689831
0
LINE
8
DEFAULT_255_2_778
10
5.2826491
20
8.5689831
11
5.3538491
21
8.4768831
0
LINE
8
DEFAULT_255_2_778
10
5.3538491
20
8.4768831
11
5.3805491
21
8.2456831
0
LINE
8
DEFAULT_255_2_778
10
5.3805491
20
8.2456831
11
5.4112491
21
8.0154831
0
LINE
8
DEFAULT_255_2_778
10
11.7694491
20
8.2630831
11
11.7694491
21
8.2601831
0
LINE
8
DEFAULT_255_2_778
10
11.6850491
20
8.1326831
11
11.6530491
21
8.1104831
0
LINE
8
DEFAULT_255_2_778
10
11.6530491
20
8.1104831
11
11.6186491
21
8.0929831
0
LINE
8
DEFAULT_255_2_778
10
11.6186491
20
8.0929831
11
11.5821491
21
8.0794831
0
LINE
8
DEFAULT_255_2_778
10
11.5821491
20
8.0794831
11
11.5445491
21
8.0699831
0
LINE
8
DEFAULT_255_2_778
10
11.5445491
20
8.0699831
11
11.4683491
21
8.0612831
0
LINE
8
DEFAULT_255_2_778
10
11.4683491
20
8.0612831
11
11.3911491
21
8.0649831
0
LINE
8
DEFAULT_255_2_778
10
11.3911491
20
8.0649831
11
11.3151491
21
8.0792831
0
LINE
8
DEFAULT_255_2_778
10
11.3151491
20
8.0792831
11
11.2784491
21
8.0919831
0
LINE
8
DEFAULT_255_2_778
10
11.2784491
20
8.0919831
11
11.2440491
21
8.1096831
0
LINE
8
DEFAULT_255_2_778
10
11.2440491
20
8.1096831
11
11.2281491
21
8.1207831
0
LINE
8
DEFAULT_255_2_778
10
11.2281491
20
8.1207831
11
11.2130491
21
8.1334831
0
LINE
8
DEFAULT_255_2_778
10
11.2130491
20
8.1334831
11
11.1865491
21
8.1617831
0
LINE
8
DEFAULT_255_2_778
10
11.1865491
20
8.1617831
11
11.1643491
21
8.1937831
0
LINE
8
DEFAULT_255_2_778
10
11.1643491
20
8.1937831
11
11.1458491
21
8.2279831
0
LINE
8
DEFAULT_255_2_778
10
11.1458491
20
8.2279831
11
11.1307491
21
8.2636831
0
LINE
8
DEFAULT_255_2_778
10
11.1307491
20
8.2636831
11
11.1185491
21
8.3006831
0
LINE
8
DEFAULT_255_2_778
10
11.0934491
20
8.5290831
11
11.0934491
21
8.6827831
0
LINE
8
DEFAULT_255_2_778
10
11.0934491
20
8.6827831
11
11.0929491
21
8.8364831
0
LINE
8
DEFAULT_255_2_778
10
11.0929491
20
8.8364831
11
11.0955491
21
8.9131831
0
LINE
8
DEFAULT_255_2_778
10
11.0955491
20
8.9131831
11
11.1035491
21
8.9896831
0
LINE
8
DEFAULT_255_2_778
10
11.1217491
20
9.0637831
11
11.1365491
21
9.0994831
0
LINE
8
DEFAULT_255_2_778
10
11.1365491
20
9.0994831
11
11.1553491
21
9.1327831
0
LINE
8
DEFAULT_255_2_778
10
11.1553491
20
9.1327831
11
11.1781491
21
9.1637831
0
LINE
8
DEFAULT_255_2_778
10
11.1781491
20
9.1637831
11
11.2043491
21
9.1917831
0
LINE
8
DEFAULT_255_2_778
10
11.2043491
20
9.1917831
11
11.2336491
21
9.2163831
0
LINE
8
DEFAULT_255_2_778
10
11.2336491
20
9.2163831
11
11.2495491
21
9.2272831
0
LINE
8
DEFAULT_255_2_778
10
11.2495491
20
9.2272831
11
11.2662491
21
9.2370831
0
LINE
8
DEFAULT_255_2_778
10
11.3379491
20
9.2634831
11
11.3757491
21
9.2706831
0
LINE
8
DEFAULT_255_2_778
10
11.3757491
20
9.2706831
11
11.4138491
21
9.2748831
0
LINE
8
DEFAULT_255_2_778
10
11.4138491
20
9.2748831
11
11.4519491
21
9.2769831
0
LINE
8
DEFAULT_255_2_778
10
11.4519491
20
9.2769831
11
11.4900491
21
9.2769831
0
LINE
8
DEFAULT_255_2_778
10
11.4900491
20
9.2769831
11
11.5284491
21
9.2743831
0
LINE
8
DEFAULT_255_2_778
10
11.5284491
20
9.2743831
11
11.5665491
21
9.2679831
0
LINE
8
DEFAULT_255_2_778
10
11.5665491
20
9.2679831
11
11.6033491
21
9.2573831
0
LINE
8
DEFAULT_255_2_778
10
11.6033491
20
9.2573831
11
11.6385491
21
9.2417831
0
LINE
8
DEFAULT_255_2_778
10
11.6385491
20
9.2417831
11
11.6713491
21
9.2214831
0
LINE
8
DEFAULT_255_2_778
10
11.6713491
20
9.2214831
11
11.6866491
21
9.2095831
0
LINE
8
DEFAULT_255_2_778
10
11.6866491
20
9.2095831
11
11.7012491
21
9.1965831
0
LINE
8
DEFAULT_255_2_778
10
11.7012491
20
9.1965831
11
11.7266491
21
9.1679831
0
LINE
8
DEFAULT_255_2_778
10
11.7266491
20
9.1679831
11
11.7374491
21
9.1520831
0
LINE
8
DEFAULT_255_2_778
10
11.7374491
20
9.1520831
11
11.7469491
21
9.1351831
0
LINE
8
DEFAULT_255_2_778
10
11.7705491
20
9.0621831
11
11.7705491
21
9.0650831
0
LINE
8
DEFAULT_255_2_778
10
11.7612491
20
9.1026831
11
11.7546491
21
9.1208831
0
LINE
8
DEFAULT_255_2_778
10
11.7546491
20
9.1208831
11
11.7467491
21
9.1383831
0
LINE
8
DEFAULT_255_2_778
10
11.6808491
20
9.0751831
11
11.6681491
21
9.1039831
0
LINE
8
DEFAULT_255_2_778
10
11.6681491
20
9.1039831
11
11.6498491
21
9.1293831
0
LINE
8
DEFAULT_255_2_778
10
11.6498491
20
9.1293831
11
11.6387491
21
9.1404831
0
LINE
8
DEFAULT_255_2_778
10
11.6387491
20
9.1404831
11
11.6265491
21
9.1502831
0
LINE
8
DEFAULT_255_2_778
10
11.6265491
20
9.1502831
11
11.6004491
21
9.1666831
0
LINE
8
DEFAULT_255_2_778
10
11.6004491
20
9.1666831
11
11.5718491
21
9.1793831
0
LINE
8
DEFAULT_255_2_778
10
11.5718491
20
9.1793831
11
11.5112491
21
9.1938831
0
LINE
8
DEFAULT_255_2_778
10
11.3876491
20
9.1894831
11
11.3270491
21
9.1753831
0
LINE
8
DEFAULT_255_2_778
10
11.3270491
20
9.1753831
11
11.2985491
21
9.1634831
0
LINE
8
DEFAULT_255_2_778
10
11.2985491
20
9.1634831
11
11.2850491
21
9.1557831
0
LINE
8
DEFAULT_255_2_778
10
11.2850491
20
9.1557831
11
11.2723491
21
9.1468831
0
LINE
8
DEFAULT_255_2_778
10
11.2723491
20
9.1468831
11
11.2498491
21
9.1256831
0
LINE
8
DEFAULT_255_2_778
10
11.2498491
20
9.1256831
11
11.2307491
21
9.1010831
0
LINE
8
DEFAULT_255_2_778
10
11.2307491
20
9.1010831
11
11.2154491
21
9.0740831
0
LINE
8
DEFAULT_255_2_778
10
11.2154491
20
9.0740831
11
11.2035491
21
9.0454831
0
LINE
8
DEFAULT_255_2_778
10
11.1807491
20
8.9248831
11
11.1781491
21
8.8629831
0
LINE
8
DEFAULT_255_2_778
10
11.1781491
20
8.8629831
11
11.1775491
21
8.8009831
0
LINE
8
DEFAULT_255_2_778
10
11.1775491
20
8.8009831
11
11.1781491
21
8.6771831
0
LINE
8
DEFAULT_255_2_778
10
11.1781491
20
8.6771831
11
11.1781491
21
8.6152831
0
LINE
8
DEFAULT_255_2_778
10
11.1781491
20
8.6152831
11
11.1775491
21
8.5533831
0
LINE
8
DEFAULT_255_2_778
10
11.1775491
20
8.5533831
11
11.1813491
21
8.4297831
0
LINE
8
DEFAULT_255_2_778
10
11.1813491
20
8.4297831
11
11.1897491
21
8.3681831
0
LINE
8
DEFAULT_255_2_778
10
11.1897491
20
8.3681831
11
11.1963491
21
8.3374831
0
LINE
8
DEFAULT_255_2_778
10
11.1963491
20
8.3374831
11
11.2045491
21
8.3072831
0
LINE
8
DEFAULT_255_2_778
10
11.2283491
20
8.2496831
11
11.2453491
21
8.2231831
0
LINE
8
DEFAULT_255_2_778
10
11.2453491
20
8.2231831
11
11.2551491
21
8.2109831
0
LINE
8
DEFAULT_255_2_778
10
11.2551491
20
8.2109831
11
11.2662491
21
8.1998831
0
LINE
8
DEFAULT_255_2_778
10
11.2662491
20
8.1998831
11
11.2913491
21
8.1813831
0
LINE
8
DEFAULT_255_2_778
10
11.2913491
20
8.1813831
11
11.3196491
21
8.1681831
0
LINE
8
DEFAULT_255_2_778
10
11.3196491
20
8.1681831
11
11.3800491
21
8.1532831
0
LINE
8
DEFAULT_255_2_778
10
11.3800491
20
8.1532831
11
11.4109491
21
8.1493831
0
LINE
8
DEFAULT_255_2_778
10
11.4109491
20
8.1493831
11
11.4419491
21
8.1466831
0
LINE
8
DEFAULT_255_2_778
10
11.4419491
20
8.1466831
11
11.5038491
21
8.1477831
0
LINE
8
DEFAULT_255_2_778
10
11.5038491
20
8.1477831
11
11.5345491
21
8.1527831
0
LINE
8
DEFAULT_255_2_778
10
11.5345491
20
8.1527831
11
11.5644491
21
8.1614831
0
LINE
8
DEFAULT_255_2_778
10
11.5644491
20
8.1614831
11
11.5929491
21
8.1739831
0
LINE
8
DEFAULT_255_2_778
10
11.5929491
20
8.1739831
11
11.6197491
21
8.1900831
0
LINE
8
DEFAULT_255_2_778
10
11.6197491
20
8.1900831
11
11.6435491
21
8.2101831
0
LINE
8
DEFAULT_255_2_778
10
11.6435491
20
8.2101831
11
11.6541491
21
8.2215831
0
LINE
8
DEFAULT_255_2_778
10
11.6541491
20
8.2215831
11
11.6636491
21
8.2339831
0
LINE
8
DEFAULT_255_2_778
10
11.6906491
20
8.2900831
11
11.6906491
21
8.2929831
0
LINE
8
DEFAULT_255_2_778
10
11.6906491
20
8.2929831
11
11.6792491
21
8.2638831
0
LINE
8
DEFAULT_255_2_778
10
11.6792491
20
8.2638831
11
11.6639491
21
8.2369831
0
LINE
8
DEFAULT_255_2_778
10
11.6639491
20
8.2369831
11
11.6440491
21
8.2130831
0
LINE
8
DEFAULT_255_2_778
10
11.6440491
20
8.2130831
11
11.6324491
21
8.2025831
0
LINE
8
DEFAULT_255_2_778
10
11.6324491
20
8.2025831
11
11.6202491
21
8.1929831
0
LINE
8
DEFAULT_255_2_778
10
11.5657491
20
8.1644831
11
11.5358491
21
8.1554831
0
LINE
8
DEFAULT_255_2_778
10
11.5358491
20
8.1554831
11
11.5054491
21
8.1501831
0
LINE
8
DEFAULT_255_2_778
10
11.5054491
20
8.1501831
11
11.4744491
21
8.1482831
0
LINE
8
DEFAULT_255_2_778
10
11.4744491
20
8.1482831
11
11.4435491
21
8.1487831
0
LINE
8
DEFAULT_255_2_778
10
11.4435491
20
8.1487831
11
11.4128491
21
8.1511831
0
LINE
8
DEFAULT_255_2_778
10
11.4128491
20
8.1511831
11
11.3821491
21
8.1548831
0
LINE
8
DEFAULT_255_2_778
10
11.3821491
20
8.1548831
11
11.3516491
21
8.1607831
0
LINE
8
DEFAULT_255_2_778
10
11.3516491
20
8.1607831
11
11.3217491
21
8.1694831
0
LINE
8
DEFAULT_255_2_778
10
11.3217491
20
8.1694831
11
11.2934491
21
8.1821831
0
LINE
8
DEFAULT_255_2_778
10
11.2934491
20
8.1821831
11
11.2680491
21
8.2001831
0
LINE
8
DEFAULT_255_2_778
10
11.2680491
20
8.2001831
11
11.2469491
21
8.2228831
0
LINE
8
DEFAULT_255_2_778
10
11.2469491
20
8.2228831
11
11.2297491
21
8.2490831
0
LINE
8
DEFAULT_255_2_778
10
11.2297491
20
8.2490831
11
11.2162491
21
8.2771831
0
LINE
8
DEFAULT_255_2_778
10
11.2162491
20
8.2771831
11
11.2053491
21
8.3064831
0
LINE
8
DEFAULT_255_2_778
10
11.1902491
20
8.3662831
11
11.1818491
21
8.4271831
0
LINE
8
DEFAULT_255_2_778
10
11.1818491
20
8.4271831
11
11.1781491
21
8.4887831
0
LINE
8
DEFAULT_255_2_778
10
11.1781491
20
8.4887831
11
11.1775491
21
8.5506831
0
LINE
8
DEFAULT_255_2_778
10
11.1775491
20
8.5506831
11
11.1781491
21
8.6126831
0
LINE
8
DEFAULT_255_2_778
10
11.1781491
20
8.6126831
11
11.1781491
21
8.6745831
0
LINE
8
DEFAULT_255_2_778
10
11.1781491
20
8.6745831
11
11.1775491
21
8.7877831
0
LINE
8
DEFAULT_255_2_778
10
12.5248491
20
9.0780831
11
12.5121491
21
9.1068831
0
LINE
8
DEFAULT_255_2_778
10
12.5121491
20
9.1068831
11
12.4939491
21
9.1322831
0
LINE
8
DEFAULT_255_2_778
10
12.4939491
20
9.1322831
11
12.4827491
21
9.1433831
0
LINE
8
DEFAULT_255_2_778
10
12.4827491
20
9.1433831
11
12.4706491
21
9.1531831
0
LINE
8
DEFAULT_255_2_778
10
12.4706491
20
9.1531831
11
12.4441491
21
9.1695831
0
LINE
8
DEFAULT_255_2_778
10
12.4441491
20
9.1695831
11
12.4155491
21
9.1822831
0
LINE
8
DEFAULT_255_2_778
10
12.4155491
20
9.1822831
11
12.3549491
21
9.1968831
0
LINE
8
DEFAULT_255_2_778
10
12.2314491
20
9.1923831
11
12.1708491
21
9.1782831
0
LINE
8
DEFAULT_255_2_778
10
12.1708491
20
9.1782831
11
12.1422491
21
9.1663831
0
LINE
8
DEFAULT_255_2_778
10
12.1422491
20
9.1663831
11
12.1287491
21
9.1587831
0
LINE
8
DEFAULT_255_2_778
10
12.1287491
20
9.1587831
11
12.1160491
21
9.1497831
0
LINE
8
DEFAULT_255_2_778
10
12.1160491
20
9.1497831
11
12.0935491
21
9.1285831
0
LINE
8
DEFAULT_255_2_778
10
12.0935491
20
9.1285831
11
12.0745491
21
9.1039831
0
LINE
8
DEFAULT_255_2_778
10
12.0745491
20
9.1039831
11
12.0591491
21
9.0769831
0
LINE
8
DEFAULT_255_2_778
10
12.0591491
20
9.0769831
11
12.0472491
21
9.0483831
0
LINE
8
DEFAULT_255_2_778
10
12.0245491
20
8.9274831
11
12.0218491
21
8.8655831
0
LINE
8
DEFAULT_255_2_778
10
12.0218491
20
8.8655831
11
12.0213491
21
8.8036831
0
LINE
8
DEFAULT_255_2_778
10
12.0213491
20
8.8036831
11
12.0218491
21
8.6798831
0
LINE
8
DEFAULT_255_2_778
10
12.0218491
20
8.6798831
11
12.0218491
21
8.6179831
0
LINE
8
DEFAULT_255_2_778
10
12.0218491
20
8.6179831
11
12.0213491
21
8.5559831
0
LINE
8
DEFAULT_255_2_778
10
12.0213491
20
8.5559831
11
12.0250491
21
8.4324831
0
LINE
8
DEFAULT_255_2_778
10
12.0250491
20
8.4324831
11
12.0332491
21
8.3707831
0
LINE
8
DEFAULT_255_2_778
10
12.0332491
20
8.3707831
11
12.0398491
21
8.3400831
0
LINE
8
DEFAULT_255_2_778
10
12.0398491
20
8.3400831
11
12.0480491
21
8.3099831
0
LINE
8
DEFAULT_255_2_778
10
12.0718491
20
8.2522831
11
12.0888491
21
8.2257831
0
LINE
8
DEFAULT_255_2_778
10
12.0888491
20
8.2257831
11
12.0988491
21
8.2136831
0
LINE
8
DEFAULT_255_2_778
10
12.0988491
20
8.2136831
11
12.1099491
21
8.2025831
0
LINE
8
DEFAULT_255_2_778
10
12.1099491
20
8.2025831
11
12.1351491
21
8.1842831
0
LINE
8
DEFAULT_255_2_778
10
12.1351491
20
8.1842831
11
12.1634491
21
8.1710831
0
LINE
8
DEFAULT_255_2_778
10
12.1634491
20
8.1710831
11
12.2237491
21
8.1562831
0
LINE
8
DEFAULT_255_2_778
10
12.2237491
20
8.1562831
11
12.2547491
21
8.1522831
0
LINE
8
DEFAULT_255_2_778
10
12.2547491
20
8.1522831
11
12.2856491
21
8.1495831
0
LINE
8
DEFAULT_255_2_778
10
12.2856491
20
8.1495831
11
12.3475491
21
8.1506831
0
LINE
8
DEFAULT_255_2_778
10
12.3475491
20
8.1506831
11
12.3782491
21
8.1556831
0
LINE
8
DEFAULT_255_2_778
10
12.3782491
20
8.1556831
11
12.4081491
21
8.1644831
0
LINE
8
DEFAULT_255_2_778
10
12.4081491
20
8.1644831
11
12.4367491
21
8.1768831
0
LINE
8
DEFAULT_255_2_778
10
12.4367491
20
8.1768831
11
12.4634491
21
8.1929831
0
LINE
8
DEFAULT_255_2_778
10
12.4634491
20
8.1929831
11
12.4872491
21
8.2130831
0
LINE
8
DEFAULT_255_2_778
10
12.4872491
20
8.2130831
11
12.4978491
21
8.2244831
0
LINE
8
DEFAULT_255_2_778
10
12.4978491
20
8.2244831
11
12.5073491
21
8.2369831
0
LINE
8
DEFAULT_255_2_778
10
12.5343491
20
8.2929831
11
12.5343491
21
8.2959831
0
LINE
8
DEFAULT_255_2_778
10
12.5343491
20
8.2959831
11
12.5230491
21
8.2667831
0
LINE
8
DEFAULT_255_2_778
10
12.5230491
20
8.2667831
11
12.5076491
21
8.2398831
0
LINE
8
DEFAULT_255_2_778
10
12.5076491
20
8.2398831
11
12.4878491
21
8.2159831
0
LINE
8
DEFAULT_255_2_778
10
12.4878491
20
8.2159831
11
12.4764491
21
8.2054831
0
LINE
8
DEFAULT_255_2_778
10
12.4764491
20
8.2054831
11
12.4642491
21
8.1958831
0
LINE
8
DEFAULT_255_2_778
10
12.4097491
20
8.1673831
11
12.3798491
21
8.1583831
0
LINE
8
DEFAULT_255_2_778
10
12.3798491
20
8.1583831
11
12.3494491
21
8.1530831
0
LINE
8
DEFAULT_255_2_778
10
12.3494491
20
8.1530831
11
12.3184491
21
8.1511831
0
LINE
8
DEFAULT_255_2_778
10
12.3184491
20
8.1511831
11
12.2875491
21
8.1517831
0
LINE
8
DEFAULT_255_2_778
10
12.2875491
20
8.1517831
11
12.2568491
21
8.1540831
0
LINE
8
DEFAULT_255_2_778
10
12.2568491
20
8.1540831
11
12.2261491
21
8.1577831
0
LINE
8
DEFAULT_255_2_778
10
12.2261491
20
8.1577831
11
12.1957491
21
8.1636831
0
LINE
8
DEFAULT_255_2_778
10
12.1957491
20
8.1636831
11
12.1658491
21
8.1723831
0
LINE
8
DEFAULT_255_2_778
10
12.1658491
20
8.1723831
11
12.1375491
21
8.1850831
0
LINE
8
DEFAULT_255_2_778
10
12.1375491
20
8.1850831
11
12.1121491
21
8.2030831
0
LINE
8
DEFAULT_255_2_778
10
12.1121491
20
8.2030831
11
12.0909491
21
8.2257831
0
LINE
8
DEFAULT_255_2_778
10
12.0909491
20
8.2257831
11
12.0737491
21
8.2519831
0
LINE
8
DEFAULT_255_2_778
10
12.0737491
20
8.2519831
11
12.0602491
21
8.2800831
0
LINE
8
DEFAULT_255_2_778
10
12.0602491
20
8.2800831
11
12.0494491
21
8.3093831
0
LINE
8
DEFAULT_255_2_778
10
12.0343491
20
8.3691831
11
12.0258491
21
8.4300831
0
LINE
8
DEFAULT_255_2_778
10
12.0258491
20
8.4300831
11
12.0221491
21
8.4916831
0
LINE
8
DEFAULT_255_2_778
10
12.0221491
20
8.4916831
11
12.0216491
21
8.5536831
0
LINE
8
DEFAULT_255_2_778
10
12.0216491
20
8.5536831
11
12.0221491
21
8.6155831
0
LINE
8
DEFAULT_255_2_778
10
12.0221491
20
8.6155831
11
12.0221491
21
8.6774831
0
LINE
8
DEFAULT_255_2_778
10
12.0221491
20
8.6774831
11
12.0216491
21
8.7906831
0
LINE
8
DEFAULT_255_2_778
10
11.9372491
20
8.5800831
11
11.9374491
21
8.6866831
0
LINE
8
DEFAULT_255_2_778
10
11.9374491
20
8.6866831
11
11.9369491
21
8.8404831
0
LINE
8
DEFAULT_255_2_778
10
11.9369491
20
8.8404831
11
11.9393491
21
8.9171831
0
LINE
8
DEFAULT_255_2_778
10
11.9393491
20
8.9171831
11
11.9422491
21
8.9555831
0
LINE
8
DEFAULT_255_2_778
10
11.9422491
20
8.9555831
11
11.9470491
21
8.9936831
0
LINE
8
DEFAULT_255_2_778
10
11.9652491
20
9.0682831
11
11.9798491
21
9.1039831
0
LINE
8
DEFAULT_255_2_778
10
11.9798491
20
9.1039831
11
11.9983491
21
9.1372831
0
LINE
8
DEFAULT_255_2_778
10
11.9983491
20
9.1372831
11
12.0208491
21
9.1682831
0
LINE
8
DEFAULT_255_2_778
10
12.0208491
20
9.1682831
11
12.0470491
21
9.1965831
0
LINE
8
DEFAULT_255_2_778
10
12.1084491
20
9.2417831
11
12.1258491
21
9.2502831
0
LINE
8
DEFAULT_255_2_778
10
12.1258491
20
9.2502831
11
12.1435491
21
9.2576831
0
LINE
8
DEFAULT_255_2_778
10
12.1435491
20
9.2576831
11
12.1803491
21
9.2687831
0
LINE
8
DEFAULT_255_2_778
10
12.1803491
20
9.2687831
11
12.2182491
21
9.2761831
0
LINE
8
DEFAULT_255_2_778
10
12.2182491
20
9.2761831
11
12.2565491
21
9.2806831
0
LINE
8
DEFAULT_255_2_778
10
12.2565491
20
9.2806831
11
12.2949491
21
9.2827831
0
LINE
8
DEFAULT_255_2_778
10
12.2949491
20
9.2827831
11
12.3332491
21
9.2830831
0
LINE
8
DEFAULT_255_2_778
10
12.3332491
20
9.2830831
11
12.3716491
21
9.2804831
0
LINE
8
DEFAULT_255_2_778
10
12.3716491
20
9.2804831
11
12.4097491
21
9.2743831
0
LINE
8
DEFAULT_255_2_778
10
12.4097491
20
9.2743831
11
12.4465491
21
9.2637831
0
LINE
8
DEFAULT_255_2_778
10
12.4465491
20
9.2637831
11
12.4645491
21
9.2566831
0
LINE
8
DEFAULT_255_2_778
10
12.4645491
20
9.2566831
11
12.4819491
21
9.2481831
0
LINE
8
DEFAULT_255_2_778
10
12.4819491
20
9.2481831
11
12.5145491
21
9.2280831
0
LINE
8
DEFAULT_255_2_778
10
12.5145491
20
9.2280831
11
12.5441491
21
9.2034831
0
LINE
8
DEFAULT_255_2_778
10
12.5441491
20
9.2034831
11
12.5576491
21
9.1894831
0
LINE
8
DEFAULT_255_2_778
10
12.5576491
20
9.1894831
11
12.5698491
21
9.1745831
0
LINE
8
DEFAULT_255_2_778
10
12.5698491
20
9.1745831
11
12.5904491
21
9.1420831
0
LINE
8
DEFAULT_255_2_778
10
12.5904491
20
9.1420831
11
12.5986491
21
9.1243831
0
LINE
8
DEFAULT_255_2_778
10
12.5986491
20
9.1243831
11
12.6052491
21
9.1060831
0
LINE
8
DEFAULT_255_2_778
10
12.6145491
20
9.0684831
11
12.6145491
21
9.0655831
0
LINE
8
DEFAULT_255_2_778
10
12.5910491
20
9.1386831
11
12.5814491
21
9.1555831
0
LINE
8
DEFAULT_255_2_778
10
12.5814491
20
9.1555831
11
12.5706491
21
9.1714831
0
LINE
8
DEFAULT_255_2_778
10
12.5706491
20
9.1714831
11
12.5452491
21
9.1999831
0
LINE
8
DEFAULT_255_2_778
10
12.5452491
20
9.1999831
11
12.5306491
21
9.2129831
0
LINE
8
DEFAULT_255_2_778
10
12.5306491
20
9.2129831
11
12.5153491
21
9.2248831
0
LINE
8
DEFAULT_255_2_778
10
12.5153491
20
9.2248831
11
12.4827491
21
9.2452831
0
LINE
8
DEFAULT_255_2_778
10
12.4827491
20
9.2452831
11
12.4475491
21
9.2608831
0
LINE
8
DEFAULT_255_2_778
10
12.4475491
20
9.2608831
11
12.4108491
21
9.2714831
0
LINE
8
DEFAULT_255_2_778
10
12.4108491
20
9.2714831
11
12.3727491
21
9.2777831
0
LINE
8
DEFAULT_255_2_778
10
12.3727491
20
9.2777831
11
12.3343491
21
9.2804831
0
LINE
8
DEFAULT_255_2_778
10
12.3343491
20
9.2804831
11
12.2962491
21
9.2804831
0
LINE
8
DEFAULT_255_2_778
10
12.2962491
20
9.2804831
11
12.2581491
21
9.2783831
0
LINE
8
DEFAULT_255_2_778
10
12.2581491
20
9.2783831
11
12.2200491
21
9.2740831
0
LINE
8
DEFAULT_255_2_778
10
12.2200491
20
9.2740831
11
12.1822491
21
9.2666831
0
LINE
8
DEFAULT_255_2_778
10
12.1105491
20
9.2402831
11
12.0938491
21
9.2304831
0
LINE
8
DEFAULT_255_2_778
10
12.0938491
20
9.2304831
11
12.0779491
21
9.2195831
0
LINE
8
DEFAULT_255_2_778
10
12.0779491
20
9.2195831
11
12.0486491
21
9.1949831
0
LINE
8
DEFAULT_255_2_778
10
12.0486491
20
9.1949831
11
12.0224491
21
9.1669831
0
LINE
8
DEFAULT_255_2_778
10
12.0224491
20
9.1669831
11
11.9996491
21
9.1359831
0
LINE
8
DEFAULT_255_2_778
10
11.9996491
20
9.1359831
11
11.9808491
21
9.1026831
0
LINE
8
DEFAULT_255_2_778
10
11.9808491
20
9.1026831
11
11.9660491
21
9.0668831
0
LINE
8
DEFAULT_255_2_778
10
11.9398491
20
8.9163831
11
11.9372491
21
8.8396831
0
LINE
8
DEFAULT_255_2_778
10
11.9372491
20
8.8396831
11
11.9377491
21
8.6858831
0
LINE
8
DEFAULT_255_2_778
10
11.9377491
20
8.6858831
11
11.9377491
21
8.5321831
0
LINE
8
DEFAULT_255_2_778
10
11.9631491
20
8.3038831
11
11.9750491
21
8.2667831
0
LINE
8
DEFAULT_255_2_778
10
11.9750491
20
8.2667831
11
11.9901491
21
8.2310831
0
LINE
8
DEFAULT_255_2_778
10
11.9901491
20
8.2310831
11
12.0086491
21
8.1969831
0
LINE
8
DEFAULT_255_2_778
10
12.0086491
20
8.1969831
11
12.0308491
21
8.1651831
0
LINE
8
DEFAULT_255_2_778
10
12.0308491
20
8.1651831
11
12.0573491
21
8.1368831
0
LINE
8
DEFAULT_255_2_778
10
12.0573491
20
8.1368831
11
12.0724491
21
8.1244831
0
LINE
8
DEFAULT_255_2_778
10
12.0724491
20
8.1244831
11
12.0882491
21
8.1133831
0
LINE
8
DEFAULT_255_2_778
10
12.0882491
20
8.1133831
11
12.1226491
21
8.0956831
0
LINE
8
DEFAULT_255_2_778
10
12.1226491
20
8.0956831
11
12.1594491
21
8.0829831
0
LINE
8
DEFAULT_255_2_778
10
12.1594491
20
8.0829831
11
12.2354491
21
8.0686831
0
LINE
8
DEFAULT_255_2_778
10
12.2354491
20
8.0686831
11
12.3126491
21
8.0649831
0
LINE
8
DEFAULT_255_2_778
10
12.3126491
20
8.0649831
11
12.3888491
21
8.0736831
0
LINE
8
DEFAULT_255_2_778
10
12.3888491
20
8.0736831
11
12.4264491
21
8.0831831
0
LINE
8
DEFAULT_255_2_778
10
12.4264491
20
8.0831831
11
12.4629491
21
8.0966831
0
LINE
8
DEFAULT_255_2_778
10
12.4629491
20
8.0966831
11
12.4973491
21
8.1141831
0
LINE
8
DEFAULT_255_2_778
10
12.4973491
20
8.1141831
11
12.5290491
21
8.1363831
0
LINE
8
DEFAULT_255_2_778
10
12.6134491
20
8.2638831
11
12.6134491
21
8.2667831
0
ARC
8
DEFAULT_255_2_778
10
13.261368
20
8.4426004
40
0.4239135
50
185.787813
51
196.5495511
0
ARC
8
DEFAULT_255_2_778
10
13.8508126
20
8.4994201
40
1.0160873
50
181.1091811
51
185.623589
0
ARC
8
DEFAULT_255_2_778
10
12.5904606
20
8.860971
40
0.6858797
50
1.0927223
51
14.392124
0
ARC
8
DEFAULT_255_2_778
10
12.7314043
20
8.4480014
40
0.5388895
50
345.881488
51
354.393161
0
ARC
8
DEFAULT_255_2_778
10
13.0560641
20
8.3564967
40
0.2006277
50
325.808239
51
337.2002105
0
ARC
8
DEFAULT_255_2_778
10
13.1608152
20
8.4046084
40
0.4017768
50
194.2586297
51
201.1946453
0
ARC
8
DEFAULT_255_2_778
10
13.4359788
20
8.4651153
40
0.6839562
50
188.3005438
51
189.455743
0
ARC
8
DEFAULT_255_2_778
10
13.6718024
20
8.4952621
40
0.9216713
50
182.9050438
51
188.0385935
0
ARC
8
DEFAULT_255_2_778
10
13.530429
20
8.8835718
40
0.7784871
50
169.364393
51
176.4739142
0
ARC
8
DEFAULT_255_2_778
10
13.1847377
20
8.9463357
40
0.4271559
50
162.5608759
51
169.0805879
0
ARC
8
DEFAULT_255_2_778
10
13.0927015
20
8.9732839
40
0.3312791
50
153.8952925
51
162.2369374
0
ARC
8
DEFAULT_255_2_778
10
13.0715382
20
9.0187832
40
0.262501
50
27.2930776
51
37.849482
0
ARC
8
DEFAULT_255_2_778
10
12.9867212
20
8.9775547
40
0.3567876
50
19.1253281
51
26.9311935
0
ARC
8
DEFAULT_255_2_778
10
12.8517913
20
8.9337974
40
0.4986146
50
13.258378
51
18.7960214
0
ARC
8
DEFAULT_255_2_778
10
12.3906874
20
8.8493676
40
0.9674976
50
3.2638377
51
8.9840186
0
ARC
8
DEFAULT_255_2_778
10
12.5251907
20
8.4943522
40
0.8325142
50
348.3366942
51
354.9832259
0
ARC
8
DEFAULT_255_2_778
10
12.9658728
20
8.3921123
40
0.3798947
50
335.4467068
51
342.7173591
0
LINE
8
DEFAULT_255_2_778
10
13.0915156
20
8.156751
11
13.0518156
21
8.152451
0
LINE
8
DEFAULT_255_2_778
10
13.0518156
20
8.152451
11
13.0317156
21
8.153251
0
LINE
8
DEFAULT_255_2_778
10
13.0317156
20
8.153251
11
13.0119156
21
8.156251
0
LINE
8
DEFAULT_255_2_778
10
13.0119156
20
8.156251
11
12.9738156
21
8.168151
0
LINE
8
DEFAULT_255_2_778
10
12.9738156
20
8.168151
11
12.9558156
21
8.177351
0
LINE
8
DEFAULT_255_2_778
10
12.9558156
20
8.177351
11
12.9391156
21
8.188451
0
LINE
8
DEFAULT_255_2_778
10
12.9391156
20
8.188451
11
12.9240156
21
8.201451
0
LINE
8
DEFAULT_255_2_778
10
12.9240156
20
8.201451
11
12.9103156
21
8.215951
0
LINE
8
DEFAULT_255_2_778
10
12.9103156
20
8.215951
11
12.8870156
21
8.248551
0
LINE
8
DEFAULT_255_2_778
10
12.8870156
20
8.248551
11
12.8687156
21
8.284251
0
LINE
8
DEFAULT_255_2_778
10
12.8687156
20
8.284251
11
12.8550156
21
8.321851
0
LINE
8
DEFAULT_255_2_778
10
12.8349156
20
8.479751
11
12.8322156
21
8.639851
0
LINE
8
DEFAULT_255_2_778
10
12.8322156
20
8.639851
11
12.8330156
21
8.799951
0
LINE
8
DEFAULT_255_2_778
10
12.8330156
20
8.799951
11
12.8354156
21
8.879851
0
LINE
8
DEFAULT_255_2_778
10
12.8354156
20
8.879851
11
12.8410156
21
8.959451
0
LINE
8
DEFAULT_255_2_778
10
12.8410156
20
8.959451
11
12.8470156
21
8.998951
0
LINE
8
DEFAULT_255_2_778
10
12.8470156
20
8.998951
11
12.8568156
21
9.038051
0
LINE
8
DEFAULT_255_2_778
10
12.8568156
20
9.038051
11
12.8706156
21
9.075851
0
LINE
8
DEFAULT_255_2_778
10
12.8706156
20
9.075851
11
12.8891156
21
9.111651
0
LINE
8
DEFAULT_255_2_778
10
12.8891156
20
9.111651
11
12.9129156
21
9.143651
0
LINE
8
DEFAULT_255_2_778
10
12.9129156
20
9.143651
11
12.9272156
21
9.157951
0
LINE
8
DEFAULT_255_2_778
10
12.9272156
20
9.157951
11
12.9431156
21
9.170351
0
LINE
8
DEFAULT_255_2_778
10
12.9431156
20
9.170351
11
12.9791156
21
9.188351
0
LINE
8
DEFAULT_255_2_778
10
12.9791156
20
9.188351
11
13.0182156
21
9.197851
0
LINE
8
DEFAULT_255_2_778
10
13.0182156
20
9.197851
11
13.0383156
21
9.199751
0
LINE
8
DEFAULT_255_2_778
10
13.0383156
20
9.199751
11
13.0584156
21
9.199751
0
LINE
8
DEFAULT_255_2_778
10
13.0584156
20
9.199751
11
13.0981156
21
9.195251
0
LINE
8
DEFAULT_255_2_778
10
13.0981156
20
9.195251
11
13.1177156
21
9.190751
0
LINE
8
DEFAULT_255_2_778
10
13.1177156
20
9.190751
11
13.1370156
21
9.184651
0
LINE
8
DEFAULT_255_2_778
10
13.1370156
20
9.184651
11
13.1727156
21
9.166351
0
LINE
8
DEFAULT_255_2_778
10
13.1727156
20
9.166351
11
13.1886156
21
9.153651
0
LINE
8
DEFAULT_255_2_778
10
13.1886156
20
9.153651
11
13.2026156
21
9.139151
0
LINE
8
DEFAULT_255_2_778
10
13.2026156
20
9.139151
11
13.2254156
21
9.106051
0
LINE
8
DEFAULT_255_2_778
10
13.2254156
20
9.106051
11
13.2423156
21
9.069851
0
LINE
8
DEFAULT_255_2_778
10
13.2423156
20
9.069851
11
13.2548156
21
9.031451
0
LINE
8
DEFAULT_255_2_778
10
13.2762156
20
8.874051
11
13.2775156
21
8.794151
0
LINE
8
DEFAULT_255_2_778
10
13.2775156
20
8.794151
11
13.2783156
21
8.714251
0
LINE
8
DEFAULT_255_2_778
10
13.2783156
20
8.714251
11
13.2775156
21
8.554651
0
LINE
8
DEFAULT_255_2_778
10
13.2775156
20
8.554651
11
13.2677156
21
8.395351
0
LINE
8
DEFAULT_255_2_778
10
13.2540156
20
8.316551
11
13.2482156
21
8.297451
0
LINE
8
DEFAULT_255_2_778
10
13.2482156
20
8.297451
11
13.2410156
21
8.278751
0
LINE
8
DEFAULT_255_2_778
10
13.2220156
20
8.243751
11
13.1963156
21
8.213051
0
LINE
8
DEFAULT_255_2_778
10
13.1963156
20
8.213051
11
13.1653156
21
8.187951
0
LINE
8
DEFAULT_255_2_778
10
13.1653156
20
8.187951
11
13.1481156
21
8.177651
0
LINE
8
DEFAULT_255_2_778
10
13.1481156
20
8.177651
11
13.1302156
21
8.168951
0
LINE
8
DEFAULT_255_2_778
10
13.1302156
20
8.168951
11
13.0915156
21
8.156751
0
LINE
8
DEFAULT_255_2_778
10
12.9034156
20
8.108351
11
12.8650156
21
8.137951
0
LINE
8
DEFAULT_255_2_778
10
12.8650156
20
8.137951
11
12.8328156
21
8.174451
0
LINE
8
DEFAULT_255_2_778
10
12.8328156
20
8.174451
11
12.8066156
21
8.215451
0
LINE
8
DEFAULT_255_2_778
10
12.8066156
20
8.215451
11
12.7862156
21
8.259351
0
LINE
8
DEFAULT_255_2_778
10
12.7714156
20
8.305651
11
12.7613156
21
8.352751
0
LINE
8
DEFAULT_255_2_778
10
12.7513156
20
8.448551
11
12.7478156
21
8.545151
0
LINE
8
DEFAULT_255_2_778
10
12.7478156
20
8.545151
11
12.7473156
21
8.641751
0
LINE
8
DEFAULT_255_2_778
10
12.7473156
20
8.641751
11
12.7486156
21
8.835151
0
LINE
8
DEFAULT_255_2_778
10
12.7486156
20
8.835151
11
12.7534156
21
8.931451
0
LINE
8
DEFAULT_255_2_778
10
12.7952156
20
9.119051
11
12.8068156
21
9.140451
0
LINE
8
DEFAULT_255_2_778
10
12.8068156
20
9.140451
11
12.8201156
21
9.160851
0
LINE
8
DEFAULT_255_2_778
10
12.8201156
20
9.160851
11
12.8505156
21
9.198151
0
LINE
8
DEFAULT_255_2_778
10
12.8505156
20
9.198151
11
12.8679156
21
9.214851
0
LINE
8
DEFAULT_255_2_778
10
12.8679156
20
9.214851
11
12.8867156
21
9.230451
0
LINE
8
DEFAULT_255_2_778
10
12.8867156
20
9.230451
11
12.9275156
21
9.256051
0
LINE
8
DEFAULT_255_2_778
10
12.9275156
20
9.256051
11
12.9722156
21
9.273851
0
LINE
8
DEFAULT_255_2_778
10
12.9722156
20
9.273851
11
12.9960156
21
9.279651
0
LINE
8
DEFAULT_255_2_778
10
12.9960156
20
9.279651
11
13.0198156
21
9.283351
0
LINE
8
DEFAULT_255_2_778
10
13.0198156
20
9.283351
11
13.0682156
21
9.284651
0
LINE
8
DEFAULT_255_2_778
10
13.0682156
20
9.284651
11
13.1164156
21
9.278051
0
LINE
8
DEFAULT_255_2_778
10
13.1164156
20
9.278051
11
13.1397156
21
9.271951
0
LINE
8
DEFAULT_255_2_778
10
13.1397156
20
9.271951
11
13.1627156
21
9.264051
0
LINE
8
DEFAULT_255_2_778
10
13.1627156
20
9.264051
11
13.2061156
21
9.242851
0
LINE
8
DEFAULT_255_2_778
10
13.2061156
20
9.242851
11
13.2455156
21
9.214851
0
LINE
8
DEFAULT_255_2_778
10
13.2455156
20
9.214851
11
13.2788156
21
9.179851
0
LINE
8
DEFAULT_255_2_778
10
13.3371156
20
9.048151
11
13.3463156
21
9.000451
0
LINE
8
DEFAULT_255_2_778
10
13.3566156
20
8.904451
11
13.3601156
21
8.807851
0
LINE
8
DEFAULT_255_2_778
10
13.3601156
20
8.807851
11
13.3609156
21
8.711251
0
LINE
8
DEFAULT_255_2_778
10
13.3609156
20
8.711251
11
13.3609156
21
8.614751
0
LINE
8
DEFAULT_255_2_778
10
13.3609156
20
8.614751
11
13.3598156
21
8.518151
0
LINE
8
DEFAULT_255_2_778
10
13.3598156
20
8.518151
11
13.3545156
21
8.421551
0
LINE
8
DEFAULT_255_2_778
10
13.3405156
20
8.326051
11
13.3286156
21
8.279251
0
LINE
8
DEFAULT_255_2_778
10
13.3114156
20
8.234251
11
13.2878156
21
8.192151
0
LINE
8
DEFAULT_255_2_778
10
13.2878156
20
8.192151
11
13.2738156
21
8.172351
0
LINE
8
DEFAULT_255_2_778
10
13.2738156
20
8.172351
11
13.2582156
21
8.153851
0
LINE
8
DEFAULT_255_2_778
10
13.2582156
20
8.153851
11
13.2230156
21
8.121251
0
LINE
8
DEFAULT_255_2_778
10
13.2230156
20
8.121251
11
13.1820156
21
8.095651
0
LINE
8
DEFAULT_255_2_778
10
13.1820156
20
8.095651
11
13.1370156
21
8.079251
0
LINE
8
DEFAULT_255_2_778
10
13.1370156
20
8.079251
11
13.0894156
21
8.071051
0
LINE
8
DEFAULT_255_2_778
10
13.0894156
20
8.071051
11
13.0413156
21
8.069951
0
LINE
8
DEFAULT_255_2_778
10
13.0413156
20
8.069951
11
13.0172156
21
8.071851
0
LINE
8
DEFAULT_255_2_778
10
13.0172156
20
8.071851
11
12.9931156
21
8.075251
0
LINE
8
DEFAULT_255_2_778
10
12.9931156
20
8.075251
11
12.9465156
21
8.087651
0
LINE
8
DEFAULT_255_2_778
10
12.9465156
20
8.087651
11
12.9243156
21
8.096951
0
LINE
8
DEFAULT_255_2_778
10
12.9243156
20
8.096951
11
12.9135156
21
8.102451
0
LINE
8
DEFAULT_255_2_778
10
12.9135156
20
8.102451
11
12.9034156
21
8.108351
0
LINE
8
DEFAULT_255_2_778
10
12.7473156
20
8.712351
11
12.7473156
21
8.709451
0
ARC
8
DEFAULT_255_2_778
10
14.055168
20
8.4177004
40
0.4239135
50
185.787813
51
196.5495511
0
ARC
8
DEFAULT_255_2_778
10
14.6446126
20
8.4745201
40
1.0160873
50
181.1091811
51
185.623589
0
ARC
8
DEFAULT_255_2_778
10
13.3842606
20
8.836071
40
0.6858797
50
1.0927223
51
14.392124
0
ARC
8
DEFAULT_255_2_778
10
13.5252043
20
8.4231014
40
0.5388895
50
345.881488
51
354.393161
0
ARC
8
DEFAULT_255_2_778
10
13.8498641
20
8.3315967
40
0.2006277
50
325.808239
51
337.2002105
0
ARC
8
DEFAULT_255_2_778
10
13.9546152
20
8.3797084
40
0.4017768
50
194.2586297
51
201.1946453
0
ARC
8
DEFAULT_255_2_778
10
14.2297788
20
8.4402153
40
0.6839562
50
188.3005438
51
189.455743
0
ARC
8
DEFAULT_255_2_778
10
14.4656024
20
8.4703621
40
0.9216713
50
182.9050438
51
188.0385935
0
ARC
8
DEFAULT_255_2_778
10
14.324229
20
8.8586718
40
0.7784871
50
169.364393
51
176.4739142
0
ARC
8
DEFAULT_255_2_778
10
13.9785377
20
8.9214357
40
0.4271559
50
162.5608759
51
169.0805879
0
ARC
8
DEFAULT_255_2_778
10
13.8865015
20
8.9483839
40
0.3312791
50
153.8952925
51
162.2369374
0
ARC
8
DEFAULT_255_2_778
10
13.8653382
20
8.9938832
40
0.262501
50
27.2930776
51
37.849482
0
ARC
8
DEFAULT_255_2_778
10
13.7805212
20
8.9526547
40
0.3567876
50
19.1253281
51
26.9311935
0
ARC
8
DEFAULT_255_2_778
10
13.6455913
20
8.9088974
40
0.4986146
50
13.258378
51
18.7960214
0
ARC
8
DEFAULT_255_2_778
10
13.1844874
20
8.8244676
40
0.9674976
50
3.2638377
51
8.9840186
0
ARC
8
DEFAULT_255_2_778
10
13.3189907
20
8.4694522
40
0.8325142
50
348.3366942
51
354.9832259
0
ARC
8
DEFAULT_255_2_778
10
13.7596728
20
8.3672123
40
0.3798947
50
335.4467068
51
342.7173591
0
LINE
8
DEFAULT_255_2_778
10
13.8853156
20
8.131851
11
13.8456156
21
8.127551
0
LINE
8
DEFAULT_255_2_778
10
13.8456156
20
8.127551
11
13.8255156
21
8.128351
0
LINE
8
DEFAULT_255_2_778
10
13.8255156
20
8.128351
11
13.8057156
21
8.131351
0
LINE
8
DEFAULT_255_2_778
10
13.8057156
20
8.131351
11
13.7676156
21
8.143251
0
LINE
8
DEFAULT_255_2_778
10
13.7676156
20
8.143251
11
13.7496156
21
8.152451
0
LINE
8
DEFAULT_255_2_778
10
13.7496156
20
8.152451
11
13.7329156
21
8.163551
0
LINE
8
DEFAULT_255_2_778
10
13.7329156
20
8.163551
11
13.7178156
21
8.176551
0
LINE
8
DEFAULT_255_2_778
10
13.7178156
20
8.176551
11
13.7041156
21
8.191051
0
LINE
8
DEFAULT_255_2_778
10
13.7041156
20
8.191051
11
13.6808156
21
8.223651
0
LINE
8
DEFAULT_255_2_778
10
13.6808156
20
8.223651
11
13.6625156
21
8.259351
0
LINE
8
DEFAULT_255_2_778
10
13.6625156
20
8.259351
11
13.6488156
21
8.296951
0
LINE
8
DEFAULT_255_2_778
10
13.6287156
20
8.454851
11
13.6260156
21
8.614951
0
LINE
8
DEFAULT_255_2_778
10
13.6260156
20
8.614951
11
13.6268156
21
8.775051
0
LINE
8
DEFAULT_255_2_778
10
13.6268156
20
8.775051
11
13.6292156
21
8.854951
0
LINE
8
DEFAULT_255_2_778
10
13.6292156
20
8.854951
11
13.6348156
21
8.934551
0
LINE
8
DEFAULT_255_2_778
10
13.6348156
20
8.934551
11
13.6408156
21
8.974051
0
LINE
8
DEFAULT_255_2_778
10
13.6408156
20
8.974051
11
13.6506156
21
9.013151
0
LINE
8
DEFAULT_255_2_778
10
13.6506156
20
9.013151
11
13.6644156
21
9.050951
0
LINE
8
DEFAULT_255_2_778
10
13.6644156
20
9.050951
11
13.6829156
21
9.086751
0
LINE
8
DEFAULT_255_2_778
10
13.6829156
20
9.086751
11
13.7067156
21
9.118751
0
LINE
8
DEFAULT_255_2_778
10
13.7067156
20
9.118751
11
13.7210156
21
9.133051
0
LINE
8
DEFAULT_255_2_778
10
13.7210156
20
9.133051
11
13.7369156
21
9.145451
0
LINE
8
DEFAULT_255_2_778
10
13.7369156
20
9.145451
11
13.7729156
21
9.163451
0
LINE
8
DEFAULT_255_2_778
10
13.7729156
20
9.163451
11
13.8120156
21
9.172951
0
LINE
8
DEFAULT_255_2_778
10
13.8120156
20
9.172951
11
13.8321156
21
9.174851
0
LINE
8
DEFAULT_255_2_778
10
13.8321156
20
9.174851
11
13.8522156
21
9.174851
0
LINE
8
DEFAULT_255_2_778
10
13.8522156
20
9.174851
11
13.8919156
21
9.170351
0
LINE
8
DEFAULT_255_2_778
10
13.8919156
20
9.170351
11
13.9115156
21
9.165851
0
LINE
8
DEFAULT_255_2_778
10
13.9115156
20
9.165851
11
13.9308156
21
9.159751
0
LINE
8
DEFAULT_255_2_778
10
13.9308156
20
9.159751
11
13.9665156
21
9.141451
0
LINE
8
DEFAULT_255_2_778
10
13.9665156
20
9.141451
11
13.9824156
21
9.128751
0
LINE
8
DEFAULT_255_2_778
10
13.9824156
20
9.128751
11
13.9964156
21
9.114251
0
LINE
8
DEFAULT_255_2_778
10
13.9964156
20
9.114251
11
14.0192156
21
9.081151
0
LINE
8
DEFAULT_255_2_778
10
14.0192156
20
9.081151
11
14.0361156
21
9.044951
0
LINE
8
DEFAULT_255_2_778
10
14.0361156
20
9.044951
11
14.0486156
21
9.006551
0
LINE
8
DEFAULT_255_2_778
10
14.0700156
20
8.849151
11
14.0713156
21
8.769251
0
LINE
8
DEFAULT_255_2_778
10
14.0713156
20
8.769251
11
14.0721156
21
8.689351
0
LINE
8
DEFAULT_255_2_778
10
14.0721156
20
8.689351
11
14.0713156
21
8.529751
0
LINE
8
DEFAULT_255_2_778
10
14.0713156
20
8.529751
11
14.0615156
21
8.370451
0
LINE
8
DEFAULT_255_2_778
10
14.0478156
20
8.291651
11
14.0420156
21
8.272551
0
LINE
8
DEFAULT_255_2_778
10
14.0420156
20
8.272551
11
14.0348156
21
8.253851
0
LINE
8
DEFAULT_255_2_778
10
14.0158156
20
8.218851
11
13.9901156
21
8.188151
0
LINE
8
DEFAULT_255_2_778
10
13.9901156
20
8.188151
11
13.9591156
21
8.163051
0
LINE
8
DEFAULT_255_2_778
10
13.9591156
20
8.163051
11
13.9419156
21
8.152751
0
LINE
8
DEFAULT_255_2_778
10
13.9419156
20
8.152751
11
13.9240156
21
8.144051
0
LINE
8
DEFAULT_255_2_778
10
13.9240156
20
8.144051
11
13.8853156
21
8.131851
0
LINE
8
DEFAULT_255_2_778
10
13.6972156
20
8.083451
11
13.6588156
21
8.113051
0
LINE
8
DEFAULT_255_2_778
10
13.6588156
20
8.113051
11
13.6266156
21
8.149551
0
LINE
8
DEFAULT_255_2_778
10
13.6266156
20
8.149551
11
13.6004156
21
8.190551
0
LINE
8
DEFAULT_255_2_778
10
13.6004156
20
8.190551
11
13.5800156
21
8.234451
0
LINE
8
DEFAULT_255_2_778
10
13.5652156
20
8.280751
11
13.5551156
21
8.327851
0
LINE
8
DEFAULT_255_2_778
10
13.5451156
20
8.423651
11
13.5416156
21
8.520251
0
LINE
8
DEFAULT_255_2_778
10
13.5416156
20
8.520251
11
13.5411156
21
8.616851
0
LINE
8
DEFAULT_255_2_778
10
13.5411156
20
8.616851
11
13.5424156
21
8.810251
0
LINE
8
DEFAULT_255_2_778
10
13.5424156
20
8.810251
11
13.5472156
21
8.906551
0
LINE
8
DEFAULT_255_2_778
10
13.5890156
20
9.094151
11
13.6006156
21
9.115551
0
LINE
8
DEFAULT_255_2_778
10
13.6006156
20
9.115551
11
13.6139156
21
9.135951
0
LINE
8
DEFAULT_255_2_778
10
13.6139156
20
9.135951
11
13.6443156
21
9.173251
0
LINE
8
DEFAULT_255_2_778
10
13.6443156
20
9.173251
11
13.6617156
21
9.189951
0
LINE
8
DEFAULT_255_2_778
10
13.6617156
20
9.189951
11
13.6805156
21
9.205551
0
LINE
8
DEFAULT_255_2_778
10
13.6805156
20
9.205551
11
13.7213156
21
9.231151
0
LINE
8
DEFAULT_255_2_778
10
13.7213156
20
9.231151
11
13.7660156
21
9.248951
0
LINE
8
DEFAULT_255_2_778
10
13.7660156
20
9.248951
11
13.7898156
21
9.254751
0
LINE
8
DEFAULT_255_2_778
10
13.7898156
20
9.254751
11
13.8136156
21
9.258451
0
LINE
8
DEFAULT_255_2_778
10
13.8136156
20
9.258451
11
13.8620156
21
9.259751
0
LINE
8
DEFAULT_255_2_778
10
13.8620156
20
9.259751
11
13.9102156
21
9.253151
0
LINE
8
DEFAULT_255_2_778
10
13.9102156
20
9.253151
11
13.9335156
21
9.247051
0
LINE
8
DEFAULT_255_2_778
10
13.9335156
20
9.247051
11
13.9565156
21
9.239151
0
LINE
8
DEFAULT_255_2_778
10
13.9565156
20
9.239151
11
13.9999156
21
9.217951
0
LINE
8
DEFAULT_255_2_778
10
13.9999156
20
9.217951
11
14.0393156
21
9.189951
0
LINE
8
DEFAULT_255_2_778
10
14.0393156
20
9.189951
11
14.0726156
21
9.154951
0
LINE
8
DEFAULT_255_2_778
10
14.1309156
20
9.023251
11
14.1401156
21
8.975551
0
LINE
8
DEFAULT_255_2_778
10
14.1504156
20
8.879551
11
14.1539156
21
8.782951
0
LINE
8
DEFAULT_255_2_778
10
14.1539156
20
8.782951
11
14.1547156
21
8.686351
0
LINE
8
DEFAULT_255_2_778
10
14.1547156
20
8.686351
11
14.1547156
21
8.589851
0
LINE
8
DEFAULT_255_2_778
10
14.1547156
20
8.589851
11
14.1536156
21
8.493251
0
LINE
8
DEFAULT_255_2_778
10
14.1536156
20
8.493251
11
14.1483156
21
8.396651
0
LINE
8
DEFAULT_255_2_778
10
14.1343156
20
8.301151
11
14.1224156
21
8.254351
0
LINE
8
DEFAULT_255_2_778
10
14.1052156
20
8.209351
11
14.0816156
21
8.167251
0
LINE
8
DEFAULT_255_2_778
10
14.0816156
20
8.167251
11
14.0676156
21
8.147451
0
LINE
8
DEFAULT_255_2_778
10
14.0676156
20
8.147451
11
14.0520156
21
8.128951
0
LINE
8
DEFAULT_255_2_778
10
14.0520156
20
8.128951
11
14.0168156
21
8.096351
0
LINE
8
DEFAULT_255_2_778
10
14.0168156
20
8.096351
11
13.9758156
21
8.070751
0
LINE
8
DEFAULT_255_2_778
10
13.9758156
20
8.070751
11
13.9308156
21
8.054351
0
LINE
8
DEFAULT_255_2_778
10
13.9308156
20
8.054351
11
13.8832156
21
8.046151
0
LINE
8
DEFAULT_255_2_778
10
13.8832156
20
8.046151
11
13.8351156
21
8.045051
0
LINE
8
DEFAULT_255_2_778
10
13.8351156
20
8.045051
11
13.8110156
21
8.046951
0
LINE
8
DEFAULT_255_2_778
10
13.8110156
20
8.046951
11
13.7869156
21
8.050351
0
LINE
8
DEFAULT_255_2_778
10
13.7869156
20
8.050351
11
13.7403156
21
8.062751
0
LINE
8
DEFAULT_255_2_778
10
13.7403156
20
8.062751
11
13.7181156
21
8.072051
0
LINE
8
DEFAULT_255_2_778
10
13.7181156
20
8.072051
11
13.7073156
21
8.077551
0
LINE
8
DEFAULT_255_2_778
10
13.7073156
20
8.077551
11
13.6972156
21
8.083451
0
LINE
8
DEFAULT_255_2_778
10
13.5411156
20
8.687451
11
13.5411156
21
8.684551
0
ARC
8
DEFAULT_255_2_778
10
8.89369
20
17.0511803
40
13.7230519
50
247.4122581
51
247.7505441
0
ARC
8
DEFAULT_255_2_778
10
4842.549202
20
-1219.5137991
40
4991.2250195
50
165.7911874
51
165.8061652
0
ARC
8
DEFAULT_255_2_778
10
26.7024138
20
-33.0527878
40
46.026023
50
122.9116515
51
123.018035
0
ARC
8
DEFAULT_255_2_778
10
1.3959474
20
5.4500237
40
0.2439447
50
21.6416663
51
35.7622577
0
ARC
8
DEFAULT_255_2_778
10
1.55855
20
5.4319391
40
0.3062582
50
151.3470955
51
162.6063085
0
ARC
8
DEFAULT_255_2_778
10
1.7925957
20
5.3558814
40
0.5523443
50
162.3350252
51
168.5751984
0
ARC
8
DEFAULT_255_2_778
10
2.5764726
20
5.2431447
40
1.3450078
50
173.0330151
51
178.1105714
0
ARC
8
DEFAULT_255_2_778
10
1.5702916
20
4.9162369
40
0.3674893
50
150.1063413
51
158.7898834
0
ARC
8
DEFAULT_255_2_778
10
1.5370236
20
4.931053
40
0.3312844
50
139.7983271
51
149.460247
0
ARC
8
DEFAULT_255_2_778
10
1.3803002
20
4.957152
40
0.3458499
50
24.103176
51
33.4108908
0
ARC
8
DEFAULT_255_2_778
10
0.6780079
20
4.8158399
40
1.0661256
50
0.4810334
51
6.4925265
0
ARC
8
DEFAULT_255_2_778
10
1.4533264
20
4.6059369
40
0.2629439
50
323.0265478
51
335.1870616
0
ARC
8
DEFAULT_255_2_778
10
1.4557871
20
4.5869317
40
0.2468489
50
221.7403475
51
234.7717484
0
ARC
8
DEFAULT_255_2_778
10
1.5551884
20
4.6658387
40
0.3741456
50
203.3928295
51
211.9424516
0
ARC
8
DEFAULT_255_2_778
10
1.6678641
20
4.7169046
40
0.4978392
50
197.1637318
51
203.6382549
0
ARC
8
DEFAULT_255_2_778
10
1.9326072
20
4.7927866
40
0.7732055
50
188.5006676
51
196.7469834
0
ARC
8
DEFAULT_255_2_778
10
1.6528282
20
5.4151543
40
0.4848603
50
155.3092175
51
161.924661
0
ARC
8
DEFAULT_255_2_778
10
1.4873817
20
5.4881572
40
0.3040576
50
144.1598963
51
154.7850001
0
ARC
8
DEFAULT_255_2_778
10
1.4210729
20
5.5532056
40
0.2105909
50
117.3886708
51
132.6121965
0
ARC
8
DEFAULT_255_2_778
10
1.4523514
20
5.5068569
40
0.2533867
50
43.9109279
51
56.5566199
0
ARC
8
DEFAULT_255_2_778
10
1.4072452
20
5.4780611
40
0.3070506
50
20.8985828
51
31.4116354
0
ARC
8
DEFAULT_255_2_778
10
1.4724222
20
4.6160609
40
0.1751951
50
223.6688048
51
242.2674207
0
ARC
8
DEFAULT_255_2_778
10
1.6247048
20
4.7459074
40
0.3758906
50
204.6236059
51
213.2898384
0
ARC
8
DEFAULT_255_2_778
10
1.6108434
20
4.740287
40
0.3609485
50
195.7203781
51
204.7293408
0
ARC
8
DEFAULT_255_2_778
10
1.6851282
20
4.7603794
40
0.4378993
50
188.1909638
51
195.6175186
0
ARC
8
DEFAULT_255_2_778
10
1.8776257
20
4.7817576
40
0.6315101
50
182.4564962
51
187.6224987
0
ARC
8
DEFAULT_255_2_778
10
1.8354479
20
4.7844928
40
0.5895056
50
179.9976703
51
182.8978008
0
ARC
8
DEFAULT_255_2_778
10
1.8731071
20
4.7844634
40
0.627165
50
179.7804951
51
179.9951217
0
ARC
8
DEFAULT_255_2_778
10
1.842787
20
4.7844125
40
0.5968453
50
172.0374859
51
179.7644586
0
ARC
8
DEFAULT_255_2_778
10
1.6756304
20
4.8175063
40
0.425976
50
158.0274271
51
165.6765848
0
ARC
8
DEFAULT_255_2_778
10
1.616263
20
4.8437273
40
0.3611161
50
149.3188165
51
158.3611568
0
ARC
8
DEFAULT_255_2_778
10
1.6247947
20
4.8392428
40
0.3707421
50
140.5546975
51
149.3955686
0
ARC
8
DEFAULT_255_2_778
10
1.1834005
20
4.8825013
40
0.4768937
50
8.5485829
51
15.3435858
0
ARC
8
DEFAULT_255_2_778
10
1.3717773
20
4.6712856
40
0.2740438
50
324.6137081
51
336.4497689
0
LINE
8
DEFAULT_255_2_778
10
13.713096
20
5.5047906
11
13.713096
21
5.5076906
0
LINE
8
DEFAULT_255_2_778
10
13.713096
20
5.5076906
11
13.831396
21
5.6489906
0
LINE
8
DEFAULT_255_2_778
10
13.831396
20
5.6489906
11
13.906796
21
5.7497906
0
LINE
8
DEFAULT_255_2_778
10
13.906796
20
5.7497906
11
13.906796
21
5.7468906
0
LINE
8
DEFAULT_255_2_778
10
13.906796
20
5.7468906
11
13.713096
21
5.5047906
0
LINE
8
DEFAULT_255_2_778
10
13.713096
20
5.5047906
11
13.718096
21
5.4015906
0
LINE
8
DEFAULT_255_2_778
10
13.718096
20
5.4015906
11
13.780596
21
5.4449906
0
LINE
8
DEFAULT_255_2_778
10
13.780596
20
5.4449906
11
13.927396
21
5.6264906
0
LINE
8
DEFAULT_255_2_778
10
13.927396
20
5.6264906
11
13.927396
21
4.3537906
0
LINE
8
DEFAULT_255_2_778
10
13.927396
20
4.3537906
11
14.007296
21
4.3537906
0
LINE
8
DEFAULT_255_2_778
10
14.007296
20
4.3537906
11
14.007296
21
5.7497906
0
LINE
8
DEFAULT_255_2_778
10
14.007296
20
5.7497906
11
13.906496
21
5.7497906
0
LINE
8
DEFAULT_255_2_778
10
6.763796
20
4.9427906
11
6.399196
21
4.9427906
0
LINE
8
DEFAULT_255_2_778
10
6.399196
20
4.9427906
11
6.399196
21
4.8408906
0
LINE
8
DEFAULT_255_2_778
10
6.399196
20
4.8408906
11
6.763796
21
4.8408906
0
LINE
8
DEFAULT_255_2_778
10
6.763796
20
4.8408906
11
6.763796
21
4.9427906
0
LINE
8
DEFAULT_255_2_778
10
11.089496
20
4.9427906
11
10.724896
21
4.9427906
0
LINE
8
DEFAULT_255_2_778
10
10.724896
20
4.9427906
11
10.724896
21
4.8408906
0
LINE
8
DEFAULT_255_2_778
10
10.724896
20
4.8408906
11
11.089496
21
4.8408906
0
LINE
8
DEFAULT_255_2_778
10
11.089496
20
4.8408906
11
11.089496
21
4.9427906
0
LINE
8
DEFAULT_255_2_778
10
8.556096
20
5.1332906
11
8.991296
21
5.1332906
0
LINE
8
DEFAULT_255_2_778
10
8.991296
20
5.1332906
11
8.991296
21
5.0345906
0
LINE
8
DEFAULT_255_2_778
10
8.991296
20
5.0345906
11
8.556096
21
5.0345906
0
LINE
8
DEFAULT_255_2_778
10
8.556096
20
5.0345906
11
8.556096
21
4.3558906
0
LINE
8
DEFAULT_255_2_778
10
8.556096
20
4.3558906
11
8.475096
21
4.3558906
0
LINE
8
DEFAULT_255_2_778
10
8.475096
20
4.3558906
11
8.475096
21
5.7372906
0
LINE
8
DEFAULT_255_2_778
10
8.475096
20
5.7372906
11
9.019896
21
5.7372906
0
LINE
8
DEFAULT_255_2_778
10
9.019896
20
5.7372906
11
9.019896
21
5.6367906
0
LINE
8
DEFAULT_255_2_778
10
9.019896
20
5.6367906
11
8.556096
21
5.6367906
0
LINE
8
DEFAULT_255_2_778
10
8.556096
20
5.6367906
11
8.556096
21
5.1305906
0
LINE
8
DEFAULT_255_2_778
10
8.556096
20
5.1305906
11
8.991296
21
5.1305906
0
LINE
8
DEFAULT_255_2_778
10
2.420396
20
5.1432906
11
1.967696
21
5.1432906
0
LINE
8
DEFAULT_255_2_778
10
1.967696
20
5.1432906
11
1.967696
21
5.6555906
0
LINE
8
DEFAULT_255_2_778
10
1.967696
20
5.6555906
11
2.450296
21
5.6555906
0
LINE
8
DEFAULT_255_2_778
10
2.450296
20
5.6555906
11
2.450296
21
5.7573906
0
LINE
8
DEFAULT_255_2_778
10
2.450296
20
5.7573906
11
1.889696
21
5.7573906
0
LINE
8
DEFAULT_255_2_778
10
1.889696
20
5.7573906
11
1.889696
21
4.3595906
0
LINE
8
DEFAULT_255_2_778
10
1.889696
20
4.3595906
11
2.450296
21
4.3595906
0
LINE
8
DEFAULT_255_2_778
10
2.450296
20
4.3595906
11
2.450296
21
4.4566906
0
LINE
8
DEFAULT_255_2_778
10
2.450296
20
4.4566906
11
1.967696
21
4.4566906
0
LINE
8
DEFAULT_255_2_778
10
1.967696
20
4.4566906
11
1.967696
21
5.0464906
0
LINE
8
DEFAULT_255_2_778
10
1.967696
20
5.0464906
11
2.420396
21
5.0464906
0
LINE
8
DEFAULT_255_2_778
10
2.420396
20
5.0464906
11
2.420396
21
5.1462906
0
LINE
8
DEFAULT_255_2_778
10
2.420396
20
5.1462906
11
1.967696
21
5.1462906
0
LINE
8
DEFAULT_255_2_778
10
4.017696
20
5.6147906
11
4.017696
21
5.7592906
0
LINE
8
DEFAULT_255_2_778
10
4.017696
20
5.7592906
11
3.455696
21
5.7592906
0
LINE
8
DEFAULT_255_2_778
10
3.455696
20
5.7592906
11
3.455696
21
5.6573906
0
LINE
8
DEFAULT_255_2_778
10
3.455696
20
5.6573906
11
3.939596
21
5.6573906
0
LINE
8
DEFAULT_255_2_778
10
3.939596
20
5.6573906
11
3.939596
21
5.6301906
0
LINE
8
DEFAULT_255_2_778
10
3.939596
20
5.6301906
11
3.934096
21
5.6108906
0
LINE
8
DEFAULT_255_2_778
10
3.934096
20
5.6108906
11
3.929096
21
5.5912906
0
LINE
8
DEFAULT_255_2_778
10
3.929096
20
5.5912906
11
3.918996
21
5.5523906
0
LINE
8
DEFAULT_255_2_778
10
3.918996
20
5.5523906
11
3.899196
21
5.4742906
0
LINE
8
DEFAULT_255_2_778
10
3.899196
20
5.4742906
11
3.859496
21
5.3181906
0
LINE
8
DEFAULT_255_2_778
10
3.859496
20
5.3181906
11
3.820096
21
5.1618906
0
LINE
8
DEFAULT_255_2_778
10
3.820096
20
5.1618906
11
3.780396
21
5.0057906
0
LINE
8
DEFAULT_255_2_778
10
3.780396
20
5.0057906
11
3.740896
21
4.8493906
0
LINE
8
DEFAULT_255_2_778
10
3.740896
20
4.8493906
11
3.701496
21
4.6929906
0
LINE
8
DEFAULT_255_2_778
10
3.701496
20
4.6929906
11
3.622396
21
4.3804906
0
LINE
8
DEFAULT_255_2_778
10
3.622396
20
4.3804906
11
3.622396
21
4.3834906
0
LINE
8
DEFAULT_255_2_778
10
3.622396
20
4.3834906
11
3.701496
21
4.6958906
0
LINE
8
DEFAULT_255_2_778
10
3.701496
20
4.6958906
11
3.740896
21
4.8522906
0
LINE
8
DEFAULT_255_2_778
10
3.740896
20
4.8522906
11
3.780396
21
5.0086906
0
LINE
8
DEFAULT_255_2_778
10
3.780396
20
5.0086906
11
3.820096
21
5.1647906
0
LINE
8
DEFAULT_255_2_778
10
3.820096
20
5.1647906
11
3.859496
21
5.3210906
0
LINE
8
DEFAULT_255_2_778
10
3.859496
20
5.3210906
11
3.899196
21
5.4771906
0
LINE
8
DEFAULT_255_2_778
10
3.899196
20
5.4771906
11
3.918996
21
5.5552906
0
LINE
8
DEFAULT_255_2_778
10
3.918996
20
5.5552906
11
3.929096
21
5.5941906
0
LINE
8
DEFAULT_255_2_778
10
3.929096
20
5.5941906
11
3.934096
21
5.6137906
0
LINE
8
DEFAULT_255_2_778
10
3.934096
20
5.6137906
11
3.939596
21
5.6330906
0
LINE
8
DEFAULT_255_2_778
10
1.593896
20
5.5925906
11
1.573996
21
5.6155906
0
LINE
8
DEFAULT_255_2_778
10
1.573996
20
5.6155906
11
1.550996
21
5.6348906
0
LINE
8
DEFAULT_255_2_778
10
1.550996
20
5.6348906
11
1.524796
21
5.6502906
0
LINE
8
DEFAULT_255_2_778
10
1.524796
20
5.6502906
11
1.496696
21
5.6608906
0
LINE
8
DEFAULT_255_2_778
10
1.496696
20
5.6608906
11
1.467096
21
5.6666906
0
LINE
8
DEFAULT_255_2_778
10
1.467096
20
5.6666906
11
1.436996
21
5.6679906
0
LINE
8
DEFAULT_255_2_778
10
1.436996
20
5.6679906
11
1.406796
21
5.6650906
0
LINE
8
DEFAULT_255_2_778
10
1.406796
20
5.6650906
11
1.377396
21
5.6576906
0
LINE
8
DEFAULT_255_2_778
10
1.377396
20
5.6576906
11
1.363396
21
5.6520906
0
LINE
8
DEFAULT_255_2_778
10
1.363396
20
5.6520906
11
1.350196
21
5.6449906
0
LINE
8
DEFAULT_255_2_778
10
1.350196
20
5.6449906
11
1.326096
21
5.6266906
0
LINE
8
DEFAULT_255_2_778
10
1.326096
20
5.6266906
11
1.306196
21
5.6041906
0
LINE
8
DEFAULT_255_2_778
10
1.306196
20
5.6041906
11
1.289796
21
5.5787906
0
LINE
8
DEFAULT_255_2_778
10
1.251196
20
5.4652906
11
1.241396
21
5.4062906
0
LINE
8
DEFAULT_255_2_778
10
1.232196
20
5.2874906
11
1.229996
21
5.2279906
0
LINE
8
DEFAULT_255_2_778
10
1.229996
20
5.2279906
11
1.228696
21
5.1684906
0
LINE
8
DEFAULT_255_2_778
10
1.228696
20
5.1684906
11
1.227696
21
5.0491906
0
LINE
8
DEFAULT_255_2_778
10
1.283996
20
5.1448906
11
1.303096
21
5.1657906
0
LINE
8
DEFAULT_255_2_778
10
1.303096
20
5.1657906
11
1.323396
21
5.1848906
0
LINE
8
DEFAULT_255_2_778
10
1.323396
20
5.1848906
11
1.369196
21
5.2168906
0
LINE
8
DEFAULT_255_2_778
10
1.369196
20
5.2168906
11
1.394596
21
5.2290906
0
LINE
8
DEFAULT_255_2_778
10
1.394596
20
5.2290906
11
1.421296
21
5.2377906
0
LINE
8
DEFAULT_255_2_778
10
1.421296
20
5.2377906
11
1.477196
21
5.2448906
0
LINE
8
DEFAULT_255_2_778
10
1.477196
20
5.2448906
11
1.505196
21
5.2438906
0
LINE
8
DEFAULT_255_2_778
10
1.505196
20
5.2438906
11
1.533296
21
5.2396906
0
LINE
8
DEFAULT_255_2_778
10
1.533296
20
5.2396906
11
1.586196
21
5.2218906
0
LINE
8
DEFAULT_255_2_778
10
1.586196
20
5.2218906
11
1.598596
21
5.2152906
0
LINE
8
DEFAULT_255_2_778
10
1.598596
20
5.2152906
11
1.610796
21
5.2078906
0
LINE
8
DEFAULT_255_2_778
10
1.610796
20
5.2078906
11
1.632696
21
5.1903906
0
LINE
8
DEFAULT_255_2_778
10
1.632696
20
5.1903906
11
1.652096
21
5.1700906
0
LINE
8
DEFAULT_255_2_778
10
1.652096
20
5.1700906
11
1.668996
21
5.1475906
0
LINE
8
DEFAULT_255_2_778
10
1.695996
20
5.0983906
11
1.706596
21
5.0723906
0
LINE
8
DEFAULT_255_2_778
10
1.706596
20
5.0723906
11
1.715596
21
5.0456906
0
LINE
8
DEFAULT_255_2_778
10
1.715596
20
5.0456906
11
1.728796
21
4.9914906
0
LINE
8
DEFAULT_255_2_778
10
1.728796
20
4.9914906
11
1.737296
21
4.9363906
0
LINE
8
DEFAULT_255_2_778
10
1.744096
20
4.8247906
11
1.743596
21
4.7689906
0
LINE
8
DEFAULT_255_2_778
10
1.743596
20
4.7689906
11
1.740996
21
4.7130906
0
LINE
8
DEFAULT_255_2_778
10
1.740996
20
4.7130906
11
1.735396
21
4.6575906
0
LINE
8
DEFAULT_255_2_778
10
1.735396
20
4.6575906
11
1.726096
21
4.6022906
0
LINE
8
DEFAULT_255_2_778
10
1.726096
20
4.6022906
11
1.712396
21
4.5479906
0
LINE
8
DEFAULT_255_2_778
10
1.712396
20
4.5479906
11
1.703096
21
4.5215906
0
LINE
8
DEFAULT_255_2_778
10
1.703096
20
4.5215906
11
1.691996
21
4.4955906
0
LINE
8
DEFAULT_255_2_778
10
1.663396
20
4.4477906
11
1.645696
21
4.4260906
0
LINE
8
DEFAULT_255_2_778
10
1.645696
20
4.4260906
11
1.625596
21
4.4061906
0
LINE
8
DEFAULT_255_2_778
10
1.625596
20
4.4061906
11
1.580396
21
4.3736906
0
LINE
8
DEFAULT_255_2_778
10
1.580396
20
4.3736906
11
1.554996
21
4.3611906
0
LINE
8
DEFAULT_255_2_778
10
1.554996
20
4.3611906
11
1.528496
21
4.3516906
0
LINE
8
DEFAULT_255_2_778
10
1.528496
20
4.3516906
11
1.501196
21
4.3453906
0
LINE
8
DEFAULT_255_2_778
10
1.501196
20
4.3453906
11
1.473196
21
4.3418906
0
LINE
8
DEFAULT_255_2_778
10
1.473196
20
4.3418906
11
1.417096
21
4.3442906
0
LINE
8
DEFAULT_255_2_778
10
1.417096
20
4.3442906
11
1.389596
21
4.3500906
0
LINE
8
DEFAULT_255_2_778
10
1.389596
20
4.3500906
11
1.362896
21
4.3588906
0
LINE
8
DEFAULT_255_2_778
10
1.362896
20
4.3588906
11
1.337496
21
4.3704906
0
LINE
8
DEFAULT_255_2_778
10
1.337496
20
4.3704906
11
1.313396
21
4.3852906
0
LINE
8
DEFAULT_255_2_778
10
1.271596
20
4.4225906
11
1.253596
21
4.4445906
0
LINE
8
DEFAULT_255_2_778
10
1.253596
20
4.4445906
11
1.237696
21
4.4678906
0
LINE
8
DEFAULT_255_2_778
10
1.167896
20
4.6784906
11
1.154596
21
4.7884906
0
LINE
8
DEFAULT_255_2_778
10
1.154596
20
4.7884906
11
1.148796
21
4.8998906
0
LINE
8
DEFAULT_255_2_778
10
1.148796
20
4.8998906
11
1.147496
21
5.0115906
0
LINE
8
DEFAULT_255_2_778
10
1.147496
20
5.0115906
11
1.147496
21
5.1231906
0
LINE
8
DEFAULT_255_2_778
10
1.147496
20
5.1231906
11
1.149096
21
5.2348906
0
LINE
8
DEFAULT_255_2_778
10
1.149096
20
5.2348906
11
1.154396
21
5.3462906
0
LINE
8
DEFAULT_255_2_778
10
1.154396
20
5.3462906
11
1.159396
21
5.4017906
0
LINE
8
DEFAULT_255_2_778
10
1.159396
20
5.4017906
11
1.166796
21
5.4570906
0
LINE
8
DEFAULT_255_2_778
10
1.166796
20
5.4570906
11
1.177396
21
5.5118906
0
LINE
8
DEFAULT_255_2_778
10
1.177396
20
5.5118906
11
1.191896
21
5.5655906
0
LINE
8
DEFAULT_255_2_778
10
1.240896
20
5.6661906
11
1.258596
21
5.6880906
0
LINE
8
DEFAULT_255_2_778
10
1.258596
20
5.6880906
11
1.278496
21
5.7081906
0
LINE
8
DEFAULT_255_2_778
10
1.324196
20
5.7401906
11
1.350196
21
5.7515906
0
LINE
8
DEFAULT_255_2_778
10
1.350196
20
5.7515906
11
1.376896
21
5.7597906
0
LINE
8
DEFAULT_255_2_778
10
1.376896
20
5.7597906
11
1.404696
21
5.7647906
0
LINE
8
DEFAULT_255_2_778
10
1.404696
20
5.7647906
11
1.432696
21
5.7666906
0
LINE
8
DEFAULT_255_2_778
10
1.432696
20
5.7666906
11
1.460796
21
5.7655906
0
LINE
8
DEFAULT_255_2_778
10
1.460796
20
5.7655906
11
1.488796
21
5.7613906
0
LINE
8
DEFAULT_255_2_778
10
1.488796
20
5.7613906
11
1.542496
21
5.7449906
0
LINE
8
DEFAULT_255_2_778
10
1.542496
20
5.7449906
11
1.567896
21
5.7327906
0
LINE
8
DEFAULT_255_2_778
10
1.567896
20
5.7327906
11
1.591996
21
5.7182906
0
LINE
8
DEFAULT_255_2_778
10
1.634896
20
5.6825906
11
1.653396
21
5.6610906
0
LINE
8
DEFAULT_255_2_778
10
1.653396
20
5.6610906
11
1.669296
21
5.6380906
0
LINE
8
DEFAULT_255_2_778
10
1.694096
20
5.5875906
11
1.694096
21
5.5904906
0
LINE
8
DEFAULT_255_2_778
10
1.345696
20
4.4950906
11
1.326896
21
4.5164906
0
LINE
8
DEFAULT_255_2_778
10
1.326896
20
4.5164906
11
1.310496
21
4.5395906
0
LINE
8
DEFAULT_255_2_778
10
1.251696
20
4.8670906
11
1.256496
21
4.8951906
0
LINE
8
DEFAULT_255_2_778
10
1.256496
20
4.8951906
11
1.262896
21
4.9228906
0
LINE
8
DEFAULT_255_2_778
10
1.338496
20
5.0747906
11
1.357796
21
5.0959906
0
LINE
8
DEFAULT_255_2_778
10
1.357796
20
5.0959906
11
1.379496
21
5.1147906
0
LINE
8
DEFAULT_255_2_778
10
1.379496
20
5.1147906
11
1.403596
21
5.1300906
0
LINE
8
DEFAULT_255_2_778
10
1.403596
20
5.1300906
11
1.416796
21
5.1361906
0
LINE
8
DEFAULT_255_2_778
10
1.416796
20
5.1361906
11
1.430296
21
5.1409906
0
LINE
8
DEFAULT_255_2_778
10
1.430296
20
5.1409906
11
1.458096
21
5.1467906
0
LINE
8
DEFAULT_255_2_778
10
1.458096
20
5.1467906
11
1.486696
21
5.1483906
0
LINE
8
DEFAULT_255_2_778
10
1.486696
20
5.1483906
11
1.515296
21
5.1459906
0
LINE
8
DEFAULT_255_2_778
10
1.515296
20
5.1459906
11
1.543096
21
5.1390906
0
LINE
8
DEFAULT_255_2_778
10
1.543096
20
5.1390906
11
1.556296
21
5.1337906
0
LINE
8
DEFAULT_255_2_778
10
1.556296
20
5.1337906
11
1.568996
21
5.1268906
0
LINE
8
DEFAULT_255_2_778
10
1.568996
20
5.1268906
11
1.591496
21
5.1094906
0
LINE
8
DEFAULT_255_2_778
10
1.591496
20
5.1094906
11
1.609496
21
5.0872906
0
LINE
8
DEFAULT_255_2_778
10
1.609496
20
5.0872906
11
1.623496
21
5.0623906
0
LINE
8
DEFAULT_255_2_778
10
1.623496
20
5.0623906
11
1.634596
21
5.0358906
0
LINE
8
DEFAULT_255_2_778
10
1.634596
20
5.0358906
11
1.643296
21
5.0086906
0
LINE
8
DEFAULT_255_2_778
10
1.654996
20
4.9533906
11
1.661596
21
4.8969906
0
LINE
8
DEFAULT_255_2_778
10
1.661596
20
4.8969906
11
1.664496
21
4.8403906
0
LINE
8
DEFAULT_255_2_778
10
1.664496
20
4.8403906
11
1.664196
21
4.7837906
0
LINE
8
DEFAULT_255_2_778
10
1.664196
20
4.7837906
11
1.661296
21
4.7271906
0
LINE
8
DEFAULT_255_2_778
10
1.661296
20
4.7271906
11
1.654396
21
4.6707906
0
LINE
8
DEFAULT_255_2_778
10
1.654396
20
4.6707906
11
1.642296
21
4.6151906
0
LINE
8
DEFAULT_255_2_778
10
1.642296
20
4.6151906
11
1.633496
21
4.5881906
0
LINE
8
DEFAULT_255_2_778
10
1.633496
20
4.5881906
11
1.622996
21
4.5617906
0
LINE
8
DEFAULT_255_2_778
10
1.595196
20
4.5125906
11
1.576896
21
4.4905906
0
LINE
8
DEFAULT_255_2_778
10
1.576896
20
4.4905906
11
1.555196
21
4.4720906
0
LINE
8
DEFAULT_255_2_778
10
1.555196
20
4.4720906
11
1.543096
21
4.4643906
0
LINE
8
DEFAULT_255_2_778
10
1.543096
20
4.4643906
11
1.530096
21
4.4580906
0
LINE
8
DEFAULT_255_2_778
10
1.530096
20
4.4580906
11
1.503096
21
4.4487906
0
LINE
8
DEFAULT_255_2_778
10
1.503096
20
4.4487906
11
1.474796
21
4.4442906
0
LINE
8
DEFAULT_255_2_778
10
1.474796
20
4.4442906
11
1.446196
21
4.4447906
0
LINE
8
DEFAULT_255_2_778
10
1.446196
20
4.4447906
11
1.417896
21
4.4503906
0
LINE
8
DEFAULT_255_2_778
10
1.417896
20
4.4503906
11
1.390896
21
4.4609906
0
ARC
8
DEFAULT_255_2_778
10
5.5895906
20
-3.4765178
40
8.6045135
50
109.3691565
51
109.9100216
0
ARC
8
DEFAULT_255_2_778
10
3.1329687
20
5.4068197
40
0.4680218
50
163.7365058
51
173.5874256
0
ARC
8
DEFAULT_255_2_778
10
2.9919024
20
5.4675216
40
0.313426
50
137.5935368
51
152.3874086
0
ARC
8
DEFAULT_255_2_778
10
2.8297605
20
5.4292213
40
0.4144031
50
21.2166097
51
32.4200003
0
ARC
8
DEFAULT_255_2_778
10
2.6852615
20
5.3701971
40
0.570475
50
13.3265165
51
21.4908011
0
ARC
8
DEFAULT_255_2_778
10
2.6829414
20
5.3657757
40
0.5730842
50
13.4210533
51
21.4655996
0
ARC
8
DEFAULT_255_2_778
10
2.8293524
20
5.4256723
40
0.4149156
50
21.1667757
51
32.2196987
0
ARC
8
DEFAULT_255_2_778
10
3.0581388
20
5.4271472
40
0.3896383
50
151.7298094
51
163.6408636
0
ARC
8
DEFAULT_255_2_778
10
2.9202097
20
5.3711226
40
0.2546398
50
188.0436211
51
197.1368775
0
ARC
8
DEFAULT_255_2_778
10
2.9016104
20
5.3656269
40
0.2352469
50
197.1925652
51
207.0917143
0
ARC
8
DEFAULT_255_2_778
10
3.006528
20
4.7705273
40
0.1825615
50
9.8925675
51
22.4324307
0
ARC
8
DEFAULT_255_2_778
10
2.9024547
20
4.7533624
40
0.288038
50
1.6371644
51
9.6995781
0
ARC
8
DEFAULT_255_2_778
10
3.046247
20
4.6954578
40
0.3151147
50
189.9533042
51
197.2921878
0
ARC
8
DEFAULT_255_2_778
10
2.9843788
20
4.6833645
40
0.2516192
50
189.0255753
51
198.2199892
0
ARC
8
DEFAULT_255_2_778
10
6.3680408
20
-3.3749437
40
9.4085146
50
109.4162891
51
109.910361
0
ARC
8
DEFAULT_255_2_778
10
2.7921693
20
5.3843221
40
0.3818191
50
13.1508063
51
19.2797802
0
ARC
8
DEFAULT_255_2_778
10
2.9957796
20
5.4355807
40
0.2476831
50
159.1116393
51
168.492712
0
ARC
8
DEFAULT_255_2_778
10
3.0975598
20
5.4117423
40
0.3521863
50
167.9957194
51
174.5336965
0
ARC
8
DEFAULT_255_2_778
10
2.9118339
20
5.3794209
40
0.1668193
50
185.1000045
51
198.970309
0
ARC
8
DEFAULT_255_2_778
10
2.9168872
20
4.7623928
40
0.3531774
50
5.0842706
51
11.5805762
0
ARC
8
DEFAULT_255_2_778
10
2.7617273
20
4.7536101
40
0.5088555
50
346.3808795
51
355.4441955
0
ARC
8
DEFAULT_255_2_778
10
2.8353131
20
4.7251044
40
0.4299236
50
326.320493
51
337.0393408
0
ARC
8
DEFAULT_255_2_778
10
3.0594963
20
4.6827119
40
0.4021565
50
201.1680066
51
212.5408487
0
ARC
8
DEFAULT_255_2_778
10
3.2327706
20
4.7477818
40
0.5872392
50
193.1692881
51
200.9835296
0
ARC
8
DEFAULT_255_2_778
10
-0.1927405
20
12.7344011
40
8.6045135
50
289.3691565
51
289.9100216
0
LINE
8
DEFAULT_255_2_778
10
4.3008751
20
5.4010916
11
4.2960751
21
5.5042916
0
ARC
8
DEFAULT_255_2_778
10
16.2454376
20
-15.3876061
40
22.9340514
50
119.5384572
51
119.7445549
0
ARC
8
DEFAULT_255_2_778
10
5.0645915
20
4.6437839
40
0.3236846
50
321.2067462
51
335.3905435
0
ARC
8
DEFAULT_255_2_778
10
4.7656184
20
4.7470475
40
0.6412295
50
345.3056562
51
352.4406401
0
ARC
8
DEFAULT_255_2_778
10
5.0543933
20
4.7989774
40
0.353033
50
10.2655537
51
16.846879
0
ARC
8
DEFAULT_255_2_778
10
5.1150788
20
4.8188191
40
0.2892049
50
16.5690105
51
32.5429795
0
ARC
8
DEFAULT_255_2_778
10
5.058681
20
5.3500971
40
0.3396903
50
343.1428796
51
349.5854504
0
ARC
8
DEFAULT_255_2_778
10
5.1017206
20
5.3423839
40
0.2959655
50
349.5478719
51
356.9801057
0
ARC
8
DEFAULT_255_2_778
10
4.981252
20
5.4416917
40
0.4104286
50
15.8505482
51
26.5573647
0
ARC
8
DEFAULT_255_2_778
10
5.1078517
20
5.4986574
40
0.2667685
50
92.4011868
51
108.8014144
0
ARC
8
DEFAULT_255_2_778
10
16.2446376
20
-15.3897061
40
22.9340514
50
119.5384572
51
119.7445549
0
ARC
8
DEFAULT_255_2_778
10
0.3329613
20
-1.7603196
40
8.6367923
50
57.7790498
51
58.3395683
0
ARC
8
DEFAULT_255_2_778
10
5.1646988
20
5.4577545
40
0.2434341
50
144.0726711
51
158.6471006
0
ARC
8
DEFAULT_255_2_778
10
4.7324407
20
5.3847114
40
0.5865459
50
0.3595025
51
6.449014
0
ARC
8
DEFAULT_255_2_778
10
5.0791911
20
5.3532427
40
0.238943
50
346.0381915
51
353.4512716
0
ARC
8
DEFAULT_255_2_778
10
5.1093057
20
5.3583808
40
0.2122402
50
301.1757705
51
317.9371982
0
ARC
8
DEFAULT_255_2_778
10
5.0919389
20
5.3548966
40
0.2262656
50
345.2768951
51
353.1198684
0
ARC
8
DEFAULT_255_2_778
10
-950.8672585
20
-42.1797959
40
957.1418692
50
2.8271216
51
2.8329412
0
ARC
8
DEFAULT_255_2_778
10
5.1108417
20
4.7995711
40
0.2162094
50
5.4461656
51
14.0586583
0
ARC
8
DEFAULT_255_2_778
10
5.0888774
20
4.6490442
40
0.2194879
50
320.3506255
51
337.5118222
0
ARC
8
DEFAULT_255_2_778
10
5.171845
20
4.645406
40
0.2472113
50
198.9093792
51
212.8545903
0
ARC
8
DEFAULT_255_2_778
10
-3246.000135
20
1164.1818566
40
3452.0059369
50
340.3765451
51
340.3921339
0
ARC
8
DEFAULT_255_2_778
10
-12366.8228262
20
4416.1713792
40
13135.2294748
50
340.3765448
51
340.3806417
0
ARC
8
DEFAULT_255_2_778
10
7.3179765
20
4.8477849
40
0.3450506
50
150.5961602
51
162.0209022
0
ARC
8
DEFAULT_255_2_778
10
7.2586623
20
4.9209453
40
0.2550069
50
134.8952863
51
142.639227
0
ARC
8
DEFAULT_255_2_778
10
7.2342316
20
4.9458845
40
0.2200967
50
126.1568389
51
134.9722707
0
ARC
8
DEFAULT_255_2_778
10
7.2124895
20
4.9746921
40
0.1840104
50
115.7057455
51
125.9830088
0
ARC
8
DEFAULT_255_2_778
10
7.213719
20
4.9584134
40
0.1999966
50
95.4928304
51
104.6683654
0
ARC
8
DEFAULT_255_2_778
10
7.2279206
20
4.9631126
40
0.1966837
50
90.0087216
51
90.3919659
0
ARC
8
DEFAULT_255_2_778
10
7.2277744
20
4.960921
40
0.1988751
50
77.5129112
51
89.9665
0
ARC
8
DEFAULT_255_2_778
10
7.2351849
20
4.9991019
40
0.1599983
50
69.0184383
51
77.14755
0
ARC
8
DEFAULT_255_2_778
10
7.2387156
20
5.0120498
40
0.1466508
50
59.4870726
51
68.49507
0
ARC
8
DEFAULT_255_2_778
10
7.2368862
20
5.0109024
40
0.1485715
50
50.1061923
51
59.1039274
0
ARC
8
DEFAULT_255_2_778
10
7.2423274
20
5.0170655
40
0.1403534
50
40.486019
51
50.1967479
0
ARC
8
DEFAULT_255_2_778
10
7.2200625
20
4.996382
40
0.1707209
50
32.7316406
51
40.914073
0
ARC
8
DEFAULT_255_2_778
10
7.1683606
20
4.964604
40
0.231399
50
26.2617296
51
32.4287027
0
ARC
8
DEFAULT_255_2_778
10
7.1068026
20
4.9362817
40
0.2991406
50
16.3301675
51
25.9095448
0
ARC
8
DEFAULT_255_2_778
10
7.1460141
20
4.6790838
40
0.2494089
50
312.394981
51
323.4891343
0
ARC
8
DEFAULT_255_2_778
10
7.218315
20
4.6025656
40
0.1441625
50
288.4231723
51
311.6780656
0
ARC
8
DEFAULT_255_2_778
10
7.2106898
20
4.6218725
40
0.1648936
50
278.9613759
51
288.8167758
0
ARC
8
DEFAULT_255_2_778
10
7.1951739
20
4.6953856
40
0.2399576
50
273.1536904
51
279.8867759
0
ARC
8
DEFAULT_255_2_778
10
7.1930074
20
4.6137957
40
0.158333
50
255.0926118
51
265.3149684
0
ARC
8
DEFAULT_255_2_778
10
7.1907061
20
4.6087656
40
0.152883
50
244.6605206
51
255.4410867
0
ARC
8
DEFAULT_255_2_778
10
7.2011559
20
4.6300149
40
0.1765607
50
234.9961249
51
244.5469015
0
ARC
8
DEFAULT_255_2_778
10
7.2627523
20
4.7117997
40
0.2789078
50
223.4209334
51
234.2688749
0
ARC
8
DEFAULT_255_2_778
10
7.2820996
20
4.7302472
40
0.3056401
50
213.3790213
51
223.4397612
0
ARC
8
DEFAULT_255_2_778
10
7.3429292
20
4.7658225
40
0.376209
50
195.8786059
51
204.4196037
0
ARC
8
DEFAULT_255_2_778
10
7.3966727
20
4.7810639
40
0.4320718
50
186.1344852
51
195.8727309
0
ARC
8
DEFAULT_255_2_778
10
7.3183768
20
4.7714806
40
0.353202
50
179.9171015
51
185.9460627
0
ARC
8
DEFAULT_255_2_778
10
7.6381741
20
4.7876196
40
0.6725387
50
171.8818853
51
178.1789416
0
ARC
8
DEFAULT_255_2_778
10
7.3744327
20
4.8262092
40
0.4059918
50
161.6993975
51
172.0172026
0
ARC
8
DEFAULT_255_2_778
10
7.2229694
20
4.9487525
40
0.2994381
50
141.1483978
51
149.3082002
0
ARC
8
DEFAULT_255_2_778
10
7.248952
20
4.9343724
40
0.3291222
50
149.4642055
51
157.0527573
0
ARC
8
DEFAULT_255_2_778
10
7.2248054
20
5.4646587
40
0.2477656
50
147.442797
51
154.6620516
0
ARC
8
DEFAULT_255_2_778
10
7.1994642
20
5.4806003
40
0.2178279
50
139.3186977
51
147.390004
0
ARC
8
DEFAULT_255_2_778
10
7.1476468
20
5.5322073
40
0.1446024
50
117.9932577
51
129.4965343
0
ARC
8
DEFAULT_255_2_778
10
7.1706888
20
5.4725211
40
0.2086617
50
100.1896483
51
107.9808572
0
ARC
8
DEFAULT_255_2_778
10
7.1768679
20
5.4263585
40
0.2551978
50
93.4580199
51
99.7215712
0
ARC
8
DEFAULT_255_2_778
10
7.1813127
20
5.460829
40
0.2206174
50
73.2550798
51
87.8536961
0
ARC
8
DEFAULT_255_2_778
10
7.180225
20
5.4703211
40
0.2118749
50
64.4593713
51
72.2338093
0
ARC
8
DEFAULT_255_2_778
10
7.1740384
20
5.460256
40
0.2236273
50
56.7122281
51
64.1410523
0
ARC
8
DEFAULT_255_2_778
10
7.1893394
20
5.4870986
40
0.1926506
50
38.3728876
51
47.3049534
0
ARC
8
DEFAULT_255_2_778
10
7.1785825
20
5.4752375
40
0.2084635
50
30.6758972
51
39.0933644
0
ARC
8
DEFAULT_255_2_778
10
7.1294661
20
5.4476673
40
0.2647761
50
23.5578494
51
30.3846269
0
ARC
8
DEFAULT_255_2_778
10
7.1345241
20
5.458644
40
0.3453155
50
24.1263241
51
35.3212395
0
ARC
8
DEFAULT_255_2_778
10
7.1830632
20
5.493945
40
0.2853026
50
35.1727292
51
41.8224194
0
ARC
8
DEFAULT_255_2_778
10
7.2055684
20
5.5157399
40
0.254001
50
41.5438529
51
48.9500732
0
ARC
8
DEFAULT_255_2_778
10
7.1599271
20
5.4572532
40
0.3284997
50
55.2278691
51
60.722794
0
ARC
8
DEFAULT_255_2_778
10
7.1791174
20
5.4745041
40
0.3045873
50
68.1911388
51
73.9996016
0
ARC
8
DEFAULT_255_2_778
10
7.1881253
20
5.4994538
40
0.2781269
50
74.3666455
51
80.657541
0
ARC
8
DEFAULT_255_2_778
10
7.1824026
20
5.4652171
40
0.3128386
50
80.6412515
51
86.2661852
0
ARC
8
DEFAULT_255_2_778
10
7.1496951
20
5.5504777
40
0.223931
50
107.6295571
51
115.5610544
0
ARC
8
DEFAULT_255_2_778
10
7.1598061
20
5.5282907
40
0.2483094
50
115.456822
51
122.7231105
0
ARC
8
DEFAULT_255_2_778
10
7.1729582
20
5.509319
40
0.2713812
50
122.8939282
51
129.7092243
0
ARC
8
DEFAULT_255_2_778
10
7.1595432
20
5.5291215
40
0.2475874
50
130.2487867
51
137.7498175
0
ARC
8
DEFAULT_255_2_778
10
7.172158
20
5.5168781
40
0.2651578
50
137.6242712
51
144.7290756
0
ARC
8
DEFAULT_255_2_778
10
7.2788361
20
5.4497872
40
0.3912839
50
150.680362
51
160.6411171
0
ARC
8
DEFAULT_255_2_778
10
7.3600237
20
4.7304616
40
0.473793
50
198.9000153
51
207.5813644
0
ARC
8
DEFAULT_255_2_778
10
7.202767
20
4.6398743
40
0.2919092
50
213.116511
51
220.0376965
0
ARC
8
DEFAULT_255_2_778
10
7.1820134
20
4.6198917
40
0.2631724
50
219.6134707
51
227.072821
0
ARC
8
DEFAULT_255_2_778
10
7.1628291
20
4.5783867
40
0.2181343
50
241.0599263
51
249.7068989
0
ARC
8
DEFAULT_255_2_778
10
7.1820259
20
4.6285357
40
0.2718294
50
249.5778097
51
256.5230786
0
ARC
8
DEFAULT_255_2_778
10
7.1828951
20
4.6419948
40
0.2851295
50
256.9835236
51
263.5116299
0
ARC
8
DEFAULT_255_2_778
10
7.2055352
20
4.6395984
40
0.2830017
50
278.4814767
51
285.0405817
0
ARC
8
DEFAULT_255_2_778
10
7.2131157
20
4.6140057
40
0.2563196
50
284.8887017
51
292.202739
0
ARC
8
DEFAULT_255_2_778
10
7.2163637
20
4.607802
40
0.2493494
50
292.0504399
51
299.6918215
0
ARC
8
DEFAULT_255_2_778
10
7.2103101
20
4.6143249
40
0.2580224
50
300.1421029
51
315.0991906
0
ARC
8
DEFAULT_255_2_778
10
7.1650855
20
4.6555315
40
0.3191551
50
315.590249
51
321.8521166
0
ARC
8
DEFAULT_255_2_778
10
7.1740381
20
4.6470636
40
0.3068859
50
322.0629717
51
328.6696582
0
ARC
8
DEFAULT_255_2_778
10
7.1401369
20
4.6652118
40
0.3452869
50
329.0224018
51
335.0007947
0
ARC
8
DEFAULT_255_2_778
10
6.9800405
20
4.7264163
40
0.5170236
50
340.3896158
51
348.4947112
0
ARC
8
DEFAULT_255_2_778
10
6.9548922
20
4.892589
40
0.544511
50
10.2724986
51
18.0264955
0
ARC
8
DEFAULT_255_2_778
10
7.1939244
20
4.9922992
40
0.2847521
50
28.4131465
51
42.5864878
0
ARC
8
DEFAULT_255_2_778
10
7.2356776
20
5.0300654
40
0.228455
50
42.6990699
51
59.6896652
0
ARC
8
DEFAULT_255_2_778
10
7.2386853
20
5.0279776
40
0.2288442
50
68.9787327
51
77.1513001
0
ARC
8
DEFAULT_255_2_778
10
7.2269229
20
4.9822171
40
0.2760775
50
76.8832042
51
90.0008522
0
ARC
8
DEFAULT_255_2_778
10
7.2268068
20
5.0075349
40
0.2507598
50
89.9744148
51
90.281446
0
ARC
8
DEFAULT_255_2_778
10
7.214681
20
4.98804
40
0.2687604
50
94.1620283
51
106.8279679
0
ARC
8
DEFAULT_255_2_778
10
7.1987405
20
5.039593
40
0.2148005
50
106.739054
51
114.7315175
0
ARC
8
DEFAULT_255_2_778
10
7.2048358
20
5.014804
40
0.2399146
50
113.5768335
51
120.748344
0
ARC
8
DEFAULT_255_2_778
10
7.2015648
20
5.0173289
40
0.2360772
50
120.3793833
51
127.8296093
0
ARC
8
DEFAULT_255_2_778
10
7.2193298
20
4.988146
40
0.2700501
50
127.0091677
51
133.6360127
0
ARC
8
DEFAULT_255_2_778
10
7.2772278
20
4.9269474
40
0.354296
50
133.5828734
51
143.8410741
0
LINE
8
DEFAULT_255_2_778
10
2.6641751
20
5.3952916
11
2.6646751
21
5.4185916
0
LINE
8
DEFAULT_255_2_778
10
2.6646751
20
5.4185916
11
2.6678751
21
5.4590916
0
LINE
8
DEFAULT_255_2_778
10
2.6836751
20
5.5378916
11
2.6969751
21
5.5759916
0
LINE
8
DEFAULT_255_2_778
10
2.6969751
20
5.5759916
11
2.7141751
21
5.6127916
0
LINE
8
DEFAULT_255_2_778
10
2.7604751
20
5.6788916
11
2.7747751
21
5.6934916
0
LINE
8
DEFAULT_255_2_778
10
2.7747751
20
5.6934916
11
2.7900751
21
5.7066916
0
LINE
8
DEFAULT_255_2_778
10
2.7900751
20
5.7066916
11
2.8231751
21
5.7294916
0
LINE
8
DEFAULT_255_2_778
10
2.8231751
20
5.7294916
11
2.8411751
21
5.7389916
0
LINE
8
DEFAULT_255_2_778
10
2.8411751
20
5.7389916
11
2.8596751
21
5.7471916
0
LINE
8
DEFAULT_255_2_778
10
2.8596751
20
5.7471916
11
2.8982751
21
5.7595916
0
LINE
8
DEFAULT_255_2_778
10
2.8982751
20
5.7595916
11
2.9382751
21
5.7667916
0
LINE
8
DEFAULT_255_2_778
10
2.9382751
20
5.7667916
11
2.9787751
21
5.7691916
0
LINE
8
DEFAULT_255_2_778
10
2.9787751
20
5.7691916
11
3.0189751
21
5.7659916
0
LINE
8
DEFAULT_255_2_778
10
3.0189751
20
5.7659916
11
3.0390751
21
5.7617916
0
LINE
8
DEFAULT_255_2_778
10
3.0390751
20
5.7617916
11
3.0583751
21
5.7553916
0
LINE
8
DEFAULT_255_2_778
10
3.0583751
20
5.7553916
11
3.0945751
21
5.7373916
0
LINE
8
DEFAULT_255_2_778
10
3.0945751
20
5.7373916
11
3.1115751
21
5.7259916
0
LINE
8
DEFAULT_255_2_778
10
3.1115751
20
5.7259916
11
3.1271751
21
5.7130916
0
LINE
8
DEFAULT_255_2_778
10
3.1271751
20
5.7130916
11
3.1554751
21
5.6839916
0
LINE
8
DEFAULT_255_2_778
10
3.1554751
20
5.6839916
11
3.1795751
21
5.6513916
0
LINE
8
DEFAULT_255_2_778
10
3.2403751
20
5.5016916
11
3.2403751
21
5.4987916
0
LINE
8
DEFAULT_255_2_778
10
3.1803751
20
5.6468916
11
3.1565751
21
5.6796916
0
LINE
8
DEFAULT_255_2_778
10
3.1565751
20
5.6796916
11
3.1284751
21
5.7090916
0
LINE
8
DEFAULT_255_2_778
10
3.1284751
20
5.7090916
11
3.0961751
21
5.7336916
0
LINE
8
DEFAULT_255_2_778
10
3.0961751
20
5.7336916
11
3.0601751
21
5.7519916
0
LINE
8
DEFAULT_255_2_778
10
3.0601751
20
5.7519916
11
3.0210751
21
5.7630916
0
LINE
8
DEFAULT_255_2_778
10
3.0210751
20
5.7630916
11
2.9805751
21
5.7667916
0
LINE
8
DEFAULT_255_2_778
10
2.9805751
20
5.7667916
11
2.9601751
21
5.7662916
0
LINE
8
DEFAULT_255_2_778
10
2.9601751
20
5.7662916
11
2.9400751
21
5.7646916
0
LINE
8
DEFAULT_255_2_778
10
2.9400751
20
5.7646916
11
2.9003751
21
5.7577916
0
LINE
8
DEFAULT_255_2_778
10
2.9003751
20
5.7577916
11
2.8614751
21
5.7455916
0
LINE
8
DEFAULT_255_2_778
10
2.8614751
20
5.7455916
11
2.8249751
21
5.7281916
0
LINE
8
DEFAULT_255_2_778
10
2.8249751
20
5.7281916
11
2.7916751
21
5.7056916
0
LINE
8
DEFAULT_255_2_778
10
2.7916751
20
5.7056916
11
2.7762751
21
5.6923916
0
LINE
8
DEFAULT_255_2_778
10
2.7762751
20
5.6923916
11
2.7617751
21
5.6778916
0
LINE
8
DEFAULT_255_2_778
10
2.7617751
20
5.6778916
11
2.7363751
21
5.6463916
0
LINE
8
DEFAULT_255_2_778
10
2.7363751
20
5.6463916
11
2.7149751
21
5.6116916
0
LINE
8
DEFAULT_255_2_778
10
2.6842751
20
5.5368916
11
2.6744751
21
5.4973916
0
LINE
8
DEFAULT_255_2_778
10
2.6744751
20
5.4973916
11
2.6680751
21
5.4571916
0
LINE
8
DEFAULT_255_2_778
10
2.6680751
20
5.4571916
11
2.6649751
21
5.4166916
0
LINE
8
DEFAULT_255_2_778
10
2.6649751
20
5.4166916
11
2.6646751
21
5.3762916
0
LINE
8
DEFAULT_255_2_778
10
2.6646751
20
5.3762916
11
2.6656751
21
5.3558916
0
LINE
8
DEFAULT_255_2_778
10
2.6656751
20
5.3558916
11
2.6680751
21
5.3354916
0
LINE
8
DEFAULT_255_2_778
10
2.6921751
20
5.2584916
11
2.7130751
21
5.2232916
0
LINE
8
DEFAULT_255_2_778
10
2.7130751
20
5.2232916
11
2.7379751
21
5.1912916
0
LINE
8
DEFAULT_255_2_778
10
2.7379751
20
5.1912916
11
2.7667751
21
5.1621916
0
LINE
8
DEFAULT_255_2_778
10
2.7667751
20
5.1621916
11
2.7977751
21
5.1359916
0
LINE
8
DEFAULT_255_2_778
10
2.7977751
20
5.1359916
11
2.8307751
21
5.1124916
0
LINE
8
DEFAULT_255_2_778
10
2.8307751
20
5.1124916
11
2.8649751
21
5.0904916
0
LINE
8
DEFAULT_255_2_778
10
2.8649751
20
5.0904916
11
2.8987751
21
5.0682916
0
LINE
8
DEFAULT_255_2_778
10
2.8987751
20
5.0682916
11
2.9321751
21
5.0452916
0
LINE
8
DEFAULT_255_2_778
10
2.9321751
20
5.0452916
11
2.9657751
21
5.0227916
0
LINE
8
DEFAULT_255_2_778
10
2.9657751
20
5.0227916
11
2.9998751
21
5.0010916
0
LINE
8
DEFAULT_255_2_778
10
2.9998751
20
5.0010916
11
3.0347751
21
4.9801916
0
LINE
8
DEFAULT_255_2_778
10
3.0347751
20
4.9801916
11
3.0689751
21
4.9584916
0
LINE
8
DEFAULT_255_2_778
10
3.0689751
20
4.9584916
11
3.1012751
21
4.9343916
0
LINE
8
DEFAULT_255_2_778
10
3.1012751
20
4.9343916
11
3.1308751
21
4.9071916
0
LINE
8
DEFAULT_255_2_778
10
3.1308751
20
4.9071916
11
3.1559751
21
4.8756916
0
LINE
8
DEFAULT_255_2_778
10
3.1559751
20
4.8756916
11
3.1665751
21
4.8584916
0
LINE
8
DEFAULT_255_2_778
10
3.1665751
20
4.8584916
11
3.1752751
21
4.8401916
0
LINE
8
DEFAULT_255_2_778
10
3.1903751
20
4.7615916
11
3.1890751
21
4.7216916
0
LINE
8
DEFAULT_255_2_778
10
3.1890751
20
4.7216916
11
3.1832751
21
4.6819916
0
LINE
8
DEFAULT_255_2_778
10
3.1832751
20
4.6819916
11
3.1742751
21
4.6427916
0
LINE
8
DEFAULT_255_2_778
10
3.1742751
20
4.6427916
11
3.1612751
21
4.6052916
0
LINE
8
DEFAULT_255_2_778
10
3.1612751
20
4.6052916
11
3.1438751
21
4.5692916
0
LINE
8
DEFAULT_255_2_778
10
3.1438751
20
4.5692916
11
3.1334751
21
4.5520916
0
LINE
8
DEFAULT_255_2_778
10
3.1334751
20
4.5520916
11
3.1218751
21
4.5356916
0
LINE
8
DEFAULT_255_2_778
10
3.1218751
20
4.5356916
11
3.0951751
21
4.5057916
0
LINE
8
DEFAULT_255_2_778
10
3.0951751
20
4.5057916
11
3.0641751
21
4.4800916
0
LINE
8
DEFAULT_255_2_778
10
3.0641751
20
4.4800916
11
3.0295751
21
4.4602916
0
LINE
8
DEFAULT_255_2_778
10
3.0295751
20
4.4602916
11
3.0104751
21
4.4530916
0
LINE
8
DEFAULT_255_2_778
10
3.0104751
20
4.4530916
11
2.9908751
21
4.4480916
0
LINE
8
DEFAULT_255_2_778
10
2.9908751
20
4.4480916
11
2.9509751
21
4.4432916
0
LINE
8
DEFAULT_255_2_778
10
2.9509751
20
4.4432916
11
2.9107751
21
4.4451916
0
LINE
8
DEFAULT_255_2_778
10
2.9107751
20
4.4451916
11
2.8908751
21
4.4485916
0
LINE
8
DEFAULT_255_2_778
10
2.8908751
20
4.4485916
11
2.8712751
21
4.4541916
0
LINE
8
DEFAULT_255_2_778
10
2.8712751
20
4.4541916
11
2.8352751
21
4.4716916
0
LINE
8
DEFAULT_255_2_778
10
2.8352751
20
4.4716916
11
2.8191751
21
4.4837916
0
LINE
8
DEFAULT_255_2_778
10
2.8191751
20
4.4837916
11
2.8046751
21
4.4975916
0
LINE
8
DEFAULT_255_2_778
10
2.8046751
20
4.4975916
11
2.7794751
21
4.5292916
0
LINE
8
DEFAULT_255_2_778
10
2.7794751
20
4.5292916
11
2.7598751
21
4.5642916
0
LINE
8
DEFAULT_255_2_778
10
2.7598751
20
4.5642916
11
2.7453751
21
4.6017916
0
LINE
8
DEFAULT_255_2_778
10
2.7358751
20
4.6409916
11
2.7358751
21
4.6438916
0
LINE
8
DEFAULT_255_2_778
10
2.7453751
20
4.6046916
11
2.7588751
21
4.5692916
0
LINE
8
DEFAULT_255_2_778
10
3.1525751
20
5.5103916
11
3.1377751
21
5.5479916
0
LINE
8
DEFAULT_255_2_778
10
3.1377751
20
5.5479916
11
3.1181751
21
5.5833916
0
LINE
8
DEFAULT_255_2_778
10
3.1181751
20
5.5833916
11
3.0932751
21
5.6153916
0
LINE
8
DEFAULT_255_2_778
10
3.0932751
20
5.6153916
11
3.0784751
21
5.6294916
0
LINE
8
DEFAULT_255_2_778
10
3.0784751
20
5.6294916
11
3.0623751
21
5.6421916
0
LINE
8
DEFAULT_255_2_778
10
3.0623751
20
5.6421916
11
3.0448751
21
5.6527916
0
LINE
8
DEFAULT_255_2_778
10
3.0448751
20
5.6527916
11
3.0257751
21
5.6603916
0
LINE
8
DEFAULT_255_2_778
10
3.0257751
20
5.6603916
11
2.9855751
21
5.6669916
0
LINE
8
DEFAULT_255_2_778
10
2.9855751
20
5.6669916
11
2.9448751
21
5.6646916
0
LINE
8
DEFAULT_255_2_778
10
2.9448751
20
5.6646916
11
2.9247751
21
5.6616916
0
LINE
8
DEFAULT_255_2_778
10
2.9247751
20
5.6616916
11
2.9046751
21
5.6577916
0
LINE
8
DEFAULT_255_2_778
10
2.9046751
20
5.6577916
11
2.8853751
21
5.6519916
0
LINE
8
DEFAULT_255_2_778
10
2.8853751
20
5.6519916
11
2.8670751
21
5.6437916
0
LINE
8
DEFAULT_255_2_778
10
2.8670751
20
5.6437916
11
2.8495751
21
5.6336916
0
LINE
8
DEFAULT_255_2_778
10
2.8495751
20
5.6336916
11
2.8331751
21
5.6217916
0
LINE
8
DEFAULT_255_2_778
10
2.8331751
20
5.6217916
11
2.8048751
21
5.5934916
0
LINE
8
DEFAULT_255_2_778
10
2.8048751
20
5.5934916
11
2.7818751
21
5.5600916
0
LINE
8
DEFAULT_255_2_778
10
2.7818751
20
5.5600916
11
2.7643751
21
5.5238916
0
LINE
8
DEFAULT_255_2_778
10
2.7469751
20
5.4452916
11
2.7442751
21
5.4050916
0
LINE
8
DEFAULT_255_2_778
10
2.7442751
20
5.4050916
11
2.7442751
21
5.3846916
0
LINE
8
DEFAULT_255_2_778
10
2.7442751
20
5.3846916
11
2.7456751
21
5.3645916
0
LINE
8
DEFAULT_255_2_778
10
2.7540751
20
5.3251916
11
2.7617751
21
5.3063916
0
LINE
8
DEFAULT_255_2_778
10
2.7617751
20
5.3063916
11
2.7715751
21
5.2889916
0
LINE
8
DEFAULT_255_2_778
10
2.7715751
20
5.2889916
11
2.7831751
21
5.2722916
0
LINE
8
DEFAULT_255_2_778
10
2.7831751
20
5.2722916
11
2.7964751
21
5.2566916
0
LINE
8
DEFAULT_255_2_778
10
2.7964751
20
5.2566916
11
2.8260751
21
5.2293916
0
LINE
8
DEFAULT_255_2_778
10
2.8260751
20
5.2293916
11
2.8583751
21
5.2050916
0
LINE
8
DEFAULT_255_2_778
10
2.8583751
20
5.2050916
11
2.8921751
21
5.1828916
0
LINE
8
DEFAULT_255_2_778
10
2.8921751
20
5.1828916
11
2.9263751
21
5.1611916
0
LINE
8
DEFAULT_255_2_778
10
2.9263751
20
5.1611916
11
2.9601751
21
5.1391916
0
LINE
8
DEFAULT_255_2_778
10
2.9601751
20
5.1391916
11
3.0276751
21
5.0944916
0
LINE
8
DEFAULT_255_2_778
10
3.0276751
20
5.0944916
11
3.0617751
21
5.0727916
0
LINE
8
DEFAULT_255_2_778
10
3.0617751
20
5.0727916
11
3.0959751
21
5.0510916
0
LINE
8
DEFAULT_255_2_778
10
3.0959751
20
5.0510916
11
3.1289751
21
5.0277916
0
LINE
8
DEFAULT_255_2_778
10
3.1289751
20
5.0277916
11
3.1599751
21
5.0023916
0
LINE
8
DEFAULT_255_2_778
10
3.1599751
20
5.0023916
11
3.1885751
21
4.9743916
0
LINE
8
DEFAULT_255_2_778
10
3.1885751
20
4.9743916
11
3.2139751
21
4.9428916
0
LINE
8
DEFAULT_255_2_778
10
3.2139751
20
4.9428916
11
3.2350751
21
4.9086916
0
LINE
8
DEFAULT_255_2_778
10
3.2350751
20
4.9086916
11
3.2517751
21
4.8721916
0
LINE
8
DEFAULT_255_2_778
10
3.2517751
20
4.8721916
11
3.2581751
21
4.8528916
0
LINE
8
DEFAULT_255_2_778
10
3.2581751
20
4.8528916
11
3.2628751
21
4.8332916
0
LINE
8
DEFAULT_255_2_778
10
3.2686751
20
4.7936916
11
3.2705751
21
4.7533916
0
LINE
8
DEFAULT_255_2_778
10
3.2705751
20
4.7533916
11
3.2689751
21
4.7131916
0
LINE
8
DEFAULT_255_2_778
10
3.2562751
20
4.6337916
11
3.2451751
21
4.5948916
0
LINE
8
DEFAULT_255_2_778
10
3.2451751
20
4.5948916
11
3.2311751
21
4.5573916
0
LINE
8
DEFAULT_255_2_778
10
3.1930751
20
4.4866916
11
3.1686751
21
4.4544916
0
LINE
8
DEFAULT_255_2_778
10
3.1686751
20
4.4544916
11
3.1408751
21
4.4253916
0
LINE
8
DEFAULT_255_2_778
10
3.1408751
20
4.4253916
11
3.1096751
21
4.3996916
0
LINE
8
DEFAULT_255_2_778
10
3.1096751
20
4.3996916
11
3.0758751
21
4.3779916
0
LINE
8
DEFAULT_255_2_778
10
3.0758751
20
4.3779916
11
3.0390751
21
4.3610916
0
LINE
8
DEFAULT_255_2_778
10
3.0390751
20
4.3610916
11
3.0001751
21
4.3498916
0
LINE
8
DEFAULT_255_2_778
10
3.0001751
20
4.3498916
11
2.9601751
21
4.3448916
0
LINE
8
DEFAULT_255_2_778
10
2.9601751
20
4.3448916
11
2.9196751
21
4.3448916
0
LINE
8
DEFAULT_255_2_778
10
2.9196751
20
4.3448916
11
2.8797751
21
4.3506916
0
LINE
8
DEFAULT_255_2_778
10
2.8797751
20
4.3506916
11
2.8411751
21
4.3625916
0
LINE
8
DEFAULT_255_2_778
10
2.8411751
20
4.3625916
11
2.8053751
21
4.3808916
0
LINE
8
DEFAULT_255_2_778
10
2.8053751
20
4.3808916
11
2.7728751
21
4.4049916
0
LINE
8
DEFAULT_255_2_778
10
2.7728751
20
4.4049916
11
2.7445751
21
4.4337916
0
LINE
8
DEFAULT_255_2_778
10
2.7445751
20
4.4337916
11
2.7321751
21
4.4496916
0
LINE
8
DEFAULT_255_2_778
10
2.7321751
20
4.4496916
11
2.7204751
21
4.4663916
0
LINE
8
DEFAULT_255_2_778
10
2.6609751
20
4.6139916
11
2.6609751
21
4.6168916
0
LINE
8
DEFAULT_255_2_778
10
4.4847751
20
5.7468916
11
4.4397751
21
5.6847916
0
LINE
8
DEFAULT_255_2_778
10
4.4397751
20
5.6847916
11
4.3939751
21
5.6230916
0
LINE
8
DEFAULT_255_2_778
10
4.3939751
20
5.6230916
11
4.3465751
21
5.5624916
0
LINE
8
DEFAULT_255_2_778
10
4.3465751
20
5.5624916
11
4.2957751
21
5.5048916
0
LINE
8
DEFAULT_255_2_778
10
4.2957751
20
5.5048916
11
4.2957751
21
5.5077916
0
LINE
8
DEFAULT_255_2_778
10
4.2957751
20
5.5077916
11
4.3465751
21
5.5653916
0
LINE
8
DEFAULT_255_2_778
10
4.3465751
20
5.5653916
11
4.3936751
21
5.6259916
0
LINE
8
DEFAULT_255_2_778
10
4.3936751
20
5.6259916
11
4.4397751
21
5.6876916
0
LINE
8
DEFAULT_255_2_778
10
4.4397751
20
5.6876916
11
4.4847751
21
5.7498916
0
LINE
8
DEFAULT_255_2_778
10
4.5831751
20
5.7468916
11
4.4847751
21
5.7468916
0
LINE
8
DEFAULT_255_2_778
10
4.4847751
20
5.7468916
11
4.4847751
21
5.7498916
0
LINE
8
DEFAULT_255_2_778
10
4.4847751
20
5.7498916
11
4.5831751
21
5.7498916
0
LINE
8
DEFAULT_255_2_778
10
4.5831751
20
5.7498916
11
4.5831751
21
4.3538916
0
LINE
8
DEFAULT_255_2_778
10
4.5831751
20
4.3538916
11
4.5050751
21
4.3538916
0
LINE
8
DEFAULT_255_2_778
10
4.5050751
20
4.3538916
11
4.5050751
21
5.6265916
0
LINE
8
DEFAULT_255_2_778
10
4.5050751
20
5.6265916
11
4.4587751
21
5.5648916
0
LINE
8
DEFAULT_255_2_778
10
4.4587751
20
5.5648916
11
4.4114751
21
5.5040916
0
LINE
8
DEFAULT_255_2_778
10
4.4114751
20
5.5040916
11
4.3870751
21
5.4741916
0
LINE
8
DEFAULT_255_2_778
10
4.3870751
20
5.4741916
11
4.3619751
21
5.4450916
0
LINE
8
DEFAULT_255_2_778
10
4.3619751
20
5.4450916
11
4.3349751
21
5.4174916
0
LINE
8
DEFAULT_255_2_778
10
4.3349751
20
5.4174916
11
4.3275751
21
5.4114916
0
LINE
8
DEFAULT_255_2_778
10
4.3275751
20
5.4114916
11
4.3193751
21
5.4061916
0
LINE
8
DEFAULT_255_2_778
10
4.3193751
20
5.4061916
11
4.3103751
21
5.4026916
0
LINE
8
DEFAULT_255_2_778
10
4.3103751
20
5.4026916
11
4.3008751
21
5.4010916
0
LINE
8
DEFAULT_255_2_778
10
4.8670751
20
4.5247916
11
4.8670751
21
4.5218916
0
LINE
8
DEFAULT_255_2_778
10
4.8670751
20
4.5218916
11
4.8821751
21
4.4848916
0
LINE
8
DEFAULT_255_2_778
10
4.8821751
20
4.4848916
11
4.9003751
21
4.4493916
0
LINE
8
DEFAULT_255_2_778
10
4.9003751
20
4.4493916
11
4.9114751
21
4.4327916
0
LINE
8
DEFAULT_255_2_778
10
4.9114751
20
4.4327916
11
4.9244751
21
4.4170916
0
LINE
8
DEFAULT_255_2_778
10
4.9244751
20
4.4170916
11
4.9540751
21
4.3901916
0
LINE
8
DEFAULT_255_2_778
10
4.9540751
20
4.3901916
11
4.9884751
21
4.3692916
0
LINE
8
DEFAULT_255_2_778
10
4.9884751
20
4.3692916
11
5.0257751
21
4.3546916
0
LINE
8
DEFAULT_255_2_778
10
5.0257751
20
4.3546916
11
5.0456751
21
4.3501916
0
LINE
8
DEFAULT_255_2_778
10
5.0456751
20
4.3501916
11
5.0654751
21
4.3472916
0
LINE
8
DEFAULT_255_2_778
10
5.0654751
20
4.3472916
11
5.1054751
21
4.3453916
0
LINE
8
DEFAULT_255_2_778
10
5.1054751
20
4.3453916
11
5.1255751
21
4.3459916
0
LINE
8
DEFAULT_255_2_778
10
5.1255751
20
4.3459916
11
5.1456751
21
4.3477916
0
LINE
8
DEFAULT_255_2_778
10
5.1456751
20
4.3477916
11
5.1847751
21
4.3551916
0
LINE
8
DEFAULT_255_2_778
10
5.1847751
20
4.3551916
11
5.2223751
21
4.3681916
0
LINE
8
DEFAULT_255_2_778
10
5.2223751
20
4.3681916
11
5.2578751
21
4.3872916
0
LINE
8
DEFAULT_255_2_778
10
5.2578751
20
4.3872916
11
5.2893751
21
4.4115916
0
LINE
8
DEFAULT_255_2_778
10
5.2893751
20
4.4115916
11
5.3035751
21
4.4255916
0
LINE
8
DEFAULT_255_2_778
10
5.3035751
20
4.4255916
11
5.3168751
21
4.4409916
0
LINE
8
DEFAULT_255_2_778
10
5.3588751
20
4.5089916
11
5.3742751
21
4.5462916
0
LINE
8
DEFAULT_255_2_778
10
5.3742751
20
4.5462916
11
5.3858751
21
4.5843916
0
LINE
8
DEFAULT_255_2_778
10
5.4012751
20
4.6626916
11
5.4054751
21
4.7025916
0
LINE
8
DEFAULT_255_2_778
10
5.4054751
20
4.7025916
11
5.4078751
21
4.7425916
0
LINE
8
DEFAULT_255_2_778
10
5.4078751
20
4.7425916
11
5.4083751
21
4.7824916
0
LINE
8
DEFAULT_255_2_778
10
5.4083751
20
4.7824916
11
5.4067751
21
4.8221916
0
LINE
8
DEFAULT_255_2_778
10
5.4067751
20
4.8221916
11
5.4017751
21
4.8618916
0
LINE
8
DEFAULT_255_2_778
10
5.3588751
20
4.9743916
11
5.3340751
21
5.0060916
0
LINE
8
DEFAULT_255_2_778
10
5.3340751
20
5.0060916
11
5.3046751
21
5.0335916
0
LINE
8
DEFAULT_255_2_778
10
5.3046751
20
5.0335916
11
5.2726751
21
5.0581916
0
LINE
8
DEFAULT_255_2_778
10
5.2726751
20
5.0581916
11
5.2393751
21
5.0809916
0
LINE
8
DEFAULT_255_2_778
10
5.2393751
20
5.0809916
11
5.2710751
21
5.1021916
0
LINE
8
DEFAULT_255_2_778
10
5.2710751
20
5.1021916
11
5.3012751
21
5.1253916
0
LINE
8
DEFAULT_255_2_778
10
5.3012751
20
5.1253916
11
5.3152751
21
5.1380916
0
LINE
8
DEFAULT_255_2_778
10
5.3152751
20
5.1380916
11
5.3284751
21
5.1521916
0
LINE
8
DEFAULT_255_2_778
10
5.3284751
20
5.1521916
11
5.3517751
21
5.1825916
0
LINE
8
DEFAULT_255_2_778
10
5.3517751
20
5.1825916
11
5.3700751
21
5.2158916
0
LINE
8
DEFAULT_255_2_778
10
5.3700751
20
5.2158916
11
5.3837751
21
5.2515916
0
LINE
8
DEFAULT_255_2_778
10
5.3972751
20
5.3267916
11
5.3985751
21
5.3651916
0
LINE
8
DEFAULT_255_2_778
10
5.3985751
20
5.3651916
11
5.3980751
21
5.4032916
0
LINE
8
DEFAULT_255_2_778
10
5.3980751
20
5.4032916
11
5.3914751
21
5.4788916
0
LINE
8
DEFAULT_255_2_778
10
5.3914751
20
5.4788916
11
5.3850751
21
5.5164916
0
LINE
8
DEFAULT_255_2_778
10
5.3850751
20
5.5164916
11
5.3760751
21
5.5537916
0
LINE
8
DEFAULT_255_2_778
10
5.3483751
20
5.6251916
11
5.3287751
21
5.6582916
0
LINE
8
DEFAULT_255_2_778
10
5.3287751
20
5.6582916
11
5.3051751
21
5.6881916
0
LINE
8
DEFAULT_255_2_778
10
5.3051751
20
5.6881916
11
5.2771751
21
5.7143916
0
LINE
8
DEFAULT_255_2_778
10
5.2771751
20
5.7143916
11
5.2451751
21
5.7355916
0
LINE
8
DEFAULT_255_2_778
10
5.2451751
20
5.7355916
11
5.2101751
21
5.7508916
0
LINE
8
DEFAULT_255_2_778
10
5.2101751
20
5.7508916
11
5.1916751
21
5.7564916
0
LINE
8
DEFAULT_255_2_778
10
5.1916751
20
5.7564916
11
5.1728751
21
5.7606916
0
LINE
8
DEFAULT_255_2_778
10
5.1728751
20
5.7606916
11
5.1350751
21
5.7651916
0
LINE
8
DEFAULT_255_2_778
10
5.1350751
20
5.7651916
11
5.0966751
21
5.7651916
0
LINE
8
DEFAULT_255_2_778
10
5.0218751
20
5.7511916
11
4.9866751
21
5.7355916
0
LINE
8
DEFAULT_255_2_778
10
4.9866751
20
5.7355916
11
4.9548751
21
5.7146916
0
LINE
8
DEFAULT_255_2_778
10
4.9548751
20
5.7146916
11
4.9262751
21
5.6889916
0
LINE
8
DEFAULT_255_2_778
10
4.9262751
20
5.6889916
11
4.9016751
21
5.6593916
0
LINE
8
DEFAULT_255_2_778
10
4.9016751
20
5.6593916
11
4.8815751
21
5.6265916
0
LINE
8
DEFAULT_255_2_778
10
4.8815751
20
5.6265916
11
4.8662751
21
5.5910916
0
LINE
8
DEFAULT_255_2_778
10
4.8662751
20
5.5910916
11
4.8662751
21
5.5939916
0
LINE
8
DEFAULT_255_2_778
10
4.9675751
20
5.6005916
11
4.9776751
21
5.6127916
0
LINE
8
DEFAULT_255_2_778
10
4.9776751
20
5.6127916
11
4.9884751
21
5.6238916
0
LINE
8
DEFAULT_255_2_778
10
4.9884751
20
5.6238916
11
5.0130751
21
5.6429916
0
LINE
8
DEFAULT_255_2_778
10
5.0130751
20
5.6429916
11
5.0268751
21
5.6503916
0
LINE
8
DEFAULT_255_2_778
10
5.0268751
20
5.6503916
11
5.0411751
21
5.6564916
0
LINE
8
DEFAULT_255_2_778
10
5.0411751
20
5.6564916
11
5.0559751
21
5.6611916
0
LINE
8
DEFAULT_255_2_778
10
5.0559751
20
5.6611916
11
5.0712751
21
5.6646916
0
LINE
8
DEFAULT_255_2_778
10
5.0712751
20
5.6646916
11
5.1022751
21
5.6683916
0
LINE
8
DEFAULT_255_2_778
10
5.1022751
20
5.6683916
11
5.1332751
21
5.6680916
0
LINE
8
DEFAULT_255_2_778
10
5.1332751
20
5.6680916
11
5.1641751
21
5.6635916
0
LINE
8
DEFAULT_255_2_778
10
5.1641751
20
5.6635916
11
5.1940751
21
5.6545916
0
LINE
8
DEFAULT_255_2_778
10
5.1940751
20
5.6545916
11
5.2218751
21
5.6402916
0
LINE
8
DEFAULT_255_2_778
10
5.2218751
20
5.6402916
11
5.2459751
21
5.6206916
0
LINE
8
DEFAULT_255_2_778
10
5.2459751
20
5.6206916
11
5.2657751
21
5.5966916
0
LINE
8
DEFAULT_255_2_778
10
5.2657751
20
5.5966916
11
5.2816751
21
5.5698916
0
LINE
8
DEFAULT_255_2_778
10
5.2816751
20
5.5698916
11
5.2940751
21
5.5413916
0
LINE
8
DEFAULT_255_2_778
10
5.2940751
20
5.5413916
11
5.3035751
21
5.5116916
0
LINE
8
DEFAULT_255_2_778
10
5.3035751
20
5.5116916
11
5.3104751
21
5.4815916
0
LINE
8
DEFAULT_255_2_778
10
5.3104751
20
5.4815916
11
5.3152751
21
5.4505916
0
LINE
8
DEFAULT_255_2_778
10
5.3189751
20
5.3883916
11
5.3186751
21
5.3571916
0
LINE
8
DEFAULT_255_2_778
10
5.3186751
20
5.3571916
11
5.3165751
21
5.3259916
0
LINE
8
DEFAULT_255_2_778
10
5.3110751
20
5.2955916
11
5.3065751
21
5.2806916
0
LINE
8
DEFAULT_255_2_778
10
5.3065751
20
5.2806916
11
5.3006751
21
5.2661916
0
LINE
8
DEFAULT_255_2_778
10
5.3006751
20
5.2661916
11
5.2858751
21
5.2388916
0
LINE
8
DEFAULT_255_2_778
10
5.2858751
20
5.2388916
11
5.2673751
21
5.2140916
0
LINE
8
DEFAULT_255_2_778
10
5.2673751
20
5.2140916
11
5.2564751
21
5.2026916
0
LINE
8
DEFAULT_255_2_778
10
5.2564751
20
5.2026916
11
5.2448751
21
5.1923916
0
LINE
8
DEFAULT_255_2_778
10
5.2448751
20
5.1923916
11
5.2194751
21
5.1743916
0
LINE
8
DEFAULT_255_2_778
10
5.2194751
20
5.1743916
11
5.2059751
21
5.1663916
0
LINE
8
DEFAULT_255_2_778
10
5.2059751
20
5.1663916
11
5.1919751
21
5.1595916
0
LINE
8
DEFAULT_255_2_778
10
5.1919751
20
5.1595916
11
5.1631751
21
5.1476916
0
LINE
8
DEFAULT_255_2_778
10
5.1631751
20
5.1476916
11
5.1048751
21
5.1253916
0
LINE
8
DEFAULT_255_2_778
10
5.1048751
20
5.1253916
11
5.1048751
21
5.1282916
0
LINE
8
DEFAULT_255_2_778
10
5.1048751
20
5.1282916
11
5.1631751
21
5.1502916
0
LINE
8
DEFAULT_255_2_778
10
5.1631751
20
5.1502916
11
5.1916751
21
5.1621916
0
LINE
8
DEFAULT_255_2_778
10
5.1916751
20
5.1621916
11
5.2056751
21
5.1690916
0
LINE
8
DEFAULT_255_2_778
10
5.2056751
20
5.1690916
11
5.2191751
21
5.1767916
0
LINE
8
DEFAULT_255_2_778
10
5.2668751
20
5.2161916
11
5.2856751
21
5.2410916
0
LINE
8
DEFAULT_255_2_778
10
5.2856751
20
5.2410916
11
5.3004751
21
5.2679916
0
LINE
8
DEFAULT_255_2_778
10
5.3004751
20
5.2679916
11
5.3107751
21
5.2973916
0
LINE
8
DEFAULT_255_2_778
10
5.3165751
20
5.3277916
11
5.3186751
21
5.3590916
0
LINE
8
DEFAULT_255_2_778
10
5.3186751
20
5.3590916
11
5.3189751
21
5.3836916
0
LINE
8
DEFAULT_255_2_778
10
5.1096751
20
5.0288916
11
5.1408751
21
5.0208916
0
LINE
8
DEFAULT_255_2_778
10
5.1408751
20
5.0208916
11
5.1713751
21
5.0108916
0
LINE
8
DEFAULT_255_2_778
10
5.1713751
20
5.0108916
11
5.2006751
21
4.9983916
0
LINE
8
DEFAULT_255_2_778
10
5.2006751
20
4.9983916
11
5.2287751
21
4.9822916
0
LINE
8
DEFAULT_255_2_778
10
5.2287751
20
4.9822916
11
5.2546751
21
4.9624916
0
LINE
8
DEFAULT_255_2_778
10
5.2546751
20
4.9624916
11
5.2771751
21
4.9391916
0
LINE
8
DEFAULT_255_2_778
10
5.2771751
20
4.9391916
11
5.2959751
21
4.9123916
0
LINE
8
DEFAULT_255_2_778
10
5.2959751
20
4.9123916
11
5.3104751
21
4.8832916
0
LINE
8
DEFAULT_255_2_778
10
5.3104751
20
4.8832916
11
5.3160751
21
4.8679916
0
LINE
8
DEFAULT_255_2_778
10
5.3160751
20
4.8679916
11
5.3205751
21
4.8520916
0
LINE
8
DEFAULT_255_2_778
10
5.3260751
20
4.8200916
11
5.3279751
21
4.7875916
0
LINE
8
DEFAULT_255_2_778
10
5.3279751
20
4.7875916
11
5.3276751
21
4.7549916
0
LINE
8
DEFAULT_255_2_778
10
5.3276751
20
4.7549916
11
5.3223751
21
4.6904916
0
LINE
8
DEFAULT_255_2_778
10
5.3223751
20
4.6904916
11
5.3115751
21
4.6269916
0
LINE
8
DEFAULT_255_2_778
10
5.3115751
20
4.6269916
11
5.3030751
21
4.5956916
0
LINE
8
DEFAULT_255_2_778
10
5.3030751
20
4.5956916
11
5.2916751
21
4.5650916
0
LINE
8
DEFAULT_255_2_778
10
5.2578751
20
4.5089916
11
5.2345751
21
4.4858916
0
LINE
8
DEFAULT_255_2_778
10
5.2345751
20
4.4858916
11
5.2072751
21
4.4678916
0
LINE
8
DEFAULT_255_2_778
10
5.2072751
20
4.4678916
11
5.1771751
21
4.4551916
0
LINE
8
DEFAULT_255_2_778
10
5.1771751
20
4.4551916
11
5.1451751
21
4.4475916
0
LINE
8
DEFAULT_255_2_778
10
5.1451751
20
4.4475916
11
5.1125751
21
4.4443916
0
LINE
8
DEFAULT_255_2_778
10
5.1125751
20
4.4443916
11
5.0800751
21
4.4448916
0
LINE
8
DEFAULT_255_2_778
10
5.0800751
20
4.4448916
11
5.0474751
21
4.4499916
0
LINE
8
DEFAULT_255_2_778
10
5.0474751
20
4.4499916
11
5.0165751
21
4.4610916
0
LINE
8
DEFAULT_255_2_778
10
5.0165751
20
4.4610916
11
4.9892751
21
4.4792916
0
LINE
8
DEFAULT_255_2_778
10
4.9892751
20
4.4792916
11
4.9673751
21
4.5038916
0
LINE
8
DEFAULT_255_2_778
10
4.9673751
20
4.5038916
11
4.9506751
21
4.5319916
0
LINE
8
DEFAULT_255_2_778
10
4.9506751
20
4.5319916
11
4.9379751
21
4.5623916
0
LINE
8
DEFAULT_255_2_778
10
4.9379751
20
4.5623916
11
4.9379751
21
4.5652916
0
LINE
8
DEFAULT_255_2_778
10
5.5914751
20
4.8483916
11
5.6099751
21
4.8989916
0
LINE
8
DEFAULT_255_2_778
10
5.6099751
20
4.8989916
11
5.6282751
21
4.9494916
0
LINE
8
DEFAULT_255_2_778
10
5.6282751
20
4.9494916
11
5.6644751
21
5.0505916
0
LINE
8
DEFAULT_255_2_778
10
5.6644751
20
5.0505916
11
5.7369751
21
5.2526916
0
LINE
8
DEFAULT_255_2_778
10
5.7369751
20
5.2526916
11
5.8089751
21
5.4550916
0
LINE
8
DEFAULT_255_2_778
10
5.8089751
20
5.4550916
11
5.8446751
21
5.5563916
0
LINE
8
DEFAULT_255_2_778
10
5.8446751
20
5.5563916
11
5.8626751
21
5.6069916
0
LINE
8
DEFAULT_255_2_778
10
5.8626751
20
5.6069916
11
5.8803751
21
5.6574916
0
LINE
8
DEFAULT_255_2_778
10
5.8803751
20
5.6574916
11
5.9351751
21
5.6574916
0
LINE
8
DEFAULT_255_2_778
10
5.9351751
20
5.6574916
11
5.9351751
21
4.8232916
0
LINE
8
DEFAULT_255_2_778
10
5.9351751
20
4.8232916
11
5.5917751
21
4.8232916
0
LINE
8
DEFAULT_255_2_778
10
5.5917751
20
4.8232916
11
5.5914751
21
4.8483916
0
LINE
8
DEFAULT_255_2_778
10
6.0145751
20
5.7545916
11
6.0145751
21
5.7574916
0
LINE
8
DEFAULT_255_2_778
10
6.0145751
20
5.7574916
11
5.8287751
21
5.7574916
0
LINE
8
DEFAULT_255_2_778
10
5.8287751
20
5.7574916
11
5.8287751
21
5.7545916
0
LINE
8
DEFAULT_255_2_778
10
5.8287751
20
5.7545916
11
6.0145751
21
5.7545916
0
LINE
8
DEFAULT_255_2_778
10
6.0145751
20
5.7545916
11
6.0145751
21
4.8232916
0
LINE
8
DEFAULT_255_2_778
10
6.0145751
20
4.8232916
11
6.1798751
21
4.8232916
0
LINE
8
DEFAULT_255_2_778
10
5.5131751
20
4.8727916
11
5.5131751
21
4.7263916
0
LINE
8
DEFAULT_255_2_778
10
5.5131751
20
4.7263916
11
5.9346751
21
4.7263916
0
LINE
8
DEFAULT_255_2_778
10
5.9346751
20
4.7263916
11
5.9346751
21
4.3557916
0
LINE
8
DEFAULT_255_2_778
10
5.9346751
20
4.3557916
11
6.0142751
21
4.3557916
0
LINE
8
DEFAULT_255_2_778
10
6.0142751
20
4.3557916
11
6.0142751
21
4.7263916
0
LINE
8
DEFAULT_255_2_778
10
6.0142751
20
4.7263916
11
6.1796751
21
4.7263916
0
LINE
8
DEFAULT_255_2_778
10
6.1796751
20
4.7263916
11
6.1796751
21
4.8261916
0
LINE
8
DEFAULT_255_2_778
10
6.1796751
20
4.8261916
11
6.0142751
21
4.8261916
0
LINE
8
DEFAULT_255_2_778
10
7.0173751
20
5.0171916
11
7.0358751
21
5.0470916
0
LINE
8
DEFAULT_255_2_778
10
7.0358751
20
5.0470916
11
7.0456751
21
5.0616916
0
LINE
8
DEFAULT_255_2_778
10
7.0456751
20
5.0616916
11
7.0559751
21
5.0756916
0
LINE
8
DEFAULT_255_2_778
10
7.1326751
20
5.1404916
11
7.1477751
21
5.1468916
0
LINE
8
DEFAULT_255_2_778
10
7.1477751
20
5.1468916
11
7.1630751
21
5.1518916
0
LINE
8
DEFAULT_255_2_778
10
7.1945751
20
5.1574916
11
7.2025751
21
5.1579916
0
LINE
8
DEFAULT_255_2_778
10
7.2025751
20
5.1579916
11
7.2104751
21
5.1584916
0
LINE
8
DEFAULT_255_2_778
10
7.2104751
20
5.1584916
11
7.2265751
21
5.1597916
0
LINE
8
DEFAULT_255_2_778
10
7.3938751
20
5.0203916
11
7.4004751
21
4.9957916
0
LINE
8
DEFAULT_255_2_778
10
7.4004751
20
4.9957916
11
7.4054751
21
4.9708916
0
LINE
8
DEFAULT_255_2_778
10
7.4054751
20
4.9708916
11
7.4123751
21
4.9208916
0
LINE
8
DEFAULT_255_2_778
10
7.4123751
20
4.9208916
11
7.4160751
21
4.8703916
0
LINE
8
DEFAULT_255_2_778
10
7.4160751
20
4.8703916
11
7.4170751
21
4.8195916
0
LINE
8
DEFAULT_255_2_778
10
7.4170751
20
4.8195916
11
7.4154751
21
4.7687916
0
LINE
8
DEFAULT_255_2_778
10
7.4154751
20
4.7687916
11
7.4112751
21
4.7181916
0
LINE
8
DEFAULT_255_2_778
10
7.4112751
20
4.7181916
11
7.4080751
21
4.6930916
0
LINE
8
DEFAULT_255_2_778
10
7.4080751
20
4.6930916
11
7.4035751
21
4.6681916
0
LINE
8
DEFAULT_255_2_778
10
7.4035751
20
4.6681916
11
7.3977751
21
4.6435916
0
LINE
8
DEFAULT_255_2_778
10
7.3977751
20
4.6435916
11
7.3906751
21
4.6192916
0
LINE
8
DEFAULT_255_2_778
10
7.3906751
20
4.6192916
11
7.3821751
21
4.5954916
0
LINE
8
DEFAULT_255_2_778
10
7.3821751
20
4.5954916
11
7.3721751
21
4.5726916
0
LINE
8
DEFAULT_255_2_778
10
7.3721751
20
4.5726916
11
7.3602751
21
4.5509916
0
LINE
8
DEFAULT_255_2_778
10
7.3602751
20
4.5509916
11
7.3464751
21
4.5306916
0
LINE
8
DEFAULT_255_2_778
10
7.2083751
20
4.4557916
11
7.1943751
21
4.4554916
0
LINE
8
DEFAULT_255_2_778
10
7.1943751
20
4.4554916
11
7.1800751
21
4.4559916
0
LINE
8
DEFAULT_255_2_778
10
7.0268751
20
4.5620916
11
7.0128751
21
4.5853916
0
LINE
8
DEFAULT_255_2_778
10
7.0128751
20
4.5853916
11
7.0003751
21
4.6102916
0
LINE
8
DEFAULT_255_2_778
10
6.9651751
20
4.7719916
11
6.9659751
21
4.8089916
0
LINE
8
DEFAULT_255_2_778
10
6.9889751
20
4.9536916
11
6.9897751
21
4.9542916
0
LINE
8
DEFAULT_255_2_778
10
6.9458751
20
5.0626916
11
6.9471751
21
5.1917916
0
LINE
8
DEFAULT_255_2_778
10
6.9471751
20
5.1917916
11
6.9516751
21
5.3209916
0
LINE
8
DEFAULT_255_2_778
10
6.9516751
20
5.3209916
11
6.9564751
21
5.3852916
0
LINE
8
DEFAULT_255_2_778
10
6.9564751
20
5.3852916
11
6.9651751
21
5.4489916
0
LINE
8
DEFAULT_255_2_778
10
6.9651751
20
5.4489916
11
6.9715751
21
5.4804916
0
LINE
8
DEFAULT_255_2_778
10
6.9715751
20
5.4804916
11
6.9792751
21
5.5114916
0
LINE
8
DEFAULT_255_2_778
10
6.9792751
20
5.5114916
11
6.9887751
21
5.5415916
0
LINE
8
DEFAULT_255_2_778
10
6.9887751
20
5.5415916
11
7.0008751
21
5.5706916
0
LINE
8
DEFAULT_255_2_778
10
7.0342751
20
5.6225916
11
7.0445751
21
5.6336916
0
LINE
8
DEFAULT_255_2_778
10
7.0445751
20
5.6336916
11
7.0556751
21
5.6437916
0
LINE
8
DEFAULT_255_2_778
10
7.0797751
20
5.6598916
11
7.0927751
21
5.6659916
0
LINE
8
DEFAULT_255_2_778
10
7.0927751
20
5.6659916
11
7.1062751
21
5.6709916
0
LINE
8
DEFAULT_255_2_778
10
7.1614751
20
5.6810916
11
7.1895751
21
5.6812916
0
LINE
8
DEFAULT_255_2_778
10
7.2967751
20
5.6471916
11
7.3086751
21
5.6384916
0
LINE
8
DEFAULT_255_2_778
10
7.3086751
20
5.6384916
11
7.3199751
21
5.6286916
0
LINE
8
DEFAULT_255_2_778
10
7.3721751
20
5.5534916
11
7.4496751
21
5.5997916
0
LINE
8
DEFAULT_255_2_778
10
7.3723751
20
5.7072916
11
7.3472751
21
5.7270916
0
LINE
8
DEFAULT_255_2_778
10
7.3205751
20
5.7437916
11
7.3064751
21
5.7508916
0
LINE
8
DEFAULT_255_2_778
10
7.3064751
20
5.7508916
11
7.2922751
21
5.7572916
0
LINE
8
DEFAULT_255_2_778
10
7.2027751
20
5.7773916
11
7.1723751
21
5.7778916
0
LINE
8
DEFAULT_255_2_778
10
7.1723751
20
5.7778916
11
7.1419751
21
5.7759916
0
LINE
8
DEFAULT_255_2_778
10
7.1419751
20
5.7759916
11
7.1117751
21
5.7715916
0
LINE
8
DEFAULT_255_2_778
10
7.1117751
20
5.7715916
11
7.0966751
21
5.7680916
0
LINE
8
DEFAULT_255_2_778
10
7.0966751
20
5.7680916
11
7.0818751
21
5.7638916
0
LINE
8
DEFAULT_255_2_778
10
6.9556751
20
5.6699916
11
6.9463751
21
5.6558916
0
LINE
8
DEFAULT_255_2_778
10
6.9463751
20
5.6558916
11
6.9376751
21
5.6413916
0
LINE
8
DEFAULT_255_2_778
10
6.9096751
20
5.5794916
11
6.8990751
21
5.5463916
0
LINE
8
DEFAULT_255_2_778
10
6.8990751
20
5.5463916
11
6.8905751
21
5.5127916
0
LINE
8
DEFAULT_255_2_778
10
6.8905751
20
5.5127916
11
6.8778751
21
5.4447916
0
LINE
8
DEFAULT_255_2_778
10
6.8778751
20
5.4447916
11
6.8699751
21
5.3759916
0
LINE
8
DEFAULT_255_2_778
10
6.8699751
20
5.3759916
11
6.8625751
21
5.2367916
0
LINE
8
DEFAULT_255_2_778
10
6.8625751
20
5.2367916
11
6.8609751
21
5.0888916
0
LINE
8
DEFAULT_255_2_778
10
6.8609751
20
5.0888916
11
6.8611751
21
5.0147916
0
LINE
8
DEFAULT_255_2_778
10
6.8611751
20
5.0147916
11
6.8622751
21
4.9409916
0
LINE
8
DEFAULT_255_2_778
10
6.8622751
20
4.9409916
11
6.8630751
21
4.9039916
0
LINE
8
DEFAULT_255_2_778
10
6.8630751
20
4.9039916
11
6.8643751
21
4.8668916
0
LINE
8
DEFAULT_255_2_778
10
6.8643751
20
4.8668916
11
6.8696751
21
4.7930916
0
LINE
8
DEFAULT_255_2_778
10
6.8696751
20
4.7930916
11
6.8783751
21
4.7197916
0
LINE
8
DEFAULT_255_2_778
10
6.8783751
20
4.7197916
11
6.8921751
21
4.6475916
0
LINE
8
DEFAULT_255_2_778
10
6.8921751
20
4.6475916
11
6.9011751
21
4.6118916
0
LINE
8
DEFAULT_255_2_778
10
6.9011751
20
4.6118916
11
6.9117751
21
4.5769916
0
LINE
8
DEFAULT_255_2_778
10
6.9400751
20
4.5110916
11
6.9487751
21
4.4954916
0
LINE
8
DEFAULT_255_2_778
10
6.9487751
20
4.4954916
11
6.9582751
21
4.4803916
0
LINE
8
DEFAULT_255_2_778
10
7.0027751
20
4.4271916
11
7.0157751
21
4.4157916
0
LINE
8
DEFAULT_255_2_778
10
7.0157751
20
4.4157916
11
7.0292751
21
4.4054916
0
LINE
8
DEFAULT_255_2_778
10
7.0292751
20
4.4054916
11
7.0429751
21
4.3959916
0
LINE
8
DEFAULT_255_2_778
10
7.0429751
20
4.3959916
11
7.0572751
21
4.3874916
0
LINE
8
DEFAULT_255_2_778
10
7.1506751
20
4.3586916
11
7.1826751
21
4.3562916
0
LINE
8
DEFAULT_255_2_778
10
7.1826751
20
4.3562916
11
7.2149751
21
4.3565916
0
LINE
8
DEFAULT_255_2_778
10
7.2149751
20
4.3565916
11
7.2472751
21
4.3596916
0
LINE
8
DEFAULT_255_2_778
10
7.4530751
20
4.5192916
11
7.4604751
21
4.5358916
0
LINE
8
DEFAULT_255_2_778
10
7.4604751
20
4.5358916
11
7.4670751
21
4.5528916
0
LINE
8
DEFAULT_255_2_778
10
7.4866751
20
4.6232916
11
7.4932751
21
4.6594916
0
LINE
8
DEFAULT_255_2_778
10
7.4932751
20
4.6594916
11
7.4983751
21
4.6962916
0
LINE
8
DEFAULT_255_2_778
10
7.4983751
20
4.6962916
11
7.5036751
21
4.7697916
0
LINE
8
DEFAULT_255_2_778
10
7.5036751
20
4.7697916
11
7.5043751
21
4.8430916
0
LINE
8
DEFAULT_255_2_778
10
7.5043751
20
4.8430916
11
7.5004751
21
4.9163916
0
LINE
8
DEFAULT_255_2_778
10
7.5004751
20
4.9163916
11
7.4906751
21
4.9896916
0
LINE
8
DEFAULT_255_2_778
10
7.4726751
20
5.0610916
11
7.4599751
21
5.0952916
0
LINE
8
DEFAULT_255_2_778
10
7.4599751
20
5.0952916
11
7.4443751
21
5.1277916
0
LINE
8
DEFAULT_255_2_778
10
7.3509751
20
5.2272916
11
7.3361751
21
5.2349916
0
LINE
8
DEFAULT_255_2_778
10
7.3361751
20
5.2349916
11
7.3207751
21
5.2415916
0
LINE
8
DEFAULT_255_2_778
10
7.2255751
20
5.2582916
11
7.1951751
21
5.2560916
0
LINE
8
DEFAULT_255_2_778
10
6.9911751
20
5.1359916
11
6.9897751
21
5.1365916
0
LINE
8
DEFAULT_255_2_778
10
8.0438229
20
4.9565437
11
8.0441229
21
5.7614437
0
LINE
8
DEFAULT_255_2_778
10
8.0441229
20
5.7614437
11
8.1256229
21
5.7614437
0
LINE
8
DEFAULT_255_2_778
10
8.1256229
20
5.7614437
11
8.1240229
21
4.7734437
0
LINE
8
DEFAULT_255_2_778
10
8.1240229
20
4.7734437
11
8.1226229
21
4.7462437
0
LINE
8
DEFAULT_255_2_778
10
8.1226229
20
4.7462437
11
8.1200229
21
4.7121437
0
LINE
8
DEFAULT_255_2_778
10
8.1200229
20
4.7121437
11
8.1166229
21
4.6811437
0
LINE
8
DEFAULT_255_2_778
10
8.1166229
20
4.6811437
11
8.1099229
21
4.6382437
0
LINE
8
DEFAULT_255_2_778
10
8.1099229
20
4.6382437
11
8.0975229
21
4.5837437
0
LINE
8
DEFAULT_255_2_778
10
8.0975229
20
4.5837437
11
8.0753229
21
4.5179437
0
LINE
8
DEFAULT_255_2_778
10
8.0753229
20
4.5179437
11
8.0509229
21
4.4668437
0
LINE
8
DEFAULT_255_2_778
10
8.0509229
20
4.4668437
11
8.0128229
21
4.4136437
0
LINE
8
DEFAULT_255_2_778
10
8.0128229
20
4.4136437
11
7.9652229
21
4.3752437
0
LINE
8
DEFAULT_255_2_778
10
7.9652229
20
4.3752437
11
7.8917229
21
4.3501437
0
LINE
8
DEFAULT_255_2_778
10
7.8917229
20
4.3501437
11
7.7853229
21
4.3512437
0
LINE
8
DEFAULT_255_2_778
10
7.7853229
20
4.3512437
11
7.7144229
21
4.3803437
0
LINE
8
DEFAULT_255_2_778
10
7.7144229
20
4.3803437
11
7.6676229
21
4.4216437
0
LINE
8
DEFAULT_255_2_778
10
7.6676229
20
4.4216437
11
7.6353229
21
4.4739437
0
LINE
8
DEFAULT_255_2_778
10
7.6353229
20
4.4739437
11
7.6173229
21
4.5179437
0
LINE
8
DEFAULT_255_2_778
10
7.6173229
20
4.5179437
11
7.6046229
21
4.5607437
0
LINE
8
DEFAULT_255_2_778
10
7.6046229
20
4.5607437
11
7.6006229
21
4.5787437
0
LINE
8
DEFAULT_255_2_778
10
7.6006229
20
4.5787437
11
7.5972229
21
4.6001437
0
LINE
8
DEFAULT_255_2_778
10
7.5972229
20
4.6001437
11
7.5948229
21
4.6245437
0
LINE
8
DEFAULT_255_2_778
10
7.5948229
20
4.6245437
11
7.6747229
21
4.6401437
0
LINE
8
DEFAULT_255_2_778
10
8.0438229
20
4.8086437
11
8.0414229
21
4.7533437
0
LINE
8
DEFAULT_255_2_778
10
8.0414229
20
4.7533437
11
8.0396229
21
4.7271437
0
LINE
8
DEFAULT_255_2_778
10
8.0396229
20
4.7271437
11
8.0356229
21
4.6922437
0
LINE
8
DEFAULT_255_2_778
10
8.0356229
20
4.6922437
11
8.0287229
21
4.6504437
0
LINE
8
DEFAULT_255_2_778
10
8.0287229
20
4.6504437
11
8.0202229
21
4.6152437
0
LINE
8
DEFAULT_255_2_778
10
8.0202229
20
4.6152437
11
8.0020229
21
4.5631437
0
LINE
8
DEFAULT_255_2_778
10
8.0020229
20
4.5631437
11
7.9642229
21
4.4983437
0
LINE
8
DEFAULT_255_2_778
10
7.9642229
20
4.4983437
11
7.9210229
21
4.4620437
0
LINE
8
DEFAULT_255_2_778
10
7.9210229
20
4.4620437
11
7.8213229
21
4.4491437
0
LINE
8
DEFAULT_255_2_778
10
7.8213229
20
4.4491437
11
7.7480229
21
4.4729437
0
LINE
8
DEFAULT_255_2_778
10
7.7480229
20
4.4729437
11
7.7125229
21
4.5131437
0
LINE
8
DEFAULT_255_2_778
10
7.7125229
20
4.5131437
11
7.6874229
21
4.5724437
0
LINE
8
DEFAULT_255_2_778
10
7.6874229
20
4.5724437
11
7.6803229
21
4.5991437
0
LINE
8
DEFAULT_255_2_778
10
7.6803229
20
4.5991437
11
7.6755229
21
4.6271437
0
LINE
8
DEFAULT_255_2_778
10
7.6755229
20
4.6271437
11
7.6744229
21
4.6409437
0
LINE
8
DEFAULT_255_2_778
10
7.6744229
20
4.6409437
11
7.6760229
21
4.6216437
0
LINE
8
DEFAULT_255_2_778
10
7.6760229
20
4.6216437
11
7.6787229
21
4.6049437
0
LINE
8
DEFAULT_255_2_778
10
7.6787229
20
4.6049437
11
7.6940229
21
4.5504437
0
LINE
8
DEFAULT_255_2_778
10
7.6940229
20
4.5504437
11
7.7136229
21
4.5089437
0
LINE
8
DEFAULT_255_2_778
10
7.7136229
20
4.5089437
11
7.7395229
21
4.4771437
0
LINE
8
DEFAULT_255_2_778
10
7.7395229
20
4.4771437
11
7.7824229
21
4.4541437
0
LINE
8
DEFAULT_255_2_778
10
7.7824229
20
4.4541437
11
7.8914229
21
4.4501437
0
LINE
8
DEFAULT_255_2_778
10
7.8914229
20
4.4501437
11
7.9364229
21
4.4694437
0
LINE
8
DEFAULT_255_2_778
10
7.9364229
20
4.4694437
11
7.9668229
21
4.5001437
0
LINE
8
DEFAULT_255_2_778
10
7.9668229
20
4.5001437
11
7.9946229
21
4.5459437
0
LINE
8
DEFAULT_255_2_778
10
7.9946229
20
4.5459437
11
8.0147229
21
4.5954437
0
LINE
8
DEFAULT_255_2_778
10
8.0147229
20
4.5954437
11
8.0282229
21
4.6470437
0
LINE
8
DEFAULT_255_2_778
10
8.0282229
20
4.6470437
11
8.0327229
21
4.6713437
0
LINE
8
DEFAULT_255_2_778
10
8.0327229
20
4.6713437
11
8.0367229
21
4.6991437
0
LINE
8
DEFAULT_255_2_778
10
8.0367229
20
4.6991437
11
8.0396229
21
4.7279437
0
LINE
8
DEFAULT_255_2_778
10
8.0396229
20
4.7279437
11
8.0419229
21
4.7600437
0
LINE
8
DEFAULT_255_2_778
10
8.0419229
20
4.7600437
11
8.0446229
21
4.9917437
0
LINE
8
DEFAULT_255_2_778
10
9.869676
20
5.0383719
11
9.868176
21
5.2576719
0
LINE
8
DEFAULT_255_2_778
10
9.868176
20
5.2576719
11
9.867376
21
5.2880719
0
LINE
8
DEFAULT_255_2_778
10
9.867376
20
5.2880719
11
9.865976
21
5.3185719
0
LINE
8
DEFAULT_255_2_778
10
9.865976
20
5.3185719
11
9.864476
21
5.3473719
0
LINE
8
DEFAULT_255_2_778
10
9.864476
20
5.3473719
11
9.862276
21
5.3761719
0
LINE
8
DEFAULT_255_2_778
10
9.862276
20
5.3761719
11
9.859976
21
5.4037719
0
LINE
8
DEFAULT_255_2_778
10
9.859976
20
5.4037719
11
9.856776
21
5.4312719
0
LINE
8
DEFAULT_255_2_778
10
9.856776
20
5.4312719
11
9.853076
21
5.4571719
0
LINE
8
DEFAULT_255_2_778
10
9.853076
20
5.4571719
11
9.845676
21
5.4994719
0
LINE
8
DEFAULT_255_2_778
10
9.845676
20
5.4994719
11
9.829776
21
5.5624719
0
LINE
8
DEFAULT_255_2_778
10
9.829776
20
5.5624719
11
9.808376
21
5.6198719
0
LINE
8
DEFAULT_255_2_778
10
9.808376
20
5.6198719
11
9.771276
21
5.6825719
0
LINE
8
DEFAULT_255_2_778
10
9.771276
20
5.6825719
11
9.709376
21
5.7429719
0
LINE
8
DEFAULT_255_2_778
10
9.709376
20
5.7429719
11
9.613576
21
5.7791719
0
LINE
8
DEFAULT_255_2_778
10
9.613576
20
5.7791719
11
9.486076
21
5.7693719
0
LINE
8
DEFAULT_255_2_778
10
9.486076
20
5.7693719
11
9.407476
21
5.7241719
0
LINE
8
DEFAULT_255_2_778
10
9.407476
20
5.7241719
11
9.361176
21
5.6709719
0
LINE
8
DEFAULT_255_2_778
10
9.361176
20
5.6709719
11
9.332376
21
5.6201719
0
LINE
8
DEFAULT_255_2_778
10
9.332376
20
5.6201719
11
9.310676
21
5.5627719
0
LINE
8
DEFAULT_255_2_778
10
9.310676
20
5.5627719
11
9.294476
21
5.4997719
0
LINE
8
DEFAULT_255_2_778
10
9.294476
20
5.4997719
11
9.286576
21
5.4574719
0
LINE
8
DEFAULT_255_2_778
10
9.286576
20
5.4574719
11
9.282876
21
5.4314719
0
LINE
8
DEFAULT_255_2_778
10
9.282876
20
5.4314719
11
9.279676
21
5.4042719
0
LINE
8
DEFAULT_255_2_778
10
9.279676
20
5.4042719
11
9.277076
21
5.3767719
0
LINE
8
DEFAULT_255_2_778
10
9.277076
20
5.3767719
11
9.274676
21
5.3478719
0
LINE
8
DEFAULT_255_2_778
10
9.274676
20
5.3478719
11
9.274676
21
4.7536719
0
LINE
8
DEFAULT_255_2_778
10
9.274676
20
4.7536719
11
9.277076
21
4.7250719
0
LINE
8
DEFAULT_255_2_778
10
9.277076
20
4.7250719
11
9.279676
21
4.6975719
0
LINE
8
DEFAULT_255_2_778
10
9.279676
20
4.6975719
11
9.282876
21
4.6702719
0
LINE
8
DEFAULT_255_2_778
10
9.282876
20
4.6702719
11
9.291376
21
4.6184719
0
LINE
8
DEFAULT_255_2_778
10
9.291376
20
4.6184719
11
9.306176
21
4.5541719
0
LINE
8
DEFAULT_255_2_778
10
9.306176
20
4.5541719
11
9.326276
21
4.4953719
0
LINE
8
DEFAULT_255_2_778
10
9.326276
20
4.4953719
11
9.353776
21
4.4427719
0
LINE
8
DEFAULT_255_2_778
10
9.353776
20
4.4427719
11
9.415976
21
4.3707719
0
LINE
8
DEFAULT_255_2_778
10
9.415976
20
4.3707719
11
9.495376
21
4.3292719
0
LINE
8
DEFAULT_255_2_778
10
9.495376
20
4.3292719
11
9.623176
21
4.3242719
0
LINE
8
DEFAULT_255_2_778
10
9.623176
20
4.3242719
11
9.714976
21
4.3644719
0
LINE
8
DEFAULT_255_2_778
10
9.714976
20
4.3644719
11
9.767876
21
4.4189719
0
LINE
8
DEFAULT_255_2_778
10
9.767876
20
4.4189719
11
9.805476
21
4.4816719
0
LINE
8
DEFAULT_255_2_778
10
9.805476
20
4.4816719
11
9.827676
21
4.5390719
0
LINE
8
DEFAULT_255_2_778
10
9.827676
20
4.5390719
11
9.844276
21
4.6020719
0
LINE
8
DEFAULT_255_2_778
10
9.844276
20
4.6020719
11
9.853576
21
4.6528719
0
LINE
8
DEFAULT_255_2_778
10
9.853576
20
4.6528719
11
9.859376
21
4.6975719
0
LINE
8
DEFAULT_255_2_778
10
9.859376
20
4.6975719
11
9.862076
21
4.7250719
0
LINE
8
DEFAULT_255_2_778
10
9.862076
20
4.7250719
11
9.864476
21
4.7536719
0
LINE
8
DEFAULT_255_2_778
10
9.864476
20
4.7536719
11
9.866276
21
4.7824719
0
LINE
8
DEFAULT_255_2_778
10
9.866276
20
4.7824719
11
9.867576
21
4.8126719
0
LINE
8
DEFAULT_255_2_778
10
9.867576
20
4.8126719
11
9.869176
21
4.9054719
0
LINE
8
DEFAULT_255_2_778
10
9.869176
20
4.9054719
11
9.869676
21
5.0383719
0
LINE
8
DEFAULT_255_2_778
10
9.351976
20
5.0383719
11
9.353476
21
4.8618719
0
LINE
8
DEFAULT_255_2_778
10
9.353476
20
4.8618719
11
9.355376
21
4.8070719
0
LINE
8
DEFAULT_255_2_778
10
9.355376
20
4.8070719
11
9.356676
21
4.7808719
0
LINE
8
DEFAULT_255_2_778
10
9.356676
20
4.7808719
11
9.358576
21
4.7546719
0
LINE
8
DEFAULT_255_2_778
10
9.358576
20
4.7546719
11
9.363276
21
4.7052719
0
LINE
8
DEFAULT_255_2_778
10
9.363276
20
4.7052719
11
9.369676
21
4.6586719
0
LINE
8
DEFAULT_255_2_778
10
9.369676
20
4.6586719
11
9.381276
21
4.6017719
0
LINE
8
DEFAULT_255_2_778
10
9.381276
20
4.6017719
11
9.396876
21
4.5501719
0
LINE
8
DEFAULT_255_2_778
10
9.396876
20
4.5501719
11
9.427876
21
4.4906719
0
LINE
8
DEFAULT_255_2_778
10
9.427876
20
4.4906719
11
9.480276
21
4.4414719
0
LINE
8
DEFAULT_255_2_778
10
9.480276
20
4.4414719
11
9.596376
21
4.4221719
0
LINE
8
DEFAULT_255_2_778
10
9.596376
20
4.4221719
11
9.678176
21
4.4546719
0
LINE
8
DEFAULT_255_2_778
10
9.678176
20
4.4546719
11
9.725276
21
4.5133719
0
LINE
8
DEFAULT_255_2_778
10
9.725276
20
4.5133719
11
9.746976
21
4.5623719
0
LINE
8
DEFAULT_255_2_778
10
9.746976
20
4.5623719
11
9.762076
21
4.6152719
0
LINE
8
DEFAULT_255_2_778
10
9.762076
20
4.6152719
11
9.770776
21
4.6586719
0
LINE
8
DEFAULT_255_2_778
10
9.770776
20
4.6586719
11
9.777376
21
4.7052719
0
LINE
8
DEFAULT_255_2_778
10
9.777376
20
4.7052719
11
9.776276
21
5.4121719
0
LINE
8
DEFAULT_255_2_778
10
9.776276
20
5.4121719
11
9.769476
21
5.4574719
0
LINE
8
DEFAULT_255_2_778
10
9.769476
20
5.4574719
11
9.756776
21
5.5121719
0
LINE
8
DEFAULT_255_2_778
10
9.756776
20
5.5121719
11
9.739276
21
5.5608719
0
LINE
8
DEFAULT_255_2_778
10
9.739276
20
5.5608719
11
9.699376
21
5.6267719
0
LINE
8
DEFAULT_255_2_778
10
9.699376
20
5.6267719
11
9.631376
21
5.6706719
0
LINE
8
DEFAULT_255_2_778
10
9.631376
20
5.6706719
11
9.496876
21
5.6664719
0
LINE
8
DEFAULT_255_2_778
10
9.496876
20
5.6664719
11
9.436876
21
5.6211719
0
LINE
8
DEFAULT_255_2_778
10
9.436876
20
5.6211719
11
9.400376
21
5.5606719
0
LINE
8
DEFAULT_255_2_778
10
9.400376
20
5.5606719
11
9.383376
21
5.5119719
0
LINE
8
DEFAULT_255_2_778
10
9.383376
20
5.5119719
11
9.371276
21
5.4571719
0
LINE
8
DEFAULT_255_2_778
10
9.371276
20
5.4571719
11
9.364676
21
5.4119719
0
LINE
8
DEFAULT_255_2_778
10
9.364676
20
5.4119719
11
9.360676
21
5.3716719
0
LINE
8
DEFAULT_255_2_778
10
9.360676
20
5.3716719
11
9.358776
21
5.3470719
0
LINE
8
DEFAULT_255_2_778
10
9.358776
20
5.3470719
11
9.357176
21
5.3211719
0
LINE
8
DEFAULT_255_2_778
10
9.357176
20
5.3211719
11
9.355876
21
5.2949719
0
LINE
8
DEFAULT_255_2_778
10
9.355876
20
5.2949719
11
9.354276
21
5.2401719
0
LINE
8
DEFAULT_255_2_778
10
9.354276
20
5.2401719
11
9.351976
21
5.0383719
0
LINE
8
DEFAULT_255_2_778
10
10.5992438
20
5.0219719
11
10.5976438
21
5.2412719
0
LINE
8
DEFAULT_255_2_778
10
10.5976438
20
5.2412719
11
10.5968438
21
5.2716719
0
LINE
8
DEFAULT_255_2_778
10
10.5968438
20
5.2716719
11
10.5955438
21
5.3021719
0
LINE
8
DEFAULT_255_2_778
10
10.5955438
20
5.3021719
11
10.5939438
21
5.3309719
0
LINE
8
DEFAULT_255_2_778
10
10.5939438
20
5.3309719
11
10.5918438
21
5.3597719
0
LINE
8
DEFAULT_255_2_778
10
10.5918438
20
5.3597719
11
10.5894438
21
5.3873719
0
LINE
8
DEFAULT_255_2_778
10
10.5894438
20
5.3873719
11
10.5862438
21
5.4148719
0
LINE
8
DEFAULT_255_2_778
10
10.5862438
20
5.4148719
11
10.5825438
21
5.4407719
0
LINE
8
DEFAULT_255_2_778
10
10.5825438
20
5.4407719
11
10.5751438
21
5.4830719
0
LINE
8
DEFAULT_255_2_778
10
10.5751438
20
5.4830719
11
10.5593438
21
5.5460719
0
LINE
8
DEFAULT_255_2_778
10
10.5593438
20
5.5460719
11
10.5376438
21
5.6034719
0
LINE
8
DEFAULT_255_2_778
10
10.5376438
20
5.6034719
11
10.5005438
21
5.6661719
0
LINE
8
DEFAULT_255_2_778
10
10.5005438
20
5.6661719
11
10.4386438
21
5.7265719
0
LINE
8
DEFAULT_255_2_778
10
10.4386438
20
5.7265719
11
10.3428438
21
5.7627719
0
LINE
8
DEFAULT_255_2_778
10
10.3428438
20
5.7627719
11
10.2153438
21
5.7529719
0
LINE
8
DEFAULT_255_2_778
10
10.2153438
20
5.7529719
11
10.1367438
21
5.7077719
0
LINE
8
DEFAULT_255_2_778
10
10.1367438
20
5.7077719
11
10.0904438
21
5.6545719
0
LINE
8
DEFAULT_255_2_778
10
10.0904438
20
5.6545719
11
10.0616438
21
5.6037719
0
LINE
8
DEFAULT_255_2_778
10
10.0616438
20
5.6037719
11
10.0399438
21
5.5463719
0
LINE
8
DEFAULT_255_2_778
10
10.0399438
20
5.5463719
11
10.0237438
21
5.4833719
0
LINE
8
DEFAULT_255_2_778
10
10.0237438
20
5.4833719
11
10.0158438
21
5.4410719
0
LINE
8
DEFAULT_255_2_778
10
10.0158438
20
5.4410719
11
10.0121438
21
5.4150719
0
LINE
8
DEFAULT_255_2_778
10
10.0121438
20
5.4150719
11
10.0089438
21
5.3878719
0
LINE
8
DEFAULT_255_2_778
10
10.0089438
20
5.3878719
11
10.0063438
21
5.3603719
0
LINE
8
DEFAULT_255_2_778
10
10.0063438
20
5.3603719
11
10.0039438
21
5.3314719
0
LINE
8
DEFAULT_255_2_778
10
10.0039438
20
5.3314719
11
10.0039438
21
4.7372719
0
LINE
8
DEFAULT_255_2_778
10
10.0039438
20
4.7372719
11
10.0063438
21
4.7086719
0
LINE
8
DEFAULT_255_2_778
10
10.0063438
20
4.7086719
11
10.0089438
21
4.6811719
0
LINE
8
DEFAULT_255_2_778
10
10.0089438
20
4.6811719
11
10.0121438
21
4.6538719
0
LINE
8
DEFAULT_255_2_778
10
10.0121438
20
4.6538719
11
10.0206438
21
4.6020719
0
LINE
8
DEFAULT_255_2_778
10
10.0206438
20
4.6020719
11
10.0354438
21
4.5377719
0
LINE
8
DEFAULT_255_2_778
10
10.0354438
20
4.5377719
11
10.0555438
21
4.4789719
0
LINE
8
DEFAULT_255_2_778
10
10.0555438
20
4.4789719
11
10.0830438
21
4.4263719
0
LINE
8
DEFAULT_255_2_778
10
10.0830438
20
4.4263719
11
10.1452438
21
4.3543719
0
LINE
8
DEFAULT_255_2_778
10
10.1452438
20
4.3543719
11
10.2246438
21
4.3128719
0
LINE
8
DEFAULT_255_2_778
10
10.2246438
20
4.3128719
11
10.3524438
21
4.3078719
0
LINE
8
DEFAULT_255_2_778
10
10.3524438
20
4.3078719
11
10.4442438
21
4.3480719
0
LINE
8
DEFAULT_255_2_778
10
10.4442438
20
4.3480719
11
10.4971438
21
4.4025719
0
LINE
8
DEFAULT_255_2_778
10
10.4971438
20
4.4025719
11
10.5347438
21
4.4652719
0
LINE
8
DEFAULT_255_2_778
10
10.5347438
20
4.4652719
11
10.5569438
21
4.5226719
0
LINE
8
DEFAULT_255_2_778
10
10.5569438
20
4.5226719
11
10.5735438
21
4.5856719
0
LINE
8
DEFAULT_255_2_778
10
10.5735438
20
4.5856719
11
10.5828438
21
4.6364719
0
LINE
8
DEFAULT_255_2_778
10
10.5828438
20
4.6364719
11
10.5886438
21
4.6811719
0
LINE
8
DEFAULT_255_2_778
10
10.5886438
20
4.6811719
11
10.5913438
21
4.7086719
0
LINE
8
DEFAULT_255_2_778
10
10.5913438
20
4.7086719
11
10.5937438
21
4.7372719
0
LINE
8
DEFAULT_255_2_778
10
10.5937438
20
4.7372719
11
10.5955438
21
4.7660719
0
LINE
8
DEFAULT_255_2_778
10
10.5955438
20
4.7660719
11
10.5968438
21
4.7962719
0
LINE
8
DEFAULT_255_2_778
10
10.5968438
20
4.7962719
11
10.5984438
21
4.8890719
0
LINE
8
DEFAULT_255_2_778
10
10.5984438
20
4.8890719
11
10.5992438
21
5.0219719
0
LINE
8
DEFAULT_255_2_778
10
10.0814438
20
5.0219719
11
10.0830438
21
4.8454719
0
LINE
8
DEFAULT_255_2_778
10
10.0830438
20
4.8454719
11
10.0849438
21
4.7906719
0
LINE
8
DEFAULT_255_2_778
10
10.0849438
20
4.7906719
11
10.0862438
21
4.7644719
0
LINE
8
DEFAULT_255_2_778
10
10.0862438
20
4.7644719
11
10.0880438
21
4.7382719
0
LINE
8
DEFAULT_255_2_778
10
10.0880438
20
4.7382719
11
10.0928438
21
4.6888719
0
LINE
8
DEFAULT_255_2_778
10
10.0928438
20
4.6888719
11
10.0991438
21
4.6422719
0
LINE
8
DEFAULT_255_2_778
10
10.0991438
20
4.6422719
11
10.1108438
21
4.5853719
0
LINE
8
DEFAULT_255_2_778
10
10.1108438
20
4.5853719
11
10.1264438
21
4.5337719
0
LINE
8
DEFAULT_255_2_778
10
10.1264438
20
4.5337719
11
10.1574438
21
4.4742719
0
LINE
8
DEFAULT_255_2_778
10
10.1574438
20
4.4742719
11
10.2097438
21
4.4250719
0
LINE
8
DEFAULT_255_2_778
10
10.2097438
20
4.4250719
11
10.3259438
21
4.4057719
0
LINE
8
DEFAULT_255_2_778
10
10.3259438
20
4.4057719
11
10.4077438
21
4.4382719
0
LINE
8
DEFAULT_255_2_778
10
10.4077438
20
4.4382719
11
10.4547438
21
4.4969719
0
LINE
8
DEFAULT_255_2_778
10
10.4547438
20
4.4969719
11
10.4764438
21
4.5459719
0
LINE
8
DEFAULT_255_2_778
10
10.4764438
20
4.5459719
11
10.4915438
21
4.5988719
0
LINE
8
DEFAULT_255_2_778
10
10.4915438
20
4.5988719
11
10.5003438
21
4.6422719
0
LINE
8
DEFAULT_255_2_778
10
10.5003438
20
4.6422719
11
10.5069438
21
4.6888719
0
LINE
8
DEFAULT_255_2_778
10
10.5069438
20
4.6888719
11
10.5058438
21
5.3957719
0
LINE
8
DEFAULT_255_2_778
10
10.5058438
20
5.3957719
11
10.4989438
21
5.4410719
0
LINE
8
DEFAULT_255_2_778
10
10.4989438
20
5.4410719
11
10.4862438
21
5.4957719
0
LINE
8
DEFAULT_255_2_778
10
10.4862438
20
5.4957719
11
10.4688438
21
5.5444719
0
LINE
8
DEFAULT_255_2_778
10
10.4688438
20
5.5444719
11
10.4288438
21
5.6103719
0
LINE
8
DEFAULT_255_2_778
10
10.4288438
20
5.6103719
11
10.3608438
21
5.6542719
0
LINE
8
DEFAULT_255_2_778
10
10.3608438
20
5.6542719
11
10.2264438
21
5.6500719
0
LINE
8
DEFAULT_255_2_778
10
10.2264438
20
5.6500719
11
10.1664438
21
5.6047719
0
LINE
8
DEFAULT_255_2_778
10
10.1664438
20
5.6047719
11
10.1298438
21
5.5442719
0
LINE
8
DEFAULT_255_2_778
10
10.1298438
20
5.5442719
11
10.1129438
21
5.4955719
0
LINE
8
DEFAULT_255_2_778
10
10.1129438
20
5.4955719
11
10.1007438
21
5.4407719
0
LINE
8
DEFAULT_255_2_778
10
10.1007438
20
5.4407719
11
10.0941438
21
5.3955719
0
LINE
8
DEFAULT_255_2_778
10
10.0941438
20
5.3955719
11
10.0902438
21
5.3552719
0
LINE
8
DEFAULT_255_2_778
10
10.0902438
20
5.3552719
11
10.0883438
21
5.3306719
0
LINE
8
DEFAULT_255_2_778
10
10.0883438
20
5.3306719
11
10.0867438
21
5.3047719
0
LINE
8
DEFAULT_255_2_778
10
10.0867438
20
5.3047719
11
10.0854438
21
5.2785719
0
LINE
8
DEFAULT_255_2_778
10
10.0854438
20
5.2785719
11
10.0838438
21
5.2237719
0
LINE
8
DEFAULT_255_2_778
10
10.0838438
20
5.2237719
11
10.0814438
21
5.0219719
0
LINE
8
DEFAULT_255_2_778
10
11.817276
20
5.0219719
11
11.815776
21
5.2412719
0
LINE
8
DEFAULT_255_2_778
10
11.815776
20
5.2412719
11
11.814976
21
5.2716719
0
LINE
8
DEFAULT_255_2_778
10
11.814976
20
5.2716719
11
11.813576
21
5.3021719
0
LINE
8
DEFAULT_255_2_778
10
11.813576
20
5.3021719
11
11.812076
21
5.3309719
0
LINE
8
DEFAULT_255_2_778
10
11.812076
20
5.3309719
11
11.809876
21
5.3597719
0
LINE
8
DEFAULT_255_2_778
10
11.809876
20
5.3597719
11
11.807576
21
5.3873719
0
LINE
8
DEFAULT_255_2_778
10
11.807576
20
5.3873719
11
11.804376
21
5.4148719
0
LINE
8
DEFAULT_255_2_778
10
11.804376
20
5.4148719
11
11.800676
21
5.4407719
0
LINE
8
DEFAULT_255_2_778
10
11.800676
20
5.4407719
11
11.793276
21
5.4830719
0
LINE
8
DEFAULT_255_2_778
10
11.793276
20
5.4830719
11
11.777376
21
5.5460719
0
LINE
8
DEFAULT_255_2_778
10
11.777376
20
5.5460719
11
11.755976
21
5.6034719
0
LINE
8
DEFAULT_255_2_778
10
11.755976
20
5.6034719
11
11.718876
21
5.6661719
0
LINE
8
DEFAULT_255_2_778
10
11.718876
20
5.6661719
11
11.656976
21
5.7265719
0
LINE
8
DEFAULT_255_2_778
10
11.656976
20
5.7265719
11
11.561176
21
5.7627719
0
LINE
8
DEFAULT_255_2_778
10
11.561176
20
5.7627719
11
11.433676
21
5.7529719
0
LINE
8
DEFAULT_255_2_778
10
11.433676
20
5.7529719
11
11.355076
21
5.7077719
0
LINE
8
DEFAULT_255_2_778
10
11.355076
20
5.7077719
11
11.308776
21
5.6545719
0
LINE
8
DEFAULT_255_2_778
10
11.308776
20
5.6545719
11
11.279976
21
5.6037719
0
LINE
8
DEFAULT_255_2_778
10
11.279976
20
5.6037719
11
11.258276
21
5.5463719
0
LINE
8
DEFAULT_255_2_778
10
11.258276
20
5.5463719
11
11.242076
21
5.4833719
0
LINE
8
DEFAULT_255_2_778
10
11.242076
20
5.4833719
11
11.234176
21
5.4410719
0
LINE
8
DEFAULT_255_2_778
10
11.234176
20
5.4410719
11
11.230476
21
5.4150719
0
LINE
8
DEFAULT_255_2_778
10
11.230476
20
5.4150719
11
11.227276
21
5.3878719
0
LINE
8
DEFAULT_255_2_778
10
11.227276
20
5.3878719
11
11.224676
21
5.3603719
0
LINE
8
DEFAULT_255_2_778
10
11.224676
20
5.3603719
11
11.222276
21
5.3314719
0
LINE
8
DEFAULT_255_2_778
10
11.222276
20
5.3314719
11
11.222276
21
4.7372719
0
LINE
8
DEFAULT_255_2_778
10
11.222276
20
4.7372719
11
11.224676
21
4.7086719
0
LINE
8
DEFAULT_255_2_778
10
11.224676
20
4.7086719
11
11.227276
21
4.6811719
0
LINE
8
DEFAULT_255_2_778
10
11.227276
20
4.6811719
11
11.230476
21
4.6538719
0
LINE
8
DEFAULT_255_2_778
10
11.230476
20
4.6538719
11
11.238976
21
4.6020719
0
LINE
8
DEFAULT_255_2_778
10
11.238976
20
4.6020719
11
11.253776
21
4.5377719
0
LINE
8
DEFAULT_255_2_778
10
11.253776
20
4.5377719
11
11.273876
21
4.4789719
0
LINE
8
DEFAULT_255_2_778
10
11.273876
20
4.4789719
11
11.301376
21
4.4263719
0
LINE
8
DEFAULT_255_2_778
10
11.301376
20
4.4263719
11
11.363576
21
4.3543719
0
LINE
8
DEFAULT_255_2_778
10
11.363576
20
4.3543719
11
11.442976
21
4.3128719
0
LINE
8
DEFAULT_255_2_778
10
11.442976
20
4.3128719
11
11.570776
21
4.3078719
0
LINE
8
DEFAULT_255_2_778
10
11.570776
20
4.3078719
11
11.662576
21
4.3480719
0
LINE
8
DEFAULT_255_2_778
10
11.662576
20
4.3480719
11
11.715476
21
4.4025719
0
LINE
8
DEFAULT_255_2_778
10
11.715476
20
4.4025719
11
11.753076
21
4.4652719
0
LINE
8
DEFAULT_255_2_778
10
11.753076
20
4.4652719
11
11.775276
21
4.5226719
0
LINE
8
DEFAULT_255_2_778
10
11.775276
20
4.5226719
11
11.791876
21
4.5856719
0
LINE
8
DEFAULT_255_2_778
10
11.791876
20
4.5856719
11
11.801176
21
4.6364719
0
LINE
8
DEFAULT_255_2_778
10
11.801176
20
4.6364719
11
11.806976
21
4.6811719
0
LINE
8
DEFAULT_255_2_778
10
11.806976
20
4.6811719
11
11.809676
21
4.7086719
0
LINE
8
DEFAULT_255_2_778
10
11.809676
20
4.7086719
11
11.812076
21
4.7372719
0
LINE
8
DEFAULT_255_2_778
10
11.812076
20
4.7372719
11
11.813876
21
4.7660719
0
LINE
8
DEFAULT_255_2_778
10
11.813876
20
4.7660719
11
11.815176
21
4.7962719
0
LINE
8
DEFAULT_255_2_778
10
11.815176
20
4.7962719
11
11.816776
21
4.8890719
0
LINE
8
DEFAULT_255_2_778
10
11.816776
20
4.8890719
11
11.817276
21
5.0219719
0
LINE
8
DEFAULT_255_2_778
10
11.299576
20
5.0219719
11
11.301076
21
4.8454719
0
LINE
8
DEFAULT_255_2_778
10
11.301076
20
4.8454719
11
11.302976
21
4.7906719
0
LINE
8
DEFAULT_255_2_778
10
11.302976
20
4.7906719
11
11.304276
21
4.7644719
0
LINE
8
DEFAULT_255_2_778
10
11.304276
20
4.7644719
11
11.306176
21
4.7382719
0
LINE
8
DEFAULT_255_2_778
10
11.306176
20
4.7382719
11
11.310876
21
4.6888719
0
LINE
8
DEFAULT_255_2_778
10
11.310876
20
4.6888719
11
11.317276
21
4.6422719
0
LINE
8
DEFAULT_255_2_778
10
11.317276
20
4.6422719
11
11.328876
21
4.5853719
0
LINE
8
DEFAULT_255_2_778
10
11.328876
20
4.5853719
11
11.344476
21
4.5337719
0
LINE
8
DEFAULT_255_2_778
10
11.344476
20
4.5337719
11
11.375476
21
4.4742719
0
LINE
8
DEFAULT_255_2_778
10
11.375476
20
4.4742719
11
11.427876
21
4.4250719
0
LINE
8
DEFAULT_255_2_778
10
11.427876
20
4.4250719
11
11.543976
21
4.4057719
0
LINE
8
DEFAULT_255_2_778
10
11.543976
20
4.4057719
11
11.625776
21
4.4382719
0
LINE
8
DEFAULT_255_2_778
10
11.625776
20
4.4382719
11
11.672876
21
4.4969719
0
LINE
8
DEFAULT_255_2_778
10
11.672876
20
4.4969719
11
11.694576
21
4.5459719
0
LINE
8
DEFAULT_255_2_778
10
11.694576
20
4.5459719
11
11.709676
21
4.5988719
0
LINE
8
DEFAULT_255_2_778
10
11.709676
20
4.5988719
11
11.718376
21
4.6422719
0
LINE
8
DEFAULT_255_2_778
10
11.718376
20
4.6422719
11
11.724976
21
4.6888719
0
LINE
8
DEFAULT_255_2_778
10
11.724976
20
4.6888719
11
11.723876
21
5.3957719
0
LINE
8
DEFAULT_255_2_778
10
11.723876
20
5.3957719
11
11.717076
21
5.4410719
0
LINE
8
DEFAULT_255_2_778
10
11.717076
20
5.4410719
11
11.704376
21
5.4957719
0
LINE
8
DEFAULT_255_2_778
10
11.704376
20
5.4957719
11
11.686876
21
5.5444719
0
LINE
8
DEFAULT_255_2_778
10
11.686876
20
5.5444719
11
11.646976
21
5.6103719
0
LINE
8
DEFAULT_255_2_778
10
11.646976
20
5.6103719
11
11.578976
21
5.6542719
0
LINE
8
DEFAULT_255_2_778
10
11.578976
20
5.6542719
11
11.444476
21
5.6500719
0
LINE
8
DEFAULT_255_2_778
10
11.444476
20
5.6500719
11
11.384476
21
5.6047719
0
LINE
8
DEFAULT_255_2_778
10
11.384476
20
5.6047719
11
11.347976
21
5.5442719
0
LINE
8
DEFAULT_255_2_778
10
11.347976
20
5.5442719
11
11.330976
21
5.4955719
0
LINE
8
DEFAULT_255_2_778
10
11.330976
20
5.4955719
11
11.318876
21
5.4407719
0
LINE
8
DEFAULT_255_2_778
10
11.318876
20
5.4407719
11
11.312276
21
5.3955719
0
LINE
8
DEFAULT_255_2_778
10
11.312276
20
5.3955719
11
11.308276
21
5.3552719
0
LINE
8
DEFAULT_255_2_778
10
11.308276
20
5.3552719
11
11.306376
21
5.3306719
0
LINE
8
DEFAULT_255_2_778
10
11.306376
20
5.3306719
11
11.304776
21
5.3047719
0
LINE
8
DEFAULT_255_2_778
10
11.304776
20
5.3047719
11
11.303476
21
5.2785719
0
LINE
8
DEFAULT_255_2_778
10
11.303476
20
5.2785719
11
11.301876
21
5.2237719
0
LINE
8
DEFAULT_255_2_778
10
11.301876
20
5.2237719
11
11.299576
21
5.0219719
0
LINE
8
DEFAULT_255_2_778
10
12.0499271
20
4.9293281
11
12.0522271
21
5.3280281
0
LINE
8
DEFAULT_255_2_778
10
12.0522271
20
5.3280281
11
12.0544271
21
5.3621281
0
LINE
8
DEFAULT_255_2_778
10
12.0544271
20
5.3621281
11
12.0578271
21
5.4008281
0
LINE
8
DEFAULT_255_2_778
10
12.0578271
20
5.4008281
11
12.0628271
21
5.4397281
0
LINE
8
DEFAULT_255_2_778
10
12.0628271
20
5.4397281
11
12.0697271
21
5.4751281
0
LINE
8
DEFAULT_255_2_778
10
12.0697271
20
5.4751281
11
12.0798271
21
5.5103281
0
LINE
8
DEFAULT_255_2_778
10
12.0798271
20
5.5103281
11
12.1009271
21
5.5561281
0
LINE
8
DEFAULT_255_2_778
10
12.1009271
20
5.5561281
11
12.1306271
21
5.5947281
0
LINE
8
DEFAULT_255_2_778
10
12.1306271
20
5.5947281
11
12.1869271
21
5.6376281
0
LINE
8
DEFAULT_255_2_778
10
12.1869271
20
5.6376281
11
12.2647271
21
5.6619281
0
LINE
8
DEFAULT_255_2_778
10
12.2647271
20
5.6619281
11
12.4055271
21
5.6550281
0
LINE
8
DEFAULT_255_2_778
10
12.4055271
20
5.6550281
11
12.4600271
21
5.6307281
0
LINE
8
DEFAULT_255_2_778
10
12.4600271
20
5.6307281
11
12.4962271
21
5.5960281
0
LINE
8
DEFAULT_255_2_778
10
12.4962271
20
5.5960281
11
12.5227271
21
5.5534281
0
LINE
8
DEFAULT_255_2_778
10
12.5227271
20
5.5534281
11
12.5343271
21
5.5220281
0
LINE
8
DEFAULT_255_2_778
10
12.5343271
20
5.5220281
11
12.5409271
21
5.4889281
0
LINE
8
DEFAULT_255_2_778
10
12.5409271
20
5.4889281
11
12.6192271
21
5.5122281
0
LINE
8
DEFAULT_255_2_778
10
12.6192271
20
5.5122281
11
12.6153271
21
5.5376281
0
LINE
8
DEFAULT_255_2_778
10
12.6153271
20
5.5376281
11
12.6055271
21
5.5749281
0
LINE
8
DEFAULT_255_2_778
10
12.6055271
20
5.5749281
11
12.5915271
21
5.6095281
0
LINE
8
DEFAULT_255_2_778
10
12.5915271
20
5.6095281
11
12.5684271
21
5.6487281
0
LINE
8
DEFAULT_255_2_778
10
12.5684271
20
5.6487281
11
12.5227271
21
5.7000281
0
LINE
8
DEFAULT_255_2_778
10
12.5227271
20
5.7000281
11
12.4589271
21
5.7386281
0
LINE
8
DEFAULT_255_2_778
10
12.4589271
20
5.7386281
11
12.3787271
21
5.7593281
0
LINE
8
DEFAULT_255_2_778
10
12.3787271
20
5.7593281
11
12.2758271
21
5.7614281
0
LINE
8
DEFAULT_255_2_778
10
12.2758271
20
5.7614281
11
12.1737271
21
5.7347281
0
LINE
8
DEFAULT_255_2_778
10
12.1737271
20
5.7347281
11
12.1015271
21
5.6902281
0
LINE
8
DEFAULT_255_2_778
10
12.1015271
20
5.6902281
11
12.0583271
21
5.6466281
0
LINE
8
DEFAULT_255_2_778
10
12.0583271
20
5.6466281
11
12.0282271
21
5.5992281
0
LINE
8
DEFAULT_255_2_778
10
12.0282271
20
5.5992281
11
12.0102271
21
5.5577281
0
LINE
8
DEFAULT_255_2_778
10
12.0102271
20
5.5577281
11
11.9975271
21
5.5180281
0
LINE
8
DEFAULT_255_2_778
10
11.9975271
20
5.5180281
11
11.9879271
21
5.4778281
0
LINE
8
DEFAULT_255_2_778
10
11.9879271
20
5.4778281
11
11.9824271
21
5.4476281
0
LINE
8
DEFAULT_255_2_778
10
11.9824271
20
5.4476281
11
11.9758271
21
5.3963281
0
LINE
8
DEFAULT_255_2_778
10
11.9758271
20
5.3963281
11
11.9726271
21
5.3606281
0
LINE
8
DEFAULT_255_2_778
10
11.9726271
20
5.3606281
11
11.9729271
21
4.7729281
0
LINE
8
DEFAULT_255_2_778
10
11.9729271
20
4.7729281
11
11.9776271
21
4.7229281
0
LINE
8
DEFAULT_255_2_778
10
11.9776271
20
4.7229281
11
11.9824271
21
4.6861281
0
LINE
8
DEFAULT_255_2_778
10
11.9824271
20
4.6861281
11
11.9898271
21
4.6422281
0
LINE
8
DEFAULT_255_2_778
10
11.9898271
20
4.6422281
11
12.0001271
21
4.5954281
0
LINE
8
DEFAULT_255_2_778
10
12.0001271
20
4.5954281
11
12.0128271
21
4.5517281
0
LINE
8
DEFAULT_255_2_778
10
12.0128271
20
4.5517281
11
12.0290271
21
4.5110281
0
LINE
8
DEFAULT_255_2_778
10
12.0290271
20
4.5110281
11
12.0602271
21
4.4581281
0
LINE
8
DEFAULT_255_2_778
10
12.0602271
20
4.4581281
11
12.1038271
21
4.4110281
0
LINE
8
DEFAULT_255_2_778
10
12.1038271
20
4.4110281
11
12.1694271
21
4.3692281
0
LINE
8
DEFAULT_255_2_778
10
12.1694271
20
4.3692281
11
12.2520271
21
4.3480281
0
LINE
8
DEFAULT_255_2_778
10
12.2520271
20
4.3480281
11
12.4012271
21
4.3549281
0
LINE
8
DEFAULT_255_2_778
10
12.4012271
20
4.3549281
11
12.4758271
21
4.3813281
0
LINE
8
DEFAULT_255_2_778
10
12.4758271
20
4.3813281
11
12.5407271
21
4.4324281
0
LINE
8
DEFAULT_255_2_778
10
12.5407271
20
4.4324281
11
12.5790271
21
4.4827281
0
LINE
8
DEFAULT_255_2_778
10
12.5790271
20
4.4827281
11
12.5973271
21
4.5168281
0
LINE
8
DEFAULT_255_2_778
10
12.5973271
20
4.5168281
11
12.6121271
21
4.5562281
0
LINE
8
DEFAULT_255_2_778
10
12.6121271
20
4.5562281
11
12.6177271
21
4.5774281
0
LINE
8
DEFAULT_255_2_778
10
12.6177271
20
4.5774281
11
12.6177271
21
4.5803281
0
LINE
8
DEFAULT_255_2_778
10
12.6177271
20
4.5803281
11
12.5425271
21
4.6134281
0
LINE
8
DEFAULT_255_2_778
10
12.0501271
20
4.9063281
11
12.0517271
21
4.8261281
0
LINE
8
DEFAULT_255_2_778
10
12.0517271
20
4.8261281
11
12.0538271
21
4.7811281
0
LINE
8
DEFAULT_255_2_778
10
12.0538271
20
4.7811281
11
12.0559271
21
4.7531281
0
LINE
8
DEFAULT_255_2_778
10
12.0559271
20
4.7531281
11
12.0589271
21
4.7248281
0
LINE
8
DEFAULT_255_2_778
10
12.0589271
20
4.7248281
11
12.0652271
21
4.6798281
0
LINE
8
DEFAULT_255_2_778
10
12.0652271
20
4.6798281
11
12.0721271
21
4.6459281
0
LINE
8
DEFAULT_255_2_778
10
12.0721271
20
4.6459281
11
12.0874271
21
4.5946281
0
LINE
8
DEFAULT_255_2_778
10
12.0874271
20
4.5946281
11
12.1210271
21
4.5274281
0
LINE
8
DEFAULT_255_2_778
10
12.1210271
20
4.5274281
11
12.1657271
21
4.4792281
0
LINE
8
DEFAULT_255_2_778
10
12.1657271
20
4.4792281
11
12.2335271
21
4.4536281
0
LINE
8
DEFAULT_255_2_778
10
12.2335271
20
4.4536281
11
12.3883271
21
4.4522281
0
LINE
8
DEFAULT_255_2_778
10
12.3883271
20
4.4522281
11
12.4676271
21
4.4909281
0
LINE
8
DEFAULT_255_2_778
10
12.4676271
20
4.4909281
11
12.5195271
21
4.5504281
0
LINE
8
DEFAULT_255_2_778
10
12.5195271
20
4.5504281
11
12.5377271
21
4.5938281
0
LINE
8
DEFAULT_255_2_778
10
12.5377271
20
4.5938281
11
12.5430271
21
4.6136281
0
LINE
8
DEFAULT_255_2_778
10
12.5430271
20
4.6136281
11
12.5417271
21
4.6052281
0
LINE
8
DEFAULT_255_2_778
10
12.5417271
20
4.6052281
11
12.5319271
21
4.5745281
0
LINE
8
DEFAULT_255_2_778
10
12.5319271
20
4.5745281
11
12.5105271
21
4.5335281
0
LINE
8
DEFAULT_255_2_778
10
12.5105271
20
4.5335281
11
12.4769271
21
4.4959281
0
LINE
8
DEFAULT_255_2_778
10
12.4769271
20
4.4959281
11
12.4150271
21
4.4581281
0
LINE
8
DEFAULT_255_2_778
10
12.4150271
20
4.4581281
11
12.3380271
21
4.4430281
0
LINE
8
DEFAULT_255_2_778
10
12.3380271
20
4.4430281
11
12.1986271
21
4.4597281
0
LINE
8
DEFAULT_255_2_778
10
12.1986271
20
4.4597281
11
12.1496271
21
4.4903281
0
LINE
8
DEFAULT_255_2_778
10
12.1496271
20
4.4903281
11
12.1157271
21
4.5337281
0
LINE
8
DEFAULT_255_2_778
10
12.1157271
20
4.5337281
11
12.0869271
21
4.5946281
0
LINE
8
DEFAULT_255_2_778
10
12.0869271
20
4.5946281
11
12.0747271
21
4.6343281
0
LINE
8
DEFAULT_255_2_778
10
12.0747271
20
4.6343281
11
12.0689271
21
4.6591281
0
LINE
8
DEFAULT_255_2_778
10
12.0689271
20
4.6591281
11
12.0644271
21
4.6832281
0
LINE
8
DEFAULT_255_2_778
10
12.0644271
20
4.6832281
11
12.0586271
21
4.7256281
0
LINE
8
DEFAULT_255_2_778
10
12.0586271
20
4.7256281
11
12.0554271
21
4.7576281
0
LINE
8
DEFAULT_255_2_778
10
12.0554271
20
4.7576281
11
12.0530271
21
4.7928281
0
LINE
8
DEFAULT_255_2_778
10
12.0530271
20
4.7928281
11
12.0504271
21
4.8782281
0
LINE
8
DEFAULT_255_2_778
10
12.0504271
20
4.8782281
11
12.0501271
21
4.9285281
0
LINE
8
DEFAULT_255_2_778
10
13.1788271
20
5.5786281
11
13.3802271
21
4.8235281
0
LINE
8
DEFAULT_255_2_778
10
13.3802271
20
4.8235281
11
12.9404271
21
4.8235281
0
LINE
8
DEFAULT_255_2_778
10
12.9404271
20
4.8235281
11
13.1643271
21
5.6325281
0
LINE
8
DEFAULT_255_2_778
10
13.1643271
20
5.6325281
11
13.1788271
21
5.5786281
0
LINE
8
DEFAULT_255_2_778
10
12.7312271
20
4.3771281
11
12.7312271
21
4.3800281
0
LINE
8
DEFAULT_255_2_778
10
12.7312271
20
4.3800281
11
13.1132271
21
5.7595281
0
LINE
8
DEFAULT_255_2_778
10
13.1132271
20
5.7595281
11
13.1132271
21
5.7566281
0
LINE
8
DEFAULT_255_2_778
10
13.1132271
20
5.7566281
11
12.7312271
21
4.3771281
0
LINE
8
DEFAULT_255_2_778
10
12.7312271
20
4.3771281
11
12.8079271
21
4.3461281
0
LINE
8
DEFAULT_255_2_778
10
12.8079271
20
4.3461281
11
12.9135271
21
4.7245281
0
LINE
8
DEFAULT_255_2_778
10
12.9135271
20
4.7245281
11
13.4074271
21
4.7245281
0
LINE
8
DEFAULT_255_2_778
10
13.4074271
20
4.7245281
11
13.4733271
21
4.4784281
0
LINE
8
DEFAULT_255_2_778
10
13.4733271
20
4.4784281
11
13.5098271
21
4.3461281
0
LINE
8
DEFAULT_255_2_778
10
13.5098271
20
4.3461281
11
13.5881271
21
4.3771281
0
LINE
8
DEFAULT_255_2_778
10
13.5881271
20
4.3771281
11
13.5881271
21
4.3800281
0
LINE
8
DEFAULT_255_2_778
10
13.5881271
20
4.3800281
11
13.2156271
21
5.7595281
0
LINE
8
DEFAULT_255_2_778
10
13.1132271
20
5.7566281
11
13.2156271
21
5.7566281
0
LINE
8
DEFAULT_255_2_778
10
13.2156271
20
5.7566281
11
13.2156271
21
5.7595281
0
LINE
8
DEFAULT_255_2_778
10
13.2156271
20
5.7595281
11
13.1132271
21
5.7595281
0
ENDSEC
0
EOF