0
SECTION
2
HEADER
9
$MEASUREMENT
70
1
0
ENDSEC
0
SECTION
2
TABLES
0
TABLE
2
LTYPE
0
LTYPE
72
65
70
64
2
CONTINUOUS
3
______
73
0
40
0
0
ENDTAB
0
TABLE
2
LAYER
0
LAYER
2
DEFAULT_255_2_778
70
0
62
255
6
CONTINUOUS
0
ENDTAB
0
ENDSEC
0
SECTION
2
ENTITIES
0
LINE
8
DEFAULT_255_2_778
10
3.6863409
20
58.9237761
11
16.6863409
21
58.9237761
0
LINE
8
DEFAULT_255_2_778
10
16.6863409
20
58.9237761
11
16.6863409
21
55.7231761
0
LINE
8
DEFAULT_255_2_778
10
16.6863409
20
55.7231761
11
15.9863409
21
55.0230761
0
LINE
8
DEFAULT_255_2_778
10
15.9863409
20
55.0230761
11
15.9863409
21
30.3231761
0
LINE
8
DEFAULT_255_2_778
10
15.9863409
20
30.3231761
11
16.6863409
21
29.6230761
0
LINE
8
DEFAULT_255_2_778
10
16.6863409
20
29.6230761
11
16.6863409
21
26.4231761
0
LINE
8
DEFAULT_255_2_778
10
16.6863409
20
26.4231761
11
3.6863409
21
26.4231761
0
LINE
8
DEFAULT_255_2_778
10
3.6863409
20
26.4231761
11
3.6863409
21
29.6230761
0
LINE
8
DEFAULT_255_2_778
10
3.6863409
20
29.6230761
11
4.3864409
21
30.3231761
0
LINE
8
DEFAULT_255_2_778
10
4.3864409
20
30.3231761
11
4.3864409
21
55.0230761
0
LINE
8
DEFAULT_255_2_778
10
4.3864409
20
55.0230761
11
3.6863409
21
55.7231761
0
LINE
8
DEFAULT_255_2_778
10
3.6863409
20
55.7231761
11
3.6863409
21
58.9237761
0
LINE
8
DEFAULT_255_2_778
10
14.0717409
20
17.6397761
11
8.5914409
21
17.6397761
0
LINE
8
DEFAULT_255_2_778
10
8.5914409
20
17.6397761
11
11.3314409
21
22.3858761
0
LINE
8
DEFAULT_255_2_778
10
11.3314409
20
22.3858761
11
14.0715409
21
17.6397761
0
LINE
8
DEFAULT_255_2_778
10
8.0474409
20
2.0060761
11
8.0474409
21
1.7732761
0
LINE
8
DEFAULT_255_2_778
10
8.0474409
20
1.7732761
11
0.1864409
21
1.7732761
0
LINE
8
DEFAULT_255_2_778
10
0.1864409
20
1.7732761
11
0.1864409
21
71.0731761
0
LINE
8
DEFAULT_255_2_778
10
0.1864409
20
71.0731761
11
8.0474409
21
71.0731761
0
LINE
8
DEFAULT_255_2_778
10
8.0474409
20
71.0731761
11
8.0474409
21
70.8403761
0
LINE
8
DEFAULT_255_2_778
10
12.4109409
20
70.8403761
11
12.4109409
21
73.0231761
0
LINE
8
DEFAULT_255_2_778
10
12.4109409
20
73.0231761
11
8.8459409
21
73.0231761
0
LINE
8
DEFAULT_255_2_778
10
8.8459409
20
73.0231761
11
8.8459409
21
70.8403761
0
LINE
8
DEFAULT_255_2_778
10
8.8459409
20
2.0058761
11
8.8459409
21
-0.1770239
0
LINE
8
DEFAULT_255_2_778
10
8.8459409
20
-0.1770239
11
12.4109409
21
-0.1770239
0
LINE
8
DEFAULT_255_2_778
10
12.4109409
20
-0.1770239
11
12.4109409
21
2.0058761
0
LINE
8
DEFAULT_255_2_778
10
13.2396409
20
2.0060761
11
13.2396409
21
1.7732761
0
LINE
8
DEFAULT_255_2_778
10
13.2396409
20
1.7732761
11
20.1865409
21
1.7732761
0
LINE
8
DEFAULT_255_2_778
10
20.1865409
20
1.7732761
11
20.1865409
21
71.0731761
0
LINE
8
DEFAULT_255_2_778
10
20.1865409
20
71.0731761
11
13.2396409
21
71.0731761
0
LINE
8
DEFAULT_255_2_778
10
13.2396409
20
71.0731761
11
13.2396409
21
70.8403761
0
LINE
8
DEFAULT_255_2_778
10
19.3864409
20
24.6732757
11
14.8864409
21
24.6732757
0
LINE
8
DEFAULT_255_2_778
10
14.8864409
20
24.6732757
11
14.8864409
21
20.1732757
0
LINE
8
DEFAULT_255_2_778
10
14.8864409
20
20.1732757
11
19.3864409
21
20.1732757
0
LINE
8
DEFAULT_255_2_778
10
19.3864409
20
20.1732757
11
19.3864409
21
24.6732757
0
LINE
8
DEFAULT_255_2_778
10
11.4809409
20
18.6859757
11
11.1809409
21
18.6859757
0
LINE
8
DEFAULT_255_2_778
10
11.1809409
20
18.6859757
11
11.1809409
21
18.3859757
0
LINE
8
DEFAULT_255_2_778
10
11.1809409
20
18.3859757
11
11.4809409
21
18.3859757
0
LINE
8
DEFAULT_255_2_778
10
11.4809409
20
18.3859757
11
11.4809409
21
18.6859757
0
LINE
8
DEFAULT_255_2_778
10
11.4809409
20
20.5859757
11
11.1809409
21
20.5859757
0
LINE
8
DEFAULT_255_2_778
10
11.1809409
20
20.5859757
11
11.1809409
21
19.0860757
0
LINE
8
DEFAULT_255_2_778
10
11.1809409
20
19.0860757
11
11.4809409
21
19.0860757
0
LINE
8
DEFAULT_255_2_778
10
11.4809409
20
19.0860757
11
11.4809409
21
20.5859757
0
LINE
8
DEFAULT_255_2_778
10
13.2936409
20
17.9861757
11
9.3677409
21
17.9861757
0
LINE
8
DEFAULT_255_2_778
10
9.3677409
20
17.9861757
11
11.3306409
21
21.3860757
0
LINE
8
DEFAULT_255_2_778
10
11.3306409
20
21.3860757
11
13.2936409
21
17.9861757
0
LINE
8
DEFAULT_255_2_778
10
20.1865409
20
3.4573757
11
0.1864409
21
3.4573757
0
LINE
8
DEFAULT_255_2_778
10
19.3309409
20
1.7732757
11
19.3309409
21
2.0061757
0
LINE
8
DEFAULT_255_2_778
10
19.3309409
20
2.0061757
11
1.0418409
21
2.0061757
0
LINE
8
DEFAULT_255_2_778
10
1.0418409
20
2.0061757
11
1.0418409
21
1.7732757
0
LINE
8
DEFAULT_255_2_778
10
2.2308409
20
9.1348757
11
1.1310409
21
9.1348757
0
LINE
8
DEFAULT_255_2_778
10
2.2308313
20
9.1388134
11
1.1310313
21
9.1388134
0
LINE
8
DEFAULT_255_2_778
10
1.1310313
20
9.1388134
11
1.1310313
21
8.0355134
0
LINE
8
DEFAULT_255_2_778
10
1.1310313
20
8.0355134
11
2.2308313
21
8.0355134
0
LINE
8
DEFAULT_255_2_778
10
2.2308313
20
8.0355134
11
2.2308313
21
9.1388134
0
LINE
8
DEFAULT_255_2_778
10
2.2306313
20
16.9813134
11
1.1307313
21
16.9813134
0
LINE
8
DEFAULT_255_2_778
10
2.2306313
20
15.0321134
11
1.1307313
21
15.0321134
0
LINE
8
DEFAULT_255_2_778
10
2.2306313
20
16.9844321
11
1.1307313
21
16.9844321
0
LINE
8
DEFAULT_255_2_778
10
1.1307313
20
16.9844321
11
1.1307313
21
15.8816321
0
LINE
8
DEFAULT_255_2_778
10
1.1307313
20
15.8816321
11
2.2306313
21
15.8816321
0
LINE
8
DEFAULT_255_2_778
10
2.2306313
20
15.8816321
11
2.2306313
21
16.9844321
0
LINE
8
DEFAULT_255_2_778
10
2.2306313
20
15.0352321
11
1.1307313
21
15.0352321
0
LINE
8
DEFAULT_255_2_778
10
1.1307313
20
15.0352321
11
1.1307313
21
13.9324321
0
LINE
8
DEFAULT_255_2_778
10
1.1307313
20
13.9324321
11
2.2306313
21
13.9324321
0
LINE
8
DEFAULT_255_2_778
10
2.2306313
20
13.9324321
11
2.2306313
21
15.0352321
0
LINE
8
DEFAULT_255_2_778
10
2.2308313
20
24.7785321
11
1.1310313
21
24.7785321
0
LINE
8
DEFAULT_255_2_778
10
2.2308313
20
22.8291321
11
1.1310313
21
22.8291321
0
LINE
8
DEFAULT_255_2_778
10
2.2308313
20
20.8799321
11
1.1310313
21
20.8799321
0
LINE
8
DEFAULT_255_2_778
10
2.2306313
20
18.9307321
11
1.1307313
21
18.9307321
0
LINE
8
DEFAULT_255_2_778
10
2.2308313
20
24.7835296
11
1.1310313
21
24.7835296
0
LINE
8
DEFAULT_255_2_778
10
1.1310313
20
24.7835296
11
1.1310313
21
23.6789296
0
LINE
8
DEFAULT_255_2_778
10
1.1310313
20
23.6789296
11
2.2308313
21
23.6789296
0
LINE
8
DEFAULT_255_2_778
10
2.2308313
20
23.6789296
11
2.2308313
21
24.7835296
0
LINE
8
DEFAULT_255_2_778
10
2.2308313
20
22.8335296
11
1.1310313
21
22.8335296
0
LINE
8
DEFAULT_255_2_778
10
1.1310313
20
22.8335296
11
1.1310313
21
21.7297296
0
LINE
8
DEFAULT_255_2_778
10
1.1310313
20
21.7297296
11
2.2308313
21
21.7297296
0
LINE
8
DEFAULT_255_2_778
10
2.2308313
20
21.7297296
11
2.2308313
21
22.8335296
0
LINE
8
DEFAULT_255_2_778
10
2.2308313
20
20.8838296
11
1.1310313
21
20.8838296
0
LINE
8
DEFAULT_255_2_778
10
1.1310313
20
20.8838296
11
1.1310313
21
19.7802296
0
LINE
8
DEFAULT_255_2_778
10
1.1310313
20
19.7802296
11
2.2308313
21
19.7802296
0
LINE
8
DEFAULT_255_2_778
10
2.2308313
20
19.7802296
11
2.2308313
21
20.8838296
0
LINE
8
DEFAULT_255_2_778
10
2.2306313
20
18.9341296
11
1.1307313
21
18.9341296
0
LINE
8
DEFAULT_255_2_778
10
1.1307313
20
18.9341296
11
1.1307313
21
17.8310296
0
LINE
8
DEFAULT_255_2_778
10
1.1307313
20
17.8310296
11
2.2306313
21
17.8310296
0
LINE
8
DEFAULT_255_2_778
10
2.2306313
20
17.8310296
11
2.2306313
21
18.9341296
0
LINE
8
DEFAULT_255_2_778
10
1.1312313
20
62.1379296
11
2.2308313
21
62.1379296
0
LINE
8
DEFAULT_255_2_778
10
1.1312409
20
63.2362592
11
2.2308409
21
63.2362592
0
LINE
8
DEFAULT_255_2_778
10
2.2308409
20
63.2362592
11
2.2308409
21
62.1316592
0
LINE
8
DEFAULT_255_2_778
10
2.2308409
20
62.1316592
11
1.1312409
21
62.1316592
0
LINE
8
DEFAULT_255_2_778
10
1.1312409
20
62.1316592
11
1.1312409
21
63.2362592
0
LINE
8
DEFAULT_255_2_778
10
20.1865409
20
63.6014592
11
0.1864409
21
63.6014592
0
LINE
8
DEFAULT_255_2_778
10
20.1865409
20
61.6913592
11
0.1864409
21
61.6913592
0
LINE
8
DEFAULT_255_2_778
10
16.6863409
20
57.4231592
11
3.6863409
21
57.4231592
0
LINE
8
DEFAULT_255_2_778
10
20.1865409
20
69.3889592
11
0.1864409
21
69.3889592
0
LINE
8
DEFAULT_255_2_778
10
19.3309409
20
71.0732592
11
19.3309409
21
70.8404592
0
LINE
8
DEFAULT_255_2_778
10
19.3309409
20
70.8404592
11
1.0418409
21
70.8404592
0
LINE
8
DEFAULT_255_2_778
10
1.0418409
20
70.8404592
11
1.0418409
21
71.0732592
0
LINE
8
DEFAULT_255_2_778
10
4.722899
20
20.3774291
11
4.181299
21
20.3774291
0
LINE
8
DEFAULT_255_2_778
10
4.181299
20
20.3774291
11
4.181299
21
20.2943291
0
LINE
8
DEFAULT_255_2_778
10
4.181299
20
20.2943291
11
4.639799
21
20.2943291
0
LINE
8
DEFAULT_255_2_778
10
4.639799
20
20.2943291
11
4.639799
21
18.4274291
0
LINE
8
DEFAULT_255_2_778
10
4.639799
20
18.4274291
11
4.181299
21
18.4274291
0
LINE
8
DEFAULT_255_2_778
10
4.181299
20
18.4274291
11
4.181299
21
18.3443291
0
LINE
8
DEFAULT_255_2_778
10
4.181299
20
18.3443291
11
4.722899
21
18.3443291
0
LINE
8
DEFAULT_255_2_778
10
4.722899
20
18.3443291
11
4.722899
21
20.3774291
0
LINE
8
DEFAULT_255_2_778
10
2.9814146
20
18.9859875
11
3.5524146
21
18.9859875
0
LINE
8
DEFAULT_255_2_778
10
3.5524146
20
18.9859875
11
3.5524146
21
18.9010875
0
LINE
8
DEFAULT_255_2_778
10
3.5524146
20
18.9010875
11
3.0663146
21
18.9010875
0
LINE
8
DEFAULT_255_2_778
10
3.0663146
20
18.9010875
11
3.0663146
21
18.4615875
0
LINE
8
DEFAULT_255_2_778
10
3.0663146
20
18.4615875
11
3.5225146
21
18.4615875
0
LINE
8
DEFAULT_255_2_778
10
3.5225146
20
18.4615875
11
3.5225146
21
18.3782875
0
LINE
8
DEFAULT_255_2_778
10
3.5225146
20
18.3782875
11
3.0663146
21
18.3782875
0
LINE
8
DEFAULT_255_2_778
10
3.0663146
20
18.3782875
11
3.0663146
21
17.7889875
0
LINE
8
DEFAULT_255_2_778
10
3.0663146
20
17.7889875
11
2.9814146
21
17.7889875
0
LINE
8
DEFAULT_255_2_778
10
2.9814146
20
17.7889875
11
2.9814146
21
18.9856875
0
LINE
8
DEFAULT_255_2_778
10
4.722899
20
24.2774291
11
4.181299
21
24.2774291
0
LINE
8
DEFAULT_255_2_778
10
4.181299
20
24.2774291
11
4.181299
21
24.1943291
0
LINE
8
DEFAULT_255_2_778
10
4.181299
20
24.1943291
11
4.639799
21
24.1943291
0
LINE
8
DEFAULT_255_2_778
10
4.639799
20
24.1943291
11
4.639799
21
22.3274291
0
LINE
8
DEFAULT_255_2_778
10
4.639799
20
22.3274291
11
4.181299
21
22.3274291
0
LINE
8
DEFAULT_255_2_778
10
4.181299
20
22.3274291
11
4.181299
21
22.2443291
0
LINE
8
DEFAULT_255_2_778
10
4.181299
20
22.2443291
11
4.722899
21
22.2443291
0
LINE
8
DEFAULT_255_2_778
10
4.722899
20
22.2443291
11
4.722899
21
24.2774291
0
LINE
8
DEFAULT_255_2_778
10
2.9814146
20
22.8859875
11
3.5524146
21
22.8859875
0
LINE
8
DEFAULT_255_2_778
10
3.5524146
20
22.8859875
11
3.5524146
21
22.8010875
0
LINE
8
DEFAULT_255_2_778
10
3.5524146
20
22.8010875
11
3.0663146
21
22.8010875
0
LINE
8
DEFAULT_255_2_778
10
3.0663146
20
22.8010875
11
3.0663146
21
22.3615875
0
LINE
8
DEFAULT_255_2_778
10
3.0663146
20
22.3615875
11
3.5225146
21
22.3615875
0
LINE
8
DEFAULT_255_2_778
10
3.5225146
20
22.3615875
11
3.5225146
21
22.2782875
0
LINE
8
DEFAULT_255_2_778
10
3.5225146
20
22.2782875
11
3.0663146
21
22.2782875
0
LINE
8
DEFAULT_255_2_778
10
3.0663146
20
22.2782875
11
3.0663146
21
21.6889875
0
LINE
8
DEFAULT_255_2_778
10
3.0663146
20
21.6889875
11
2.9814146
21
21.6889875
0
LINE
8
DEFAULT_255_2_778
10
2.9814146
20
21.6889875
11
2.9814146
21
22.8856875
0
LINE
8
DEFAULT_255_2_778
10
4.722899
20
16.4775291
11
4.181299
21
16.4775291
0
LINE
8
DEFAULT_255_2_778
10
4.181299
20
16.4775291
11
4.181299
21
16.3944291
0
LINE
8
DEFAULT_255_2_778
10
4.181299
20
16.3944291
11
4.639799
21
16.3944291
0
LINE
8
DEFAULT_255_2_778
10
4.639799
20
16.3944291
11
4.639799
21
14.5275291
0
LINE
8
DEFAULT_255_2_778
10
4.639799
20
14.5275291
11
4.181299
21
14.5275291
0
LINE
8
DEFAULT_255_2_778
10
4.181299
20
14.5275291
11
4.181299
21
14.4444291
0
LINE
8
DEFAULT_255_2_778
10
4.181299
20
14.4444291
11
4.722899
21
14.4444291
0
LINE
8
DEFAULT_255_2_778
10
4.722899
20
14.4444291
11
4.722899
21
16.4775291
0
LINE
8
DEFAULT_255_2_778
10
2.9814146
20
15.0860875
11
3.5524146
21
15.0860875
0
LINE
8
DEFAULT_255_2_778
10
3.5524146
20
15.0860875
11
3.5524146
21
15.0011875
0
LINE
8
DEFAULT_255_2_778
10
3.5524146
20
15.0011875
11
3.0663146
21
15.0011875
0
LINE
8
DEFAULT_255_2_778
10
3.0663146
20
15.0011875
11
3.0663146
21
14.5616875
0
LINE
8
DEFAULT_255_2_778
10
3.0663146
20
14.5616875
11
3.5225146
21
14.5616875
0
LINE
8
DEFAULT_255_2_778
10
3.5225146
20
14.5616875
11
3.5225146
21
14.4783875
0
LINE
8
DEFAULT_255_2_778
10
3.5225146
20
14.4783875
11
3.0663146
21
14.4783875
0
LINE
8
DEFAULT_255_2_778
10
3.0663146
20
14.4783875
11
3.0663146
21
13.8890875
0
LINE
8
DEFAULT_255_2_778
10
3.0663146
20
13.8890875
11
2.9814146
21
13.8890875
0
LINE
8
DEFAULT_255_2_778
10
2.9814146
20
13.8890875
11
2.9814146
21
15.0857875
0
LINE
8
DEFAULT_255_2_778
10
2.6372336
20
68.4514385
11
2.7481336
21
68.4514385
0
LINE
8
DEFAULT_255_2_778
10
2.7481336
20
68.4514385
11
2.7481336
21
66.8560385
0
LINE
8
DEFAULT_255_2_778
10
2.7481336
20
66.8560385
11
2.6372336
21
66.8560385
0
LINE
8
DEFAULT_255_2_778
10
2.6372336
20
66.8560385
11
2.6372336
21
68.4514385
0
LINE
8
DEFAULT_255_2_778
10
1.4722336
20
67.3907385
11
2.0826336
21
67.3907385
0
LINE
8
DEFAULT_255_2_778
10
2.0826336
20
67.3907385
11
1.7831336
21
68.3162385
0
LINE
8
DEFAULT_255_2_778
10
1.7831336
20
68.3162385
11
1.4722336
21
67.3907385
0
LINE
8
DEFAULT_255_2_778
10
1.7120336
20
68.4580385
11
1.8540336
21
68.4580385
0
LINE
8
DEFAULT_255_2_778
10
1.8540336
20
68.4580385
11
2.3710336
21
66.8803385
0
LINE
8
DEFAULT_255_2_778
10
2.3710336
20
66.8803385
11
2.2623336
21
66.8448385
0
LINE
8
DEFAULT_255_2_778
10
2.2623336
20
66.8448385
11
2.1202336
21
67.2777385
0
LINE
8
DEFAULT_255_2_778
10
2.1202336
20
67.2777385
11
1.4344336
21
67.2777385
0
LINE
8
DEFAULT_255_2_778
10
1.4344336
20
67.2777385
11
1.2878336
21
66.8448385
0
LINE
8
DEFAULT_255_2_778
10
1.2878336
20
66.8448385
11
1.1812336
21
66.8803385
0
LINE
8
DEFAULT_255_2_778
10
1.1812336
20
66.8803385
11
1.7120336
21
68.4580385
0
LINE
8
DEFAULT_255_2_778
10
17.4764336
20
67.6418385
11
17.2493336
21
67.7688385
0
LINE
8
DEFAULT_255_2_778
10
17.2493336
20
67.7688385
11
17.1768336
21
67.8296385
0
LINE
8
DEFAULT_255_2_778
10
17.1768336
20
67.8296385
11
17.1205336
21
67.9058385
0
LINE
8
DEFAULT_255_2_778
10
17.1205336
20
67.9058385
11
17.1028336
21
67.9497385
0
LINE
8
DEFAULT_255_2_778
10
17.1028336
20
67.9497385
11
17.0951336
21
67.9847385
0
LINE
8
DEFAULT_255_2_778
10
17.0951336
20
67.9847385
11
17.0962336
21
68.1151385
0
LINE
8
DEFAULT_255_2_778
10
17.0962336
20
68.1151385
11
17.1001336
21
68.1384385
0
LINE
8
DEFAULT_255_2_778
10
17.1001336
20
68.1384385
11
17.1118336
21
68.1844385
0
LINE
8
DEFAULT_255_2_778
10
17.1118336
20
68.1844385
11
17.1284336
21
68.2289385
0
LINE
8
DEFAULT_255_2_778
10
17.1284336
20
68.2289385
11
17.1766336
21
68.3109385
0
LINE
8
DEFAULT_255_2_778
10
17.1766336
20
68.3109385
11
17.2618336
21
68.3924385
0
LINE
8
DEFAULT_255_2_778
10
17.2618336
20
68.3924385
11
17.3464336
21
68.4360385
0
LINE
8
DEFAULT_255_2_778
10
17.3464336
20
68.4360385
11
17.4859336
21
68.4670385
0
LINE
8
DEFAULT_255_2_778
10
17.4859336
20
68.4670385
11
17.6621336
21
68.4493385
0
LINE
8
DEFAULT_255_2_778
10
17.6621336
20
68.4493385
11
17.7838336
21
68.3760385
0
LINE
8
DEFAULT_255_2_778
10
17.7838336
20
68.3760385
11
17.8245336
21
68.3323385
0
LINE
8
DEFAULT_255_2_778
10
17.8245336
20
68.3323385
11
17.8640336
21
68.2731385
0
LINE
8
DEFAULT_255_2_778
10
17.8640336
20
68.2731385
11
17.8944336
21
68.2082385
0
LINE
8
DEFAULT_255_2_778
10
17.8944336
20
68.2082385
11
17.9100336
21
68.1630385
0
LINE
8
DEFAULT_255_2_778
10
17.9100336
20
68.1630385
11
17.8013336
21
68.1320385
0
LINE
8
DEFAULT_255_2_778
10
17.8013336
20
68.1320385
11
17.7878336
21
68.1715385
0
LINE
8
DEFAULT_255_2_778
10
17.7878336
20
68.1715385
11
17.7703336
21
68.2093385
0
LINE
8
DEFAULT_255_2_778
10
17.7703336
20
68.2093385
11
17.7155336
21
68.2836385
0
LINE
8
DEFAULT_255_2_778
10
17.7155336
20
68.2836385
11
17.6195336
21
68.3442385
0
LINE
8
DEFAULT_255_2_778
10
17.6195336
20
68.3442385
11
17.5369336
21
68.3561385
0
LINE
8
DEFAULT_255_2_778
10
17.5369336
20
68.3561385
11
17.3636336
21
68.3223385
0
LINE
8
DEFAULT_255_2_778
10
17.3636336
20
68.3223385
11
17.2726336
21
68.2524385
0
LINE
8
DEFAULT_255_2_778
10
17.2726336
20
68.2524385
11
17.2290336
21
68.1815385
0
LINE
8
DEFAULT_255_2_778
10
17.2290336
20
68.1815385
11
17.2131336
21
68.1318385
0
LINE
8
DEFAULT_255_2_778
10
17.2131336
20
68.1318385
11
17.2078336
21
68.1008385
0
LINE
8
DEFAULT_255_2_778
10
17.2078336
20
68.1008385
11
17.2086336
21
67.9966385
0
LINE
8
DEFAULT_255_2_778
10
17.2086336
20
67.9966385
11
17.2176336
21
67.9667385
0
LINE
8
DEFAULT_255_2_778
10
17.2176336
20
67.9667385
11
17.2507336
21
67.9138385
0
LINE
8
DEFAULT_255_2_778
10
17.2507336
20
67.9138385
11
17.3046336
21
67.8651385
0
LINE
8
DEFAULT_255_2_778
10
17.3046336
20
67.8651385
11
17.7997336
21
67.5923385
0
LINE
8
DEFAULT_255_2_778
10
17.7997336
20
67.5923385
11
17.8637336
21
67.5365385
0
LINE
8
DEFAULT_255_2_778
10
17.8637336
20
67.5365385
11
17.9201336
21
67.4576385
0
LINE
8
DEFAULT_255_2_778
10
17.9201336
20
67.4576385
11
17.9399336
21
67.4073385
0
LINE
8
DEFAULT_255_2_778
10
17.9399336
20
67.4073385
11
17.9449336
21
67.3864385
0
LINE
8
DEFAULT_255_2_778
10
17.9449336
20
67.3864385
11
17.9460336
21
67.2364385
0
LINE
8
DEFAULT_255_2_778
10
17.9460336
20
67.2364385
11
17.9373336
21
67.1944385
0
LINE
8
DEFAULT_255_2_778
10
17.9373336
20
67.1944385
11
17.9248336
21
67.1531385
0
LINE
8
DEFAULT_255_2_778
10
17.9248336
20
67.1531385
11
17.8994336
21
67.0938385
0
LINE
8
DEFAULT_255_2_778
10
17.8994336
20
67.0938385
11
17.8664336
21
67.0385385
0
LINE
8
DEFAULT_255_2_778
10
17.8664336
20
67.0385385
11
17.8108336
21
66.9729385
0
LINE
8
DEFAULT_255_2_778
10
17.8108336
20
66.9729385
11
17.7251336
21
66.9073385
0
LINE
8
DEFAULT_255_2_778
10
17.7251336
20
66.9073385
11
17.6266336
21
66.8634385
0
LINE
8
DEFAULT_255_2_778
10
17.6266336
20
66.8634385
11
17.4991336
21
66.8427385
0
LINE
8
DEFAULT_255_2_778
10
17.4991336
20
66.8427385
11
17.3705336
21
66.8557385
0
LINE
8
DEFAULT_255_2_778
10
17.3705336
20
66.8557385
11
17.2898336
21
66.8853385
0
LINE
8
DEFAULT_255_2_778
10
17.2898336
20
66.8853385
11
17.2179336
21
66.9327385
0
LINE
8
DEFAULT_255_2_778
10
17.2179336
20
66.9327385
11
17.1724336
21
66.9787385
0
LINE
8
DEFAULT_255_2_778
10
17.1724336
20
66.9787385
11
17.1353336
21
67.0316385
0
LINE
8
DEFAULT_255_2_778
10
17.1353336
20
67.0316385
11
17.1062336
21
67.0898385
0
LINE
8
DEFAULT_255_2_778
10
17.1062336
20
67.0898385
11
17.0845336
21
67.1512385
0
LINE
8
DEFAULT_255_2_778
10
17.0845336
20
67.1512385
11
17.1933336
21
67.1822385
0
LINE
8
DEFAULT_255_2_778
10
17.1933336
20
67.1822385
11
17.2022336
21
67.1478385
0
LINE
8
DEFAULT_255_2_778
10
17.2022336
20
67.1478385
11
17.2266336
21
67.0943385
0
LINE
8
DEFAULT_255_2_778
10
17.2266336
20
67.0943385
11
17.2864336
21
67.0221385
0
LINE
8
DEFAULT_255_2_778
10
17.2864336
20
67.0221385
11
17.3888336
21
66.9681385
0
LINE
8
DEFAULT_255_2_778
10
17.3888336
20
66.9681385
11
17.4822336
21
66.9560385
0
LINE
8
DEFAULT_255_2_778
10
17.4822336
20
66.9560385
11
17.6417336
21
66.9893385
0
LINE
8
DEFAULT_255_2_778
10
17.6417336
20
66.9893385
11
17.7449336
21
67.0660385
0
LINE
8
DEFAULT_255_2_778
10
17.7449336
20
67.0660385
11
17.7981336
21
67.1428385
0
LINE
8
DEFAULT_255_2_778
10
17.7981336
20
67.1428385
11
17.8124336
21
67.1750385
0
LINE
8
DEFAULT_255_2_778
10
17.8124336
20
67.1750385
11
17.8301336
21
67.2314385
0
LINE
8
DEFAULT_255_2_778
10
17.8301336
20
67.2314385
11
17.8367336
21
67.2663385
0
LINE
8
DEFAULT_255_2_778
10
17.8367336
20
67.2663385
11
17.8349336
21
67.3600385
0
LINE
8
DEFAULT_255_2_778
10
17.8349336
20
67.3600385
11
17.8290336
21
67.3827385
0
LINE
8
DEFAULT_255_2_778
10
17.8290336
20
67.3827385
11
17.8089336
21
67.4251385
0
LINE
8
DEFAULT_255_2_778
10
17.8089336
20
67.4251385
11
17.7454336
21
67.4939385
0
LINE
8
DEFAULT_255_2_778
10
17.7454336
20
67.4939385
11
17.6034336
21
67.5775385
0
LINE
8
DEFAULT_255_2_778
10
17.6034336
20
67.5775385
11
17.4769336
21
67.6418385
0
LINE
8
DEFAULT_255_2_778
10
18.1362336
20
68.4535385
11
19.1813336
21
68.4535385
0
LINE
8
DEFAULT_255_2_778
10
19.1813336
20
68.4535385
11
19.1813336
21
68.3403385
0
LINE
8
DEFAULT_255_2_778
10
19.1813336
20
68.3403385
11
18.7064336
21
68.3403385
0
LINE
8
DEFAULT_255_2_778
10
18.7064336
20
68.3403385
11
18.7064336
21
66.8557385
0
LINE
8
DEFAULT_255_2_778
10
18.7064336
20
66.8557385
11
18.5932336
21
66.8557385
0
LINE
8
DEFAULT_255_2_778
10
18.5932336
20
66.8557385
11
18.5932336
21
68.3403385
0
LINE
8
DEFAULT_255_2_778
10
18.5932336
20
68.3403385
11
18.1360336
21
68.3403385
0
LINE
8
DEFAULT_255_2_778
10
18.1360336
20
68.3403385
11
18.1360336
21
68.4535385
0
LINE
8
DEFAULT_255_2_778
10
4.7563688
20
65.4732948
11
4.4623688
21
65.4026948
0
LINE
8
DEFAULT_255_2_778
10
4.4623688
20
65.4026948
11
4.3911688
21
65.3422948
0
LINE
8
DEFAULT_255_2_778
10
4.3911688
20
65.3422948
11
4.3911688
21
65.4642948
0
LINE
8
DEFAULT_255_2_778
10
4.3911688
20
65.4642948
11
4.2816688
21
65.4642948
0
LINE
8
DEFAULT_255_2_778
10
4.2816688
20
65.4642948
11
4.2816688
21
64.3458948
0
LINE
8
DEFAULT_255_2_778
10
4.2816688
20
64.3458948
11
4.3911688
21
64.3458948
0
LINE
8
DEFAULT_255_2_778
10
4.3911688
20
64.3458948
11
4.3935688
21
65.1197948
0
LINE
8
DEFAULT_255_2_778
10
4.3935688
20
65.1197948
11
4.4052688
21
65.1716948
0
LINE
8
DEFAULT_255_2_778
10
4.4052688
20
65.1716948
11
4.4848688
21
65.2872948
0
LINE
8
DEFAULT_255_2_778
10
4.4848688
20
65.2872948
11
4.6811688
21
65.3600948
0
LINE
8
DEFAULT_255_2_778
10
4.6811688
20
65.3600948
11
4.7563688
21
65.3600948
0
LINE
8
DEFAULT_255_2_778
10
4.7563688
20
65.3600948
11
4.7563688
21
65.4732948
0
LINE
8
DEFAULT_255_2_778
10
6.7250251
20
65.4309135
11
6.6197251
21
65.4664135
0
LINE
8
DEFAULT_255_2_778
10
6.6197251
20
65.4664135
11
6.3171251
21
64.4967135
0
LINE
8
DEFAULT_255_2_778
10
6.3171251
20
64.4967135
11
6.0186251
21
65.4688135
0
LINE
8
DEFAULT_255_2_778
10
6.0186251
20
65.4688135
11
5.9154251
21
65.4333135
0
LINE
8
DEFAULT_255_2_778
10
5.9154251
20
65.4333135
11
6.2589251
21
64.3125135
0
LINE
8
DEFAULT_255_2_778
10
6.2589251
20
64.3125135
11
6.1430251
21
63.9442135
0
LINE
8
DEFAULT_255_2_778
10
6.1430251
20
63.9442135
11
6.2483251
21
63.9088135
0
LINE
8
DEFAULT_255_2_778
10
6.2483251
20
63.9088135
11
6.7248251
21
65.4312135
0
LINE
8
DEFAULT_255_2_778
10
1.1815251
20
65.9458135
11
1.9522251
21
65.9458135
0
LINE
8
DEFAULT_255_2_778
10
1.9522251
20
65.9458135
11
1.9522251
21
65.8326135
0
LINE
8
DEFAULT_255_2_778
10
1.9522251
20
65.8326135
11
1.2889251
21
65.8326135
0
LINE
8
DEFAULT_255_2_778
10
1.2889251
20
65.8326135
11
1.2889251
21
65.2468135
0
LINE
8
DEFAULT_255_2_778
10
1.2889251
20
65.2468135
11
1.9115251
21
65.2468135
0
LINE
8
DEFAULT_255_2_778
10
1.9115251
20
65.2468135
11
1.9115251
21
65.1359135
0
LINE
8
DEFAULT_255_2_778
10
1.9115251
20
65.1359135
11
1.2889251
21
65.1359135
0
LINE
8
DEFAULT_255_2_778
10
1.2889251
20
65.1359135
11
1.2889251
21
64.4612135
0
LINE
8
DEFAULT_255_2_778
10
1.2889251
20
64.4612135
11
1.9522251
21
64.4612135
0
LINE
8
DEFAULT_255_2_778
10
1.9522251
20
64.4612135
11
1.9522251
21
64.3504135
0
LINE
8
DEFAULT_255_2_778
10
1.9522251
20
64.3504135
11
1.1815251
21
64.3504135
0
LINE
8
DEFAULT_255_2_778
10
1.1815251
20
64.3504135
11
1.1815251
21
65.9458135
0
LINE
8
DEFAULT_255_2_778
10
2.3451251
20
65.4664135
11
2.2356251
21
65.4664135
0
LINE
8
DEFAULT_255_2_778
10
2.2356251
20
65.4664135
11
2.2356251
21
64.3456135
0
LINE
8
DEFAULT_255_2_778
10
2.2356251
20
64.3456135
11
2.3451251
21
64.3456135
0
LINE
8
DEFAULT_255_2_778
10
2.3451251
20
64.3456135
11
2.3475251
21
65.1198135
0
LINE
8
DEFAULT_255_2_778
10
2.3475251
20
65.1198135
11
2.3565251
21
65.1663135
0
LINE
8
DEFAULT_255_2_778
10
2.3565251
20
65.1663135
11
2.3875251
21
65.2383135
0
LINE
8
DEFAULT_255_2_778
10
2.3875251
20
65.2383135
11
2.4838251
21
65.3309135
0
LINE
8
DEFAULT_255_2_778
10
2.4838251
20
65.3309135
11
2.6436251
21
65.3616135
0
LINE
8
DEFAULT_255_2_778
10
2.6436251
20
65.3616135
11
2.7616251
21
65.3018135
0
LINE
8
DEFAULT_255_2_778
10
2.7616251
20
65.3018135
11
2.8124251
21
65.2224135
0
LINE
8
DEFAULT_255_2_778
10
2.8124251
20
65.2224135
11
2.8317251
21
65.1544135
0
LINE
8
DEFAULT_255_2_778
10
2.8317251
20
65.1544135
11
2.8370251
21
65.1150135
0
LINE
8
DEFAULT_255_2_778
10
2.8370251
20
65.1150135
11
2.8391251
21
64.3461135
0
LINE
8
DEFAULT_255_2_778
10
2.8391251
20
64.3461135
11
2.9487251
21
64.3461135
0
LINE
8
DEFAULT_255_2_778
10
2.9487251
20
64.3461135
11
2.9468251
21
65.1171135
0
LINE
8
DEFAULT_255_2_778
10
2.9468251
20
65.1171135
11
2.9434251
21
65.1499135
0
LINE
8
DEFAULT_255_2_778
10
2.9434251
20
65.1499135
11
2.9381251
21
65.1825135
0
LINE
8
DEFAULT_255_2_778
10
2.9381251
20
65.1825135
11
2.9150251
21
65.2613135
0
LINE
8
DEFAULT_255_2_778
10
2.9150251
20
65.2613135
11
2.8460251
21
65.3732135
0
LINE
8
DEFAULT_255_2_778
10
2.8460251
20
65.3732135
11
2.7007251
21
65.4651135
0
LINE
8
DEFAULT_255_2_778
10
2.7007251
20
65.4651135
11
2.4732251
21
65.4500135
0
LINE
8
DEFAULT_255_2_778
10
2.4732251
20
65.4500135
11
2.3451251
21
65.3603135
0
LINE
8
DEFAULT_255_2_778
10
2.3451251
20
65.3603135
11
2.3451251
21
65.4669135
0
LINE
8
DEFAULT_255_2_778
10
3.2598251
20
64.9494135
11
3.2617251
21
64.8242135
0
LINE
8
DEFAULT_255_2_778
10
3.2617251
20
64.8242135
11
3.2630251
21
64.7994135
0
LINE
8
DEFAULT_255_2_778
10
3.2630251
20
64.7994135
11
3.2706251
21
64.6993135
0
LINE
8
DEFAULT_255_2_778
10
3.2706251
20
64.6993135
11
3.2762251
21
64.6496135
0
LINE
8
DEFAULT_255_2_778
10
3.2762251
20
64.6496135
11
3.2823251
21
64.6126135
0
LINE
8
DEFAULT_255_2_778
10
3.2823251
20
64.6126135
11
3.2955251
21
64.5641135
0
LINE
8
DEFAULT_255_2_778
10
3.2955251
20
64.5641135
11
3.3212251
21
64.5070135
0
LINE
8
DEFAULT_255_2_778
10
3.3212251
20
64.5070135
11
3.3831251
21
64.4282135
0
LINE
8
DEFAULT_255_2_778
10
3.3831251
20
64.4282135
11
3.5000251
21
64.3554135
0
LINE
8
DEFAULT_255_2_778
10
3.5000251
20
64.3554135
11
3.6731251
21
64.3308135
0
LINE
8
DEFAULT_255_2_778
10
3.6731251
20
64.3308135
11
3.8297251
21
64.3729135
0
LINE
8
DEFAULT_255_2_778
10
3.8297251
20
64.3729135
11
3.9205251
21
64.4401135
0
LINE
8
DEFAULT_255_2_778
10
3.9205251
20
64.4401135
11
3.9702251
21
64.5123135
0
LINE
8
DEFAULT_255_2_778
10
3.9702251
20
64.5123135
11
3.9898251
21
64.5589135
0
LINE
8
DEFAULT_255_2_778
10
3.9898251
20
64.5589135
11
3.8866251
21
64.5967135
0
LINE
8
DEFAULT_255_2_778
10
3.8866251
20
64.5967135
11
3.8575251
21
64.5403135
0
LINE
8
DEFAULT_255_2_778
10
3.8575251
20
64.5403135
11
3.7974251
21
64.4829135
0
LINE
8
DEFAULT_255_2_778
10
3.7974251
20
64.4829135
11
3.6474251
21
64.4409135
0
LINE
8
DEFAULT_255_2_778
10
3.6474251
20
64.4409135
11
3.5053251
21
64.4745135
0
LINE
8
DEFAULT_255_2_778
10
3.5053251
20
64.4745135
11
3.4402251
21
64.5276135
0
LINE
8
DEFAULT_255_2_778
10
3.4402251
20
64.5276135
11
3.4074251
21
64.5813135
0
LINE
8
DEFAULT_255_2_778
10
3.4074251
20
64.5813135
11
3.3913251
21
64.6316135
0
LINE
8
DEFAULT_255_2_778
10
3.3913251
20
64.6316135
11
3.3873251
21
64.6525135
0
LINE
8
DEFAULT_255_2_778
10
3.3873251
20
64.6525135
11
3.3791251
21
64.7158135
0
LINE
8
DEFAULT_255_2_778
10
3.3791251
20
64.7158135
11
3.3749251
21
64.7581135
0
LINE
8
DEFAULT_255_2_778
10
3.3749251
20
64.7581135
11
3.3717251
21
64.8004135
0
LINE
8
DEFAULT_255_2_778
10
3.3717251
20
64.8004135
11
3.3691251
21
64.8642135
0
LINE
8
DEFAULT_255_2_778
10
3.3691251
20
64.8642135
11
3.3688251
21
64.8854135
0
LINE
8
DEFAULT_255_2_778
10
3.3688251
20
64.8854135
11
4.0279251
21
64.8854135
0
LINE
8
DEFAULT_255_2_778
10
4.0279251
20
64.8854135
11
4.0258251
21
65.0274135
0
LINE
8
DEFAULT_255_2_778
10
4.0258251
20
65.0274135
11
4.0242251
21
65.0518135
0
LINE
8
DEFAULT_255_2_778
10
4.0242251
20
65.0518135
11
4.0221251
21
65.0759135
0
LINE
8
DEFAULT_255_2_778
10
4.0221251
20
65.0759135
11
4.0160251
21
65.1240135
0
LINE
8
DEFAULT_255_2_778
10
4.0160251
20
65.1240135
11
4.0043251
21
65.1838135
0
LINE
8
DEFAULT_255_2_778
10
4.0043251
20
65.1838135
11
3.9829251
21
65.2539135
0
LINE
8
DEFAULT_255_2_778
10
3.9829251
20
65.2539135
11
3.9448251
21
65.3304135
0
LINE
8
DEFAULT_255_2_778
10
3.9448251
20
65.3304135
11
3.8810251
21
65.4039135
0
LINE
8
DEFAULT_255_2_778
10
3.8810251
20
65.4039135
11
3.7636251
21
65.4669135
0
LINE
8
DEFAULT_255_2_778
10
3.7636251
20
65.4669135
11
3.5699251
21
65.4778135
0
LINE
8
DEFAULT_255_2_778
10
3.5699251
20
65.4778135
11
3.4326251
21
65.4262135
0
LINE
8
DEFAULT_255_2_778
10
3.4326251
20
65.4262135
11
3.3498251
21
65.3534135
0
LINE
8
DEFAULT_255_2_778
10
3.3498251
20
65.3534135
11
3.3048251
21
65.2806135
0
LINE
8
DEFAULT_255_2_778
10
3.3048251
20
65.2806135
11
3.2839251
21
65.2227135
0
LINE
8
DEFAULT_255_2_778
10
3.2839251
20
65.2227135
11
3.2733251
21
65.1743135
0
LINE
8
DEFAULT_255_2_778
10
3.2733251
20
65.1743135
11
3.2664251
21
65.1253135
0
LINE
8
DEFAULT_255_2_778
10
3.2664251
20
65.1253135
11
3.2638251
21
65.1007135
0
LINE
8
DEFAULT_255_2_778
10
3.2638251
20
65.1007135
11
3.2619251
21
65.0761135
0
LINE
8
DEFAULT_255_2_778
10
3.2619251
20
65.0761135
11
3.2595251
21
65.0020135
0
LINE
8
DEFAULT_255_2_778
10
3.2595251
20
65.0020135
11
3.2598251
21
64.9494135
0
LINE
8
DEFAULT_255_2_778
10
3.9189251
20
64.9983135
11
3.3693251
21
64.9983135
0
LINE
8
DEFAULT_255_2_778
10
3.3693251
20
64.9983135
11
3.3834251
21
65.1645135
0
LINE
8
DEFAULT_255_2_778
10
3.3834251
20
65.1645135
11
3.3939251
21
65.2171135
0
LINE
8
DEFAULT_255_2_778
10
3.3939251
20
65.2171135
11
3.4604251
21
65.3134135
0
LINE
8
DEFAULT_255_2_778
10
3.4604251
20
65.3134135
11
3.5881251
21
65.3666135
0
LINE
8
DEFAULT_255_2_778
10
3.5881251
20
65.3666135
11
3.7480251
21
65.3539135
0
LINE
8
DEFAULT_255_2_778
10
3.7480251
20
65.3539135
11
3.8765251
21
65.2465135
0
LINE
8
DEFAULT_255_2_778
10
3.8765251
20
65.2465135
11
3.8969251
21
65.1962135
0
LINE
8
DEFAULT_255_2_778
10
3.8969251
20
65.1962135
11
3.9043251
21
65.1642135
0
LINE
8
DEFAULT_255_2_778
10
3.9043251
20
65.1642135
11
3.9104251
21
65.1224135
0
LINE
8
DEFAULT_255_2_778
10
3.9104251
20
65.1224135
11
3.9189251
21
64.9983135
0
LINE
8
DEFAULT_255_2_778
10
5.5785865
20
64.7520396
11
5.5764865
21
65.0862396
0
LINE
8
DEFAULT_255_2_778
10
5.5764865
20
65.0862396
11
5.5658865
21
65.1454396
0
LINE
8
DEFAULT_255_2_778
10
5.5658865
20
65.1454396
11
5.5327865
21
65.2378396
0
LINE
8
DEFAULT_255_2_778
10
5.5327865
20
65.2378396
11
5.4690865
21
65.3219396
0
LINE
8
DEFAULT_255_2_778
10
5.4690865
20
65.3219396
11
5.3512865
21
65.3664396
0
LINE
8
DEFAULT_255_2_778
10
5.3512865
20
65.3664396
11
5.1856865
21
65.3018396
0
LINE
8
DEFAULT_255_2_778
10
5.1856865
20
65.3018396
11
5.1192865
21
65.2121396
0
LINE
8
DEFAULT_255_2_778
10
5.1192865
20
65.2121396
11
5.1014865
21
65.1626396
0
LINE
8
DEFAULT_255_2_778
10
5.1014865
20
65.1626396
11
5.0917865
21
65.1184396
0
LINE
8
DEFAULT_255_2_778
10
5.0917865
20
65.1184396
11
5.0811865
21
65.0436396
0
LINE
8
DEFAULT_255_2_778
10
5.0811865
20
65.0436396
11
5.0829865
21
64.7901396
0
LINE
8
DEFAULT_255_2_778
10
5.0829865
20
64.7901396
11
5.0856865
21
64.7549396
0
LINE
8
DEFAULT_255_2_778
10
5.0856865
20
64.7549396
11
5.0895865
21
64.7197396
0
LINE
8
DEFAULT_255_2_778
10
5.0895865
20
64.7197396
11
5.1009865
21
64.6589396
0
LINE
8
DEFAULT_255_2_778
10
5.1009865
20
64.6589396
11
5.1266865
21
64.5827396
0
LINE
8
DEFAULT_255_2_778
10
5.1266865
20
64.5827396
11
5.1821865
21
64.5012396
0
LINE
8
DEFAULT_255_2_778
10
5.1821865
20
64.5012396
11
5.2819865
21
64.4440396
0
LINE
8
DEFAULT_255_2_778
10
5.2819865
20
64.4440396
11
5.4155865
21
64.4475396
0
LINE
8
DEFAULT_255_2_778
10
5.4155865
20
64.4475396
11
5.5044865
21
64.5073396
0
LINE
8
DEFAULT_255_2_778
10
5.5044865
20
64.5073396
11
5.5507865
21
64.5842396
0
LINE
8
DEFAULT_255_2_778
10
5.5507865
20
64.5842396
11
5.5692865
21
64.6443396
0
LINE
8
DEFAULT_255_2_778
10
5.5692865
20
64.6443396
11
5.5761865
21
64.6888396
0
LINE
8
DEFAULT_255_2_778
10
5.5761865
20
64.6888396
11
5.5782865
21
64.7157396
0
LINE
8
DEFAULT_255_2_778
10
5.5782865
20
64.7157396
11
5.5785865
21
64.7520396
0
LINE
8
DEFAULT_255_2_778
10
5.6880865
20
65.4489396
11
5.5785865
21
65.4489396
0
LINE
8
DEFAULT_255_2_778
10
5.5785865
20
65.4489396
11
5.5785865
21
65.3558396
0
LINE
8
DEFAULT_255_2_778
10
5.5785865
20
65.3558396
11
5.4711865
21
65.4473396
0
LINE
8
DEFAULT_255_2_778
10
5.4711865
20
65.4473396
11
5.3155865
21
65.4788396
0
LINE
8
DEFAULT_255_2_778
10
5.3155865
20
65.4788396
11
5.1409865
21
65.4124396
0
LINE
8
DEFAULT_255_2_778
10
5.1409865
20
65.4124396
11
5.0342865
21
65.2936396
0
LINE
8
DEFAULT_255_2_778
10
5.0342865
20
65.2936396
11
4.9998865
21
65.2161396
0
LINE
8
DEFAULT_255_2_778
10
4.9998865
20
65.2161396
11
4.9869865
21
65.1613396
0
LINE
8
DEFAULT_255_2_778
10
4.9869865
20
65.1613396
11
4.9718865
21
65.0571396
0
LINE
8
DEFAULT_255_2_778
10
4.9718865
20
65.0571396
11
4.9731865
21
64.7448396
0
LINE
8
DEFAULT_255_2_778
10
4.9731865
20
64.7448396
11
4.9834865
21
64.6395396
0
LINE
8
DEFAULT_255_2_778
10
4.9834865
20
64.6395396
11
4.9893865
21
64.5975396
0
LINE
8
DEFAULT_255_2_778
10
4.9893865
20
64.5975396
11
5.0020865
21
64.5464396
0
LINE
8
DEFAULT_255_2_778
10
5.0020865
20
64.5464396
11
5.0337865
21
64.4797396
0
LINE
8
DEFAULT_255_2_778
10
5.0337865
20
64.4797396
11
5.1128865
21
64.3951396
0
LINE
8
DEFAULT_255_2_778
10
5.1128865
20
64.3951396
11
5.2994865
21
64.3284396
0
LINE
8
DEFAULT_255_2_778
10
5.2994865
20
64.3284396
11
5.4443865
21
64.3456396
0
LINE
8
DEFAULT_255_2_778
10
5.4443865
20
64.3456396
11
5.5719865
21
64.4379396
0
LINE
8
DEFAULT_255_2_778
10
5.5719865
20
64.4379396
11
5.5790865
21
64.4459396
0
LINE
8
DEFAULT_255_2_778
10
5.5790865
20
64.4459396
11
5.5774865
21
64.1702396
0
LINE
8
DEFAULT_255_2_778
10
5.5774865
20
64.1702396
11
5.5602865
21
64.1136396
0
LINE
8
DEFAULT_255_2_778
10
5.5602865
20
64.1136396
11
5.4965865
21
64.0508396
0
LINE
8
DEFAULT_255_2_778
10
5.4965865
20
64.0508396
11
5.2808865
21
64.0374396
0
LINE
8
DEFAULT_255_2_778
10
5.2808865
20
64.0374396
11
5.1628865
21
64.1241396
0
LINE
8
DEFAULT_255_2_778
10
5.1628865
20
64.1241396
11
5.0684865
21
64.0665396
0
LINE
8
DEFAULT_255_2_778
10
5.0684865
20
64.0665396
11
5.1202865
21
64.0014396
0
LINE
8
DEFAULT_255_2_778
10
5.1202865
20
64.0014396
11
5.2448865
21
63.9336396
0
LINE
8
DEFAULT_255_2_778
10
5.2448865
20
63.9336396
11
5.4449865
21
63.9225396
0
LINE
8
DEFAULT_255_2_778
10
5.4449865
20
63.9225396
11
5.5766865
21
63.9762396
0
LINE
8
DEFAULT_255_2_778
10
5.5766865
20
63.9762396
11
5.6491865
21
64.0535396
0
LINE
8
DEFAULT_255_2_778
10
5.6491865
20
64.0535396
11
5.6740865
21
64.1075396
0
LINE
8
DEFAULT_255_2_778
10
5.6740865
20
64.1075396
11
5.6833865
21
64.1421396
0
LINE
8
DEFAULT_255_2_778
10
5.6833865
20
64.1421396
11
5.6870865
21
64.1659396
0
LINE
8
DEFAULT_255_2_778
10
5.6870865
20
64.1659396
11
5.6880865
21
65.4489396
0
LINE
8
DEFAULT_255_2_778
10
12.2686688
20
65.4732948
11
11.9746688
21
65.4026948
0
LINE
8
DEFAULT_255_2_778
10
11.9746688
20
65.4026948
11
11.9034688
21
65.3422948
0
LINE
8
DEFAULT_255_2_778
10
11.9034688
20
65.3422948
11
11.9034688
21
65.4642948
0
LINE
8
DEFAULT_255_2_778
10
11.9034688
20
65.4642948
11
11.7939688
21
65.4642948
0
LINE
8
DEFAULT_255_2_778
10
11.7939688
20
65.4642948
11
11.7939688
21
64.3458948
0
LINE
8
DEFAULT_255_2_778
10
11.7939688
20
64.3458948
11
11.9034688
21
64.3458948
0
LINE
8
DEFAULT_255_2_778
10
11.9034688
20
64.3458948
11
11.9058688
21
65.1197948
0
LINE
8
DEFAULT_255_2_778
10
11.9058688
20
65.1197948
11
11.9175688
21
65.1716948
0
LINE
8
DEFAULT_255_2_778
10
11.9175688
20
65.1716948
11
11.9971688
21
65.2872948
0
LINE
8
DEFAULT_255_2_778
10
11.9971688
20
65.2872948
11
12.1934688
21
65.3600948
0
LINE
8
DEFAULT_255_2_778
10
12.1934688
20
65.3600948
11
12.2686688
21
65.3600948
0
LINE
8
DEFAULT_255_2_778
10
12.2686688
20
65.3600948
11
12.2686688
21
65.4732948
0
LINE
8
DEFAULT_255_2_778
10
10.3514366
20
65.8437906
11
10.2440366
21
65.8437906
0
LINE
8
DEFAULT_255_2_778
10
10.2440366
20
65.8437906
11
10.2440366
21
65.4642906
0
LINE
8
DEFAULT_255_2_778
10
10.2440366
20
65.4642906
11
10.0421366
21
65.4642906
0
LINE
8
DEFAULT_255_2_778
10
10.0421366
20
65.4642906
11
10.0421366
21
65.3510906
0
LINE
8
DEFAULT_255_2_778
10
10.0421366
20
65.3510906
11
10.2440366
21
65.3510906
0
LINE
8
DEFAULT_255_2_778
10
10.2440366
20
65.3510906
11
10.2461366
21
64.5549906
0
LINE
8
DEFAULT_255_2_778
10
10.2461366
20
64.5549906
11
10.2501366
21
64.5223906
0
LINE
8
DEFAULT_255_2_778
10
10.2501366
20
64.5223906
11
10.2691366
21
64.4538906
0
LINE
8
DEFAULT_255_2_778
10
10.2691366
20
64.4538906
11
10.3456366
21
64.3617906
0
LINE
8
DEFAULT_255_2_778
10
10.3456366
20
64.3617906
11
10.4564366
21
64.3345906
0
LINE
8
DEFAULT_255_2_778
10
10.4564366
20
64.3345906
11
10.6292366
21
64.3697906
0
LINE
8
DEFAULT_255_2_778
10
10.6292366
20
64.3697906
11
10.6501366
21
64.3771906
0
LINE
8
DEFAULT_255_2_778
10
10.6501366
20
64.3771906
11
10.6136366
21
64.4837906
0
LINE
8
DEFAULT_255_2_778
10
10.6136366
20
64.4837906
11
10.3808366
21
64.4821906
0
LINE
8
DEFAULT_255_2_778
10
10.3808366
20
64.4821906
11
10.3559366
21
64.5395906
0
LINE
8
DEFAULT_255_2_778
10
10.3559366
20
64.5395906
11
10.3527366
21
64.5676906
0
LINE
8
DEFAULT_255_2_778
10
10.3527366
20
64.5676906
11
10.3517366
21
65.3513906
0
LINE
8
DEFAULT_255_2_778
10
10.3517366
20
65.3513906
11
10.6115366
21
65.3513906
0
LINE
8
DEFAULT_255_2_778
10
10.6115366
20
65.3513906
11
10.6115366
21
65.4645906
0
LINE
8
DEFAULT_255_2_778
10
10.6115366
20
65.4645906
11
10.3517366
21
65.4645906
0
LINE
8
DEFAULT_255_2_778
10
10.3517366
20
65.4645906
11
10.3517366
21
65.8439906
0
LINE
8
DEFAULT_255_2_778
10
7.5751366
20
65.9458906
11
7.4378366
21
65.9458906
0
LINE
8
DEFAULT_255_2_778
10
7.4378366
20
65.9458906
11
7.4378366
21
64.3459906
0
LINE
8
DEFAULT_255_2_778
10
7.4378366
20
64.3459906
11
7.5473366
21
64.3459906
0
LINE
8
DEFAULT_255_2_778
10
7.5473366
20
64.3459906
11
7.5473366
21
65.6973906
0
LINE
8
DEFAULT_255_2_778
10
7.5473366
20
65.6973906
11
8.0262366
21
64.3459906
0
LINE
8
DEFAULT_255_2_778
10
8.0262366
20
64.3459906
11
8.1829366
21
64.3459906
0
LINE
8
DEFAULT_255_2_778
10
8.1829366
20
64.3459906
11
8.6702366
21
65.7018906
0
LINE
8
DEFAULT_255_2_778
10
8.6702366
20
65.7018906
11
8.6702366
21
64.3459906
0
LINE
8
DEFAULT_255_2_778
10
8.6702366
20
64.3459906
11
8.7798366
21
64.3459906
0
LINE
8
DEFAULT_255_2_778
10
8.7798366
20
64.3459906
11
8.7798366
21
65.9458906
0
LINE
8
DEFAULT_255_2_778
10
8.7798366
20
65.9458906
11
8.6403366
21
65.9458906
0
LINE
8
DEFAULT_255_2_778
10
8.6403366
20
65.9458906
11
8.1080366
21
64.4591906
0
LINE
8
DEFAULT_255_2_778
10
8.1080366
20
64.4591906
11
7.5756366
21
65.9458906
0
LINE
8
DEFAULT_255_2_778
10
9.7675366
20
64.5964906
11
9.7384366
21
64.5401906
0
LINE
8
DEFAULT_255_2_778
10
9.7384366
20
64.5401906
11
9.6783366
21
64.4826906
0
LINE
8
DEFAULT_255_2_778
10
9.6783366
20
64.4826906
11
9.5283366
21
64.4406906
0
LINE
8
DEFAULT_255_2_778
10
9.5283366
20
64.4406906
11
9.3862366
21
64.4742906
0
LINE
8
DEFAULT_255_2_778
10
9.3862366
20
64.4742906
11
9.3211366
21
64.5274906
0
LINE
8
DEFAULT_255_2_778
10
9.3211366
20
64.5274906
11
9.2883366
21
64.5811906
0
LINE
8
DEFAULT_255_2_778
10
9.2883366
20
64.5811906
11
9.2722366
21
64.6313906
0
LINE
8
DEFAULT_255_2_778
10
9.2722366
20
64.6313906
11
9.2682366
21
64.6522906
0
LINE
8
DEFAULT_255_2_778
10
9.2682366
20
64.6522906
11
9.2600366
21
64.7155906
0
LINE
8
DEFAULT_255_2_778
10
9.2600366
20
64.7155906
11
9.2558366
21
64.7578906
0
LINE
8
DEFAULT_255_2_778
10
9.2558366
20
64.7578906
11
9.2526366
21
64.8001906
0
LINE
8
DEFAULT_255_2_778
10
9.2526366
20
64.8001906
11
9.2499366
21
64.8639906
0
LINE
8
DEFAULT_255_2_778
10
9.2499366
20
64.8639906
11
9.2497366
21
64.8851906
0
LINE
8
DEFAULT_255_2_778
10
9.2497366
20
64.8851906
11
9.9087366
21
64.8851906
0
LINE
8
DEFAULT_255_2_778
10
9.9087366
20
64.8851906
11
9.9066366
21
65.0272906
0
LINE
8
DEFAULT_255_2_778
10
9.9066366
20
65.0272906
11
9.9050366
21
65.0515906
0
LINE
8
DEFAULT_255_2_778
10
9.9050366
20
65.0515906
11
9.9029366
21
65.0756906
0
LINE
8
DEFAULT_255_2_778
10
9.9029366
20
65.0756906
11
9.8968366
21
65.1237906
0
LINE
8
DEFAULT_255_2_778
10
9.8968366
20
65.1237906
11
9.8852366
21
65.1835906
0
LINE
8
DEFAULT_255_2_778
10
9.8852366
20
65.1835906
11
9.8638366
21
65.2536906
0
LINE
8
DEFAULT_255_2_778
10
9.8638366
20
65.2536906
11
9.8257366
21
65.3301906
0
LINE
8
DEFAULT_255_2_778
10
9.8257366
20
65.3301906
11
9.7619366
21
65.4037906
0
LINE
8
DEFAULT_255_2_778
10
9.7619366
20
65.4037906
11
9.6444366
21
65.4666906
0
LINE
8
DEFAULT_255_2_778
10
9.6444366
20
65.4666906
11
9.4507366
21
65.4775906
0
LINE
8
DEFAULT_255_2_778
10
9.4507366
20
65.4775906
11
9.3134366
21
65.4259906
0
LINE
8
DEFAULT_255_2_778
10
9.3134366
20
65.4259906
11
9.2306366
21
65.3531906
0
LINE
8
DEFAULT_255_2_778
10
9.2306366
20
65.3531906
11
9.1856366
21
65.2804906
0
LINE
8
DEFAULT_255_2_778
10
9.1856366
20
65.2804906
11
9.1647366
21
65.2224906
0
LINE
8
DEFAULT_255_2_778
10
9.1647366
20
65.2224906
11
9.1542366
21
65.1740906
0
LINE
8
DEFAULT_255_2_778
10
9.1542366
20
65.1740906
11
9.1473366
21
65.1251906
0
LINE
8
DEFAULT_255_2_778
10
9.1473366
20
65.1251906
11
9.1494366
21
64.7237906
0
LINE
8
DEFAULT_255_2_778
10
9.1494366
20
64.7237906
11
9.1539366
21
64.6737906
0
LINE
8
DEFAULT_255_2_778
10
9.1539366
20
64.6737906
11
9.1605366
21
64.6242906
0
LINE
8
DEFAULT_255_2_778
10
9.1605366
20
64.6242906
11
9.1721366
21
64.5755906
0
LINE
8
DEFAULT_255_2_778
10
9.1721366
20
64.5755906
11
9.1957366
21
64.5173906
0
LINE
8
DEFAULT_255_2_778
10
9.1957366
20
64.5173906
11
9.2460366
21
64.4453906
0
LINE
8
DEFAULT_255_2_778
10
9.2460366
20
64.4453906
11
9.3460366
21
64.3699906
0
LINE
8
DEFAULT_255_2_778
10
9.3460366
20
64.3699906
11
9.5158366
21
64.3292906
0
LINE
8
DEFAULT_255_2_778
10
9.5158366
20
64.3292906
11
9.6873366
21
64.3617906
0
LINE
8
DEFAULT_255_2_778
10
9.6873366
20
64.3617906
11
9.7828366
21
64.4218906
0
LINE
8
DEFAULT_255_2_778
10
9.7828366
20
64.4218906
11
9.8384366
21
64.4898906
0
LINE
8
DEFAULT_255_2_778
10
9.8384366
20
64.4898906
11
9.8701366
21
64.5583906
0
LINE
8
DEFAULT_255_2_778
10
9.8701366
20
64.5583906
11
9.7675366
21
64.5964906
0
LINE
8
DEFAULT_255_2_778
10
9.7997366
20
64.9981906
11
9.2502366
21
64.9981906
0
LINE
8
DEFAULT_255_2_778
10
9.2502366
20
64.9981906
11
9.2642366
21
65.1642906
0
LINE
8
DEFAULT_255_2_778
10
9.2642366
20
65.1642906
11
9.2748366
21
65.2169906
0
LINE
8
DEFAULT_255_2_778
10
9.2748366
20
65.2169906
11
9.3412366
21
65.3132906
0
LINE
8
DEFAULT_255_2_778
10
9.3412366
20
65.3132906
11
9.4690366
21
65.3664906
0
LINE
8
DEFAULT_255_2_778
10
9.4690366
20
65.3664906
11
9.6288366
21
65.3537906
0
LINE
8
DEFAULT_255_2_778
10
9.6288366
20
65.3537906
11
9.7574366
21
65.2462906
0
LINE
8
DEFAULT_255_2_778
10
9.7574366
20
65.2462906
11
9.7778366
21
65.1960906
0
LINE
8
DEFAULT_255_2_778
10
9.7778366
20
65.1960906
11
9.7852366
21
65.1639906
0
LINE
8
DEFAULT_255_2_778
10
9.7852366
20
65.1639906
11
9.7913366
21
65.1221906
0
LINE
8
DEFAULT_255_2_778
10
9.7913366
20
65.1221906
11
9.7997366
21
64.9981906
0
LINE
8
DEFAULT_255_2_778
10
11.4312366
20
64.9981906
11
10.8816366
21
64.9981906
0
LINE
8
DEFAULT_255_2_778
10
10.8816366
20
64.9981906
11
10.8956366
21
65.1642906
0
LINE
8
DEFAULT_255_2_778
10
10.8956366
20
65.1642906
11
10.9062366
21
65.2169906
0
LINE
8
DEFAULT_255_2_778
10
10.9062366
20
65.2169906
11
10.9726366
21
65.3132906
0
LINE
8
DEFAULT_255_2_778
10
10.9726366
20
65.3132906
11
11.1004366
21
65.3664906
0
LINE
8
DEFAULT_255_2_778
10
11.1004366
20
65.3664906
11
11.2602366
21
65.3537906
0
LINE
8
DEFAULT_255_2_778
10
11.2602366
20
65.3537906
11
11.3888366
21
65.2462906
0
LINE
8
DEFAULT_255_2_778
10
11.3888366
20
65.2462906
11
11.4092366
21
65.1960906
0
LINE
8
DEFAULT_255_2_778
10
11.4092366
20
65.1960906
11
11.4166366
21
65.1639906
0
LINE
8
DEFAULT_255_2_778
10
11.4166366
20
65.1639906
11
11.4227366
21
65.1221906
0
LINE
8
DEFAULT_255_2_778
10
11.4227366
20
65.1221906
11
11.4312366
21
64.9981906
0
LINE
8
DEFAULT_255_2_778
10
10.8816366
20
64.8848906
11
11.5407366
21
64.8848906
0
LINE
8
DEFAULT_255_2_778
10
11.5407366
20
64.8848906
11
11.5386366
21
65.0269906
0
LINE
8
DEFAULT_255_2_778
10
11.5386366
20
65.0269906
11
11.5370366
21
65.0512906
0
LINE
8
DEFAULT_255_2_778
10
11.5370366
20
65.0512906
11
11.5349366
21
65.0753906
0
LINE
8
DEFAULT_255_2_778
10
11.5349366
20
65.0753906
11
11.5288366
21
65.1235906
0
LINE
8
DEFAULT_255_2_778
10
11.5288366
20
65.1235906
11
11.5171366
21
65.1833906
0
LINE
8
DEFAULT_255_2_778
10
11.5171366
20
65.1833906
11
11.4957366
21
65.2534906
0
LINE
8
DEFAULT_255_2_778
10
11.4957366
20
65.2534906
11
11.4576366
21
65.3298906
0
LINE
8
DEFAULT_255_2_778
10
11.4576366
20
65.3298906
11
11.3938366
21
65.4034906
0
LINE
8
DEFAULT_255_2_778
10
11.3938366
20
65.4034906
11
11.2764366
21
65.4664906
0
LINE
8
DEFAULT_255_2_778
10
11.2764366
20
65.4664906
11
11.0827366
21
65.4772906
0
LINE
8
DEFAULT_255_2_778
10
11.0827366
20
65.4772906
11
10.9454366
21
65.4256906
0
LINE
8
DEFAULT_255_2_778
10
10.9454366
20
65.4256906
11
10.8626366
21
65.3529906
0
LINE
8
DEFAULT_255_2_778
10
10.8626366
20
65.3529906
11
10.8176366
21
65.2801906
0
LINE
8
DEFAULT_255_2_778
10
10.8176366
20
65.2801906
11
10.7967366
21
65.2222906
0
LINE
8
DEFAULT_255_2_778
10
10.7967366
20
65.2222906
11
10.7861366
21
65.1737906
0
LINE
8
DEFAULT_255_2_778
10
10.7861366
20
65.1737906
11
10.7792366
21
65.1248906
0
LINE
8
DEFAULT_255_2_778
10
10.7792366
20
65.1248906
11
10.7813366
21
64.7234906
0
LINE
8
DEFAULT_255_2_778
10
10.7813366
20
64.7234906
11
10.7858366
21
64.6734906
0
LINE
8
DEFAULT_255_2_778
10
10.7858366
20
64.6734906
11
10.7925366
21
64.6239906
0
LINE
8
DEFAULT_255_2_778
10
10.7925366
20
64.6239906
11
10.8041366
21
64.5752906
0
LINE
8
DEFAULT_255_2_778
10
10.8041366
20
64.5752906
11
10.8276366
21
64.5170906
0
LINE
8
DEFAULT_255_2_778
10
10.8276366
20
64.5170906
11
10.8779366
21
64.4451906
0
LINE
8
DEFAULT_255_2_778
10
10.8779366
20
64.4451906
11
10.9779366
21
64.3697906
0
LINE
8
DEFAULT_255_2_778
10
10.9779366
20
64.3697906
11
11.1478366
21
64.3289906
0
LINE
8
DEFAULT_255_2_778
10
11.1478366
20
64.3289906
11
11.3192366
21
64.3615906
0
LINE
8
DEFAULT_255_2_778
10
11.3192366
20
64.3615906
11
11.4148366
21
64.4215906
0
LINE
8
DEFAULT_255_2_778
10
11.4148366
20
64.4215906
11
11.4703366
21
64.4895906
0
LINE
8
DEFAULT_255_2_778
10
11.4703366
20
64.4895906
11
11.5021366
21
64.5580906
0
LINE
8
DEFAULT_255_2_778
10
11.5021366
20
64.5580906
11
11.3989366
21
64.5959906
0
LINE
8
DEFAULT_255_2_778
10
11.3989366
20
64.5959906
11
11.3698366
21
64.5395906
0
LINE
8
DEFAULT_255_2_778
10
11.3698366
20
64.5395906
11
11.3097366
21
64.4821906
0
LINE
8
DEFAULT_255_2_778
10
11.3097366
20
64.4821906
11
11.1597366
21
64.4400906
0
LINE
8
DEFAULT_255_2_778
10
11.1597366
20
64.4400906
11
11.0176366
21
64.4736906
0
LINE
8
DEFAULT_255_2_778
10
11.0176366
20
64.4736906
11
10.9525366
21
64.5268906
0
LINE
8
DEFAULT_255_2_778
10
10.9525366
20
64.5268906
11
10.9197366
21
64.5805906
0
LINE
8
DEFAULT_255_2_778
10
10.9197366
20
64.5805906
11
10.9036366
21
64.6308906
0
LINE
8
DEFAULT_255_2_778
10
10.9036366
20
64.6308906
11
10.8996366
21
64.6517906
0
LINE
8
DEFAULT_255_2_778
10
10.8996366
20
64.6517906
11
10.8914366
21
64.7149906
0
LINE
8
DEFAULT_255_2_778
10
10.8914366
20
64.7149906
11
10.8872366
21
64.7573906
0
LINE
8
DEFAULT_255_2_778
10
10.8872366
20
64.7573906
11
10.8840366
21
64.7996906
0
LINE
8
DEFAULT_255_2_778
10
10.8840366
20
64.7996906
11
10.8814366
21
64.8634906
0
LINE
8
DEFAULT_255_2_778
10
10.8814366
20
64.8634906
11
10.8816366
21
64.8848906
0
LINE
8
DEFAULT_255_2_778
10
16.2426366
20
64.3459906
11
16.3929366
21
64.3459906
0
LINE
8
DEFAULT_255_2_778
10
16.3929366
20
64.3459906
11
16.8374366
21
65.9259906
0
LINE
8
DEFAULT_255_2_778
10
16.8374366
20
65.9259906
11
16.7321366
21
65.9569906
0
LINE
8
DEFAULT_255_2_778
10
16.7321366
20
65.9569906
11
16.3177366
21
64.4789906
0
LINE
8
DEFAULT_255_2_778
10
16.3177366
20
64.4789906
11
15.9013366
21
65.9569906
0
LINE
8
DEFAULT_255_2_778
10
15.9013366
20
65.9569906
11
15.7960366
21
65.9259906
0
LINE
8
DEFAULT_255_2_778
10
15.7960366
20
65.9259906
11
16.2426366
21
64.3459906
0
LINE
8
DEFAULT_255_2_778
10
19.0850366
20
65.6418906
11
19.1903366
21
65.6685906
0
LINE
8
DEFAULT_255_2_778
10
19.1903366
20
65.6685906
11
19.1824366
21
65.7087906
0
LINE
8
DEFAULT_255_2_778
10
19.1824366
20
65.7087906
11
19.1546366
21
65.7762906
0
LINE
8
DEFAULT_255_2_778
10
19.1546366
20
65.7762906
11
19.1173366
21
65.8294906
0
LINE
8
DEFAULT_255_2_778
10
19.1173366
20
65.8294906
11
19.0437366
21
65.8937906
0
LINE
8
DEFAULT_255_2_778
10
19.0437366
20
65.8937906
11
18.9398366
21
65.9392906
0
LINE
8
DEFAULT_255_2_778
10
18.9398366
20
65.9392906
11
18.6974366
21
65.9482906
0
LINE
8
DEFAULT_255_2_778
10
18.6974366
20
65.9482906
11
18.5569366
21
65.9090906
0
LINE
8
DEFAULT_255_2_778
10
18.5569366
20
65.9090906
11
18.4744366
21
65.8579906
0
LINE
8
DEFAULT_255_2_778
10
18.4744366
20
65.8579906
11
18.4188366
21
65.7989906
0
LINE
8
DEFAULT_255_2_778
10
18.4188366
20
65.7989906
11
18.3773366
21
65.7288906
0
LINE
8
DEFAULT_255_2_778
10
18.3773366
20
65.7288906
11
18.3487366
21
65.6529906
0
LINE
8
DEFAULT_255_2_778
10
18.3487366
20
65.6529906
11
18.3333366
21
65.5902906
0
LINE
8
DEFAULT_255_2_778
10
18.3333366
20
65.5902906
11
18.3257366
21
65.5423906
0
LINE
8
DEFAULT_255_2_778
10
18.3257366
20
65.5423906
11
18.3206366
21
65.4939906
0
LINE
8
DEFAULT_255_2_778
10
18.3206366
20
65.4939906
11
18.3228366
21
64.8097906
0
LINE
8
DEFAULT_255_2_778
10
18.3228366
20
64.8097906
11
18.3283366
21
64.7605906
0
LINE
8
DEFAULT_255_2_778
10
18.3283366
20
64.7605906
11
18.3394366
21
64.6956906
0
LINE
8
DEFAULT_255_2_778
10
18.3394366
20
64.6956906
11
18.3553366
21
64.6319906
0
LINE
8
DEFAULT_255_2_778
10
18.3553366
20
64.6319906
11
18.3770366
21
64.5694906
0
LINE
8
DEFAULT_255_2_778
10
18.3770366
20
64.5694906
11
18.4061366
21
64.5099906
0
LINE
8
DEFAULT_255_2_778
10
18.4061366
20
64.5099906
11
18.4924366
21
64.4107906
0
LINE
8
DEFAULT_255_2_778
10
18.4924366
20
64.4107906
11
18.5953366
21
64.3578906
0
LINE
8
DEFAULT_255_2_778
10
18.5953366
20
64.3578906
11
18.7419366
21
64.3358906
0
LINE
8
DEFAULT_255_2_778
10
18.7419366
20
64.3358906
11
18.9226366
21
64.3488906
0
LINE
8
DEFAULT_255_2_778
10
18.9226366
20
64.3488906
11
19.0300366
21
64.3927906
0
LINE
8
DEFAULT_255_2_778
10
19.0300366
20
64.3927906
11
19.1072366
21
64.4554906
0
LINE
8
DEFAULT_255_2_778
10
19.1072366
20
64.4554906
11
19.1480366
21
64.5078906
0
LINE
8
DEFAULT_255_2_778
10
19.1480366
20
64.5078906
11
19.1715366
21
64.5517906
0
LINE
8
DEFAULT_255_2_778
10
19.1715366
20
64.5517906
11
19.1882366
21
64.5991906
0
LINE
8
DEFAULT_255_2_778
10
19.1882366
20
64.5991906
11
19.0874366
21
64.6369906
0
LINE
8
DEFAULT_255_2_778
10
19.0874366
20
64.6369906
11
19.0604366
21
64.5763906
0
LINE
8
DEFAULT_255_2_778
10
19.0604366
20
64.5763906
11
19.0131366
21
64.5162906
0
LINE
8
DEFAULT_255_2_778
10
19.0131366
20
64.5162906
11
18.9183366
21
64.4612906
0
LINE
8
DEFAULT_255_2_778
10
18.9183366
20
64.4612906
11
18.6448366
21
64.4572906
0
LINE
8
DEFAULT_255_2_778
10
18.6448366
20
64.4572906
11
18.5572366
21
64.5009906
0
LINE
8
DEFAULT_255_2_778
10
18.5572366
20
64.5009906
11
18.5006366
21
64.5678906
0
LINE
8
DEFAULT_255_2_778
10
18.5006366
20
64.5678906
11
18.4609366
21
64.6578906
0
LINE
8
DEFAULT_255_2_778
10
18.4609366
20
64.6578906
11
18.4445366
21
64.7210906
0
LINE
8
DEFAULT_255_2_778
10
18.4445366
20
64.7210906
11
18.4371366
21
64.7636906
0
LINE
8
DEFAULT_255_2_778
10
18.4371366
20
64.7636906
11
18.4318366
21
64.8065906
0
LINE
8
DEFAULT_255_2_778
10
18.4318366
20
64.8065906
11
18.4334366
21
65.5275906
0
LINE
8
DEFAULT_255_2_778
10
18.4334366
20
65.5275906
11
18.4442366
21
65.5897906
0
LINE
8
DEFAULT_255_2_778
10
18.4442366
20
65.5897906
11
18.4659366
21
65.6603906
0
LINE
8
DEFAULT_255_2_778
10
18.4659366
20
65.6603906
11
18.5000366
21
65.7262906
0
LINE
8
DEFAULT_255_2_778
10
18.5000366
20
65.7262906
11
18.5585366
21
65.7862906
0
LINE
8
DEFAULT_255_2_778
10
18.5585366
20
65.7862906
11
18.7392366
21
65.8392906
0
LINE
8
DEFAULT_255_2_778
10
18.7392366
20
65.8392906
11
18.9384366
21
65.8212906
0
LINE
8
DEFAULT_255_2_778
10
18.9384366
20
65.8212906
11
19.0189366
21
65.7720906
0
LINE
8
DEFAULT_255_2_778
10
19.0189366
20
65.7720906
11
19.0609366
21
65.7119906
0
LINE
8
DEFAULT_255_2_778
10
19.0609366
20
65.7119906
11
19.0824366
21
65.6518906
0
LINE
8
DEFAULT_255_2_778
10
19.0824366
20
65.6518906
11
19.0848366
21
65.6415906
0
LINE
8
DEFAULT_255_2_778
10
17.6232366
20
65.9479906
11
17.4859366
21
65.9479906
0
LINE
8
DEFAULT_255_2_778
10
17.4859366
20
65.9479906
11
16.9729366
21
64.3702906
0
LINE
8
DEFAULT_255_2_778
10
16.9729366
20
64.3702906
11
17.0760366
21
64.3347906
0
LINE
8
DEFAULT_255_2_778
10
17.0760366
20
64.3347906
11
17.2179366
21
64.7676906
0
LINE
8
DEFAULT_255_2_778
10
17.2179366
20
64.7676906
11
17.8812366
21
64.7676906
0
LINE
8
DEFAULT_255_2_778
10
17.8812366
20
64.7676906
11
18.0185366
21
64.3347906
0
LINE
8
DEFAULT_255_2_778
10
18.0185366
20
64.3347906
11
18.1238366
21
64.3702906
0
LINE
8
DEFAULT_255_2_778
10
18.1238366
20
64.3702906
11
17.6232366
21
65.9479906
0
LINE
8
DEFAULT_255_2_778
10
17.8444366
20
64.8806906
11
17.2538366
21
64.8806906
0
LINE
8
DEFAULT_255_2_778
10
17.2538366
20
64.8806906
11
17.5544366
21
65.8061906
0
LINE
8
DEFAULT_255_2_778
10
17.5544366
20
65.8061906
11
17.8444366
21
64.8806906
0
LINE
8
DEFAULT_255_2_778
10
15.6693167
20
65.1560656
11
15.6671167
21
65.3759656
0
LINE
8
DEFAULT_255_2_778
10
15.6671167
20
65.3759656
11
15.6653167
21
65.4245656
0
LINE
8
DEFAULT_255_2_778
10
15.6653167
20
65.4245656
11
15.6640167
21
65.4489656
0
LINE
8
DEFAULT_255_2_778
10
15.6640167
20
65.4489656
11
15.6624167
21
65.4732656
0
LINE
8
DEFAULT_255_2_778
10
15.6624167
20
65.4732656
11
15.6579167
21
65.5219656
0
LINE
8
DEFAULT_255_2_778
10
15.6579167
20
65.5219656
11
15.6515167
21
65.5703656
0
LINE
8
DEFAULT_255_2_778
10
15.6515167
20
65.5703656
11
15.6428167
21
65.6185656
0
LINE
8
DEFAULT_255_2_778
10
15.6428167
20
65.6185656
11
15.6240167
21
65.6894656
0
LINE
8
DEFAULT_255_2_778
10
15.6240167
20
65.6894656
11
15.5909167
21
65.7682656
0
LINE
8
DEFAULT_255_2_778
10
15.5909167
20
65.7682656
11
15.5359167
21
65.8479656
0
LINE
8
DEFAULT_255_2_778
10
15.5359167
20
65.8479656
11
15.4499167
21
65.9151656
0
LINE
8
DEFAULT_255_2_778
10
15.4499167
20
65.9151656
11
15.2729167
21
65.9545656
0
LINE
8
DEFAULT_255_2_778
10
15.2729167
20
65.9545656
11
15.1181167
21
65.9246656
0
LINE
8
DEFAULT_255_2_778
10
15.1181167
20
65.9246656
11
15.0189167
21
65.8550656
0
LINE
8
DEFAULT_255_2_778
10
15.0189167
20
65.8550656
11
14.9610167
21
65.7764656
0
LINE
8
DEFAULT_255_2_778
10
14.9610167
20
65.7764656
11
14.9234167
21
65.6867656
0
LINE
8
DEFAULT_255_2_778
10
14.9234167
20
65.6867656
11
14.9102167
21
65.6399656
0
LINE
8
DEFAULT_255_2_778
10
14.9102167
20
65.6399656
11
14.8999167
21
65.5926656
0
LINE
8
DEFAULT_255_2_778
10
14.8999167
20
65.5926656
11
14.8919167
21
65.5444656
0
LINE
8
DEFAULT_255_2_778
10
14.8919167
20
65.5444656
11
14.8861167
21
65.4960656
0
LINE
8
DEFAULT_255_2_778
10
14.8861167
20
65.4960656
11
14.8861167
21
64.7922656
0
LINE
8
DEFAULT_255_2_778
10
14.8861167
20
64.7922656
11
14.8919167
21
64.7438656
0
LINE
8
DEFAULT_255_2_778
10
14.8919167
20
64.7438656
11
14.8999167
21
64.6959656
0
LINE
8
DEFAULT_255_2_778
10
14.8999167
20
64.6959656
11
14.9104167
21
64.6485656
0
LINE
8
DEFAULT_255_2_778
10
14.9104167
20
64.6485656
11
14.9358167
21
64.5673656
0
LINE
8
DEFAULT_255_2_778
10
14.9358167
20
64.5673656
11
14.9742167
21
64.4921656
0
LINE
8
DEFAULT_255_2_778
10
14.9742167
20
64.4921656
11
15.0560167
21
64.4032656
0
LINE
8
DEFAULT_255_2_778
10
15.0560167
20
64.4032656
11
15.1758167
21
64.3461656
0
LINE
8
DEFAULT_255_2_778
10
15.1758167
20
64.3461656
11
15.3690167
21
64.3456656
0
LINE
8
DEFAULT_255_2_778
10
15.3690167
20
64.3456656
11
15.4793167
21
64.3950656
0
LINE
8
DEFAULT_255_2_778
10
15.4793167
20
64.3950656
11
15.5629167
21
64.4821656
0
LINE
8
DEFAULT_255_2_778
10
15.5629167
20
64.4821656
11
15.6134167
21
64.5792656
0
LINE
8
DEFAULT_255_2_778
10
15.6134167
20
64.5792656
11
15.6290167
21
64.6252656
0
LINE
8
DEFAULT_255_2_778
10
15.6290167
20
64.6252656
11
15.6412167
21
64.6721656
0
LINE
8
DEFAULT_255_2_778
10
15.6412167
20
64.6721656
11
15.6505167
21
64.7197656
0
LINE
8
DEFAULT_255_2_778
10
15.6505167
20
64.7197656
11
15.6574167
21
64.7678656
0
LINE
8
DEFAULT_255_2_778
10
15.6574167
20
64.7678656
11
15.6621167
21
64.8163656
0
LINE
8
DEFAULT_255_2_778
10
15.6621167
20
64.8163656
11
15.6640167
21
64.8406656
0
LINE
8
DEFAULT_255_2_778
10
15.6640167
20
64.8406656
11
15.6664167
21
64.8893656
0
LINE
8
DEFAULT_255_2_778
10
15.6664167
20
64.8893656
11
15.6690167
21
65.0107656
0
LINE
8
DEFAULT_255_2_778
10
15.6690167
20
65.0107656
11
15.6693167
21
65.1560656
0
LINE
8
DEFAULT_255_2_778
10
14.9864167
20
65.0576656
11
14.9888167
21
65.3573656
0
LINE
8
DEFAULT_255_2_778
10
14.9888167
20
65.3573656
11
14.9914167
21
65.4245656
0
LINE
8
DEFAULT_255_2_778
10
14.9914167
20
65.4245656
11
14.9943167
21
65.4693656
0
LINE
8
DEFAULT_255_2_778
10
14.9943167
20
65.4693656
11
14.9985167
21
65.5137656
0
LINE
8
DEFAULT_255_2_778
10
14.9985167
20
65.5137656
11
15.0046167
21
65.5582656
0
LINE
8
DEFAULT_255_2_778
10
15.0046167
20
65.5582656
11
15.0181167
21
65.6240656
0
LINE
8
DEFAULT_255_2_778
10
15.0181167
20
65.6240656
11
15.0396167
21
65.6878656
0
LINE
8
DEFAULT_255_2_778
10
15.0396167
20
65.6878656
11
15.0787167
21
65.7553656
0
LINE
8
DEFAULT_255_2_778
10
15.0787167
20
65.7553656
11
15.1364167
21
65.8085656
0
LINE
8
DEFAULT_255_2_778
10
15.1364167
20
65.8085656
11
15.2758167
21
65.8421656
0
LINE
8
DEFAULT_255_2_778
10
15.2758167
20
65.8421656
11
15.3954167
21
65.8172656
0
LINE
8
DEFAULT_255_2_778
10
15.3954167
20
65.8172656
11
15.4573167
21
65.7696656
0
LINE
8
DEFAULT_255_2_778
10
15.4573167
20
65.7696656
11
15.5044167
21
65.6947656
0
LINE
8
DEFAULT_255_2_778
10
15.5044167
20
65.6947656
11
15.5304167
21
65.6211656
0
LINE
8
DEFAULT_255_2_778
10
15.5304167
20
65.6211656
11
15.5401167
21
65.5775656
0
LINE
8
DEFAULT_255_2_778
10
15.5401167
20
65.5775656
11
15.5473167
21
65.5333656
0
LINE
8
DEFAULT_255_2_778
10
15.5473167
20
65.5333656
11
15.5523167
21
65.4891656
0
LINE
8
DEFAULT_255_2_778
10
15.5523167
20
65.4891656
11
15.5521167
21
64.8075656
0
LINE
8
DEFAULT_255_2_778
10
15.5521167
20
64.8075656
11
15.5460167
21
64.7581656
0
LINE
8
DEFAULT_255_2_778
10
15.5460167
20
64.7581656
11
15.5319167
21
64.6845656
0
LINE
8
DEFAULT_255_2_778
10
15.5319167
20
64.6845656
11
15.5142167
21
64.6244656
0
LINE
8
DEFAULT_255_2_778
10
15.5142167
20
64.6244656
11
15.4819167
21
64.5572656
0
LINE
8
DEFAULT_255_2_778
10
15.4819167
20
64.5572656
11
15.3811167
21
64.4673656
0
LINE
8
DEFAULT_255_2_778
10
15.3811167
20
64.4673656
11
15.2332167
21
64.4506656
0
LINE
8
DEFAULT_255_2_778
10
15.2332167
20
64.4506656
11
15.0906167
21
64.5207656
0
LINE
8
DEFAULT_255_2_778
10
15.0906167
20
64.5207656
11
15.0499167
21
64.5832656
0
LINE
8
DEFAULT_255_2_778
10
15.0499167
20
64.5832656
11
15.0237167
21
64.6533656
0
LINE
8
DEFAULT_255_2_778
10
15.0237167
20
64.6533656
11
15.0094167
21
64.7141656
0
LINE
8
DEFAULT_255_2_778
10
15.0094167
20
64.7141656
11
15.0012167
21
64.7628656
0
LINE
8
DEFAULT_255_2_778
10
15.0012167
20
64.7628656
11
14.9951167
21
64.8118656
0
LINE
8
DEFAULT_255_2_778
10
14.9951167
20
64.8118656
11
14.9909167
21
64.8607656
0
LINE
8
DEFAULT_255_2_778
10
14.9909167
20
64.8607656
11
14.9893167
21
64.8853656
0
LINE
8
DEFAULT_255_2_778
10
14.9893167
20
64.8853656
11
14.9872167
21
64.9345656
0
LINE
8
DEFAULT_255_2_778
10
14.9872167
20
64.9345656
11
14.9864167
21
65.0576656
0
LINE
8
DEFAULT_255_2_778
10
13.5632094
20
65.9459
11
13.3077094
21
65.9459
0
LINE
8
DEFAULT_255_2_778
10
13.3077094
20
65.9459
11
12.8740094
21
64.9339
0
LINE
8
DEFAULT_255_2_778
10
12.8740094
20
64.9339
11
12.8740094
21
64.7696
0
LINE
8
DEFAULT_255_2_778
10
12.8740094
20
64.7696
11
13.4537094
21
64.7696
0
LINE
8
DEFAULT_255_2_778
10
13.4537094
20
64.7696
11
13.4537094
21
64.3457
0
LINE
8
DEFAULT_255_2_778
10
13.4537094
20
64.3457
11
13.5632094
21
64.3457
0
LINE
8
DEFAULT_255_2_778
10
13.5632094
20
64.3457
11
13.5632094
21
64.7696
0
LINE
8
DEFAULT_255_2_778
10
13.5632094
20
64.7696
11
13.7908094
21
64.7696
0
LINE
8
DEFAULT_255_2_778
10
13.7908094
20
64.7696
11
13.7908094
21
64.8804
0
LINE
8
DEFAULT_255_2_778
10
13.7908094
20
64.8804
11
13.5632094
21
64.8804
0
LINE
8
DEFAULT_255_2_778
10
13.5632094
20
64.8804
11
13.5632094
21
65.9459
0
LINE
8
DEFAULT_255_2_778
10
13.3786094
20
65.835
11
13.4537094
21
65.835
0
LINE
8
DEFAULT_255_2_778
10
13.4537094
20
65.835
11
13.4537094
21
64.8807
0
LINE
8
DEFAULT_255_2_778
10
13.4537094
20
64.8807
11
12.9814094
21
64.8807
0
LINE
8
DEFAULT_255_2_778
10
12.9814094
20
64.8807
11
12.9814094
21
64.9095
0
LINE
8
DEFAULT_255_2_778
10
12.9814094
20
64.9095
11
13.3786094
21
65.835
0
LINE
8
DEFAULT_255_2_778
10
14.7097167
20
65.1560656
11
14.7075167
21
65.3759656
0
LINE
8
DEFAULT_255_2_778
10
14.7075167
20
65.3759656
11
14.7057167
21
65.4245656
0
LINE
8
DEFAULT_255_2_778
10
14.7057167
20
65.4245656
11
14.7044167
21
65.4489656
0
LINE
8
DEFAULT_255_2_778
10
14.7044167
20
65.4489656
11
14.7028167
21
65.4732656
0
LINE
8
DEFAULT_255_2_778
10
14.7028167
20
65.4732656
11
14.6983167
21
65.5219656
0
LINE
8
DEFAULT_255_2_778
10
14.6983167
20
65.5219656
11
14.6919167
21
65.5703656
0
LINE
8
DEFAULT_255_2_778
10
14.6919167
20
65.5703656
11
14.6832167
21
65.6185656
0
LINE
8
DEFAULT_255_2_778
10
14.6832167
20
65.6185656
11
14.6644167
21
65.6894656
0
LINE
8
DEFAULT_255_2_778
10
14.6644167
20
65.6894656
11
14.6313167
21
65.7682656
0
LINE
8
DEFAULT_255_2_778
10
14.6313167
20
65.7682656
11
14.5763167
21
65.8479656
0
LINE
8
DEFAULT_255_2_778
10
14.5763167
20
65.8479656
11
14.4903167
21
65.9151656
0
LINE
8
DEFAULT_255_2_778
10
14.4903167
20
65.9151656
11
14.3133167
21
65.9545656
0
LINE
8
DEFAULT_255_2_778
10
14.3133167
20
65.9545656
11
14.1585167
21
65.9246656
0
LINE
8
DEFAULT_255_2_778
10
14.1585167
20
65.9246656
11
14.0593167
21
65.8550656
0
LINE
8
DEFAULT_255_2_778
10
14.0593167
20
65.8550656
11
14.0014167
21
65.7764656
0
LINE
8
DEFAULT_255_2_778
10
14.0014167
20
65.7764656
11
13.9638167
21
65.6867656
0
LINE
8
DEFAULT_255_2_778
10
13.9638167
20
65.6867656
11
13.9506167
21
65.6399656
0
LINE
8
DEFAULT_255_2_778
10
13.9506167
20
65.6399656
11
13.9403167
21
65.5926656
0
LINE
8
DEFAULT_255_2_778
10
13.9403167
20
65.5926656
11
13.9323167
21
65.5444656
0
LINE
8
DEFAULT_255_2_778
10
13.9323167
20
65.5444656
11
13.9265167
21
65.4960656
0
LINE
8
DEFAULT_255_2_778
10
13.9265167
20
65.4960656
11
13.9265167
21
64.7922656
0
LINE
8
DEFAULT_255_2_778
10
13.9265167
20
64.7922656
11
13.9323167
21
64.7438656
0
LINE
8
DEFAULT_255_2_778
10
13.9323167
20
64.7438656
11
13.9403167
21
64.6959656
0
LINE
8
DEFAULT_255_2_778
10
13.9403167
20
64.6959656
11
13.9508167
21
64.6485656
0
LINE
8
DEFAULT_255_2_778
10
13.9508167
20
64.6485656
11
13.9762167
21
64.5673656
0
LINE
8
DEFAULT_255_2_778
10
13.9762167
20
64.5673656
11
14.0146167
21
64.4921656
0
LINE
8
DEFAULT_255_2_778
10
14.0146167
20
64.4921656
11
14.0964167
21
64.4032656
0
LINE
8
DEFAULT_255_2_778
10
14.0964167
20
64.4032656
11
14.2162167
21
64.3461656
0
LINE
8
DEFAULT_255_2_778
10
14.2162167
20
64.3461656
11
14.4094167
21
64.3456656
0
LINE
8
DEFAULT_255_2_778
10
14.4094167
20
64.3456656
11
14.5197167
21
64.3950656
0
LINE
8
DEFAULT_255_2_778
10
14.5197167
20
64.3950656
11
14.6033167
21
64.4821656
0
LINE
8
DEFAULT_255_2_778
10
14.6033167
20
64.4821656
11
14.6538167
21
64.5792656
0
LINE
8
DEFAULT_255_2_778
10
14.6538167
20
64.5792656
11
14.6694167
21
64.6252656
0
LINE
8
DEFAULT_255_2_778
10
14.6694167
20
64.6252656
11
14.6816167
21
64.6721656
0
LINE
8
DEFAULT_255_2_778
10
14.6816167
20
64.6721656
11
14.6909167
21
64.7197656
0
LINE
8
DEFAULT_255_2_778
10
14.6909167
20
64.7197656
11
14.6978167
21
64.7678656
0
LINE
8
DEFAULT_255_2_778
10
14.6978167
20
64.7678656
11
14.7025167
21
64.8163656
0
LINE
8
DEFAULT_255_2_778
10
14.7025167
20
64.8163656
11
14.7044167
21
64.8406656
0
LINE
8
DEFAULT_255_2_778
10
14.7044167
20
64.8406656
11
14.7068167
21
64.8893656
0
LINE
8
DEFAULT_255_2_778
10
14.7068167
20
64.8893656
11
14.7094167
21
65.0107656
0
LINE
8
DEFAULT_255_2_778
10
14.7094167
20
65.0107656
11
14.7097167
21
65.1560656
0
LINE
8
DEFAULT_255_2_778
10
14.0268167
20
65.0576656
11
14.0292167
21
65.3573656
0
LINE
8
DEFAULT_255_2_778
10
14.0292167
20
65.3573656
11
14.0318167
21
65.4245656
0
LINE
8
DEFAULT_255_2_778
10
14.0318167
20
65.4245656
11
14.0347167
21
65.4693656
0
LINE
8
DEFAULT_255_2_778
10
14.0347167
20
65.4693656
11
14.0389167
21
65.5137656
0
LINE
8
DEFAULT_255_2_778
10
14.0389167
20
65.5137656
11
14.0451167
21
65.5582656
0
LINE
8
DEFAULT_255_2_778
10
14.0451167
20
65.5582656
11
14.0585167
21
65.6240656
0
LINE
8
DEFAULT_255_2_778
10
14.0585167
20
65.6240656
11
14.0800167
21
65.6878656
0
LINE
8
DEFAULT_255_2_778
10
14.0800167
20
65.6878656
11
14.1191167
21
65.7553656
0
LINE
8
DEFAULT_255_2_778
10
14.1191167
20
65.7553656
11
14.1768167
21
65.8085656
0
LINE
8
DEFAULT_255_2_778
10
14.1768167
20
65.8085656
11
14.3162167
21
65.8421656
0
LINE
8
DEFAULT_255_2_778
10
14.3162167
20
65.8421656
11
14.4358167
21
65.8172656
0
LINE
8
DEFAULT_255_2_778
10
14.4358167
20
65.8172656
11
14.4978167
21
65.7696656
0
LINE
8
DEFAULT_255_2_778
10
14.4978167
20
65.7696656
11
14.5448167
21
65.6947656
0
LINE
8
DEFAULT_255_2_778
10
14.5448167
20
65.6947656
11
14.5708167
21
65.6211656
0
LINE
8
DEFAULT_255_2_778
10
14.5708167
20
65.6211656
11
14.5805167
21
65.5775656
0
LINE
8
DEFAULT_255_2_778
10
14.5805167
20
65.5775656
11
14.5877167
21
65.5333656
0
LINE
8
DEFAULT_255_2_778
10
14.5877167
20
65.5333656
11
14.5927167
21
65.4891656
0
LINE
8
DEFAULT_255_2_778
10
14.5927167
20
65.4891656
11
14.5925167
21
64.8075656
0
LINE
8
DEFAULT_255_2_778
10
14.5925167
20
64.8075656
11
14.5864167
21
64.7581656
0
LINE
8
DEFAULT_255_2_778
10
14.5864167
20
64.7581656
11
14.5723167
21
64.6845656
0
LINE
8
DEFAULT_255_2_778
10
14.5723167
20
64.6845656
11
14.5546167
21
64.6244656
0
LINE
8
DEFAULT_255_2_778
10
14.5546167
20
64.6244656
11
14.5223167
21
64.5572656
0
LINE
8
DEFAULT_255_2_778
10
14.5223167
20
64.5572656
11
14.4215167
21
64.4673656
0
LINE
8
DEFAULT_255_2_778
10
14.4215167
20
64.4673656
11
14.2736167
21
64.4506656
0
LINE
8
DEFAULT_255_2_778
10
14.2736167
20
64.4506656
11
14.1310167
21
64.5207656
0
LINE
8
DEFAULT_255_2_778
10
14.1310167
20
64.5207656
11
14.0903167
21
64.5832656
0
LINE
8
DEFAULT_255_2_778
10
14.0903167
20
64.5832656
11
14.0641167
21
64.6533656
0
LINE
8
DEFAULT_255_2_778
10
14.0641167
20
64.6533656
11
14.0498167
21
64.7141656
0
LINE
8
DEFAULT_255_2_778
10
14.0498167
20
64.7141656
11
14.0416167
21
64.7628656
0
LINE
8
DEFAULT_255_2_778
10
14.0416167
20
64.7628656
11
14.0355167
21
64.8118656
0
LINE
8
DEFAULT_255_2_778
10
14.0355167
20
64.8118656
11
14.0313167
21
64.8607656
0
LINE
8
DEFAULT_255_2_778
10
14.0313167
20
64.8607656
11
14.0297167
21
64.8853656
0
LINE
8
DEFAULT_255_2_778
10
14.0297167
20
64.8853656
11
14.0276167
21
64.9345656
0
LINE
8
DEFAULT_255_2_778
10
14.0276167
20
64.9345656
11
14.0268167
21
65.0576656
0
LINE
8
DEFAULT_255_2_778
10
4.4668188
20
59.9724312
11
4.3152188
21
59.9041312
0
LINE
8
DEFAULT_255_2_778
10
4.3152188
20
59.9041312
11
4.1988188
21
59.8792312
0
LINE
8
DEFAULT_255_2_778
10
4.1988188
20
59.8792312
11
4.0102188
21
59.9001312
0
LINE
8
DEFAULT_255_2_778
10
4.0102188
20
59.9001312
11
3.8980188
21
59.9671312
0
LINE
8
DEFAULT_255_2_778
10
3.8980188
20
59.9671312
11
3.8165188
21
60.0697312
0
LINE
8
DEFAULT_255_2_778
10
3.8165188
20
60.0697312
11
3.7861188
21
60.1346312
0
LINE
8
DEFAULT_255_2_778
10
3.7861188
20
60.1346312
11
3.7715188
21
60.1801312
0
LINE
8
DEFAULT_255_2_778
10
3.7715188
20
60.1801312
11
3.7607188
21
60.2264312
0
LINE
8
DEFAULT_255_2_778
10
3.7607188
20
60.2264312
11
3.7527188
21
60.2735312
0
LINE
8
DEFAULT_255_2_778
10
3.7527188
20
60.2735312
11
3.7469188
21
60.3211312
0
LINE
8
DEFAULT_255_2_778
10
3.7469188
20
60.3211312
11
3.7469188
21
60.7746312
0
LINE
8
DEFAULT_255_2_778
10
3.7469188
20
60.7746312
11
3.7527188
21
60.8219312
0
LINE
8
DEFAULT_255_2_778
10
3.7527188
20
60.8219312
11
3.7609188
21
60.8690312
0
LINE
8
DEFAULT_255_2_778
10
3.7609188
20
60.8690312
11
3.7718188
21
60.9156312
0
LINE
8
DEFAULT_255_2_778
10
3.7718188
20
60.9156312
11
3.7945188
21
60.9839312
0
LINE
8
DEFAULT_255_2_778
10
3.7945188
20
60.9839312
11
3.8350188
21
61.0572312
0
LINE
8
DEFAULT_255_2_778
10
3.8350188
20
61.0572312
11
3.9107188
21
61.1336312
0
LINE
8
DEFAULT_255_2_778
10
3.9107188
20
61.1336312
11
4.0660188
21
61.1921312
0
LINE
8
DEFAULT_255_2_778
10
4.0660188
20
61.1921312
11
4.2687188
21
61.1831312
0
LINE
8
DEFAULT_255_2_778
10
4.2687188
20
61.1831312
11
4.3639188
21
61.1336312
0
LINE
8
DEFAULT_255_2_778
10
4.3639188
20
61.1336312
11
4.4176188
21
61.0696312
0
LINE
8
DEFAULT_255_2_778
10
4.4176188
20
61.0696312
11
4.4478188
21
61.0045312
0
LINE
8
DEFAULT_255_2_778
10
4.4478188
20
61.0045312
11
4.4647188
21
60.9468312
0
LINE
8
DEFAULT_255_2_778
10
4.4647188
20
60.9468312
11
4.3763188
21
60.9251312
0
LINE
8
DEFAULT_255_2_778
10
4.3763188
20
60.9251312
11
4.3597188
21
60.9820312
0
LINE
8
DEFAULT_255_2_778
10
4.3597188
20
60.9820312
11
4.3324188
21
61.0336312
0
LINE
8
DEFAULT_255_2_778
10
4.3324188
20
61.0336312
11
4.2724188
21
61.0818312
0
LINE
8
DEFAULT_255_2_778
10
4.2724188
20
61.0818312
11
4.1970188
21
61.1027312
0
LINE
8
DEFAULT_255_2_778
10
4.1970188
20
61.1027312
11
3.9948188
21
61.0831312
0
LINE
8
DEFAULT_255_2_778
10
3.9948188
20
61.0831312
11
3.9234188
21
61.0341312
0
LINE
8
DEFAULT_255_2_778
10
3.9234188
20
61.0341312
11
3.8818188
21
60.9680312
0
LINE
8
DEFAULT_255_2_778
10
3.8818188
20
60.9680312
11
3.8623188
21
60.9130312
0
LINE
8
DEFAULT_255_2_778
10
3.8623188
20
60.9130312
11
3.8530188
21
60.8751312
0
LINE
8
DEFAULT_255_2_778
10
3.8530188
20
60.8751312
11
3.8432188
21
60.8177312
0
LINE
8
DEFAULT_255_2_778
10
3.8432188
20
60.8177312
11
3.8384188
21
60.7794312
0
LINE
8
DEFAULT_255_2_778
10
3.8384188
20
60.7794312
11
3.8398188
21
60.3166312
0
LINE
8
DEFAULT_255_2_778
10
3.8398188
20
60.3166312
11
3.8443188
21
60.2782312
0
LINE
8
DEFAULT_255_2_778
10
3.8443188
20
60.2782312
11
3.8504188
21
60.2401312
0
LINE
8
DEFAULT_255_2_778
10
3.8504188
20
60.2401312
11
3.8638188
21
60.1840312
0
LINE
8
DEFAULT_255_2_778
10
3.8638188
20
60.1840312
11
3.8964188
21
60.1139312
0
LINE
8
DEFAULT_255_2_778
10
3.8964188
20
60.1139312
11
3.9721188
21
60.0256312
0
LINE
8
DEFAULT_255_2_778
10
3.9721188
20
60.0256312
11
4.1062188
21
59.9705312
0
LINE
8
DEFAULT_255_2_778
10
4.1062188
20
59.9705312
11
4.2136188
21
59.9740312
0
LINE
8
DEFAULT_255_2_778
10
4.2136188
20
59.9740312
11
4.3628188
21
60.0205312
0
LINE
8
DEFAULT_255_2_778
10
4.3628188
20
60.0205312
11
4.3980188
21
60.0383312
0
LINE
8
DEFAULT_255_2_778
10
4.3980188
20
60.0383312
11
4.3980188
21
60.5251312
0
LINE
8
DEFAULT_255_2_778
10
4.3980188
20
60.5251312
11
4.1692188
21
60.5251312
0
LINE
8
DEFAULT_255_2_778
10
4.1692188
20
60.5251312
11
4.1692188
21
60.6143312
0
LINE
8
DEFAULT_255_2_778
10
4.1692188
20
60.6143312
11
4.4883188
21
60.6143312
0
LINE
8
DEFAULT_255_2_778
10
4.4883188
20
60.6143312
11
4.4883188
21
59.9851312
0
LINE
8
DEFAULT_255_2_778
10
4.4883188
20
59.9851312
11
4.4666188
21
59.9724312
0
LINE
8
DEFAULT_255_2_778
10
2.1967188
20
61.1823312
11
2.2869188
21
61.1823312
0
LINE
8
DEFAULT_255_2_778
10
2.2869188
20
61.1823312
11
2.2869188
21
59.8859312
0
LINE
8
DEFAULT_255_2_778
10
2.2869188
20
59.8859312
11
2.1967188
21
59.8859312
0
LINE
8
DEFAULT_255_2_778
10
2.1967188
20
59.8859312
11
2.1967188
21
61.1823312
0
LINE
8
DEFAULT_255_2_778
10
1.4159188
20
61.0976312
11
1.2736188
21
61.0976312
0
LINE
8
DEFAULT_255_2_778
10
1.2736188
20
61.0976312
11
1.2736188
21
59.9798312
0
LINE
8
DEFAULT_255_2_778
10
1.2736188
20
59.9798312
11
1.5252188
21
59.9901312
0
LINE
8
DEFAULT_255_2_778
10
1.5252188
20
59.9901312
11
1.6747188
21
60.0414312
0
LINE
8
DEFAULT_255_2_778
10
1.6747188
20
60.0414312
11
1.7461188
21
60.1182312
0
LINE
8
DEFAULT_255_2_778
10
1.7461188
20
60.1182312
11
1.7713188
21
60.1650312
0
LINE
8
DEFAULT_255_2_778
10
1.7713188
20
60.1650312
11
1.7940188
21
60.2250312
0
LINE
8
DEFAULT_255_2_778
10
1.7940188
20
60.2250312
11
1.8107188
21
60.2864312
0
LINE
8
DEFAULT_255_2_778
10
1.8107188
20
60.2864312
11
1.8191188
21
60.3277312
0
LINE
8
DEFAULT_255_2_778
10
1.8191188
20
60.3277312
11
1.8255188
21
60.3695312
0
LINE
8
DEFAULT_255_2_778
10
1.8255188
20
60.3695312
11
1.8300188
21
60.4116312
0
LINE
8
DEFAULT_255_2_778
10
1.8300188
20
60.4116312
11
1.8287188
21
60.6656312
0
LINE
8
DEFAULT_255_2_778
10
1.8287188
20
60.6656312
11
1.8247188
21
60.7079312
0
LINE
8
DEFAULT_255_2_778
10
1.8247188
20
60.7079312
11
1.8189188
21
60.7500312
0
LINE
8
DEFAULT_255_2_778
10
1.8189188
20
60.7500312
11
1.8109188
21
60.7918312
0
LINE
8
DEFAULT_255_2_778
10
1.8109188
20
60.7918312
11
1.8004188
21
60.8331312
0
LINE
8
DEFAULT_255_2_778
10
1.8004188
20
60.8331312
11
1.7789188
21
60.8934312
0
LINE
8
DEFAULT_255_2_778
10
1.7789188
20
60.8934312
11
1.7257188
21
60.9855312
0
LINE
8
DEFAULT_255_2_778
10
1.7257188
20
60.9855312
11
1.6450188
21
61.0543312
0
LINE
8
DEFAULT_255_2_778
10
1.6450188
20
61.0543312
11
1.5448188
21
61.0884312
0
LINE
8
DEFAULT_255_2_778
10
1.5448188
20
61.0884312
11
1.4159188
21
61.0976312
0
LINE
8
DEFAULT_255_2_778
10
1.3799188
20
61.1913312
11
1.1815188
21
61.1895312
0
LINE
8
DEFAULT_255_2_778
10
1.1815188
20
61.1895312
11
1.1815188
21
59.8948312
0
LINE
8
DEFAULT_255_2_778
10
1.1815188
20
59.8948312
11
1.4654188
21
59.8896312
0
LINE
8
DEFAULT_255_2_778
10
1.4654188
20
59.8896312
11
1.6850188
21
59.9419312
0
LINE
8
DEFAULT_255_2_778
10
1.6850188
20
59.9419312
11
1.7720188
21
60.0049312
0
LINE
8
DEFAULT_255_2_778
10
1.7720188
20
60.0049312
11
1.8160188
21
60.0621312
0
LINE
8
DEFAULT_255_2_778
10
1.8160188
20
60.0621312
11
1.8504188
21
60.1250312
0
LINE
8
DEFAULT_255_2_778
10
1.8504188
20
60.1250312
11
1.8766188
21
60.1917312
0
LINE
8
DEFAULT_255_2_778
10
1.8766188
20
60.1917312
11
1.8961188
21
60.2605312
0
LINE
8
DEFAULT_255_2_778
10
1.8961188
20
60.2605312
11
1.9059188
21
60.3071312
0
LINE
8
DEFAULT_255_2_778
10
1.9059188
20
60.3071312
11
1.9136188
21
60.3542312
0
LINE
8
DEFAULT_255_2_778
10
1.9136188
20
60.3542312
11
1.9192188
21
60.4015312
0
LINE
8
DEFAULT_255_2_778
10
1.9192188
20
60.4015312
11
1.9178188
21
60.6878312
0
LINE
8
DEFAULT_255_2_778
10
1.9178188
20
60.6878312
11
1.9125188
21
60.7352312
0
LINE
8
DEFAULT_255_2_778
10
1.9125188
20
60.7352312
11
1.9051188
21
60.7825312
0
LINE
8
DEFAULT_255_2_778
10
1.9051188
20
60.7825312
11
1.8953188
21
60.8296312
0
LINE
8
DEFAULT_255_2_778
10
1.8953188
20
60.8296312
11
1.8826188
21
60.8759312
0
LINE
8
DEFAULT_255_2_778
10
1.8826188
20
60.8759312
11
1.8665188
21
60.9212312
0
LINE
8
DEFAULT_255_2_778
10
1.8665188
20
60.9212312
11
1.8160188
21
61.0164312
0
LINE
8
DEFAULT_255_2_778
10
1.8160188
20
61.0164312
11
1.7347188
21
61.1043312
0
LINE
8
DEFAULT_255_2_778
10
1.7347188
20
61.1043312
11
1.5950188
21
61.1715312
0
LINE
8
DEFAULT_255_2_778
10
1.5950188
20
61.1715312
11
1.3799188
21
61.1913312
0
LINE
8
DEFAULT_255_2_778
10
2.8079386
20
60.3202729
11
3.3037386
21
60.3202729
0
LINE
8
DEFAULT_255_2_778
10
3.3037386
20
60.3202729
11
3.0603386
21
61.0721729
0
LINE
8
DEFAULT_255_2_778
10
3.0603386
20
61.0721729
11
2.8079386
21
60.3202729
0
LINE
8
DEFAULT_255_2_778
10
3.0026386
20
61.1875729
11
3.1180386
21
61.1875729
0
LINE
8
DEFAULT_255_2_778
10
3.1180386
20
61.1875729
11
3.5381386
21
59.9056729
0
LINE
8
DEFAULT_255_2_778
10
3.5381386
20
59.9056729
11
3.4498386
21
59.8768729
0
LINE
8
DEFAULT_255_2_778
10
3.4498386
20
59.8768729
11
3.3344386
21
60.2284729
0
LINE
8
DEFAULT_255_2_778
10
3.3344386
20
60.2284729
11
2.7772386
21
60.2284729
0
LINE
8
DEFAULT_255_2_778
10
2.7772386
20
60.2284729
11
2.6581386
21
59.8768729
0
LINE
8
DEFAULT_255_2_778
10
2.6581386
20
59.8768729
11
2.5716386
21
59.9056729
0
LINE
8
DEFAULT_255_2_778
10
2.5716386
20
59.9056729
11
3.0026386
21
61.1875729
0
LINE
8
DEFAULT_255_2_778
10
3.6963344
20
24.8325552
11
3.7812344
21
24.8325552
0
LINE
8
DEFAULT_255_2_778
10
3.7812344
20
24.8325552
11
3.7812344
21
23.6358552
0
LINE
8
DEFAULT_255_2_778
10
3.7812344
20
23.6358552
11
3.6963344
21
23.6358552
0
LINE
8
DEFAULT_255_2_778
10
3.6963344
20
23.6358552
11
3.6963344
21
24.8325552
0
LINE
8
DEFAULT_255_2_778
10
2.8041875
20
24.0369021
11
3.2716875
21
24.0369021
0
LINE
8
DEFAULT_255_2_778
10
3.2716875
20
24.0369021
11
3.0422875
21
24.7309021
0
LINE
8
DEFAULT_255_2_778
10
3.0422875
20
24.7309021
11
2.8041875
21
24.0369021
0
LINE
8
DEFAULT_255_2_778
10
2.9877875
20
24.8375021
11
3.0964875
21
24.8375021
0
LINE
8
DEFAULT_255_2_778
10
3.0964875
20
24.8375021
11
3.4925875
21
23.6540021
0
LINE
8
DEFAULT_255_2_778
10
3.4925875
20
23.6540021
11
3.4092875
21
23.6273021
0
LINE
8
DEFAULT_255_2_778
10
3.4092875
20
23.6273021
11
3.3004875
21
23.9519021
0
LINE
8
DEFAULT_255_2_778
10
3.3004875
20
23.9519021
11
2.7750875
21
23.9519021
0
LINE
8
DEFAULT_255_2_778
10
2.7750875
20
23.9519021
11
2.6628875
21
23.6273021
0
LINE
8
DEFAULT_255_2_778
10
2.6628875
20
23.6273021
11
2.5813875
21
23.6540021
0
LINE
8
DEFAULT_255_2_778
10
2.5813875
20
23.6540021
11
2.9877875
21
24.8375021
0
LINE
8
DEFAULT_255_2_778
10
5.1814417
20
23.8593489
11
5.2663417
21
23.8593489
0
LINE
8
DEFAULT_255_2_778
10
5.2663417
20
23.8593489
11
5.2663417
21
22.7459489
0
LINE
8
DEFAULT_255_2_778
10
5.2663417
20
22.7459489
11
5.7423417
21
22.7459489
0
LINE
8
DEFAULT_255_2_778
10
5.7423417
20
22.7459489
11
5.7423417
21
22.6610489
0
LINE
8
DEFAULT_255_2_778
10
5.7423417
20
22.6610489
11
5.1814417
21
22.6610489
0
LINE
8
DEFAULT_255_2_778
10
5.1814417
20
22.6610489
11
5.1814417
21
23.8593489
0
LINE
8
DEFAULT_255_2_778
10
6.2114604
20
23.8543614
11
6.3162604
21
23.8543614
0
LINE
8
DEFAULT_255_2_778
10
6.3162604
20
23.8543614
11
6.3162604
21
22.6592614
0
LINE
8
DEFAULT_255_2_778
10
6.3162604
20
22.6592614
11
6.2328604
21
22.6592614
0
LINE
8
DEFAULT_255_2_778
10
6.2328604
20
22.6592614
11
6.2328604
21
23.7511614
0
LINE
8
DEFAULT_255_2_778
10
6.2328604
20
23.7511614
11
6.0148604
21
23.5580614
0
LINE
8
DEFAULT_255_2_778
10
6.0148604
20
23.5580614
11
6.0098604
21
23.6429614
0
LINE
8
DEFAULT_255_2_778
10
6.0098604
20
23.6429614
11
6.0045604
21
23.6426614
0
LINE
8
DEFAULT_255_2_778
10
6.0045604
20
23.6426614
11
6.1508604
21
23.7874614
0
LINE
8
DEFAULT_255_2_778
10
6.1508604
20
23.7874614
11
6.2111604
21
23.8543614
0
LINE
8
DEFAULT_255_2_778
10
3.6963344
20
20.9325552
11
3.7812344
21
20.9325552
0
LINE
8
DEFAULT_255_2_778
10
3.7812344
20
20.9325552
11
3.7812344
21
19.7358552
0
LINE
8
DEFAULT_255_2_778
10
3.7812344
20
19.7358552
11
3.6963344
21
19.7358552
0
LINE
8
DEFAULT_255_2_778
10
3.6963344
20
19.7358552
11
3.6963344
21
20.9325552
0
LINE
8
DEFAULT_255_2_778
10
2.8041875
20
20.1370021
11
3.2716875
21
20.1370021
0
LINE
8
DEFAULT_255_2_778
10
3.2716875
20
20.1370021
11
3.0422875
21
20.8310021
0
LINE
8
DEFAULT_255_2_778
10
3.0422875
20
20.8310021
11
2.8041875
21
20.1370021
0
LINE
8
DEFAULT_255_2_778
10
2.9877875
20
20.9376021
11
3.0964875
21
20.9376021
0
LINE
8
DEFAULT_255_2_778
10
3.0964875
20
20.9376021
11
3.4925875
21
19.7541021
0
LINE
8
DEFAULT_255_2_778
10
3.4925875
20
19.7541021
11
3.4092875
21
19.7274021
0
LINE
8
DEFAULT_255_2_778
10
3.4092875
20
19.7274021
11
3.3004875
21
20.0520021
0
LINE
8
DEFAULT_255_2_778
10
3.3004875
20
20.0520021
11
2.7750875
21
20.0520021
0
LINE
8
DEFAULT_255_2_778
10
2.7750875
20
20.0520021
11
2.6628875
21
19.7274021
0
LINE
8
DEFAULT_255_2_778
10
2.6628875
20
19.7274021
11
2.5813875
21
19.7541021
0
LINE
8
DEFAULT_255_2_778
10
2.5813875
20
19.7541021
11
2.9877875
21
20.9376021
0
LINE
8
DEFAULT_255_2_778
10
5.1814417
20
19.9594489
11
5.2663417
21
19.9594489
0
LINE
8
DEFAULT_255_2_778
10
5.2663417
20
19.9594489
11
5.2663417
21
18.8460489
0
LINE
8
DEFAULT_255_2_778
10
5.2663417
20
18.8460489
11
5.7423417
21
18.8460489
0
LINE
8
DEFAULT_255_2_778
10
5.7423417
20
18.8460489
11
5.7423417
21
18.7611489
0
LINE
8
DEFAULT_255_2_778
10
5.7423417
20
18.7611489
11
5.1814417
21
18.7611489
0
LINE
8
DEFAULT_255_2_778
10
5.1814417
20
18.7611489
11
5.1814417
21
19.9594489
0
LINE
8
DEFAULT_255_2_778
10
5.9222833
20
18.8441885
11
6.4781833
21
18.8441885
0
LINE
8
DEFAULT_255_2_778
10
6.4781833
20
18.8441885
11
6.4781833
21
18.7607885
0
LINE
8
DEFAULT_255_2_778
10
6.4781833
20
18.7607885
11
5.8389833
21
18.7607885
0
LINE
8
DEFAULT_255_2_778
10
5.8389833
20
18.7607885
11
5.8389833
21
18.9139885
0
LINE
8
DEFAULT_255_2_778
10
5.8389833
20
18.9139885
11
6.2376833
21
19.3981885
0
LINE
8
DEFAULT_255_2_778
10
6.2376833
20
19.3981885
11
6.3104833
21
19.5209885
0
LINE
8
DEFAULT_255_2_778
10
6.3104833
20
19.5209885
11
6.3316833
21
19.5830885
0
LINE
8
DEFAULT_255_2_778
10
6.3316833
20
19.5830885
11
6.3398833
21
19.6262885
0
LINE
8
DEFAULT_255_2_778
10
6.3398833
20
19.6262885
11
6.3382833
21
19.7354885
0
LINE
8
DEFAULT_255_2_778
10
6.3382833
20
19.7354885
11
6.3297833
21
19.7675885
0
LINE
8
DEFAULT_255_2_778
10
6.3297833
20
19.7675885
11
6.3104833
21
19.8069885
0
LINE
8
DEFAULT_255_2_778
10
6.3104833
20
19.8069885
11
6.2728833
21
19.8468885
0
LINE
8
DEFAULT_255_2_778
10
6.2728833
20
19.8468885
11
6.1699833
21
19.8828885
0
LINE
8
DEFAULT_255_2_778
10
6.1699833
20
19.8828885
11
6.0611833
21
19.8704885
0
LINE
8
DEFAULT_255_2_778
10
6.0611833
20
19.8704885
11
5.9969833
21
19.8283885
0
LINE
8
DEFAULT_255_2_778
10
5.9969833
20
19.8283885
11
5.9635833
21
19.7841885
0
LINE
8
DEFAULT_255_2_778
10
5.9635833
20
19.7841885
11
5.9585833
21
19.7741885
0
LINE
8
DEFAULT_255_2_778
10
5.9585833
20
19.7741885
11
5.8836833
21
19.8124885
0
LINE
8
DEFAULT_255_2_778
10
5.8836833
20
19.8124885
11
5.9143833
21
19.8635885
0
LINE
8
DEFAULT_255_2_778
10
5.9143833
20
19.8635885
11
5.9670833
21
19.9151885
0
LINE
8
DEFAULT_255_2_778
10
5.9670833
20
19.9151885
11
6.0455833
21
19.9545885
0
LINE
8
DEFAULT_255_2_778
10
6.0455833
20
19.9545885
11
6.1773833
21
19.9659885
0
LINE
8
DEFAULT_255_2_778
10
6.1773833
20
19.9659885
11
6.2911833
21
19.9334885
0
LINE
8
DEFAULT_255_2_778
10
6.2911833
20
19.9334885
11
6.3509833
21
19.8902885
0
LINE
8
DEFAULT_255_2_778
10
6.3509833
20
19.8902885
11
6.3871833
21
19.8437885
0
LINE
8
DEFAULT_255_2_778
10
6.3871833
20
19.8437885
11
6.4067833
21
19.8037885
0
LINE
8
DEFAULT_255_2_778
10
6.4067833
20
19.8037885
11
6.4194833
21
19.7611885
0
LINE
8
DEFAULT_255_2_778
10
6.4194833
20
19.7611885
11
6.4247833
21
19.7320885
0
LINE
8
DEFAULT_255_2_778
10
6.4247833
20
19.7320885
11
6.4239833
21
19.6140885
0
LINE
8
DEFAULT_255_2_778
10
6.4239833
20
19.6140885
11
6.4160833
21
19.5706885
0
LINE
8
DEFAULT_255_2_778
10
6.4160833
20
19.5706885
11
6.3985833
21
19.5145885
0
LINE
8
DEFAULT_255_2_778
10
6.3985833
20
19.5145885
11
6.3453833
21
19.4095885
0
LINE
8
DEFAULT_255_2_778
10
6.3453833
20
19.4095885
11
6.0744833
21
19.0623885
0
LINE
8
DEFAULT_255_2_778
10
6.0744833
20
19.0623885
11
5.9220833
21
18.8832885
0
LINE
8
DEFAULT_255_2_778
10
5.9220833
20
18.8832885
11
5.9220833
21
18.8433885
0
LINE
8
DEFAULT_255_2_778
10
3.6963344
20
17.0325552
11
3.7812344
21
17.0325552
0
LINE
8
DEFAULT_255_2_778
10
3.7812344
20
17.0325552
11
3.7812344
21
15.8358552
0
LINE
8
DEFAULT_255_2_778
10
3.7812344
20
15.8358552
11
3.6963344
21
15.8358552
0
LINE
8
DEFAULT_255_2_778
10
3.6963344
20
15.8358552
11
3.6963344
21
17.0325552
0
LINE
8
DEFAULT_255_2_778
10
2.8041875
20
16.2370021
11
3.2716875
21
16.2370021
0
LINE
8
DEFAULT_255_2_778
10
3.2716875
20
16.2370021
11
3.0422875
21
16.9310021
0
LINE
8
DEFAULT_255_2_778
10
3.0422875
20
16.9310021
11
2.8041875
21
16.2370021
0
LINE
8
DEFAULT_255_2_778
10
2.9877875
20
17.0376021
11
3.0964875
21
17.0376021
0
LINE
8
DEFAULT_255_2_778
10
3.0964875
20
17.0376021
11
3.4925875
21
15.8541021
0
LINE
8
DEFAULT_255_2_778
10
3.4925875
20
15.8541021
11
3.4092875
21
15.8274021
0
LINE
8
DEFAULT_255_2_778
10
3.4092875
20
15.8274021
11
3.3004875
21
16.1520021
0
LINE
8
DEFAULT_255_2_778
10
3.3004875
20
16.1520021
11
2.7750875
21
16.1520021
0
LINE
8
DEFAULT_255_2_778
10
2.7750875
20
16.1520021
11
2.6628875
21
15.8274021
0
LINE
8
DEFAULT_255_2_778
10
2.6628875
20
15.8274021
11
2.5813875
21
15.8541021
0
LINE
8
DEFAULT_255_2_778
10
2.5813875
20
15.8541021
11
2.9877875
21
17.0376021
0
LINE
8
DEFAULT_255_2_778
10
6.2731302
20
15.4834437
11
6.3916302
21
15.4016437
0
LINE
8
DEFAULT_255_2_778
10
6.3916302
20
15.4016437
11
6.4305302
21
15.3416437
0
LINE
8
DEFAULT_255_2_778
10
6.4305302
20
15.3416437
11
6.4440302
21
15.3024437
0
LINE
8
DEFAULT_255_2_778
10
6.4440302
20
15.3024437
11
6.4498302
21
15.2720437
0
LINE
8
DEFAULT_255_2_778
10
6.4498302
20
15.2720437
11
6.4485302
21
15.1490437
0
LINE
8
DEFAULT_255_2_778
10
6.4485302
20
15.1490437
11
6.4398302
21
15.0984437
0
LINE
8
DEFAULT_255_2_778
10
6.4398302
20
15.0984437
11
6.4221302
21
15.0394437
0
LINE
8
DEFAULT_255_2_778
10
6.4221302
20
15.0394437
11
6.3829302
21
14.9672437
0
LINE
8
DEFAULT_255_2_778
10
6.3829302
20
14.9672437
11
6.2988302
21
14.8926437
0
LINE
8
DEFAULT_255_2_778
10
6.2988302
20
14.8926437
11
6.1001302
21
14.8534437
0
LINE
8
DEFAULT_255_2_778
10
6.1001302
20
14.8534437
11
5.9725302
21
14.8886437
0
LINE
8
DEFAULT_255_2_778
10
5.9725302
20
14.8886437
11
5.9056302
21
14.9503437
0
LINE
8
DEFAULT_255_2_778
10
5.9056302
20
14.9503437
11
5.8752302
21
15.0042437
0
LINE
8
DEFAULT_255_2_778
10
5.8752302
20
15.0042437
11
5.9516302
21
15.0392437
0
LINE
8
DEFAULT_255_2_778
10
5.9516302
20
15.0392437
11
5.9889302
21
14.9833437
0
LINE
8
DEFAULT_255_2_778
10
5.9889302
20
14.9833437
11
6.0950302
21
14.9386437
0
LINE
8
DEFAULT_255_2_778
10
6.0950302
20
14.9386437
11
6.2514302
21
14.9637437
0
LINE
8
DEFAULT_255_2_778
10
6.2514302
20
14.9637437
11
6.3191302
21
15.0254437
0
LINE
8
DEFAULT_255_2_778
10
6.3191302
20
15.0254437
11
6.3501302
21
15.0947437
0
LINE
8
DEFAULT_255_2_778
10
6.3501302
20
15.0947437
11
6.3625302
21
15.1524437
0
LINE
8
DEFAULT_255_2_778
10
6.3625302
20
15.1524437
11
6.3615302
21
15.2786437
0
LINE
8
DEFAULT_255_2_778
10
6.3615302
20
15.2786437
11
6.3469302
21
15.3178437
0
LINE
8
DEFAULT_255_2_778
10
6.3469302
20
15.3178437
11
6.2773302
21
15.3897437
0
LINE
8
DEFAULT_255_2_778
10
6.2773302
20
15.3897437
11
6.1511302
21
15.4358437
0
LINE
8
DEFAULT_255_2_778
10
6.1511302
20
15.4358437
11
6.1345302
21
15.4387437
0
LINE
8
DEFAULT_255_2_778
10
6.1345302
20
15.4387437
11
6.1294302
21
15.5220437
0
LINE
8
DEFAULT_255_2_778
10
6.1294302
20
15.5220437
11
6.2982302
21
15.5948437
0
LINE
8
DEFAULT_255_2_778
10
6.2982302
20
15.5948437
11
6.3387302
21
15.6440437
0
LINE
8
DEFAULT_255_2_778
10
6.3387302
20
15.6440437
11
6.3519302
21
15.6816437
0
LINE
8
DEFAULT_255_2_778
10
6.3519302
20
15.6816437
11
6.3506302
21
15.8181437
0
LINE
8
DEFAULT_255_2_778
10
6.3506302
20
15.8181437
11
6.3340302
21
15.8721437
0
LINE
8
DEFAULT_255_2_778
10
6.3340302
20
15.8721437
11
6.2884302
21
15.9385437
0
LINE
8
DEFAULT_255_2_778
10
6.2884302
20
15.9385437
11
6.1466302
21
15.9882437
0
LINE
8
DEFAULT_255_2_778
10
6.1466302
20
15.9882437
11
6.0143302
21
15.9562437
0
LINE
8
DEFAULT_255_2_778
10
6.0143302
20
15.9562437
11
5.9551302
21
15.8906437
0
LINE
8
DEFAULT_255_2_778
10
5.9551302
20
15.8906437
11
5.9514302
21
15.8834437
0
LINE
8
DEFAULT_255_2_778
10
5.9514302
20
15.8834437
11
5.8749302
21
15.9218437
0
LINE
8
DEFAULT_255_2_778
10
5.8749302
20
15.9218437
11
5.9188302
21
15.9869437
0
LINE
8
DEFAULT_255_2_778
10
5.9188302
20
15.9869437
11
6.0262302
21
16.0544437
0
LINE
8
DEFAULT_255_2_778
10
6.0262302
20
16.0544437
11
6.2305302
21
16.0615437
0
LINE
8
DEFAULT_255_2_778
10
6.2305302
20
16.0615437
11
6.3432302
21
16.0041437
0
LINE
8
DEFAULT_255_2_778
10
6.3432302
20
16.0041437
11
6.3980302
21
15.9350437
0
LINE
8
DEFAULT_255_2_778
10
6.3980302
20
15.9350437
11
6.4242302
21
15.8715437
0
LINE
8
DEFAULT_255_2_778
10
6.4242302
20
15.8715437
11
6.4369302
21
15.8141437
0
LINE
8
DEFAULT_255_2_778
10
6.4369302
20
15.8141437
11
6.4414302
21
15.7750437
0
LINE
8
DEFAULT_255_2_778
10
6.4414302
20
15.7750437
11
6.4400302
21
15.6866437
0
LINE
8
DEFAULT_255_2_778
10
6.4400302
20
15.6866437
11
6.4345302
21
15.6575437
0
LINE
8
DEFAULT_255_2_778
10
6.4345302
20
15.6575437
11
6.4178302
21
15.6112437
0
LINE
8
DEFAULT_255_2_778
10
6.4178302
20
15.6112437
11
6.3713302
21
15.5485437
0
LINE
8
DEFAULT_255_2_778
10
6.3713302
20
15.5485437
11
6.2728302
21
15.4839437
0
LINE
8
DEFAULT_255_2_778
10
5.1814417
20
16.0591489
11
5.2663417
21
16.0591489
0
LINE
8
DEFAULT_255_2_778
10
5.2663417
20
16.0591489
11
5.2663417
21
14.9457489
0
LINE
8
DEFAULT_255_2_778
10
5.2663417
20
14.9457489
11
5.7423417
21
14.9457489
0
LINE
8
DEFAULT_255_2_778
10
5.7423417
20
14.9457489
11
5.7423417
21
14.8608489
0
LINE
8
DEFAULT_255_2_778
10
5.7423417
20
14.8608489
11
5.1814417
21
14.8608489
0
LINE
8
DEFAULT_255_2_778
10
5.1814417
20
14.8608489
11
5.1814417
21
16.0591489
0
LINE
8
DEFAULT_255_2_778
10
3.3168888
20
9.2207718
11
3.3983888
21
9.2406718
0
LINE
8
DEFAULT_255_2_778
10
3.3983888
20
9.2406718
11
3.6714888
21
8.1555718
0
LINE
8
DEFAULT_255_2_778
10
3.6714888
20
8.1555718
11
3.9410888
21
9.2358718
0
LINE
8
DEFAULT_255_2_778
10
3.9410888
20
9.2358718
11
4.0558888
21
9.2358718
0
LINE
8
DEFAULT_255_2_778
10
4.0558888
20
9.2358718
11
4.3254888
21
8.1523718
0
LINE
8
DEFAULT_255_2_778
10
4.3254888
20
8.1523718
11
4.6067888
21
9.2424718
0
LINE
8
DEFAULT_255_2_778
10
4.6067888
20
9.2424718
11
4.6882888
21
9.2207718
0
LINE
8
DEFAULT_255_2_778
10
4.6882888
20
9.2207718
11
4.3821888
21
8.0357718
0
LINE
8
DEFAULT_255_2_778
10
4.3821888
20
8.0357718
11
4.2672888
21
8.0357718
0
LINE
8
DEFAULT_255_2_778
10
4.2672888
20
8.0357718
11
3.9992888
21
9.1191718
0
LINE
8
DEFAULT_255_2_778
10
3.9992888
20
9.1191718
11
3.7280888
21
8.0357718
0
LINE
8
DEFAULT_255_2_778
10
3.7280888
20
8.0357718
11
3.6148888
21
8.0357718
0
LINE
8
DEFAULT_255_2_778
10
3.6148888
20
8.0357718
11
3.3168888
21
9.2207718
0
LINE
8
DEFAULT_255_2_778
10
2.8575888
20
9.1509718
11
2.6662888
21
9.1509718
0
LINE
8
DEFAULT_255_2_778
10
2.6662888
20
9.1509718
11
2.6662888
21
8.7098718
0
LINE
8
DEFAULT_255_2_778
10
2.6662888
20
8.7098718
11
3.0054888
21
8.7437718
0
LINE
8
DEFAULT_255_2_778
10
3.0054888
20
8.7437718
11
3.0848888
21
8.8204718
0
LINE
8
DEFAULT_255_2_778
10
3.0848888
20
8.8204718
11
3.1076888
21
8.8789718
0
LINE
8
DEFAULT_255_2_778
10
3.1076888
20
8.8789718
11
3.1060888
21
8.9760718
0
LINE
8
DEFAULT_255_2_778
10
3.1060888
20
8.9760718
11
3.0787888
21
9.0400718
0
LINE
8
DEFAULT_255_2_778
10
3.0787888
20
9.0400718
11
2.9676888
21
9.1310718
0
LINE
8
DEFAULT_255_2_778
10
2.9676888
20
9.1310718
11
2.8575888
21
9.1509718
0
LINE
8
DEFAULT_255_2_778
10
2.8575888
20
9.2358718
11
3.1248888
21
9.1220718
0
LINE
8
DEFAULT_255_2_778
10
3.1248888
20
9.1220718
11
3.1869888
21
9.0017718
0
LINE
8
DEFAULT_255_2_778
10
3.1869888
20
9.0017718
11
3.1962888
21
8.9477718
0
LINE
8
DEFAULT_255_2_778
10
3.1962888
20
8.9477718
11
3.1935888
21
8.8770718
0
LINE
8
DEFAULT_255_2_778
10
3.1935888
20
8.8770718
11
3.1676888
21
8.7940718
0
LINE
8
DEFAULT_255_2_778
10
3.1676888
20
8.7940718
11
2.9874888
21
8.6437718
0
LINE
8
DEFAULT_255_2_778
10
2.9874888
20
8.6437718
11
2.8575888
21
8.6252718
0
LINE
8
DEFAULT_255_2_778
10
2.8575888
20
8.6252718
11
2.6662888
21
8.6252718
0
LINE
8
DEFAULT_255_2_778
10
2.6662888
20
8.6252718
11
2.6662888
21
8.0359718
0
LINE
8
DEFAULT_255_2_778
10
2.6662888
20
8.0359718
11
2.5813888
21
8.0359718
0
LINE
8
DEFAULT_255_2_778
10
2.5813888
20
8.0359718
11
2.5813888
21
9.2358718
0
LINE
8
DEFAULT_255_2_778
10
2.5813888
20
9.2358718
11
2.8575888
21
9.2358718
0
LINE
8
DEFAULT_255_2_778
10
5.1493888
20
9.2358718
11
5.3107888
21
9.2027718
0
LINE
8
DEFAULT_255_2_778
10
5.3107888
20
9.2027718
11
5.4065888
21
9.1345718
0
LINE
8
DEFAULT_255_2_778
10
5.4065888
20
9.1345718
11
5.4544888
21
9.0667718
0
LINE
8
DEFAULT_255_2_778
10
5.4544888
20
9.0667718
11
5.4764888
21
9.0117718
0
LINE
8
DEFAULT_255_2_778
10
5.4764888
20
9.0117718
11
5.4843888
21
8.9771718
0
LINE
8
DEFAULT_255_2_778
10
5.4843888
20
8.9771718
11
5.4838888
21
8.8707718
0
LINE
8
DEFAULT_255_2_778
10
5.4838888
20
8.8707718
11
5.4753888
21
8.8363718
0
LINE
8
DEFAULT_255_2_778
10
5.4753888
20
8.8363718
11
5.4526888
21
8.7818718
0
LINE
8
DEFAULT_255_2_778
10
5.4526888
20
8.7818718
11
5.4026888
21
8.7162718
0
LINE
8
DEFAULT_255_2_778
10
5.4026888
20
8.7162718
11
5.3343888
21
8.6683718
0
LINE
8
DEFAULT_255_2_778
10
5.3343888
20
8.6683718
11
5.4589888
21
8.5111718
0
LINE
8
DEFAULT_255_2_778
10
5.4589888
20
8.5111718
11
5.4761888
21
8.4492718
0
LINE
8
DEFAULT_255_2_778
10
5.4761888
20
8.4492718
11
5.4827888
21
8.4069718
0
LINE
8
DEFAULT_255_2_778
10
5.4827888
20
8.4069718
11
5.4856888
21
8.3749718
0
LINE
8
DEFAULT_255_2_778
10
5.4856888
20
8.3749718
11
5.4880888
21
8.1706718
0
LINE
8
DEFAULT_255_2_778
10
5.4880888
20
8.1706718
11
5.5139888
21
8.0574718
0
LINE
8
DEFAULT_255_2_778
10
5.5139888
20
8.0574718
11
5.4356888
21
8.0275718
0
LINE
8
DEFAULT_255_2_778
10
5.4356888
20
8.0275718
11
5.4084888
21
8.1328718
0
LINE
8
DEFAULT_255_2_778
10
5.4084888
20
8.1328718
11
5.4031888
21
8.1801718
0
LINE
8
DEFAULT_255_2_778
10
5.4031888
20
8.1801718
11
5.4007888
21
8.3923718
0
LINE
8
DEFAULT_255_2_778
10
5.4007888
20
8.3923718
11
5.3930888
21
8.4407718
0
LINE
8
DEFAULT_255_2_778
10
5.3930888
20
8.4407718
11
5.3727888
21
8.5029718
0
LINE
8
DEFAULT_255_2_778
10
5.3727888
20
8.5029718
11
5.2636888
21
8.6082718
0
LINE
8
DEFAULT_255_2_778
10
5.2636888
20
8.6082718
11
5.1594888
21
8.6267718
0
LINE
8
DEFAULT_255_2_778
10
5.1594888
20
8.6267718
11
4.9581888
21
8.6267718
0
LINE
8
DEFAULT_255_2_778
10
4.9581888
20
8.6267718
11
4.9581888
21
8.0359718
0
LINE
8
DEFAULT_255_2_778
10
4.9581888
20
8.0359718
11
4.8731888
21
8.0359718
0
LINE
8
DEFAULT_255_2_778
10
4.8731888
20
8.0359718
11
4.8731888
21
9.2358718
0
LINE
8
DEFAULT_255_2_778
10
4.8731888
20
9.2358718
11
5.1493888
21
9.2358718
0
LINE
8
DEFAULT_255_2_778
10
5.1493888
20
9.1509718
11
4.9581888
21
9.1509718
0
LINE
8
DEFAULT_255_2_778
10
4.9581888
20
9.1509718
11
4.9581888
21
8.7114718
0
LINE
8
DEFAULT_255_2_778
10
4.9581888
20
8.7114718
11
5.2959888
21
8.7416718
0
LINE
8
DEFAULT_255_2_778
10
5.2959888
20
8.7416718
11
5.3745888
21
8.8154718
0
LINE
8
DEFAULT_255_2_778
10
5.3745888
20
8.8154718
11
5.3975888
21
8.8725718
0
LINE
8
DEFAULT_255_2_778
10
5.3975888
20
8.8725718
11
5.4023888
21
8.8998718
0
LINE
8
DEFAULT_255_2_778
10
5.4023888
20
8.8998718
11
5.4004888
21
8.9617718
0
LINE
8
DEFAULT_255_2_778
10
5.4004888
20
8.9617718
11
5.3843888
21
9.0141718
0
LINE
8
DEFAULT_255_2_778
10
5.3843888
20
9.0141718
11
5.3168888
21
9.0988718
0
LINE
8
DEFAULT_255_2_778
10
5.3168888
20
9.0988718
11
5.1493888
21
9.1509718
0
LINE
8
DEFAULT_255_2_778
10
17.6268888
20
9.0279718
11
17.5453888
21
9.0080718
0
LINE
8
DEFAULT_255_2_778
10
17.5453888
20
9.0080718
11
17.5266888
21
9.0615718
0
LINE
8
DEFAULT_255_2_778
10
17.5266888
20
9.0615718
11
17.4877888
21
9.1120718
0
LINE
8
DEFAULT_255_2_778
10
17.4877888
20
9.1120718
11
17.3279888
21
9.1578718
0
LINE
8
DEFAULT_255_2_778
10
17.3279888
20
9.1578718
11
17.1477888
21
9.1231718
0
LINE
8
DEFAULT_255_2_778
10
17.1477888
20
9.1231718
11
17.0852888
21
9.0615718
0
LINE
8
DEFAULT_255_2_778
10
17.0852888
20
9.0615718
11
17.0514888
21
8.9797718
0
LINE
8
DEFAULT_255_2_778
10
17.0514888
20
8.9797718
11
17.0405888
21
8.9247718
0
LINE
8
DEFAULT_255_2_778
10
17.0405888
20
8.9247718
11
17.0413888
21
8.3619718
0
LINE
8
DEFAULT_255_2_778
10
17.0413888
20
8.3619718
11
17.0537888
21
8.2965718
0
LINE
8
DEFAULT_255_2_778
10
17.0537888
20
8.2965718
11
17.0828888
21
8.2185718
0
LINE
8
DEFAULT_255_2_778
10
17.0828888
20
8.2185718
11
17.1342888
21
8.1534718
0
LINE
8
DEFAULT_255_2_778
10
17.1342888
20
8.1534718
11
17.2585888
21
8.1124718
0
LINE
8
DEFAULT_255_2_778
10
17.2585888
20
8.1124718
11
17.4400888
21
8.1312718
0
LINE
8
DEFAULT_255_2_778
10
17.4400888
20
8.1312718
11
17.5168888
21
8.1942718
0
LINE
8
DEFAULT_255_2_778
10
17.5168888
20
8.1942718
11
17.5469888
21
8.2539718
0
LINE
8
DEFAULT_255_2_778
10
17.5469888
20
8.2539718
11
17.6252888
21
8.2256718
0
LINE
8
DEFAULT_255_2_778
10
17.6252888
20
8.2256718
11
17.6120888
21
8.1899718
0
LINE
8
DEFAULT_255_2_778
10
17.6120888
20
8.1899718
11
17.5789888
21
8.1367718
0
LINE
8
DEFAULT_255_2_778
10
17.5789888
20
8.1367718
11
17.5027888
21
8.0711718
0
LINE
8
DEFAULT_255_2_778
10
17.5027888
20
8.0711718
11
17.3585888
21
8.0291718
0
LINE
8
DEFAULT_255_2_778
10
17.3585888
20
8.0291718
11
17.1704888
21
8.0431718
0
LINE
8
DEFAULT_255_2_778
10
17.1704888
20
8.0431718
11
17.0522888
21
8.1137718
0
LINE
8
DEFAULT_255_2_778
10
17.0522888
20
8.1137718
11
17.0093888
21
8.1756718
0
LINE
8
DEFAULT_255_2_778
10
17.0093888
20
8.1756718
11
16.9807888
21
8.2460718
0
LINE
8
DEFAULT_255_2_778
10
16.9807888
20
8.2460718
11
16.9651888
21
8.3069718
0
LINE
8
DEFAULT_255_2_778
10
16.9651888
20
8.3069718
11
16.9569888
21
8.3566718
0
LINE
8
DEFAULT_255_2_778
10
16.9569888
20
8.3566718
11
16.9585888
21
8.9477718
0
LINE
8
DEFAULT_255_2_778
10
16.9585888
20
8.9477718
11
16.9685888
21
8.9961718
0
LINE
8
DEFAULT_255_2_778
10
16.9685888
20
8.9961718
11
16.9879888
21
9.0546718
0
LINE
8
DEFAULT_255_2_778
10
16.9879888
20
9.0546718
11
17.0236888
21
9.1194718
0
LINE
8
DEFAULT_255_2_778
10
17.0236888
20
9.1194718
11
17.0847888
21
9.1803718
0
LINE
8
DEFAULT_255_2_778
10
17.0847888
20
9.1803718
11
17.2345888
21
9.2366718
0
LINE
8
DEFAULT_255_2_778
10
17.2345888
20
9.2366718
11
17.4308888
21
9.2316718
0
LINE
8
DEFAULT_255_2_778
10
17.4308888
20
9.2316718
11
17.5321888
21
9.1840718
0
LINE
8
DEFAULT_255_2_778
10
17.5321888
20
9.1840718
11
17.5848888
21
9.1308718
0
LINE
8
DEFAULT_255_2_778
10
17.5848888
20
9.1308718
11
17.6221888
21
9.0527718
0
LINE
8
DEFAULT_255_2_778
10
17.6221888
20
9.0527718
11
17.6268888
21
9.0281718
0
LINE
8
DEFAULT_255_2_778
10
16.1856888
20
8.4952718
11
16.1878888
21
8.4116718
0
LINE
8
DEFAULT_255_2_778
10
16.1878888
20
8.4116718
11
16.1904888
21
8.3783718
0
LINE
8
DEFAULT_255_2_778
10
16.1904888
20
8.3783718
11
16.1946888
21
8.3452718
0
LINE
8
DEFAULT_255_2_778
10
16.1946888
20
8.3452718
11
16.2116888
21
8.2725718
0
LINE
8
DEFAULT_255_2_778
10
16.2116888
20
8.2725718
11
16.2465888
21
8.1968718
0
LINE
8
DEFAULT_255_2_778
10
16.2465888
20
8.1968718
11
16.3129888
21
8.1346718
0
LINE
8
DEFAULT_255_2_778
10
16.3129888
20
8.1346718
11
16.4095888
21
8.1124718
0
LINE
8
DEFAULT_255_2_778
10
16.4095888
20
8.1124718
11
16.5910888
21
8.1312718
0
LINE
8
DEFAULT_255_2_778
10
16.5910888
20
8.1312718
11
16.6677888
21
8.1942718
0
LINE
8
DEFAULT_255_2_778
10
16.6677888
20
8.1942718
11
16.6979888
21
8.2539718
0
LINE
8
DEFAULT_255_2_778
10
16.6979888
20
8.2539718
11
16.7762888
21
8.2256718
0
LINE
8
DEFAULT_255_2_778
10
16.7762888
20
8.2256718
11
16.7630888
21
8.1899718
0
LINE
8
DEFAULT_255_2_778
10
16.7630888
20
8.1899718
11
16.7299888
21
8.1367718
0
LINE
8
DEFAULT_255_2_778
10
16.7299888
20
8.1367718
11
16.6537888
21
8.0711718
0
LINE
8
DEFAULT_255_2_778
10
16.6537888
20
8.0711718
11
16.5095888
21
8.0291718
0
LINE
8
DEFAULT_255_2_778
10
16.5095888
20
8.0291718
11
16.3214888
21
8.0431718
0
LINE
8
DEFAULT_255_2_778
10
16.3214888
20
8.0431718
11
16.2031888
21
8.1137718
0
LINE
8
DEFAULT_255_2_778
10
16.2031888
20
8.1137718
11
16.1602888
21
8.1756718
0
LINE
8
DEFAULT_255_2_778
10
16.1602888
20
8.1756718
11
16.1317888
21
8.2460718
0
LINE
8
DEFAULT_255_2_778
10
16.1317888
20
8.2460718
11
16.1161888
21
8.3069718
0
LINE
8
DEFAULT_255_2_778
10
16.1161888
20
8.3069718
11
16.1079888
21
8.3566718
0
LINE
8
DEFAULT_255_2_778
10
16.1079888
20
8.3566718
11
16.1094888
21
8.9477718
0
LINE
8
DEFAULT_255_2_778
10
16.1094888
20
8.9477718
11
16.1195888
21
8.9961718
0
LINE
8
DEFAULT_255_2_778
10
16.1195888
20
8.9961718
11
16.1388888
21
9.0546718
0
LINE
8
DEFAULT_255_2_778
10
16.1388888
20
9.0546718
11
16.1745888
21
9.1194718
0
LINE
8
DEFAULT_255_2_778
10
16.1745888
20
9.1194718
11
16.2357888
21
9.1803718
0
LINE
8
DEFAULT_255_2_778
10
16.2357888
20
9.1803718
11
16.3854888
21
9.2366718
0
LINE
8
DEFAULT_255_2_778
10
16.3854888
20
9.2366718
11
16.5817888
21
9.2316718
0
LINE
8
DEFAULT_255_2_778
10
16.5817888
20
9.2316718
11
16.6831888
21
9.1840718
0
LINE
8
DEFAULT_255_2_778
10
16.6831888
20
9.1840718
11
16.7357888
21
9.1308718
0
LINE
8
DEFAULT_255_2_778
10
16.7357888
20
9.1308718
11
16.7730888
21
9.0527718
0
LINE
8
DEFAULT_255_2_778
10
16.7730888
20
9.0527718
11
16.7778888
21
9.0281718
0
LINE
8
DEFAULT_255_2_778
10
16.7778888
20
9.0281718
11
16.6963888
21
9.0083718
0
LINE
8
DEFAULT_255_2_778
10
16.6963888
20
9.0083718
11
16.6775888
21
9.0617718
0
LINE
8
DEFAULT_255_2_778
10
16.6775888
20
9.0617718
11
16.6386888
21
9.1123718
0
LINE
8
DEFAULT_255_2_778
10
16.6386888
20
9.1123718
11
16.4788888
21
9.1580718
0
LINE
8
DEFAULT_255_2_778
10
16.4788888
20
9.1580718
11
16.2986888
21
9.1234718
0
LINE
8
DEFAULT_255_2_778
10
16.2986888
20
9.1234718
11
16.2362888
21
9.0617718
0
LINE
8
DEFAULT_255_2_778
10
16.2362888
20
9.0617718
11
16.2023888
21
8.9800718
0
LINE
8
DEFAULT_255_2_778
10
16.2023888
20
8.9800718
11
16.1915888
21
8.9249718
0
LINE
8
DEFAULT_255_2_778
10
16.1915888
20
8.9249718
11
16.1880888
21
8.8929718
0
LINE
8
DEFAULT_255_2_778
10
16.1880888
20
8.8929718
11
16.1856888
21
8.8445718
0
LINE
8
DEFAULT_255_2_778
10
16.1856888
20
8.8445718
11
16.1854888
21
8.8122718
0
LINE
8
DEFAULT_255_2_778
10
16.1854888
20
8.8122718
11
16.1856888
21
8.4952718
0
LINE
8
DEFAULT_255_2_778
10
18.1094888
20
8.7151718
11
17.9753888
21
8.6752718
0
LINE
8
DEFAULT_255_2_778
10
17.9753888
20
8.6752718
11
17.8848888
21
8.5614718
0
LINE
8
DEFAULT_255_2_778
10
17.8848888
20
8.5614718
11
17.8620888
21
8.4960718
0
LINE
8
DEFAULT_255_2_778
10
17.8620888
20
8.4960718
11
17.8578888
21
8.4733718
0
LINE
8
DEFAULT_255_2_778
10
17.8578888
20
8.4733718
11
17.8586888
21
8.3201718
0
LINE
8
DEFAULT_255_2_778
10
17.8586888
20
8.3201718
11
17.8845888
21
8.2471718
0
LINE
8
DEFAULT_255_2_778
10
17.8845888
20
8.2471718
11
17.9629888
21
8.1516718
0
LINE
8
DEFAULT_255_2_778
10
17.9629888
20
8.1516718
11
18.0864888
21
8.1108718
0
LINE
8
DEFAULT_255_2_778
10
18.0864888
20
8.1108718
11
18.1965888
21
8.1452718
0
LINE
8
DEFAULT_255_2_778
10
18.1965888
20
8.1452718
11
18.2597888
21
8.2235718
0
LINE
8
DEFAULT_255_2_778
10
18.2597888
20
8.2235718
11
18.2848888
21
8.2965718
0
LINE
8
DEFAULT_255_2_778
10
18.2848888
20
8.2965718
11
18.2915888
21
8.3349718
0
LINE
8
DEFAULT_255_2_778
10
18.2915888
20
8.3349718
11
18.2896888
21
8.5371718
0
LINE
8
DEFAULT_255_2_778
10
18.2896888
20
8.5371718
11
18.2711888
21
8.6043718
0
LINE
8
DEFAULT_255_2_778
10
18.2711888
20
8.6043718
11
18.2356888
21
8.6646718
0
LINE
8
DEFAULT_255_2_778
10
18.2356888
20
8.6646718
11
18.1486888
21
8.7125718
0
LINE
8
DEFAULT_255_2_778
10
18.1486888
20
8.7125718
11
18.1094888
21
8.7151718
0
LINE
8
DEFAULT_255_2_778
10
18.1060888
20
8.8000718
11
18.2280888
21
8.7744718
0
LINE
8
DEFAULT_255_2_778
10
18.2280888
20
8.7744718
11
18.2994888
21
8.7191718
0
LINE
8
DEFAULT_255_2_778
10
18.2994888
20
8.7191718
11
18.3417888
21
8.6519718
0
LINE
8
DEFAULT_255_2_778
10
18.3417888
20
8.6519718
11
18.3645888
21
8.5871718
0
LINE
8
DEFAULT_255_2_778
10
18.3645888
20
8.5871718
11
18.3737888
21
8.5426718
0
LINE
8
DEFAULT_255_2_778
10
18.3737888
20
8.5426718
11
18.3730888
21
8.2942718
0
LINE
8
DEFAULT_255_2_778
10
18.3730888
20
8.2942718
11
18.3605888
21
8.2391718
0
LINE
8
DEFAULT_255_2_778
10
18.3605888
20
8.2391718
11
18.3409888
21
8.1854718
0
LINE
8
DEFAULT_255_2_778
10
18.3409888
20
8.1854718
11
18.2981888
21
8.1180718
0
LINE
8
DEFAULT_255_2_778
10
18.2981888
20
8.1180718
11
18.2274888
21
8.0605718
0
LINE
8
DEFAULT_255_2_778
10
18.2274888
20
8.0605718
11
18.0607888
21
8.0264718
0
LINE
8
DEFAULT_255_2_778
10
18.0607888
20
8.0264718
11
17.9388888
21
8.0542718
0
LINE
8
DEFAULT_255_2_778
10
17.9388888
20
8.0542718
11
17.8570888
21
8.1158718
0
LINE
8
DEFAULT_255_2_778
10
17.8570888
20
8.1158718
11
17.8070888
21
8.1928718
0
LINE
8
DEFAULT_255_2_778
10
17.8070888
20
8.1928718
11
17.7898888
21
8.2354718
0
LINE
8
DEFAULT_255_2_778
10
17.7898888
20
8.2354718
11
17.7768888
21
8.2791718
0
LINE
8
DEFAULT_255_2_778
10
17.7768888
20
8.2791718
11
17.7668888
21
8.3235718
0
LINE
8
DEFAULT_255_2_778
10
17.7668888
20
8.3235718
11
17.7594888
21
8.3685718
0
LINE
8
DEFAULT_255_2_778
10
17.7594888
20
8.3685718
11
17.7541888
21
8.4138718
0
LINE
8
DEFAULT_255_2_778
10
17.7541888
20
8.4138718
11
17.7549888
21
8.8934718
0
LINE
8
DEFAULT_255_2_778
10
17.7549888
20
8.8934718
11
17.7602888
21
8.9387718
0
LINE
8
DEFAULT_255_2_778
10
17.7602888
20
8.9387718
11
17.7679888
21
8.9834718
0
LINE
8
DEFAULT_255_2_778
10
17.7679888
20
8.9834718
11
17.7787888
21
9.0276718
0
LINE
8
DEFAULT_255_2_778
10
17.7787888
20
9.0276718
11
17.8022888
21
9.0921718
0
LINE
8
DEFAULT_255_2_778
10
17.8022888
20
9.0921718
11
17.8380888
21
9.1506718
0
LINE
8
DEFAULT_255_2_778
10
17.8380888
20
9.1506718
11
17.9076888
21
9.2099718
0
LINE
8
DEFAULT_255_2_778
10
17.9076888
20
9.2099718
11
18.0637888
21
9.2464718
0
LINE
8
DEFAULT_255_2_778
10
18.0637888
20
9.2464718
11
18.1978888
21
9.2184718
0
LINE
8
DEFAULT_255_2_778
10
18.1978888
20
9.2184718
11
18.2901888
21
9.1504718
0
LINE
8
DEFAULT_255_2_778
10
18.2901888
20
9.1504718
11
18.3296888
21
9.0932718
0
LINE
8
DEFAULT_255_2_778
10
18.3296888
20
9.0932718
11
18.2531888
21
9.0533718
0
LINE
8
DEFAULT_255_2_778
10
18.2531888
20
9.0533718
11
18.2052888
21
9.1146718
0
LINE
8
DEFAULT_255_2_778
10
18.2052888
20
9.1146718
11
18.0769888
21
9.1625718
0
LINE
8
DEFAULT_255_2_778
10
18.0769888
20
9.1625718
11
17.9584888
21
9.1414718
0
LINE
8
DEFAULT_255_2_778
10
17.9584888
20
9.1414718
11
17.8954888
21
9.0826718
0
LINE
8
DEFAULT_255_2_778
10
17.8954888
20
9.0826718
11
17.8631888
21
9.0117718
0
LINE
8
DEFAULT_255_2_778
10
17.8631888
20
9.0117718
11
17.8507888
21
8.9612718
0
LINE
8
DEFAULT_255_2_778
10
17.8507888
20
8.9612718
11
17.8448888
21
8.9270718
0
LINE
8
DEFAULT_255_2_778
10
17.8448888
20
8.9270718
11
17.8409888
21
8.8927718
0
LINE
8
DEFAULT_255_2_778
10
17.8409888
20
8.8927718
11
17.8380888
21
8.8580718
0
LINE
8
DEFAULT_255_2_778
10
17.8380888
20
8.8580718
11
17.8351888
21
8.8059718
0
LINE
8
DEFAULT_255_2_778
10
17.8351888
20
8.8059718
11
17.8324888
21
8.7191718
0
LINE
8
DEFAULT_255_2_778
10
17.8324888
20
8.7191718
11
17.8319888
21
8.6323718
0
LINE
8
DEFAULT_255_2_778
10
17.8319888
20
8.6323718
11
18.0398888
21
8.7942718
0
LINE
8
DEFAULT_255_2_778
10
18.0398888
20
8.7942718
11
18.1060888
21
8.8000718
0
LINE
8
DEFAULT_255_2_778
10
18.5873888
20
8.6625718
11
18.5891888
21
8.4566718
0
LINE
8
DEFAULT_255_2_778
10
18.5891888
20
8.4566718
11
18.5915888
21
8.4146718
0
LINE
8
DEFAULT_255_2_778
10
18.5915888
20
8.4146718
11
18.5955888
21
8.3727718
0
LINE
8
DEFAULT_255_2_778
10
18.5955888
20
8.3727718
11
18.6053888
21
8.3103718
0
LINE
8
DEFAULT_255_2_778
10
18.6053888
20
8.3103718
11
18.6219888
21
8.2481718
0
LINE
8
DEFAULT_255_2_778
10
18.6219888
20
8.2481718
11
18.6444888
21
8.1992718
0
LINE
8
DEFAULT_255_2_778
10
18.6444888
20
8.1992718
11
18.7489888
21
8.1193718
0
LINE
8
DEFAULT_255_2_778
10
18.7489888
20
8.1193718
11
18.9304888
21
8.1479718
0
LINE
8
DEFAULT_255_2_778
10
18.9304888
20
8.1479718
11
18.9728888
21
8.1960718
0
LINE
8
DEFAULT_255_2_778
10
18.9728888
20
8.1960718
11
19.0000888
21
8.2545718
0
LINE
8
DEFAULT_255_2_778
10
19.0000888
20
8.2545718
11
19.0183888
21
8.3278718
0
LINE
8
DEFAULT_255_2_778
10
19.0183888
20
8.3278718
11
19.0246888
21
8.3701718
0
LINE
8
DEFAULT_255_2_778
10
19.0246888
20
8.3701718
11
19.0222888
21
8.9252718
0
LINE
8
DEFAULT_255_2_778
10
19.0222888
20
8.9252718
11
19.0119888
21
8.9810718
0
LINE
8
DEFAULT_255_2_778
10
19.0119888
20
8.9810718
11
18.9905888
21
9.0440718
0
LINE
8
DEFAULT_255_2_778
10
18.9905888
20
9.0440718
11
18.9116888
21
9.1350718
0
LINE
8
DEFAULT_255_2_778
10
18.9116888
20
9.1350718
11
18.7635888
21
9.1543718
0
LINE
8
DEFAULT_255_2_778
10
18.7635888
20
9.1543718
11
18.6860888
21
9.1207718
0
LINE
8
DEFAULT_255_2_778
10
18.6860888
20
9.1207718
11
18.6381888
21
9.0625718
0
LINE
8
DEFAULT_255_2_778
10
18.6381888
20
9.0625718
11
18.6106888
21
8.9919718
0
LINE
8
DEFAULT_255_2_778
10
18.6106888
20
8.9919718
11
18.6008888
21
8.9456718
0
LINE
8
DEFAULT_255_2_778
10
18.6008888
20
8.9456718
11
18.5955888
21
8.9083718
0
LINE
8
DEFAULT_255_2_778
10
18.5955888
20
8.9083718
11
18.5920888
21
8.8707718
0
LINE
8
DEFAULT_255_2_778
10
18.5920888
20
8.8707718
11
18.5899888
21
8.8329718
0
LINE
8
DEFAULT_255_2_778
10
18.5899888
20
8.8329718
11
18.5873888
21
8.7384718
0
LINE
8
DEFAULT_255_2_778
10
18.5873888
20
8.7384718
11
18.5873888
21
8.6625718
0
LINE
8
DEFAULT_255_2_778
10
18.5023888
20
8.6252718
11
18.5045888
21
8.8239718
0
LINE
8
DEFAULT_255_2_778
10
18.5045888
20
8.8239718
11
18.5055888
21
8.8495718
0
LINE
8
DEFAULT_255_2_778
10
18.5055888
20
8.8495718
11
18.5071888
21
8.8752718
0
LINE
8
DEFAULT_255_2_778
10
18.5071888
20
8.8752718
11
18.5108888
21
8.9136718
0
LINE
8
DEFAULT_255_2_778
10
18.5108888
20
8.9136718
11
18.5185888
21
8.9646718
0
LINE
8
DEFAULT_255_2_778
10
18.5185888
20
8.9646718
11
18.5338888
21
9.0279718
0
LINE
8
DEFAULT_255_2_778
10
18.5338888
20
9.0279718
11
18.5576888
21
9.0890718
0
LINE
8
DEFAULT_255_2_778
10
18.5576888
20
9.0890718
11
18.6000888
21
9.1543718
0
LINE
8
DEFAULT_255_2_778
10
18.6000888
20
9.1543718
11
18.6709888
21
9.2109718
0
LINE
8
DEFAULT_255_2_778
10
18.6709888
20
9.2109718
11
18.7968888
21
9.2424718
0
LINE
8
DEFAULT_255_2_778
10
18.7968888
20
9.2424718
11
18.9254888
21
9.2223718
0
LINE
8
DEFAULT_255_2_778
10
18.9254888
20
9.2223718
11
19.0021888
21
9.1742718
0
LINE
8
DEFAULT_255_2_778
10
19.0021888
20
9.1742718
11
19.0503888
21
9.1131718
0
LINE
8
DEFAULT_255_2_778
10
19.0503888
20
9.1131718
11
19.0781888
21
9.0540718
0
LINE
8
DEFAULT_255_2_778
10
19.0781888
20
9.0540718
11
19.0961888
21
8.9913718
0
LINE
8
DEFAULT_255_2_778
10
19.0961888
20
8.9913718
11
19.1053888
21
8.9403718
0
LINE
8
DEFAULT_255_2_778
10
19.1053888
20
8.9403718
11
19.1032888
21
8.3212718
0
LINE
8
DEFAULT_255_2_778
10
19.1032888
20
8.3212718
11
19.0884888
21
8.2545718
0
LINE
8
DEFAULT_255_2_778
10
19.0884888
20
8.2545718
11
19.0646888
21
8.1897718
0
LINE
8
DEFAULT_255_2_778
10
19.0646888
20
8.1897718
11
19.0225888
21
8.1219718
0
LINE
8
DEFAULT_255_2_778
10
19.0225888
20
8.1219718
11
18.9537888
21
8.0629718
0
LINE
8
DEFAULT_255_2_778
10
18.9537888
20
8.0629718
11
18.8106888
21
8.0280718
0
LINE
8
DEFAULT_255_2_778
10
18.8106888
20
8.0280718
11
18.6772888
21
8.0571718
0
LINE
8
DEFAULT_255_2_778
10
18.6772888
20
8.0571718
11
18.5973888
21
8.1206718
0
LINE
8
DEFAULT_255_2_778
10
18.5973888
20
8.1206718
11
18.5542888
21
8.1881718
0
LINE
8
DEFAULT_255_2_778
10
18.5542888
20
8.1881718
11
18.5283888
21
8.2635718
0
LINE
8
DEFAULT_255_2_778
10
18.5283888
20
8.2635718
11
18.5148888
21
8.3304718
0
LINE
8
DEFAULT_255_2_778
10
18.5148888
20
8.3304718
11
18.5092888
21
8.3757718
0
LINE
8
DEFAULT_255_2_778
10
18.5092888
20
8.3757718
11
18.5074888
21
8.3984718
0
LINE
8
DEFAULT_255_2_778
10
18.5074888
20
8.3984718
11
18.5050888
21
8.4439718
0
LINE
8
DEFAULT_255_2_778
10
18.5050888
20
8.4439718
11
18.5023888
21
8.6252718
0
LINE
8
DEFAULT_255_2_778
10
4.4654888
20
5.7460718
11
5.0205888
21
5.7460718
0
LINE
8
DEFAULT_255_2_778
10
5.0205888
20
5.7460718
11
5.0205888
21
5.6470718
0
LINE
8
DEFAULT_255_2_778
10
5.0205888
20
5.6470718
11
4.5427888
21
5.6470718
0
LINE
8
DEFAULT_255_2_778
10
4.5427888
20
5.6470718
11
4.5427888
21
5.1345718
0
LINE
8
DEFAULT_255_2_778
10
4.5427888
20
5.1345718
11
4.9911888
21
5.1345718
0
LINE
8
DEFAULT_255_2_778
10
4.9911888
20
5.1345718
11
4.9911888
21
5.0374718
0
LINE
8
DEFAULT_255_2_778
10
4.9911888
20
5.0374718
11
4.5427888
21
5.0374718
0
LINE
8
DEFAULT_255_2_778
10
4.5427888
20
5.0374718
11
4.5427888
21
4.4471718
0
LINE
8
DEFAULT_255_2_778
10
4.5427888
20
4.4471718
11
5.0205888
21
4.4471718
0
LINE
8
DEFAULT_255_2_778
10
5.0205888
20
4.4471718
11
5.0205888
21
4.3500718
0
LINE
8
DEFAULT_255_2_778
10
5.0205888
20
4.3500718
11
4.4654888
21
4.3500718
0
LINE
8
DEFAULT_255_2_778
10
4.4654888
20
4.3500718
11
4.4654888
21
5.7462718
0
LINE
8
DEFAULT_255_2_778
10
6.0164888
20
5.7478718
11
6.5731888
21
5.7478718
0
LINE
8
DEFAULT_255_2_778
10
6.5731888
20
5.7478718
11
6.5731888
21
5.6060718
0
LINE
8
DEFAULT_255_2_778
10
6.5731888
20
5.6060718
11
6.2561888
21
4.3400718
0
LINE
8
DEFAULT_255_2_778
10
6.2561888
20
4.3400718
11
6.1817888
21
4.3709718
0
LINE
8
DEFAULT_255_2_778
10
6.1817888
20
4.3709718
11
6.4955888
21
5.6213718
0
LINE
8
DEFAULT_255_2_778
10
6.4955888
20
5.6213718
11
6.4955888
21
5.6486718
0
LINE
8
DEFAULT_255_2_778
10
6.4955888
20
5.6486718
11
6.0161888
21
5.6486718
0
LINE
8
DEFAULT_255_2_778
10
6.0161888
20
5.6486718
11
6.0161888
21
5.7476718
0
LINE
8
DEFAULT_255_2_778
10
7.4142888
20
5.5827718
11
7.4409888
21
5.6391718
0
LINE
8
DEFAULT_255_2_778
10
7.4409888
20
5.6391718
11
7.5031888
21
5.7076718
0
LINE
8
DEFAULT_255_2_778
10
7.5031888
20
5.7076718
11
7.6166888
21
5.7544718
0
LINE
8
DEFAULT_255_2_778
10
7.6166888
20
5.7544718
11
7.7595888
21
5.7409718
0
LINE
8
DEFAULT_255_2_778
10
7.7595888
20
5.7409718
11
7.8449888
21
5.6838718
0
LINE
8
DEFAULT_255_2_778
10
7.8449888
20
5.6838718
11
7.8965888
21
5.6068718
0
LINE
8
DEFAULT_255_2_778
10
7.8965888
20
5.6068718
11
7.9235888
21
5.5290718
0
LINE
8
DEFAULT_255_2_778
10
7.9235888
20
5.5290718
11
7.9317888
21
5.4885718
0
LINE
8
DEFAULT_255_2_778
10
7.9317888
20
5.4885718
11
7.9373888
21
5.4475718
0
LINE
8
DEFAULT_255_2_778
10
7.9373888
20
5.4475718
11
7.9359888
21
5.2829718
0
LINE
8
DEFAULT_255_2_778
10
7.9359888
20
5.2829718
11
7.9264888
21
5.2427718
0
LINE
8
DEFAULT_255_2_778
10
7.9264888
20
5.2427718
11
7.9021888
21
5.1858718
0
LINE
8
DEFAULT_255_2_778
10
7.9021888
20
5.1858718
11
7.8182888
21
5.0956718
0
LINE
8
DEFAULT_255_2_778
10
7.8182888
20
5.0956718
11
7.7835888
21
5.0723718
0
LINE
8
DEFAULT_255_2_778
10
7.7835888
20
5.0723718
11
7.8904888
21
4.9813718
0
LINE
8
DEFAULT_255_2_778
10
7.8904888
20
4.9813718
11
7.9269888
21
4.9160718
0
LINE
8
DEFAULT_255_2_778
10
7.9269888
20
4.9160718
11
7.9420888
21
4.8641718
0
LINE
8
DEFAULT_255_2_778
10
7.9420888
20
4.8641718
11
7.9473888
21
4.8321718
0
LINE
8
DEFAULT_255_2_778
10
7.9473888
20
4.8321718
11
7.9468888
21
4.6813718
0
LINE
8
DEFAULT_255_2_778
10
7.9468888
20
4.6813718
11
7.9412888
21
4.6387718
0
LINE
8
DEFAULT_255_2_778
10
7.9412888
20
4.6387718
11
7.9283888
21
4.5752718
0
LINE
8
DEFAULT_255_2_778
10
7.9283888
20
4.5752718
11
7.9031888
21
4.5037718
0
LINE
8
DEFAULT_255_2_778
10
7.9031888
20
4.5037718
11
7.8576888
21
4.4299718
0
LINE
8
DEFAULT_255_2_778
10
7.8576888
20
4.4299718
11
7.7830888
21
4.3680718
0
LINE
8
DEFAULT_255_2_778
10
7.7830888
20
4.3680718
11
7.6362888
21
4.3371718
0
LINE
8
DEFAULT_255_2_778
10
7.6362888
20
4.3371718
11
7.5219888
21
4.3677718
0
LINE
8
DEFAULT_255_2_778
10
7.5219888
20
4.3677718
11
7.4650888
21
4.4170718
0
LINE
8
DEFAULT_255_2_778
10
7.4650888
20
4.4170718
11
7.4219888
21
4.4932718
0
LINE
8
DEFAULT_255_2_778
10
7.4219888
20
4.4932718
11
7.4142888
21
4.5138718
0
LINE
8
DEFAULT_255_2_778
10
7.4142888
20
4.5138718
11
7.4854888
21
4.5545718
0
LINE
8
DEFAULT_255_2_778
10
7.4854888
20
4.5545718
11
7.5126888
21
4.4990718
0
LINE
8
DEFAULT_255_2_778
10
7.5126888
20
4.4990718
11
7.5639888
21
4.4527718
0
LINE
8
DEFAULT_255_2_778
10
7.5639888
20
4.4527718
11
7.7026888
21
4.4418718
0
LINE
8
DEFAULT_255_2_778
10
7.7026888
20
4.4418718
11
7.7878888
21
4.4858718
0
LINE
8
DEFAULT_255_2_778
10
7.7878888
20
4.4858718
11
7.8327888
21
4.5503718
0
LINE
8
DEFAULT_255_2_778
10
7.8327888
20
4.5503718
11
7.8568888
21
4.6260718
0
LINE
8
DEFAULT_255_2_778
10
7.8568888
20
4.6260718
11
7.8632888
21
4.6606718
0
LINE
8
DEFAULT_255_2_778
10
7.8632888
20
4.6606718
11
7.8677888
21
4.6956718
0
LINE
8
DEFAULT_255_2_778
10
7.8677888
20
4.6956718
11
7.8658888
21
4.8361718
0
LINE
8
DEFAULT_255_2_778
10
7.8658888
20
4.8361718
11
7.8531888
21
4.8781718
0
LINE
8
DEFAULT_255_2_778
10
7.8531888
20
4.8781718
11
7.8097888
21
4.9437718
0
LINE
8
DEFAULT_255_2_778
10
7.8097888
20
4.9437718
11
7.6552888
21
5.0210718
0
LINE
8
DEFAULT_255_2_778
10
7.6552888
20
5.0210718
11
7.6505888
21
5.1181718
0
LINE
8
DEFAULT_255_2_778
10
7.6505888
20
5.1181718
11
7.7986888
21
5.1940718
0
LINE
8
DEFAULT_255_2_778
10
7.7986888
20
5.1940718
11
7.8425888
21
5.2546718
0
LINE
8
DEFAULT_255_2_778
10
7.8425888
20
5.2546718
11
7.8558888
21
5.2943718
0
LINE
8
DEFAULT_255_2_778
10
7.8558888
20
5.2943718
11
7.8608888
21
5.3274718
0
LINE
8
DEFAULT_255_2_778
10
7.8608888
20
5.3274718
11
7.8587888
21
5.4449718
0
LINE
8
DEFAULT_255_2_778
10
7.8587888
20
5.4449718
11
7.8499888
21
5.4946718
0
LINE
8
DEFAULT_255_2_778
10
7.8499888
20
5.4946718
11
7.8277888
21
5.5584718
0
LINE
8
DEFAULT_255_2_778
10
7.8277888
20
5.5584718
11
7.7899888
21
5.6137718
0
LINE
8
DEFAULT_255_2_778
10
7.7899888
20
5.6137718
11
7.6923888
21
5.6594718
0
LINE
8
DEFAULT_255_2_778
10
7.6923888
20
5.6594718
11
7.5687888
21
5.6409718
0
LINE
8
DEFAULT_255_2_778
10
7.5687888
20
5.6409718
11
7.5084888
21
5.5843718
0
LINE
8
DEFAULT_255_2_778
10
7.5084888
20
5.5843718
11
7.4854888
21
5.5393718
0
LINE
8
DEFAULT_255_2_778
10
7.4854888
20
5.5393718
11
7.4142888
21
5.5840718
0
LINE
8
DEFAULT_255_2_778
10
7.0354896
20
5.7380448
11
7.1327896
21
5.7380448
0
LINE
8
DEFAULT_255_2_778
10
7.1327896
20
5.7380448
11
7.1327896
21
4.3439448
0
LINE
8
DEFAULT_255_2_778
10
7.1327896
20
4.3439448
11
7.0555896
21
4.3439448
0
LINE
8
DEFAULT_255_2_778
10
7.0555896
20
4.3439448
11
7.0555896
21
5.6176448
0
LINE
8
DEFAULT_255_2_778
10
7.0555896
20
5.6176448
11
6.8528896
21
5.3925448
0
LINE
8
DEFAULT_255_2_778
10
6.8528896
20
5.3925448
11
6.8480896
21
5.4914448
0
LINE
8
DEFAULT_255_2_778
10
6.8480896
20
5.4914448
11
6.8475896
21
5.4954448
0
LINE
8
DEFAULT_255_2_778
10
6.8475896
20
5.4954448
11
6.9795896
21
5.6605448
0
LINE
8
DEFAULT_255_2_778
10
6.9795896
20
5.6605448
11
7.0351896
21
5.7380448
0
LINE
8
DEFAULT_255_2_778
10
12.7197896
20
5.7380448
11
12.8170896
21
5.7380448
0
LINE
8
DEFAULT_255_2_778
10
12.8170896
20
5.7380448
11
12.8170896
21
4.3439448
0
LINE
8
DEFAULT_255_2_778
10
12.8170896
20
4.3439448
11
12.7398896
21
4.3439448
0
LINE
8
DEFAULT_255_2_778
10
12.7398896
20
4.3439448
11
12.7398896
21
5.6176448
0
LINE
8
DEFAULT_255_2_778
10
12.7398896
20
5.6176448
11
12.5371896
21
5.3925448
0
LINE
8
DEFAULT_255_2_778
10
12.5371896
20
5.3925448
11
12.5323896
21
5.4914448
0
LINE
8
DEFAULT_255_2_778
10
12.5323896
20
5.4914448
11
12.5318896
21
5.4954448
0
LINE
8
DEFAULT_255_2_778
10
12.5318896
20
5.4954448
11
12.6638896
21
5.6605448
0
LINE
8
DEFAULT_255_2_778
10
12.6638896
20
5.6605448
11
12.7194896
21
5.7380448
0
LINE
8
DEFAULT_255_2_778
10
13.0893053
20
4.9302646
11
13.4420053
21
4.9302646
0
LINE
8
DEFAULT_255_2_778
10
13.4420053
20
4.9302646
11
13.4420053
21
4.8313646
0
LINE
8
DEFAULT_255_2_778
10
13.4420053
20
4.8313646
11
13.0893053
21
4.8313646
0
LINE
8
DEFAULT_255_2_778
10
13.0893053
20
4.8313646
11
13.0893053
21
4.9302646
0
LINE
8
DEFAULT_255_2_778
10
8.8184053
20
4.9302646
11
9.1711053
21
4.9302646
0
LINE
8
DEFAULT_255_2_778
10
9.1711053
20
4.9302646
11
9.1711053
21
4.8313646
0
LINE
8
DEFAULT_255_2_778
10
9.1711053
20
4.8313646
11
8.8184053
21
4.8313646
0
LINE
8
DEFAULT_255_2_778
10
8.8184053
20
4.8313646
11
8.8184053
21
4.9302646
0
LINE
8
DEFAULT_255_2_778
10
5.5868053
20
4.9789646
11
5.3404053
21
5.1467646
0
LINE
8
DEFAULT_255_2_778
10
5.3404053
20
5.1467646
11
5.2822053
21
5.2115646
0
LINE
8
DEFAULT_255_2_778
10
5.2822053
20
5.2115646
11
5.2465053
21
5.2814646
0
LINE
8
DEFAULT_255_2_778
10
5.2465053
20
5.2814646
11
5.2396053
21
5.3062646
0
LINE
8
DEFAULT_255_2_778
10
5.2396053
20
5.3062646
11
5.2407053
21
5.4790646
0
LINE
8
DEFAULT_255_2_778
10
5.2407053
20
5.4790646
11
5.2481053
21
5.5129646
0
LINE
8
DEFAULT_255_2_778
10
5.2481053
20
5.5129646
11
5.2642053
21
5.5629646
0
LINE
8
DEFAULT_255_2_778
10
5.2642053
20
5.5629646
11
5.2867053
21
5.6102646
0
LINE
8
DEFAULT_255_2_778
10
5.2867053
20
5.6102646
11
5.3521053
21
5.6909646
0
LINE
8
DEFAULT_255_2_778
10
5.3521053
20
5.6909646
11
5.4267053
21
5.7359646
0
LINE
8
DEFAULT_255_2_778
10
5.4267053
20
5.7359646
11
5.5294053
21
5.7576646
0
LINE
8
DEFAULT_255_2_778
10
5.5294053
20
5.7576646
11
5.6548053
21
5.7280646
0
LINE
8
DEFAULT_255_2_778
10
5.6548053
20
5.7280646
11
5.7024053
21
5.6901646
0
LINE
8
DEFAULT_255_2_778
10
5.7024053
20
5.6901646
11
5.7455053
21
5.6348646
0
LINE
8
DEFAULT_255_2_778
10
5.7455053
20
5.6348646
11
5.7767053
21
5.5727646
0
LINE
8
DEFAULT_255_2_778
10
5.7767053
20
5.5727646
11
5.7987053
21
5.5065646
0
LINE
8
DEFAULT_255_2_778
10
5.7987053
20
5.5065646
11
5.8029053
21
5.4896646
0
LINE
8
DEFAULT_255_2_778
10
5.8029053
20
5.4896646
11
5.7273053
21
5.4623646
0
LINE
8
DEFAULT_255_2_778
10
5.7273053
20
5.4623646
11
5.7183053
21
5.4965646
0
LINE
8
DEFAULT_255_2_778
10
5.7183053
20
5.4965646
11
5.6990053
21
5.5454646
0
LINE
8
DEFAULT_255_2_778
10
5.6990053
20
5.5454646
11
5.6484053
21
5.6160646
0
LINE
8
DEFAULT_255_2_778
10
5.6484053
20
5.6160646
11
5.5802053
21
5.6547646
0
LINE
8
DEFAULT_255_2_778
10
5.5802053
20
5.6547646
11
5.4410053
21
5.6385646
0
LINE
8
DEFAULT_255_2_778
10
5.4410053
20
5.6385646
11
5.3664053
21
5.5779646
0
LINE
8
DEFAULT_255_2_778
10
5.3664053
20
5.5779646
11
5.3397053
21
5.5324646
0
LINE
8
DEFAULT_255_2_778
10
5.3397053
20
5.5324646
11
5.3270053
21
5.4996646
0
LINE
8
DEFAULT_255_2_778
10
5.3270053
20
5.4996646
11
5.3182053
21
5.4655646
0
LINE
8
DEFAULT_255_2_778
10
5.3182053
20
5.4655646
11
5.3206053
21
5.3171646
0
LINE
8
DEFAULT_255_2_778
10
5.3206053
20
5.3171646
11
5.3497053
21
5.2631646
0
LINE
8
DEFAULT_255_2_778
10
5.3497053
20
5.2631646
11
5.4132053
21
5.2033646
0
LINE
8
DEFAULT_255_2_778
10
5.4132053
20
5.2033646
11
5.7175053
21
4.9977646
0
LINE
8
DEFAULT_255_2_778
10
5.7175053
20
4.9977646
11
5.7762053
21
4.9334646
0
LINE
8
DEFAULT_255_2_778
10
5.7762053
20
4.9334646
11
5.8029053
21
4.8884646
0
LINE
8
DEFAULT_255_2_778
10
5.8029053
20
4.8884646
11
5.8162053
21
4.8562646
0
LINE
8
DEFAULT_255_2_778
10
5.8162053
20
4.8562646
11
5.8252053
21
4.8226646
0
LINE
8
DEFAULT_255_2_778
10
5.8252053
20
4.8226646
11
5.8236053
21
4.6487646
0
LINE
8
DEFAULT_255_2_778
10
5.8236053
20
4.6487646
11
5.8114053
21
4.5982646
0
LINE
8
DEFAULT_255_2_778
10
5.8114053
20
4.5982646
11
5.7939053
21
4.5490646
0
LINE
8
DEFAULT_255_2_778
10
5.7939053
20
4.5490646
11
5.7619053
21
4.4868646
0
LINE
8
DEFAULT_255_2_778
10
5.7619053
20
4.4868646
11
5.7199053
21
4.4315646
0
LINE
8
DEFAULT_255_2_778
10
5.7199053
20
4.4315646
11
5.6529053
21
4.3759646
0
LINE
8
DEFAULT_255_2_778
10
5.6529053
20
4.3759646
11
5.5730053
21
4.3418646
0
LINE
8
DEFAULT_255_2_778
10
5.5730053
20
4.3418646
11
5.4857053
21
4.3347646
0
LINE
8
DEFAULT_255_2_778
10
5.4857053
20
4.3347646
11
5.3561053
21
4.3815646
0
LINE
8
DEFAULT_255_2_778
10
5.3561053
20
4.3815646
11
5.3058053
21
4.4302646
0
LINE
8
DEFAULT_255_2_778
10
5.3058053
20
4.4302646
11
5.2685053
21
4.4889646
0
LINE
8
DEFAULT_255_2_778
10
5.2685053
20
4.4889646
11
5.2420053
21
4.5535646
0
LINE
8
DEFAULT_255_2_778
10
5.2420053
20
4.5535646
11
5.2280053
21
4.6043646
0
LINE
8
DEFAULT_255_2_778
10
5.2280053
20
4.6043646
11
5.3037053
21
4.6315646
0
LINE
8
DEFAULT_255_2_778
10
5.3037053
20
4.6315646
11
5.3113053
21
4.5969646
0
LINE
8
DEFAULT_255_2_778
10
5.3113053
20
4.5969646
11
5.3230053
21
4.5635646
0
LINE
8
DEFAULT_255_2_778
10
5.3230053
20
4.5635646
11
5.3640053
21
4.4961646
0
LINE
8
DEFAULT_255_2_778
10
5.3640053
20
4.4961646
11
5.4439053
21
4.4434646
0
LINE
8
DEFAULT_255_2_778
10
5.4439053
20
4.4434646
11
5.5746053
21
4.4432646
0
LINE
8
DEFAULT_255_2_778
10
5.5746053
20
4.4432646
11
5.6434053
21
4.4818646
0
LINE
8
DEFAULT_255_2_778
10
5.6434053
20
4.4818646
11
5.6910053
21
4.5336646
0
LINE
8
DEFAULT_255_2_778
10
5.6910053
20
4.5336646
11
5.7175053
21
4.5794646
0
LINE
8
DEFAULT_255_2_778
10
5.7175053
20
4.5794646
11
5.7363053
21
4.6289646
0
LINE
8
DEFAULT_255_2_778
10
5.7363053
20
4.6289646
11
5.7447053
21
4.6630646
0
LINE
8
DEFAULT_255_2_778
10
5.7447053
20
4.6630646
11
5.7508053
21
4.6977646
0
LINE
8
DEFAULT_255_2_778
10
5.7508053
20
4.6977646
11
5.7498053
21
4.7940646
0
LINE
8
DEFAULT_255_2_778
10
5.7498053
20
4.7940646
11
5.7402053
21
4.8276646
0
LINE
8
DEFAULT_255_2_778
10
5.7402053
20
4.8276646
11
5.6982053
21
4.8937646
0
LINE
8
DEFAULT_255_2_778
10
5.6982053
20
4.8937646
11
5.5870053
21
4.9795646
0
LINE
8
DEFAULT_255_2_778
10
4.0681854
20
5.1382708
11
3.9778854
21
5.1165708
0
LINE
8
DEFAULT_255_2_778
10
3.9778854
20
5.1165708
11
3.9075854
21
5.0490708
0
LINE
8
DEFAULT_255_2_778
10
3.9075854
20
5.0490708
11
3.8577854
21
4.9535708
0
LINE
8
DEFAULT_255_2_778
10
3.8577854
20
4.9535708
11
3.8400854
21
4.8876708
0
LINE
8
DEFAULT_255_2_778
10
3.8400854
20
4.8876708
11
3.8352854
21
4.8588708
0
LINE
8
DEFAULT_255_2_778
10
3.8352854
20
4.8588708
11
3.8365854
21
4.6736708
0
LINE
8
DEFAULT_255_2_778
10
3.8365854
20
4.6736708
11
3.8506854
21
4.6167708
0
LINE
8
DEFAULT_255_2_778
10
3.8506854
20
4.6167708
11
3.8876854
21
4.5362708
0
LINE
8
DEFAULT_255_2_778
10
3.8876854
20
4.5362708
11
3.9450854
21
4.4693708
0
LINE
8
DEFAULT_255_2_778
10
3.9450854
20
4.4693708
11
4.0350854
21
4.4333708
0
LINE
8
DEFAULT_255_2_778
10
4.0350854
20
4.4333708
11
4.1371854
21
4.4632708
0
LINE
8
DEFAULT_255_2_778
10
4.1371854
20
4.4632708
11
4.1876854
21
4.5230708
0
LINE
8
DEFAULT_255_2_778
10
4.1876854
20
4.5230708
11
4.2183854
21
4.5960708
0
LINE
8
DEFAULT_255_2_778
10
4.2183854
20
4.5960708
11
4.2318854
21
4.6535708
0
LINE
8
DEFAULT_255_2_778
10
4.2318854
20
4.6535708
11
4.2374854
21
4.6924708
0
LINE
8
DEFAULT_255_2_778
10
4.2374854
20
4.6924708
11
4.2358854
21
4.9286708
0
LINE
8
DEFAULT_255_2_778
10
4.2358854
20
4.9286708
11
4.2244854
21
4.9868708
0
LINE
8
DEFAULT_255_2_778
10
4.2244854
20
4.9868708
11
4.2056854
21
5.0435708
0
LINE
8
DEFAULT_255_2_778
10
4.2056854
20
5.0435708
11
4.1353854
21
5.1236708
0
LINE
8
DEFAULT_255_2_778
10
4.1353854
20
5.1236708
11
4.0681854
21
5.1382708
0
LINE
8
DEFAULT_255_2_778
10
4.0649854
20
5.2371708
11
4.1347854
21
5.2279708
0
LINE
8
DEFAULT_255_2_778
10
4.1347854
20
5.2279708
11
4.1966854
21
5.1940708
0
LINE
8
DEFAULT_255_2_778
10
4.1966854
20
5.1940708
11
4.2451854
21
5.1421708
0
LINE
8
DEFAULT_255_2_778
10
4.2451854
20
5.1421708
11
4.2784854
21
5.0800708
0
LINE
8
DEFAULT_255_2_778
10
4.2784854
20
5.0800708
11
4.2964854
21
5.0265708
0
LINE
8
DEFAULT_255_2_778
10
4.2964854
20
5.0265708
11
4.3030854
21
4.9990708
0
LINE
8
DEFAULT_255_2_778
10
4.3030854
20
4.9990708
11
4.3083854
21
4.9712708
0
LINE
8
DEFAULT_255_2_778
10
4.3083854
20
4.9712708
11
4.3125854
21
4.9434708
0
LINE
8
DEFAULT_255_2_778
10
4.3125854
20
4.9434708
11
4.3109854
21
4.6344708
0
LINE
8
DEFAULT_255_2_778
10
4.3109854
20
4.6344708
11
4.3062854
21
4.6066708
0
LINE
8
DEFAULT_255_2_778
10
4.3062854
20
4.6066708
11
4.2932854
21
4.5519708
0
LINE
8
DEFAULT_255_2_778
10
4.2932854
20
4.5519708
11
4.2742854
21
4.4984708
0
LINE
8
DEFAULT_255_2_778
10
4.2742854
20
4.4984708
11
4.2400854
21
4.4368708
0
LINE
8
DEFAULT_255_2_778
10
4.2400854
20
4.4368708
11
4.1924854
21
4.3857708
0
LINE
8
DEFAULT_255_2_778
10
4.1924854
20
4.3857708
11
4.1183854
21
4.3468708
0
LINE
8
DEFAULT_255_2_778
10
4.1183854
20
4.3468708
11
4.0061854
21
4.3360708
0
LINE
8
DEFAULT_255_2_778
10
4.0061854
20
4.3360708
11
3.9246854
21
4.3584708
0
LINE
8
DEFAULT_255_2_778
10
3.9246854
20
4.3584708
11
3.8572854
21
4.4095708
0
LINE
8
DEFAULT_255_2_778
10
3.8572854
20
4.4095708
11
3.8088854
21
4.4783708
0
LINE
8
DEFAULT_255_2_778
10
3.8088854
20
4.4783708
11
3.7812854
21
4.5426708
0
LINE
8
DEFAULT_255_2_778
10
3.7812854
20
4.5426708
11
3.7691854
21
4.5831708
0
LINE
8
DEFAULT_255_2_778
10
3.7691854
20
4.5831708
11
3.7566854
21
4.6376708
0
LINE
8
DEFAULT_255_2_778
10
3.7566854
20
4.6376708
11
3.7474854
21
4.6926708
0
LINE
8
DEFAULT_255_2_778
10
3.7474854
20
4.6926708
11
3.7405854
21
4.7479708
0
LINE
8
DEFAULT_255_2_778
10
3.7405854
20
4.7479708
11
3.7421854
21
5.3914708
0
LINE
8
DEFAULT_255_2_778
10
3.7421854
20
5.3914708
11
3.7495854
21
5.4467708
0
LINE
8
DEFAULT_255_2_778
10
3.7495854
20
5.4467708
11
3.7595854
21
5.5017708
0
LINE
8
DEFAULT_255_2_778
10
3.7595854
20
5.5017708
11
3.7786854
21
5.5689708
0
LINE
8
DEFAULT_255_2_778
10
3.7786854
20
5.5689708
11
3.8074854
21
5.6327708
0
LINE
8
DEFAULT_255_2_778
10
3.8074854
20
5.6327708
11
3.8498854
21
5.6888708
0
LINE
8
DEFAULT_255_2_778
10
3.8498854
20
5.6888708
11
3.9048854
21
5.7308708
0
LINE
8
DEFAULT_255_2_778
10
3.9048854
20
5.7308708
11
3.9982854
21
5.7573708
0
LINE
8
DEFAULT_255_2_778
10
3.9982854
20
5.7573708
11
4.1088854
21
5.7438708
0
LINE
8
DEFAULT_255_2_778
10
4.1088854
20
5.7438708
11
4.1821854
21
5.7028708
0
LINE
8
DEFAULT_255_2_778
10
4.1821854
20
5.7028708
11
4.2387854
21
5.6409708
0
LINE
8
DEFAULT_255_2_778
10
4.2387854
20
5.6409708
11
4.2720854
21
5.5790708
0
LINE
8
DEFAULT_255_2_778
10
4.2720854
20
5.5790708
11
4.2009854
21
5.5324708
0
LINE
8
DEFAULT_255_2_778
10
4.2009854
20
5.5324708
11
4.1321854
21
5.6258708
0
LINE
8
DEFAULT_255_2_778
10
4.1321854
20
5.6258708
11
3.9553854
21
5.6488708
0
LINE
8
DEFAULT_255_2_778
10
3.9553854
20
5.6488708
11
3.8794854
21
5.5856708
0
LINE
8
DEFAULT_255_2_778
10
3.8794854
20
5.5856708
11
3.8508854
21
5.5250708
0
LINE
8
DEFAULT_255_2_778
10
3.8508854
20
5.5250708
11
3.8310854
21
5.4499708
0
LINE
8
DEFAULT_255_2_778
10
3.8310854
20
5.4499708
11
3.8254854
21
5.4170708
0
LINE
8
DEFAULT_255_2_778
10
3.8254854
20
5.4170708
11
3.8201854
21
5.3729708
0
LINE
8
DEFAULT_255_2_778
10
3.8201854
20
5.3729708
11
3.8167854
21
5.3287708
0
LINE
8
DEFAULT_255_2_778
10
3.8167854
20
5.3287708
11
3.8143854
21
5.2845708
0
LINE
8
DEFAULT_255_2_778
10
3.8143854
20
5.2845708
11
3.8119854
21
5.2181708
0
LINE
8
DEFAULT_255_2_778
10
3.8119854
20
5.2181708
11
3.8098854
21
5.0411708
0
LINE
8
DEFAULT_255_2_778
10
3.8098854
20
5.0411708
11
3.8966854
21
5.1707708
0
LINE
8
DEFAULT_255_2_778
10
3.8966854
20
5.1707708
11
4.0371854
21
5.2353708
0
LINE
8
DEFAULT_255_2_778
10
4.0371854
20
5.2353708
11
4.0649854
21
5.2371708
0
LINE
8
DEFAULT_255_2_778
10
8.3671
20
5.7459875
11
8.551
21
5.7459875
0
LINE
8
DEFAULT_255_2_778
10
8.551
20
5.7459875
11
8.551
21
4.8138875
0
LINE
8
DEFAULT_255_2_778
10
8.551
20
4.8138875
11
8.715
21
4.8138875
0
LINE
8
DEFAULT_255_2_778
10
8.715
20
4.8138875
11
8.715
21
4.7167875
0
LINE
8
DEFAULT_255_2_778
10
8.715
20
4.7167875
11
8.551
21
4.7167875
0
LINE
8
DEFAULT_255_2_778
10
8.551
20
4.7167875
11
8.551
21
4.3457875
0
LINE
8
DEFAULT_255_2_778
10
8.551
20
4.3457875
11
8.4721
21
4.3457875
0
LINE
8
DEFAULT_255_2_778
10
8.4721
20
4.3457875
11
8.4721
21
4.7167875
0
LINE
8
DEFAULT_255_2_778
10
8.4721
20
4.7167875
11
8.0546
21
4.7167875
0
LINE
8
DEFAULT_255_2_778
10
8.0546
20
4.7167875
11
8.0546
21
4.8603875
0
LINE
8
DEFAULT_255_2_778
10
8.0546
20
4.8603875
11
8.3671
21
5.7459875
0
LINE
8
DEFAULT_255_2_778
10
8.4721
20
5.6488875
11
8.4179
21
5.6488875
0
LINE
8
DEFAULT_255_2_778
10
8.4179
20
5.6488875
11
8.1319
21
4.8392875
0
LINE
8
DEFAULT_255_2_778
10
8.1319
20
4.8392875
11
8.1319
21
4.8140875
0
LINE
8
DEFAULT_255_2_778
10
8.1319
20
4.8140875
11
8.4721
21
4.8140875
0
LINE
8
DEFAULT_255_2_778
10
8.4721
20
4.8140875
11
8.4721
21
5.6488875
0
LINE
8
DEFAULT_255_2_778
10
9.6193854
20
5.1382708
11
9.5290854
21
5.1165708
0
LINE
8
DEFAULT_255_2_778
10
9.5290854
20
5.1165708
11
9.4587854
21
5.0490708
0
LINE
8
DEFAULT_255_2_778
10
9.4587854
20
5.0490708
11
9.4089854
21
4.9535708
0
LINE
8
DEFAULT_255_2_778
10
9.4089854
20
4.9535708
11
9.3912854
21
4.8876708
0
LINE
8
DEFAULT_255_2_778
10
9.3912854
20
4.8876708
11
9.3864854
21
4.8588708
0
LINE
8
DEFAULT_255_2_778
10
9.3864854
20
4.8588708
11
9.3877854
21
4.6736708
0
LINE
8
DEFAULT_255_2_778
10
9.3877854
20
4.6736708
11
9.4018854
21
4.6167708
0
LINE
8
DEFAULT_255_2_778
10
9.4018854
20
4.6167708
11
9.4388854
21
4.5362708
0
LINE
8
DEFAULT_255_2_778
10
9.4388854
20
4.5362708
11
9.4962854
21
4.4693708
0
LINE
8
DEFAULT_255_2_778
10
9.4962854
20
4.4693708
11
9.5862854
21
4.4333708
0
LINE
8
DEFAULT_255_2_778
10
9.5862854
20
4.4333708
11
9.6883854
21
4.4632708
0
LINE
8
DEFAULT_255_2_778
10
9.6883854
20
4.4632708
11
9.7388854
21
4.5230708
0
LINE
8
DEFAULT_255_2_778
10
9.7388854
20
4.5230708
11
9.7695854
21
4.5960708
0
LINE
8
DEFAULT_255_2_778
10
9.7695854
20
4.5960708
11
9.7830854
21
4.6535708
0
LINE
8
DEFAULT_255_2_778
10
9.7830854
20
4.6535708
11
9.7886854
21
4.6924708
0
LINE
8
DEFAULT_255_2_778
10
9.7886854
20
4.6924708
11
9.7870854
21
4.9286708
0
LINE
8
DEFAULT_255_2_778
10
9.7870854
20
4.9286708
11
9.7756854
21
4.9868708
0
LINE
8
DEFAULT_255_2_778
10
9.7756854
20
4.9868708
11
9.7568854
21
5.0435708
0
LINE
8
DEFAULT_255_2_778
10
9.7568854
20
5.0435708
11
9.6865854
21
5.1236708
0
LINE
8
DEFAULT_255_2_778
10
9.6865854
20
5.1236708
11
9.6193854
21
5.1382708
0
LINE
8
DEFAULT_255_2_778
10
9.6161854
20
5.2371708
11
9.6859854
21
5.2279708
0
LINE
8
DEFAULT_255_2_778
10
9.6859854
20
5.2279708
11
9.7478854
21
5.1940708
0
LINE
8
DEFAULT_255_2_778
10
9.7478854
20
5.1940708
11
9.7963854
21
5.1421708
0
LINE
8
DEFAULT_255_2_778
10
9.7963854
20
5.1421708
11
9.8296854
21
5.0800708
0
LINE
8
DEFAULT_255_2_778
10
9.8296854
20
5.0800708
11
9.8476854
21
5.0265708
0
LINE
8
DEFAULT_255_2_778
10
9.8476854
20
5.0265708
11
9.8542854
21
4.9990708
0
LINE
8
DEFAULT_255_2_778
10
9.8542854
20
4.9990708
11
9.8595854
21
4.9712708
0
LINE
8
DEFAULT_255_2_778
10
9.8595854
20
4.9712708
11
9.8637854
21
4.9434708
0
LINE
8
DEFAULT_255_2_778
10
9.8637854
20
4.9434708
11
9.8621854
21
4.6344708
0
LINE
8
DEFAULT_255_2_778
10
9.8621854
20
4.6344708
11
9.8574854
21
4.6066708
0
LINE
8
DEFAULT_255_2_778
10
9.8574854
20
4.6066708
11
9.8444854
21
4.5519708
0
LINE
8
DEFAULT_255_2_778
10
9.8444854
20
4.5519708
11
9.8254854
21
4.4984708
0
LINE
8
DEFAULT_255_2_778
10
9.8254854
20
4.4984708
11
9.7912854
21
4.4368708
0
LINE
8
DEFAULT_255_2_778
10
9.7912854
20
4.4368708
11
9.7436854
21
4.3857708
0
LINE
8
DEFAULT_255_2_778
10
9.7436854
20
4.3857708
11
9.6695854
21
4.3468708
0
LINE
8
DEFAULT_255_2_778
10
9.6695854
20
4.3468708
11
9.5573854
21
4.3360708
0
LINE
8
DEFAULT_255_2_778
10
9.5573854
20
4.3360708
11
9.4758854
21
4.3584708
0
LINE
8
DEFAULT_255_2_778
10
9.4758854
20
4.3584708
11
9.4084854
21
4.4095708
0
LINE
8
DEFAULT_255_2_778
10
9.4084854
20
4.4095708
11
9.3600854
21
4.4783708
0
LINE
8
DEFAULT_255_2_778
10
9.3600854
20
4.4783708
11
9.3324854
21
4.5426708
0
LINE
8
DEFAULT_255_2_778
10
9.3324854
20
4.5426708
11
9.3203854
21
4.5831708
0
LINE
8
DEFAULT_255_2_778
10
9.3203854
20
4.5831708
11
9.3078854
21
4.6376708
0
LINE
8
DEFAULT_255_2_778
10
9.3078854
20
4.6376708
11
9.2986854
21
4.6926708
0
LINE
8
DEFAULT_255_2_778
10
9.2986854
20
4.6926708
11
9.2917854
21
4.7479708
0
LINE
8
DEFAULT_255_2_778
10
9.2917854
20
4.7479708
11
9.2933854
21
5.3914708
0
LINE
8
DEFAULT_255_2_778
10
9.2933854
20
5.3914708
11
9.3007854
21
5.4467708
0
LINE
8
DEFAULT_255_2_778
10
9.3007854
20
5.4467708
11
9.3107854
21
5.5017708
0
LINE
8
DEFAULT_255_2_778
10
9.3107854
20
5.5017708
11
9.3298854
21
5.5689708
0
LINE
8
DEFAULT_255_2_778
10
9.3298854
20
5.5689708
11
9.3586854
21
5.6327708
0
LINE
8
DEFAULT_255_2_778
10
9.3586854
20
5.6327708
11
9.4010854
21
5.6888708
0
LINE
8
DEFAULT_255_2_778
10
9.4010854
20
5.6888708
11
9.4560854
21
5.7308708
0
LINE
8
DEFAULT_255_2_778
10
9.4560854
20
5.7308708
11
9.5494854
21
5.7573708
0
LINE
8
DEFAULT_255_2_778
10
9.5494854
20
5.7573708
11
9.6600854
21
5.7438708
0
LINE
8
DEFAULT_255_2_778
10
9.6600854
20
5.7438708
11
9.7333854
21
5.7028708
0
LINE
8
DEFAULT_255_2_778
10
9.7333854
20
5.7028708
11
9.7899854
21
5.6409708
0
LINE
8
DEFAULT_255_2_778
10
9.7899854
20
5.6409708
11
9.8232854
21
5.5790708
0
LINE
8
DEFAULT_255_2_778
10
9.8232854
20
5.5790708
11
9.7521854
21
5.5324708
0
LINE
8
DEFAULT_255_2_778
10
9.7521854
20
5.5324708
11
9.6833854
21
5.6258708
0
LINE
8
DEFAULT_255_2_778
10
9.6833854
20
5.6258708
11
9.5065854
21
5.6488708
0
LINE
8
DEFAULT_255_2_778
10
9.5065854
20
5.6488708
11
9.4306854
21
5.5856708
0
LINE
8
DEFAULT_255_2_778
10
9.4306854
20
5.5856708
11
9.4020854
21
5.5250708
0
LINE
8
DEFAULT_255_2_778
10
9.4020854
20
5.5250708
11
9.3822854
21
5.4499708
0
LINE
8
DEFAULT_255_2_778
10
9.3822854
20
5.4499708
11
9.3766854
21
5.4170708
0
LINE
8
DEFAULT_255_2_778
10
9.3766854
20
5.4170708
11
9.3713854
21
5.3729708
0
LINE
8
DEFAULT_255_2_778
10
9.3713854
20
5.3729708
11
9.3679854
21
5.3287708
0
LINE
8
DEFAULT_255_2_778
10
9.3679854
20
5.3287708
11
9.3655854
21
5.2845708
0
LINE
8
DEFAULT_255_2_778
10
9.3655854
20
5.2845708
11
9.3631854
21
5.2181708
0
LINE
8
DEFAULT_255_2_778
10
9.3631854
20
5.2181708
11
9.3610854
21
5.0411708
0
LINE
8
DEFAULT_255_2_778
10
9.3610854
20
5.0411708
11
9.4478854
21
5.1707708
0
LINE
8
DEFAULT_255_2_778
10
9.4478854
20
5.1707708
11
9.5883854
21
5.2353708
0
LINE
8
DEFAULT_255_2_778
10
9.5883854
20
5.2353708
11
9.6161854
21
5.2371708
0
LINE
8
DEFAULT_255_2_778
10
10.3151406
20
5.647076
11
10.1373406
21
5.647076
0
LINE
8
DEFAULT_255_2_778
10
10.1373406
20
5.647076
11
10.1373406
21
5.132476
0
LINE
8
DEFAULT_255_2_778
10
10.1373406
20
5.132476
11
10.4048406
21
5.146976
0
LINE
8
DEFAULT_255_2_778
10
10.4048406
20
5.146976
11
10.4934406
21
5.208876
0
LINE
8
DEFAULT_255_2_778
10
10.4934406
20
5.208876
11
10.5307406
21
5.270876
0
LINE
8
DEFAULT_255_2_778
10
10.5307406
20
5.270876
11
10.5464406
21
5.323176
0
LINE
8
DEFAULT_255_2_778
10
10.5464406
20
5.323176
11
10.5445406
21
5.450176
0
LINE
8
DEFAULT_255_2_778
10
10.5445406
20
5.450176
11
10.5281406
21
5.502376
0
LINE
8
DEFAULT_255_2_778
10
10.5281406
20
5.502376
11
10.4850406
21
5.571376
0
LINE
8
DEFAULT_255_2_778
10
10.4850406
20
5.571376
11
10.3961406
21
5.633576
0
LINE
8
DEFAULT_255_2_778
10
10.3961406
20
5.633576
11
10.3151406
21
5.647076
0
LINE
8
DEFAULT_255_2_778
10
10.3151406
20
5.745976
11
10.4358406
21
5.721976
0
LINE
8
DEFAULT_255_2_778
10
10.4358406
20
5.721976
11
10.5265406
21
5.658476
0
LINE
8
DEFAULT_255_2_778
10
10.5265406
20
5.658476
11
10.5839406
21
5.578576
0
LINE
8
DEFAULT_255_2_778
10
10.5839406
20
5.578576
11
10.6117406
21
5.509776
0
LINE
8
DEFAULT_255_2_778
10
10.6117406
20
5.509776
11
10.6233406
21
5.461376
0
LINE
8
DEFAULT_255_2_778
10
10.6233406
20
5.461376
11
10.6284406
21
5.424276
0
LINE
8
DEFAULT_255_2_778
10
10.6284406
20
5.424276
11
10.6268406
21
5.325076
0
LINE
8
DEFAULT_255_2_778
10
10.6268406
20
5.325076
11
10.6204406
21
5.288576
0
LINE
8
DEFAULT_255_2_778
10
10.6204406
20
5.288576
11
10.6069406
21
5.241176
0
LINE
8
DEFAULT_255_2_778
10
10.6069406
20
5.241176
11
10.5749406
21
5.174776
0
LINE
8
DEFAULT_255_2_778
10
10.5749406
20
5.174776
11
10.5104406
21
5.100176
0
LINE
8
DEFAULT_255_2_778
10
10.5104406
20
5.100176
11
10.4133406
21
5.047276
0
LINE
8
DEFAULT_255_2_778
10
10.4133406
20
5.047276
11
10.3148406
21
5.033276
0
LINE
8
DEFAULT_255_2_778
10
10.3148406
20
5.033276
11
10.1370406
21
5.033276
0
LINE
8
DEFAULT_255_2_778
10
10.1370406
20
5.033276
11
10.1370406
21
4.345876
0
LINE
8
DEFAULT_255_2_778
10
10.1370406
20
4.345876
11
10.0582406
21
4.345876
0
LINE
8
DEFAULT_255_2_778
10
10.0582406
20
4.345876
11
10.0582406
21
5.745776
0
LINE
8
DEFAULT_255_2_778
10
10.0582406
20
5.745776
11
10.3151406
21
5.745976
0
LINE
8
DEFAULT_255_2_778
10
11.1332406
20
5.747876
11
11.2322406
21
5.747876
0
LINE
8
DEFAULT_255_2_778
10
11.2322406
20
5.747876
11
11.5925406
21
4.367276
0
LINE
8
DEFAULT_255_2_778
10
11.5925406
20
4.367276
11
11.5168406
21
4.336276
0
LINE
8
DEFAULT_255_2_778
10
11.5168406
20
4.336276
11
11.4179406
21
4.714976
0
LINE
8
DEFAULT_255_2_778
10
11.4179406
20
4.714976
11
10.9401406
21
4.714976
0
LINE
8
DEFAULT_255_2_778
10
10.9401406
20
4.714976
11
10.8379406
21
4.336276
0
LINE
8
DEFAULT_255_2_778
10
10.8379406
20
4.336276
11
10.7636406
21
4.367276
0
LINE
8
DEFAULT_255_2_778
10
10.7636406
20
4.367276
11
11.1332406
21
5.747876
0
LINE
8
DEFAULT_255_2_778
10
10.9662406
20
4.813876
11
11.3914406
21
4.813876
0
LINE
8
DEFAULT_255_2_778
10
11.3914406
20
4.813876
11
11.1827406
21
5.623476
0
LINE
8
DEFAULT_255_2_778
10
11.1827406
20
5.623476
11
10.9662406
21
4.813876
0
LINE
8
DEFAULT_255_2_778
10
11.6944354
20
4.9472604
11
11.6963354
21
5.2768604
0
LINE
8
DEFAULT_255_2_778
10
11.6963354
20
5.2768604
11
11.6989354
21
5.3261604
0
LINE
8
DEFAULT_255_2_778
10
11.6989354
20
5.3261604
11
11.7031354
21
5.3750604
0
LINE
8
DEFAULT_255_2_778
10
11.7031354
20
5.3750604
11
11.7092354
21
5.4239604
0
LINE
8
DEFAULT_255_2_778
10
11.7092354
20
5.4239604
11
11.7227354
21
5.4970604
0
LINE
8
DEFAULT_255_2_778
10
11.7227354
20
5.4970604
11
11.7439354
21
5.5695604
0
LINE
8
DEFAULT_255_2_778
10
11.7439354
20
5.5695604
11
11.7767354
21
5.6375604
0
LINE
8
DEFAULT_255_2_778
10
11.7767354
20
5.6375604
11
11.8248354
21
5.6962604
0
LINE
8
DEFAULT_255_2_778
10
11.8248354
20
5.6962604
11
11.9005354
21
5.7409604
0
LINE
8
DEFAULT_255_2_778
10
11.9005354
20
5.7409604
11
12.0132354
21
5.7515604
0
LINE
8
DEFAULT_255_2_778
10
12.0132354
20
5.7515604
11
12.1188354
21
5.7110604
0
LINE
8
DEFAULT_255_2_778
10
12.1188354
20
5.7110604
11
12.1791354
21
5.6465604
0
LINE
8
DEFAULT_255_2_778
10
12.1791354
20
5.6465604
11
12.2138354
21
5.5795604
0
LINE
8
DEFAULT_255_2_778
10
12.2138354
20
5.5795604
11
12.2365354
21
5.5070604
0
LINE
8
DEFAULT_255_2_778
10
12.2365354
20
5.5070604
11
12.2466354
21
5.4575604
0
LINE
8
DEFAULT_255_2_778
10
12.2466354
20
5.4575604
11
12.2537354
21
5.4075604
0
LINE
8
DEFAULT_255_2_778
10
12.2537354
20
5.4075604
11
12.2516354
21
4.6717604
0
LINE
8
DEFAULT_255_2_778
10
12.2516354
20
4.6717604
11
12.2394354
21
4.6032604
0
LINE
8
DEFAULT_255_2_778
10
12.2394354
20
4.6032604
11
12.2204354
21
4.5349604
0
LINE
8
DEFAULT_255_2_778
10
12.2204354
20
4.5349604
11
12.1918354
21
4.4696604
0
LINE
8
DEFAULT_255_2_778
10
12.1918354
20
4.4696604
11
12.1082354
21
4.3725604
0
LINE
8
DEFAULT_255_2_778
10
12.1082354
20
4.3725604
11
11.9860354
21
4.3360604
0
LINE
8
DEFAULT_255_2_778
10
11.9860354
20
4.3360604
11
11.8381354
21
4.3825604
0
LINE
8
DEFAULT_255_2_778
10
11.8381354
20
4.3825604
11
11.7809354
21
4.4463604
0
LINE
8
DEFAULT_255_2_778
10
11.7809354
20
4.4463604
11
11.7478354
21
4.5093604
0
LINE
8
DEFAULT_255_2_778
10
11.7478354
20
4.5093604
11
11.7256354
21
4.5775604
0
LINE
8
DEFAULT_255_2_778
10
11.7256354
20
4.5775604
11
11.7111354
21
4.6477604
0
LINE
8
DEFAULT_255_2_778
10
11.7111354
20
4.6477604
11
11.7050354
21
4.6900604
0
LINE
8
DEFAULT_255_2_778
10
11.7050354
20
4.6900604
11
11.7018354
21
4.7183604
0
LINE
8
DEFAULT_255_2_778
10
11.7018354
20
4.7183604
11
11.6992354
21
4.7466604
0
LINE
8
DEFAULT_255_2_778
10
11.6992354
20
4.7466604
11
11.6973354
21
4.7752604
0
LINE
8
DEFAULT_255_2_778
10
11.6973354
20
4.7752604
11
11.6949354
21
4.8323604
0
LINE
8
DEFAULT_255_2_778
10
11.6949354
20
4.8323604
11
11.6944354
21
4.9472604
0
LINE
8
DEFAULT_255_2_778
10
12.1878354
20
5.0546604
11
12.1860354
21
5.2668604
0
LINE
8
DEFAULT_255_2_778
10
12.1860354
20
5.2668604
11
12.1836354
21
5.3139604
0
LINE
8
DEFAULT_255_2_778
10
12.1836354
20
5.3139604
11
12.1799354
21
5.3607604
0
LINE
8
DEFAULT_255_2_778
10
12.1799354
20
5.3607604
11
12.1730354
21
5.4192604
0
LINE
8
DEFAULT_255_2_778
10
12.1730354
20
5.4192604
11
12.1617354
21
5.4777604
0
LINE
8
DEFAULT_255_2_778
10
12.1617354
20
5.4777604
11
12.1431354
21
5.5345604
0
LINE
8
DEFAULT_255_2_778
10
12.1431354
20
5.5345604
11
12.0915354
21
5.6152604
0
LINE
8
DEFAULT_255_2_778
10
12.0915354
20
5.6152604
11
11.9336354
21
5.6496604
0
LINE
8
DEFAULT_255_2_778
10
11.9336354
20
5.6496604
11
11.8402354
21
5.5795604
0
LINE
8
DEFAULT_255_2_778
10
11.8402354
20
5.5795604
11
11.8135354
21
5.5261604
0
LINE
8
DEFAULT_255_2_778
10
11.8135354
20
5.5261604
11
11.7968354
21
5.4687604
0
LINE
8
DEFAULT_255_2_778
10
11.7968354
20
5.4687604
11
11.7867354
21
5.4099604
0
LINE
8
DEFAULT_255_2_778
10
11.7867354
20
5.4099604
11
11.7814354
21
5.3628604
0
LINE
8
DEFAULT_255_2_778
10
11.7814354
20
5.3628604
11
11.7825354
21
4.7260604
0
LINE
8
DEFAULT_255_2_778
10
11.7825354
20
4.7260604
11
11.7883354
21
4.6791604
0
LINE
8
DEFAULT_255_2_778
10
11.7883354
20
4.6791604
11
11.7986354
21
4.6207604
0
LINE
8
DEFAULT_255_2_778
10
11.7986354
20
4.6207604
11
11.8150354
21
4.5638604
0
LINE
8
DEFAULT_255_2_778
10
11.8150354
20
4.5638604
11
11.8669354
21
4.4775604
0
LINE
8
DEFAULT_255_2_778
10
11.8669354
20
4.4775604
11
12.0227354
21
4.4400604
0
LINE
8
DEFAULT_255_2_778
10
12.0227354
20
4.4400604
11
12.1169354
21
4.5072604
0
LINE
8
DEFAULT_255_2_778
10
12.1169354
20
4.5072604
11
12.1460354
21
4.5656604
0
LINE
8
DEFAULT_255_2_778
10
12.1460354
20
4.5656604
11
12.1627354
21
4.6225604
0
LINE
8
DEFAULT_255_2_778
10
12.1627354
20
4.6225604
11
12.1733354
21
4.6807604
0
LINE
8
DEFAULT_255_2_778
10
12.1733354
20
4.6807604
11
12.1791354
21
4.7276604
0
LINE
8
DEFAULT_255_2_778
10
12.1791354
20
4.7276604
11
12.1831354
21
4.7744604
0
LINE
8
DEFAULT_255_2_778
10
12.1831354
20
4.7744604
11
12.1857354
21
4.8215604
0
LINE
8
DEFAULT_255_2_778
10
12.1857354
20
4.8215604
11
12.1878354
21
5.0546604
0
LINE
8
DEFAULT_255_2_778
10
13.5637354
20
4.9472604
11
13.5656354
21
5.2768604
0
LINE
8
DEFAULT_255_2_778
10
13.5656354
20
5.2768604
11
13.5682354
21
5.3261604
0
LINE
8
DEFAULT_255_2_778
10
13.5682354
20
5.3261604
11
13.5724354
21
5.3750604
0
LINE
8
DEFAULT_255_2_778
10
13.5724354
20
5.3750604
11
13.5785354
21
5.4239604
0
LINE
8
DEFAULT_255_2_778
10
13.5785354
20
5.4239604
11
13.5920354
21
5.4970604
0
LINE
8
DEFAULT_255_2_778
10
13.5920354
20
5.4970604
11
13.6132354
21
5.5695604
0
LINE
8
DEFAULT_255_2_778
10
13.6132354
20
5.5695604
11
13.6460354
21
5.6375604
0
LINE
8
DEFAULT_255_2_778
10
13.6460354
20
5.6375604
11
13.6941354
21
5.6962604
0
LINE
8
DEFAULT_255_2_778
10
13.6941354
20
5.6962604
11
13.7698354
21
5.7409604
0
LINE
8
DEFAULT_255_2_778
10
13.7698354
20
5.7409604
11
13.8825354
21
5.7515604
0
LINE
8
DEFAULT_255_2_778
10
13.8825354
20
5.7515604
11
13.9881354
21
5.7110604
0
LINE
8
DEFAULT_255_2_778
10
13.9881354
20
5.7110604
11
14.0484354
21
5.6465604
0
LINE
8
DEFAULT_255_2_778
10
14.0484354
20
5.6465604
11
14.0831354
21
5.5795604
0
LINE
8
DEFAULT_255_2_778
10
14.0831354
20
5.5795604
11
14.1058354
21
5.5070604
0
LINE
8
DEFAULT_255_2_778
10
14.1058354
20
5.5070604
11
14.1159354
21
5.4575604
0
LINE
8
DEFAULT_255_2_778
10
14.1159354
20
5.4575604
11
14.1230354
21
5.4075604
0
LINE
8
DEFAULT_255_2_778
10
14.1230354
20
5.4075604
11
14.1209354
21
4.6717604
0
LINE
8
DEFAULT_255_2_778
10
14.1209354
20
4.6717604
11
14.1087354
21
4.6032604
0
LINE
8
DEFAULT_255_2_778
10
14.1087354
20
4.6032604
11
14.0897354
21
4.5349604
0
LINE
8
DEFAULT_255_2_778
10
14.0897354
20
4.5349604
11
14.0611354
21
4.4696604
0
LINE
8
DEFAULT_255_2_778
10
14.0611354
20
4.4696604
11
13.9775354
21
4.3725604
0
LINE
8
DEFAULT_255_2_778
10
13.9775354
20
4.3725604
11
13.8553354
21
4.3360604
0
LINE
8
DEFAULT_255_2_778
10
13.8553354
20
4.3360604
11
13.7074354
21
4.3825604
0
LINE
8
DEFAULT_255_2_778
10
13.7074354
20
4.3825604
11
13.6502354
21
4.4463604
0
LINE
8
DEFAULT_255_2_778
10
13.6502354
20
4.4463604
11
13.6171354
21
4.5093604
0
LINE
8
DEFAULT_255_2_778
10
13.6171354
20
4.5093604
11
13.5949354
21
4.5775604
0
LINE
8
DEFAULT_255_2_778
10
13.5949354
20
4.5775604
11
13.5804354
21
4.6477604
0
LINE
8
DEFAULT_255_2_778
10
13.5804354
20
4.6477604
11
13.5743354
21
4.6900604
0
LINE
8
DEFAULT_255_2_778
10
13.5743354
20
4.6900604
11
13.5711354
21
4.7183604
0
LINE
8
DEFAULT_255_2_778
10
13.5711354
20
4.7183604
11
13.5685354
21
4.7466604
0
LINE
8
DEFAULT_255_2_778
10
13.5685354
20
4.7466604
11
13.5666354
21
4.7752604
0
LINE
8
DEFAULT_255_2_778
10
13.5666354
20
4.7752604
11
13.5642354
21
4.8323604
0
LINE
8
DEFAULT_255_2_778
10
13.5642354
20
4.8323604
11
13.5637354
21
4.9472604
0
LINE
8
DEFAULT_255_2_778
10
14.0571354
20
5.0546604
11
14.0553354
21
5.2668604
0
LINE
8
DEFAULT_255_2_778
10
14.0553354
20
5.2668604
11
14.0529354
21
5.3139604
0
LINE
8
DEFAULT_255_2_778
10
14.0529354
20
5.3139604
11
14.0492354
21
5.3607604
0
LINE
8
DEFAULT_255_2_778
10
14.0492354
20
5.3607604
11
14.0423354
21
5.4192604
0
LINE
8
DEFAULT_255_2_778
10
14.0423354
20
5.4192604
11
14.0310354
21
5.4777604
0
LINE
8
DEFAULT_255_2_778
10
14.0310354
20
5.4777604
11
14.0124354
21
5.5345604
0
LINE
8
DEFAULT_255_2_778
10
14.0124354
20
5.5345604
11
13.9608354
21
5.6152604
0
LINE
8
DEFAULT_255_2_778
10
13.9608354
20
5.6152604
11
13.8029354
21
5.6496604
0
LINE
8
DEFAULT_255_2_778
10
13.8029354
20
5.6496604
11
13.7095354
21
5.5795604
0
LINE
8
DEFAULT_255_2_778
10
13.7095354
20
5.5795604
11
13.6828354
21
5.5261604
0
LINE
8
DEFAULT_255_2_778
10
13.6828354
20
5.5261604
11
13.6661354
21
5.4687604
0
LINE
8
DEFAULT_255_2_778
10
13.6661354
20
5.4687604
11
13.6560354
21
5.4099604
0
LINE
8
DEFAULT_255_2_778
10
13.6560354
20
5.4099604
11
13.6507354
21
5.3628604
0
LINE
8
DEFAULT_255_2_778
10
13.6507354
20
5.3628604
11
13.6518354
21
4.7260604
0
LINE
8
DEFAULT_255_2_778
10
13.6518354
20
4.7260604
11
13.6576354
21
4.6791604
0
LINE
8
DEFAULT_255_2_778
10
13.6576354
20
4.6791604
11
13.6679354
21
4.6207604
0
LINE
8
DEFAULT_255_2_778
10
13.6679354
20
4.6207604
11
13.6843354
21
4.5638604
0
LINE
8
DEFAULT_255_2_778
10
13.6843354
20
4.5638604
11
13.7362354
21
4.4775604
0
LINE
8
DEFAULT_255_2_778
10
13.7362354
20
4.4775604
11
13.8920354
21
4.4400604
0
LINE
8
DEFAULT_255_2_778
10
13.8920354
20
4.4400604
11
13.9862354
21
4.5072604
0
LINE
8
DEFAULT_255_2_778
10
13.9862354
20
4.5072604
11
14.0153354
21
4.5656604
0
LINE
8
DEFAULT_255_2_778
10
14.0153354
20
4.5656604
11
14.0320354
21
4.6225604
0
LINE
8
DEFAULT_255_2_778
10
14.0320354
20
4.6225604
11
14.0426354
21
4.6807604
0
LINE
8
DEFAULT_255_2_778
10
14.0426354
20
4.6807604
11
14.0484354
21
4.7276604
0
LINE
8
DEFAULT_255_2_778
10
14.0484354
20
4.7276604
11
14.0524354
21
4.7744604
0
LINE
8
DEFAULT_255_2_778
10
14.0524354
20
4.7744604
11
14.0550354
21
4.8215604
0
LINE
8
DEFAULT_255_2_778
10
14.0550354
20
4.8215604
11
14.0571354
21
5.0546604
0
LINE
8
DEFAULT_255_2_778
10
14.5751625
20
5.7438948
11
14.7831625
21
5.6805948
0
LINE
8
DEFAULT_255_2_778
10
14.7831625
20
5.6805948
11
14.8850625
21
5.5646948
0
LINE
8
DEFAULT_255_2_778
10
14.8850625
20
5.5646948
11
14.9202625
21
5.4731948
0
LINE
8
DEFAULT_255_2_778
10
14.9202625
20
5.4731948
11
14.9292625
21
5.4249948
0
LINE
8
DEFAULT_255_2_778
10
14.9292625
20
5.4249948
11
14.9281625
21
5.2940948
0
LINE
8
DEFAULT_255_2_778
10
14.9281625
20
5.2940948
11
14.9165625
21
5.2376948
0
LINE
8
DEFAULT_255_2_778
10
14.9165625
20
5.2376948
11
14.8815625
21
5.1551948
0
LINE
8
DEFAULT_255_2_778
10
14.8815625
20
5.1551948
11
14.8305625
21
5.0913948
0
LINE
8
DEFAULT_255_2_778
10
14.8305625
20
5.0913948
11
14.9175625
21
4.9953948
0
LINE
8
DEFAULT_255_2_778
10
14.9175625
20
4.9953948
11
14.9403625
21
4.9408948
0
LINE
8
DEFAULT_255_2_778
10
14.9403625
20
4.9408948
11
14.9517625
21
4.8979948
0
LINE
8
DEFAULT_255_2_778
10
14.9517625
20
4.8979948
11
14.9588625
21
4.8548948
0
LINE
8
DEFAULT_255_2_778
10
14.9588625
20
4.8548948
11
14.9580625
21
4.6799948
0
LINE
8
DEFAULT_255_2_778
10
14.9580625
20
4.6799948
11
14.9479625
21
4.6219948
0
LINE
8
DEFAULT_255_2_778
10
14.9479625
20
4.6219948
11
14.9363625
21
4.5793948
0
LINE
8
DEFAULT_255_2_778
10
14.9363625
20
4.5793948
11
14.9133625
21
4.5256948
0
LINE
8
DEFAULT_255_2_778
10
14.9133625
20
4.5256948
11
14.8728625
21
4.4653948
0
LINE
8
DEFAULT_255_2_778
10
14.8728625
20
4.4653948
11
14.8077625
21
4.4071948
0
LINE
8
DEFAULT_255_2_778
10
14.8077625
20
4.4071948
11
14.7008625
21
4.3600948
0
LINE
8
DEFAULT_255_2_778
10
14.7008625
20
4.3600948
11
14.5704625
21
4.3460948
0
LINE
8
DEFAULT_255_2_778
10
14.5704625
20
4.3460948
11
14.3275625
21
4.3460948
0
LINE
8
DEFAULT_255_2_778
10
14.3275625
20
4.3460948
11
14.3275625
21
5.7440948
0
LINE
8
DEFAULT_255_2_778
10
14.3275625
20
5.7440948
11
14.5751625
21
5.7438948
0
LINE
8
DEFAULT_255_2_778
10
14.6773625
20
5.0349948
11
14.4066625
21
5.0349948
0
LINE
8
DEFAULT_255_2_778
10
14.4066625
20
5.0349948
11
14.4066625
21
4.4428948
0
LINE
8
DEFAULT_255_2_778
10
14.4066625
20
4.4428948
11
14.7270625
21
4.4674948
0
LINE
8
DEFAULT_255_2_778
10
14.7270625
20
4.4674948
11
14.8191625
21
4.5365948
0
LINE
8
DEFAULT_255_2_778
10
14.8191625
20
4.5365948
11
14.8617625
21
4.6145948
0
LINE
8
DEFAULT_255_2_778
10
14.8617625
20
4.6145948
11
14.8776625
21
4.6754948
0
LINE
8
DEFAULT_255_2_778
10
14.8776625
20
4.6754948
11
14.8760625
21
4.8709948
0
LINE
8
DEFAULT_255_2_778
10
14.8760625
20
4.8709948
11
14.8617625
21
4.9222948
0
LINE
8
DEFAULT_255_2_778
10
14.8617625
20
4.9222948
11
14.8302625
21
4.9759948
0
LINE
8
DEFAULT_255_2_778
10
14.8302625
20
4.9759948
11
14.7569625
21
5.0238948
0
LINE
8
DEFAULT_255_2_778
10
14.7569625
20
5.0238948
11
14.6773625
21
5.0349948
0
LINE
8
DEFAULT_255_2_778
10
14.5751625
20
5.6445948
11
14.4066625
21
5.6445948
0
LINE
8
DEFAULT_255_2_778
10
14.4066625
20
5.6445948
11
14.4066625
21
5.1320948
0
LINE
8
DEFAULT_255_2_778
10
14.4066625
20
5.1320948
11
14.7847625
21
5.1707948
0
LINE
8
DEFAULT_255_2_778
10
14.7847625
20
5.1707948
11
14.8270625
21
5.2286948
0
LINE
8
DEFAULT_255_2_778
10
14.8270625
20
5.2286948
11
14.8445625
21
5.2794948
0
LINE
8
DEFAULT_255_2_778
10
14.8445625
20
5.2794948
11
14.8506625
21
5.3149948
0
LINE
8
DEFAULT_255_2_778
10
14.8506625
20
5.3149948
11
14.8487625
21
5.4220948
0
LINE
8
DEFAULT_255_2_778
10
14.8487625
20
5.4220948
11
14.8379625
21
5.4654948
0
LINE
8
DEFAULT_255_2_778
10
14.8379625
20
5.4654948
11
14.8014625
21
5.5369948
0
LINE
8
DEFAULT_255_2_778
10
14.8014625
20
5.5369948
11
14.7143625
21
5.6120948
0
LINE
8
DEFAULT_255_2_778
10
14.7143625
20
5.6120948
11
14.5751625
21
5.6445948
0
LINE
8
DEFAULT_255_2_778
10
15.4335625
20
5.7517948
11
15.6406625
21
5.7210948
0
LINE
8
DEFAULT_255_2_778
10
15.6406625
20
5.7210948
11
15.7372625
21
5.6575948
0
LINE
8
DEFAULT_255_2_778
10
15.7372625
20
5.6575948
11
15.7816625
21
5.6038948
0
LINE
8
DEFAULT_255_2_778
10
15.7816625
20
5.6038948
11
15.8168625
21
5.5437948
0
LINE
8
DEFAULT_255_2_778
10
15.8168625
20
5.5437948
11
15.8438625
21
5.4794948
0
LINE
8
DEFAULT_255_2_778
10
15.8438625
20
5.4794948
11
15.8639625
21
5.4128948
0
LINE
8
DEFAULT_255_2_778
10
15.8639625
20
5.4128948
11
15.8740625
21
5.3678948
0
LINE
8
DEFAULT_255_2_778
10
15.8740625
20
5.3678948
11
15.8819625
21
5.3223948
0
LINE
8
DEFAULT_255_2_778
10
15.8819625
20
5.3223948
11
15.8880625
21
5.2762948
0
LINE
8
DEFAULT_255_2_778
10
15.8880625
20
5.2762948
11
15.8928625
21
5.2299948
0
LINE
8
DEFAULT_255_2_778
10
15.8928625
20
5.2299948
11
15.8920625
21
4.8598948
0
LINE
8
DEFAULT_255_2_778
10
15.8920625
20
4.8598948
11
15.8864625
21
4.8138948
0
LINE
8
DEFAULT_255_2_778
10
15.8864625
20
4.8138948
11
15.8793625
21
4.7677948
0
LINE
8
DEFAULT_255_2_778
10
15.8793625
20
4.7677948
11
15.8653625
21
4.6995948
0
LINE
8
DEFAULT_255_2_778
10
15.8653625
20
4.6995948
11
15.8467625
21
4.6320948
0
LINE
8
DEFAULT_255_2_778
10
15.8467625
20
4.6320948
11
15.8221625
21
4.5666948
0
LINE
8
DEFAULT_255_2_778
10
15.8221625
20
4.5666948
11
15.7779625
21
4.4851948
0
LINE
8
DEFAULT_255_2_778
10
15.7779625
20
4.4851948
11
15.7134625
21
4.4185948
0
LINE
8
DEFAULT_255_2_778
10
15.7134625
20
4.4185948
11
15.6306625
21
4.3767948
0
LINE
8
DEFAULT_255_2_778
10
15.6306625
20
4.3767948
11
15.4483625
21
4.3449948
0
LINE
8
DEFAULT_255_2_778
10
15.4483625
20
4.3449948
11
15.2631625
21
4.3555948
0
LINE
8
DEFAULT_255_2_778
10
15.2631625
20
4.3555948
11
15.2631625
21
5.7496948
0
LINE
8
DEFAULT_255_2_778
10
15.2631625
20
5.7496948
11
15.4335625
21
5.7517948
0
LINE
8
DEFAULT_255_2_778
10
15.3422625
20
4.4468948
11
15.5520625
21
4.4568948
0
LINE
8
DEFAULT_255_2_778
10
15.5520625
20
4.4568948
11
15.6819625
21
4.5090948
0
LINE
8
DEFAULT_255_2_778
10
15.6819625
20
4.5090948
11
15.7277625
21
4.5619948
0
LINE
8
DEFAULT_255_2_778
10
15.7277625
20
4.5619948
11
15.7600625
21
4.6238948
0
LINE
8
DEFAULT_255_2_778
10
15.7600625
20
4.6238948
11
15.7830625
21
4.6894948
0
LINE
8
DEFAULT_255_2_778
10
15.7830625
20
4.6894948
11
15.7991625
21
4.7574948
0
LINE
8
DEFAULT_255_2_778
10
15.7991625
20
4.7574948
11
15.8108625
21
4.8262948
0
LINE
8
DEFAULT_255_2_778
10
15.8108625
20
4.8262948
11
15.8168625
21
4.8780948
0
LINE
8
DEFAULT_255_2_778
10
15.8168625
20
4.8780948
11
15.8158625
21
5.2247948
0
LINE
8
DEFAULT_255_2_778
10
15.8158625
20
5.2247948
11
15.8102625
21
5.2765948
0
LINE
8
DEFAULT_255_2_778
10
15.8102625
20
5.2765948
11
15.8020625
21
5.3281948
0
LINE
8
DEFAULT_255_2_778
10
15.8020625
20
5.3281948
11
15.7864625
21
5.3961948
0
LINE
8
DEFAULT_255_2_778
10
15.7864625
20
5.3961948
11
15.7642625
21
5.4620948
0
LINE
8
DEFAULT_255_2_778
10
15.7642625
20
5.4620948
11
15.7335625
21
5.5242948
0
LINE
8
DEFAULT_255_2_778
10
15.7335625
20
5.5242948
11
15.6711625
21
5.5964948
0
LINE
8
DEFAULT_255_2_778
10
15.6711625
20
5.5964948
11
15.5684625
21
5.6422948
0
LINE
8
DEFAULT_255_2_778
10
15.5684625
20
5.6422948
11
15.4647625
21
5.6504948
0
LINE
8
DEFAULT_255_2_778
10
15.4647625
20
5.6504948
11
15.3424625
21
5.6504948
0
LINE
8
DEFAULT_255_2_778
10
15.3424625
20
5.6504948
11
15.3422625
21
4.4468948
0
LINE
8
DEFAULT_255_2_778
10
16.0503354
20
4.9472604
11
16.0522354
21
5.2768604
0
LINE
8
DEFAULT_255_2_778
10
16.0522354
20
5.2768604
11
16.0548354
21
5.3261604
0
LINE
8
DEFAULT_255_2_778
10
16.0548354
20
5.3261604
11
16.0590354
21
5.3750604
0
LINE
8
DEFAULT_255_2_778
10
16.0590354
20
5.3750604
11
16.0651354
21
5.4239604
0
LINE
8
DEFAULT_255_2_778
10
16.0651354
20
5.4239604
11
16.0786354
21
5.4970604
0
LINE
8
DEFAULT_255_2_778
10
16.0786354
20
5.4970604
11
16.0998354
21
5.5695604
0
LINE
8
DEFAULT_255_2_778
10
16.0998354
20
5.5695604
11
16.1326354
21
5.6375604
0
LINE
8
DEFAULT_255_2_778
10
16.1326354
20
5.6375604
11
16.1807354
21
5.6962604
0
LINE
8
DEFAULT_255_2_778
10
16.1807354
20
5.6962604
11
16.2564354
21
5.7409604
0
LINE
8
DEFAULT_255_2_778
10
16.2564354
20
5.7409604
11
16.3691354
21
5.7515604
0
LINE
8
DEFAULT_255_2_778
10
16.3691354
20
5.7515604
11
16.4747354
21
5.7110604
0
LINE
8
DEFAULT_255_2_778
10
16.4747354
20
5.7110604
11
16.5350354
21
5.6465604
0
LINE
8
DEFAULT_255_2_778
10
16.5350354
20
5.6465604
11
16.5697354
21
5.5795604
0
LINE
8
DEFAULT_255_2_778
10
16.5697354
20
5.5795604
11
16.5924354
21
5.5070604
0
LINE
8
DEFAULT_255_2_778
10
16.5924354
20
5.5070604
11
16.6025354
21
5.4575604
0
LINE
8
DEFAULT_255_2_778
10
16.6025354
20
5.4575604
11
16.6096354
21
5.4075604
0
LINE
8
DEFAULT_255_2_778
10
16.6096354
20
5.4075604
11
16.6075354
21
4.6717604
0
LINE
8
DEFAULT_255_2_778
10
16.6075354
20
4.6717604
11
16.5953354
21
4.6032604
0
LINE
8
DEFAULT_255_2_778
10
16.5953354
20
4.6032604
11
16.5763354
21
4.5349604
0
LINE
8
DEFAULT_255_2_778
10
16.5763354
20
4.5349604
11
16.5477354
21
4.4696604
0
LINE
8
DEFAULT_255_2_778
10
16.5477354
20
4.4696604
11
16.4641354
21
4.3725604
0
LINE
8
DEFAULT_255_2_778
10
16.4641354
20
4.3725604
11
16.3419354
21
4.3360604
0
LINE
8
DEFAULT_255_2_778
10
16.3419354
20
4.3360604
11
16.1940354
21
4.3825604
0
LINE
8
DEFAULT_255_2_778
10
16.1940354
20
4.3825604
11
16.1368354
21
4.4463604
0
LINE
8
DEFAULT_255_2_778
10
16.1368354
20
4.4463604
11
16.1037354
21
4.5093604
0
LINE
8
DEFAULT_255_2_778
10
16.1037354
20
4.5093604
11
16.0815354
21
4.5775604
0
LINE
8
DEFAULT_255_2_778
10
16.0815354
20
4.5775604
11
16.0670354
21
4.6477604
0
LINE
8
DEFAULT_255_2_778
10
16.0670354
20
4.6477604
11
16.0609354
21
4.6900604
0
LINE
8
DEFAULT_255_2_778
10
16.0609354
20
4.6900604
11
16.0577354
21
4.7183604
0
LINE
8
DEFAULT_255_2_778
10
16.0577354
20
4.7183604
11
16.0551354
21
4.7466604
0
LINE
8
DEFAULT_255_2_778
10
16.0551354
20
4.7466604
11
16.0532354
21
4.7752604
0
LINE
8
DEFAULT_255_2_778
10
16.0532354
20
4.7752604
11
16.0508354
21
4.8323604
0
LINE
8
DEFAULT_255_2_778
10
16.0508354
20
4.8323604
11
16.0503354
21
4.9472604
0
LINE
8
DEFAULT_255_2_778
10
16.5437354
20
5.0546604
11
16.5419354
21
5.2668604
0
LINE
8
DEFAULT_255_2_778
10
16.5419354
20
5.2668604
11
16.5395354
21
5.3139604
0
LINE
8
DEFAULT_255_2_778
10
16.5395354
20
5.3139604
11
16.5358354
21
5.3607604
0
LINE
8
DEFAULT_255_2_778
10
16.5358354
20
5.3607604
11
16.5289354
21
5.4192604
0
LINE
8
DEFAULT_255_2_778
10
16.5289354
20
5.4192604
11
16.5176354
21
5.4777604
0
LINE
8
DEFAULT_255_2_778
10
16.5176354
20
5.4777604
11
16.4990354
21
5.5345604
0
LINE
8
DEFAULT_255_2_778
10
16.4990354
20
5.5345604
11
16.4474354
21
5.6152604
0
LINE
8
DEFAULT_255_2_778
10
16.4474354
20
5.6152604
11
16.2895354
21
5.6496604
0
LINE
8
DEFAULT_255_2_778
10
16.2895354
20
5.6496604
11
16.1961354
21
5.5795604
0
LINE
8
DEFAULT_255_2_778
10
16.1961354
20
5.5795604
11
16.1694354
21
5.5261604
0
LINE
8
DEFAULT_255_2_778
10
16.1694354
20
5.5261604
11
16.1527354
21
5.4687604
0
LINE
8
DEFAULT_255_2_778
10
16.1527354
20
5.4687604
11
16.1426354
21
5.4099604
0
LINE
8
DEFAULT_255_2_778
10
16.1426354
20
5.4099604
11
16.1373354
21
5.3628604
0
LINE
8
DEFAULT_255_2_778
10
16.1373354
20
5.3628604
11
16.1384354
21
4.7260604
0
LINE
8
DEFAULT_255_2_778
10
16.1384354
20
4.7260604
11
16.1442354
21
4.6791604
0
LINE
8
DEFAULT_255_2_778
10
16.1442354
20
4.6791604
11
16.1545354
21
4.6207604
0
LINE
8
DEFAULT_255_2_778
10
16.1545354
20
4.6207604
11
16.1709354
21
4.5638604
0
LINE
8
DEFAULT_255_2_778
10
16.1709354
20
4.5638604
11
16.2228354
21
4.4775604
0
LINE
8
DEFAULT_255_2_778
10
16.2228354
20
4.4775604
11
16.3786354
21
4.4400604
0
LINE
8
DEFAULT_255_2_778
10
16.3786354
20
4.4400604
11
16.4728354
21
4.5072604
0
LINE
8
DEFAULT_255_2_778
10
16.4728354
20
4.5072604
11
16.5019354
21
4.5656604
0
LINE
8
DEFAULT_255_2_778
10
16.5019354
20
4.5656604
11
16.5186354
21
4.6225604
0
LINE
8
DEFAULT_255_2_778
10
16.5186354
20
4.6225604
11
16.5292354
21
4.6807604
0
LINE
8
DEFAULT_255_2_778
10
16.5292354
20
4.6807604
11
16.5350354
21
4.7276604
0
LINE
8
DEFAULT_255_2_778
10
16.5350354
20
4.7276604
11
16.5390354
21
4.7744604
0
LINE
8
DEFAULT_255_2_778
10
16.5390354
20
4.7744604
11
16.5416354
21
4.8215604
0
LINE
8
DEFAULT_255_2_778
10
16.5416354
20
4.8215604
11
16.5437354
21
5.0546604
0
ENDSEC
0
EOF