0
SECTION
2
HEADER
9
$MEASUREMENT
70
1
0
ENDSEC
0
SECTION
2
TABLES
0
TABLE
2
LTYPE
0
LTYPE
72
65
70
64
2
CONTINUOUS
3
______
73
0
40
0
0
ENDTAB
0
TABLE
2
LAYER
0
LAYER
2
DEFAULT_255_2_778
70
0
62
255
6
CONTINUOUS
0
ENDTAB
0
ENDSEC
0
SECTION
2
ENTITIES
0
ARC
8
DEFAULT_255_2_778
10
57.4805986
20
3.7169465
40
0.3001133
50
275.0121548
51
357.466564
0
ARC
8
DEFAULT_255_2_778
10
-691.5540427
20
36.4056859
40
750.0477025
50
357.5011176
51
359.9999861
0
ARC
8
DEFAULT_255_2_778
10
-691.5239846
20
36.4056263
40
750.0176445
50
359.9999907
51
0.0933096
0
ARC
8
DEFAULT_255_2_778
10
-691.5086513
20
36.4056308
40
750.002311
50
0.0933111
51
1.9274553
0
ARC
8
DEFAULT_255_2_778
10
58.2798384
20
61.6374508
40
0.2106101
50
179.9999063
51
181.6787852
0
ARC
8
DEFAULT_255_2_778
10
58.2969391
20
61.6374034
40
0.2277109
50
179.7478609
51
179.9879927
0
ARC
8
DEFAULT_255_2_778
10
58.2698103
20
61.6381421
40
0.2005801
50
158.5534517
51
179.9247468
0
ARC
8
DEFAULT_255_2_778
10
55.9439986
20
62.5553517
40
2.2995549
50
338.4710415
51
359.392544
0
ARC
8
DEFAULT_255_2_778
10
55.9405147
20
62.5554607
40
2.3030398
50
359.3907513
51
359.9995199
0
ARC
8
DEFAULT_255_2_778
10
55.9433483
20
62.5555301
40
2.3002061
50
359.9977914
51
25.5382671
0
ARC
8
DEFAULT_255_2_778
10
32.3301124
20
72.2965638
40
0.6999647
50
2.9986596
51
89.9618813
0
ARC
8
DEFAULT_255_2_778
10
32.3305899
20
72.2848524
40
0.7116759
50
90.000955
51
91.5114179
0
ARC
8
DEFAULT_255_2_778
10
32.9949135
20
47.0019975
40
26.0032571
50
91.5053096
51
112.4145952
0
LINE
8
DEFAULT_255_2_778
10
54.4940187
20
38.1053808
11
54.494396
21
38.1053808
0
ARC
8
DEFAULT_255_2_778
10
54.494367
20
37.2054788
40
0.8999021
50
45.0067674
51
89.9981546
0
ARC
8
DEFAULT_255_2_778
10
54.4946381
20
37.2058034
40
0.8994808
50
359.9907714
51
45.0043594
0
LINE
8
DEFAULT_255_2_778
10
55.3941187
20
37.2056585
11
55.3941187
21
37.2052808
0
LINE
8
DEFAULT_255_2_778
10
55.3941187
20
35.6052808
11
55.3941187
21
35.604903
0
ARC
8
DEFAULT_255_2_778
10
54.4946381
20
35.6047581
40
0.8994807
50
314.9956406
51
0.0092286
0
ARC
8
DEFAULT_255_2_778
10
54.494367
20
35.6050828
40
0.8999021
50
270.0018454
51
314.9932326
0
LINE
8
DEFAULT_255_2_778
10
54.494396
20
34.7051807
11
54.4940187
21
34.7051808
0
LINE
8
DEFAULT_255_2_778
10
1.3937187
20
65.7304808
11
2.1938187
21
65.7304808
0
LINE
8
DEFAULT_255_2_778
10
2.1938187
20
65.7304808
11
2.1938187
21
50.3803808
0
LINE
8
DEFAULT_255_2_778
10
2.1938187
20
50.3803808
11
1.3937187
21
50.3803808
0
LINE
8
DEFAULT_255_2_778
10
1.3937187
20
50.3803808
11
1.3937187
21
65.7304808
0
LINE
8
DEFAULT_255_2_778
10
5.7821187
20
63.9556808
11
5.7821187
21
68.7049808
0
LINE
8
DEFAULT_255_2_778
10
5.7821187
20
68.7049808
11
19.7764187
21
68.7554808
0
LINE
8
DEFAULT_255_2_778
10
17.3965187
20
69.2343808
11
17.2941187
21
70.4053808
0
LINE
8
DEFAULT_255_2_778
10
17.2941187
20
70.4053808
11
17.0941187
21
70.4053808
0
LINE
8
DEFAULT_255_2_778
10
17.0941187
20
70.4053808
11
15.0303187
21
69.2137808
0
LINE
8
DEFAULT_255_2_778
10
56.7937187
20
3.3554808
11
57.5068187
21
3.4179808
0
LINE
8
DEFAULT_255_2_778
10
33.1053187
20
70.8806808
11
33.0291187
21
72.3331808
0
LINE
8
DEFAULT_255_2_778
10
55.3941187
20
37.2052808
11
55.3941187
21
35.6052808
0
LINE
8
DEFAULT_255_2_778
10
54.4940187
20
34.7051808
11
53.5939187
21
34.7051808
0
LINE
8
DEFAULT_255_2_778
10
53.5939187
20
34.7051808
11
53.5939187
21
38.1050808
0
LINE
8
DEFAULT_255_2_778
10
53.5939187
20
38.1050808
11
54.4940187
21
38.1050808
0
LINE
8
DEFAULT_255_2_778
10
2.1938187
20
50.5804808
11
4.9939187
21
50.5804808
0
ARC
8
DEFAULT_255_2_778
10
6.4938858
20
92.2539094
40
28.2984447
50
269.9997752
51
284.6960126
0
ARC
8
DEFAULT_255_2_778
10
6.4946816
20
92.2517811
40
28.2961841
50
284.6955471
51
297.8722001
0
ARC
8
DEFAULT_255_2_778
10
21.4934384
20
-320.4687792
40
391.5243438
50
84.8271292
51
89.9999508
0
ARC
8
DEFAULT_255_2_778
10
21.4950979
20
393.2432742
40
391.4876095
50
269.9998064
51
275.1731137
0
ARC
8
DEFAULT_255_2_778
10
57.4807814
20
69.094416
40
0.2998774
50
2.4939256
51
85.027366
0
LINE
8
DEFAULT_255_2_778
10
4.9938747
20
63.9554647
11
6.4937747
21
63.9554647
0
LINE
8
DEFAULT_255_2_778
10
19.7231747
20
67.2381647
11
19.8565747
21
71.0555647
0
LINE
8
DEFAULT_255_2_778
10
19.8565747
20
71.0555647
11
21.4937747
21
71.0555647
0
LINE
8
DEFAULT_255_2_778
10
56.7936747
20
69.4609647
11
56.7936747
21
3.3502647
0
LINE
8
DEFAULT_255_2_778
10
21.4937747
20
1.7556647
11
5.9939747
21
1.7556647
0
LINE
8
DEFAULT_255_2_778
10
5.9939747
20
1.7556647
11
4.9938747
21
2.3329647
0
LINE
8
DEFAULT_255_2_778
10
4.9938747
20
2.3329647
11
4.9938747
21
68.6782647
0
LINE
8
DEFAULT_255_2_778
10
4.9938747
20
68.6782647
11
5.7820747
21
69.1333647
0
LINE
8
DEFAULT_255_2_778
10
5.7820747
20
69.1333647
11
19.7938747
21
69.2555647
0
LINE
8
DEFAULT_255_2_778
10
2.1937747
20
65.5305647
11
4.9938747
21
65.5305647
0
LINE
8
DEFAULT_255_2_778
10
57.7890747
20
68.9058647
11
57.9994747
21
63.6260647
0
LINE
8
DEFAULT_255_2_778
10
57.9994747
20
63.6260647
11
57.7803747
21
69.1074647
0
LINE
8
DEFAULT_255_2_778
10
57.5067747
20
69.3931647
11
56.7936747
21
69.4556647
0
ARC
8
DEFAULT_255_2_778
10
32.9940308
20
25.8047886
40
25.9993831
50
247.5734033
51
268.4958834
0
ARC
8
DEFAULT_255_2_778
10
32.3303599
20
0.5265239
40
0.7124077
50
268.4893539
51
269.9990305
0
ARC
8
DEFAULT_255_2_778
10
32.3299342
20
0.514016
40
0.6998999
50
270.0338644
51
357.0063693
0
ARC
8
DEFAULT_255_2_778
10
58.204366
20
63.634433
40
0.2048581
50
182.3414082
51
205.1829684
0
LINE
8
DEFAULT_255_2_778
10
33.0288789
20
0.4774638
11
33.1050789
21
1.9299638
0
LINE
8
DEFAULT_255_2_778
10
3.5936789
20
8.0204638
11
2.0937789
21
8.0204638
0
LINE
8
DEFAULT_255_2_778
10
2.0937789
20
8.0204638
11
2.0937789
21
31.0905638
0
LINE
8
DEFAULT_255_2_778
10
2.0937789
20
31.0905638
11
3.5936789
21
31.0905638
0
LINE
8
DEFAULT_255_2_778
10
4.9936678
20
33.0555578
11
4.5935678
21
33.0555578
0
LINE
8
DEFAULT_255_2_778
10
4.5935678
20
33.0555578
11
3.5934678
21
32.0554578
0
LINE
8
DEFAULT_255_2_778
10
3.5934678
20
32.0554578
11
3.5934678
21
7.0554578
0
LINE
8
DEFAULT_255_2_778
10
3.5934678
20
7.0554578
11
4.5935678
21
6.0553578
0
LINE
8
DEFAULT_255_2_778
10
4.5935678
20
6.0553578
11
4.9936678
21
6.0553578
0
LINE
8
DEFAULT_255_2_778
10
4.9939678
20
42.8366578
11
0.2438678
21
42.8366578
0
LINE
8
DEFAULT_255_2_778
10
4.9939678
20
39.2743578
11
0.2438678
21
39.2743578
0
LINE
8
DEFAULT_255_2_778
10
4.9939678
20
36.7555082
11
0.2438678
21
36.7555082
0
LINE
8
DEFAULT_255_2_778
10
0.2438678
20
36.7555082
11
0.2438678
21
45.3555082
0
LINE
8
DEFAULT_255_2_778
10
0.2438678
20
45.3555082
11
4.9939678
21
45.3555082
0
ENDSEC
0
EOF