0
SECTION
2
HEADER
9
$MEASUREMENT
70
1
0
ENDSEC
0
SECTION
2
TABLES
0
TABLE
2
LTYPE
0
LTYPE
72
65
70
64
2
CONTINUOUS
3
______
73
0
40
0
0
ENDTAB
0
TABLE
2
LAYER
0
LAYER
2
DEFAULT_255_2_778
70
0
62
255
6
CONTINUOUS
0
ENDTAB
0
ENDSEC
0
SECTION
2
ENTITIES
0
LINE
8
DEFAULT_255_2_778
10
14.1668731
20
26.4228647
11
1.1667731
21
26.4228647
0
LINE
8
DEFAULT_255_2_778
10
1.1667731
20
26.4228647
11
1.1667731
21
29.6229647
0
LINE
8
DEFAULT_255_2_778
10
1.1667731
20
29.6229647
11
1.8668731
21
30.3230647
0
LINE
8
DEFAULT_255_2_778
10
1.8668731
20
30.3230647
11
1.8668731
21
55.0229647
0
LINE
8
DEFAULT_255_2_778
10
1.8668731
20
55.0229647
11
1.1667731
21
55.7230647
0
LINE
8
DEFAULT_255_2_778
10
1.1667731
20
55.7230647
11
1.1667731
21
58.9449647
0
LINE
8
DEFAULT_255_2_778
10
1.1667731
20
58.9449647
11
14.1668731
21
58.9449647
0
LINE
8
DEFAULT_255_2_778
10
14.1668731
20
58.9449647
11
14.1668731
21
55.7230647
0
LINE
8
DEFAULT_255_2_778
10
14.1668731
20
55.7230647
11
13.4667731
21
55.0229647
0
LINE
8
DEFAULT_255_2_778
10
13.4667731
20
55.0229647
11
13.4667731
21
30.3230647
0
LINE
8
DEFAULT_255_2_778
10
13.4667731
20
30.3230647
11
14.1668731
21
29.6229647
0
LINE
8
DEFAULT_255_2_778
10
14.1668731
20
29.6229647
11
14.1668731
21
26.4228647
0
LINE
8
DEFAULT_255_2_778
10
5.0646731
20
2.0060647
11
5.0646731
21
1.7732647
0
LINE
8
DEFAULT_255_2_778
10
5.0646731
20
1.7732647
11
1.0826731
21
1.7732647
0
LINE
8
DEFAULT_255_2_778
10
10.2568731
20
2.0060647
11
10.2568731
21
1.7732647
0
LINE
8
DEFAULT_255_2_778
10
10.2568731
20
1.7732647
11
14.2499731
21
1.7732647
0
LINE
8
DEFAULT_255_2_778
10
14.2499731
20
71.0731647
11
10.2568731
21
71.0731647
0
LINE
8
DEFAULT_255_2_778
10
10.2568731
20
71.0731647
11
10.2568731
21
70.8403647
0
LINE
8
DEFAULT_255_2_778
10
15.1666825
20
69.3888583
11
15.1666825
21
71.0731583
0
LINE
8
DEFAULT_255_2_778
10
15.1666825
20
71.0731583
11
14.2499825
21
71.0731583
0
LINE
8
DEFAULT_255_2_778
10
14.2499825
20
71.0731583
11
14.2499825
21
70.8403583
0
LINE
8
DEFAULT_255_2_778
10
14.2499825
20
70.8403583
11
1.0826825
21
70.8403583
0
LINE
8
DEFAULT_255_2_778
10
1.0826825
20
70.8403583
11
1.0826825
21
71.0731583
0
LINE
8
DEFAULT_255_2_778
10
1.0826825
20
71.0731583
11
5.0646825
21
71.0731583
0
LINE
8
DEFAULT_255_2_778
10
5.0646825
20
71.0731583
11
5.0646825
21
70.8403583
0
LINE
8
DEFAULT_255_2_778
10
9.4493825
20
70.8403583
11
9.4493825
21
73.0231583
0
LINE
8
DEFAULT_255_2_778
10
9.4493825
20
73.0231583
11
5.8843825
21
73.0231583
0
LINE
8
DEFAULT_255_2_778
10
5.8843825
20
73.0231583
11
5.8843825
21
70.8403583
0
LINE
8
DEFAULT_255_2_778
10
15.166671
20
3.4572865
11
0.166671
21
3.4572865
0
LINE
8
DEFAULT_255_2_778
10
0.166671
20
3.4572865
11
0.166671
21
1.7732865
0
LINE
8
DEFAULT_255_2_778
10
0.166671
20
1.7732865
11
1.082671
21
1.7732865
0
LINE
8
DEFAULT_255_2_778
10
1.082671
20
1.7732865
11
1.082671
21
2.0060865
0
LINE
8
DEFAULT_255_2_778
10
1.082671
20
2.0060865
11
14.249671
21
2.0060865
0
LINE
8
DEFAULT_255_2_778
10
14.249671
20
2.0060865
11
14.249671
21
1.7732865
0
LINE
8
DEFAULT_255_2_778
10
14.249671
20
1.7732865
11
15.166471
21
1.7732865
0
LINE
8
DEFAULT_255_2_778
10
15.166471
20
1.7732865
11
15.166471
21
69.3888865
0
LINE
8
DEFAULT_255_2_778
10
15.166471
20
69.3888865
11
0.166671
21
69.3888865
0
LINE
8
DEFAULT_255_2_778
10
0.166671
20
69.3888865
11
0.166671
21
71.0731865
0
LINE
8
DEFAULT_255_2_778
10
0.166671
20
71.0731865
11
1.082671
21
71.0731865
0
LINE
8
DEFAULT_255_2_778
10
14.135071
20
24.7329865
11
14.135071
21
24.7358865
0
LINE
8
DEFAULT_255_2_778
10
14.135071
20
24.7358865
11
9.585071
21
24.7358865
0
LINE
8
DEFAULT_255_2_778
10
9.585071
20
24.7358865
11
9.585071
21
20.1834865
0
LINE
8
DEFAULT_255_2_778
10
9.585071
20
20.1834865
11
14.135071
21
20.1834865
0
LINE
8
DEFAULT_255_2_778
10
14.135071
20
20.1834865
11
14.135071
21
24.7329865
0
LINE
8
DEFAULT_255_2_778
10
14.135071
20
24.7329865
11
9.585071
21
24.7329865
0
LINE
8
DEFAULT_255_2_778
10
5.884271
20
2.0057865
11
5.884271
21
-0.1770135
0
LINE
8
DEFAULT_255_2_778
10
5.884271
20
-0.1770135
11
9.449271
21
-0.1770135
0
LINE
8
DEFAULT_255_2_778
10
9.449271
20
-0.1770135
11
9.449271
21
2.0057865
0
LINE
8
DEFAULT_255_2_778
10
0.166671
20
69.3888865
11
0.166671
21
63.6010865
0
LINE
8
DEFAULT_255_2_778
10
0.166671
20
61.6912865
11
0.166671
21
3.4572865
0
LINE
8
DEFAULT_255_2_778
10
2.215571
20
9.1373865
11
1.116271
21
9.1349865
0
LINE
8
DEFAULT_255_2_778
10
1.116271
20
9.1349865
11
1.116271
21
8.0353865
0
LINE
8
DEFAULT_255_2_778
10
1.116271
20
8.0353865
11
2.215571
21
8.0353865
0
LINE
8
DEFAULT_255_2_778
10
2.215571
20
8.0353865
11
2.215571
21
9.1373865
0
LINE
8
DEFAULT_255_2_778
10
14.166871
20
57.4230865
11
1.166771
21
57.4230865
0
LINE
8
DEFAULT_255_2_778
10
15.166671
20
63.6013865
11
0.166671
21
63.6013865
0
LINE
8
DEFAULT_255_2_778
10
0.166671
20
63.6013865
11
0.166671
21
61.6912865
0
LINE
8
DEFAULT_255_2_778
10
0.166671
20
61.6912865
11
15.166671
21
61.6912865
0
LINE
8
DEFAULT_255_2_778
10
1.111471
20
62.1315865
11
2.211071
21
62.1315865
0
LINE
8
DEFAULT_255_2_778
10
2.211071
20
62.1315865
11
2.211071
21
63.2361865
0
LINE
8
DEFAULT_255_2_778
10
2.211071
20
63.2361865
11
1.111471
21
63.2361865
0
LINE
8
DEFAULT_255_2_778
10
1.111471
20
63.2361865
11
1.111471
21
62.1315865
0
LINE
8
DEFAULT_255_2_778
10
6.265271
20
24.7319865
11
5.165471
21
24.7319865
0
LINE
8
DEFAULT_255_2_778
10
5.165471
20
24.7319865
11
5.165471
21
23.6288865
0
LINE
8
DEFAULT_255_2_778
10
5.165471
20
23.6288865
11
6.265271
21
23.6288865
0
LINE
8
DEFAULT_255_2_778
10
6.265271
20
23.6288865
11
6.265271
21
24.7319865
0
LINE
8
DEFAULT_255_2_778
10
6.265571
20
22.7821865
11
5.165671
21
22.7821865
0
LINE
8
DEFAULT_255_2_778
10
5.165671
20
22.7821865
11
5.165671
21
21.6796865
0
LINE
8
DEFAULT_255_2_778
10
5.165671
20
21.6796865
11
6.265571
21
21.6796865
0
LINE
8
DEFAULT_255_2_778
10
6.265571
20
21.6796865
11
6.265571
21
22.7821865
0
LINE
8
DEFAULT_255_2_778
10
1.115771
20
24.7316865
11
1.115771
21
23.6285865
0
LINE
8
DEFAULT_255_2_778
10
1.115771
20
23.6285865
11
2.215571
21
23.6285865
0
LINE
8
DEFAULT_255_2_778
10
2.215571
20
23.6285865
11
2.215571
21
24.7316865
0
LINE
8
DEFAULT_255_2_778
10
2.215571
20
24.7316865
11
1.115771
21
24.7316865
0
LINE
8
DEFAULT_255_2_778
10
2.215571
20
22.7819865
11
1.115771
21
22.7819865
0
LINE
8
DEFAULT_255_2_778
10
1.115771
20
22.7819865
11
1.115771
21
21.6796865
0
LINE
8
DEFAULT_255_2_778
10
1.115771
20
21.6796865
11
2.215571
21
21.6796865
0
LINE
8
DEFAULT_255_2_778
10
2.215571
20
21.6796865
11
2.215571
21
22.7819865
0
LINE
8
DEFAULT_255_2_778
10
15.166671
20
58.8636865
11
15.179171
21
58.8636865
0
LINE
8
DEFAULT_255_2_778
10
15.1790823
20
60.5822
11
15.1666823
21
60.5822
0
ARC
8
DEFAULT_255_2_778
10
-1052.7141037
20
3297.1456094
40
3398.2542751
50
288.0853976
51
288.0873255
0
ARC
8
DEFAULT_255_2_778
10
-19.5068863
20
133.6788652
40
70.3397699
50
287.992159
51
288.0852785
0
ARC
8
DEFAULT_255_2_778
10
3073.6397674
20
-974.8755928
40
3244.172811
50
161.2633309
51
161.2713929
0
ARC
8
DEFAULT_255_2_778
10
64.1340299
20
255.8026061
40
199.2073085
50
251.5650194
51
251.597335
0
ARC
8
DEFAULT_255_2_778
10
5194.1982901
20
-1680.0162721
40
5478.9866125
50
161.390767
51
161.4081594
0
ARC
8
DEFAULT_255_2_778
10
41955.5947726
20
13827.6595822
40
44152.4325508
50
198.1575477
51
198.1597005
0
ARC
8
DEFAULT_255_2_778
10
10.6682486
20
65.0390062
40
0.2294371
50
151.0698691
51
160.9759409
0
ARC
8
DEFAULT_255_2_778
10
10.7597879
20
64.9600448
40
0.4557363
50
122.3626698
51
135.3729373
0
LINE
8
DEFAULT_255_2_778
10
15.1791429
20
60.5872947
11
15.1667429
21
60.5872947
0
LINE
8
DEFAULT_255_2_778
10
15.1667429
20
58.8687947
11
15.1791429
21
58.8687947
0
LINE
8
DEFAULT_255_2_778
10
12.3301429
20
67.6386947
11
12.6865429
21
67.4491947
0
LINE
8
DEFAULT_255_2_778
10
12.6865429
20
67.4491947
11
12.7693429
21
67.3737947
0
LINE
8
DEFAULT_255_2_778
10
12.7693429
20
67.3737947
11
12.7923429
21
67.3354947
0
LINE
8
DEFAULT_255_2_778
10
12.7923429
20
67.3354947
11
12.8032429
21
67.3036947
0
LINE
8
DEFAULT_255_2_778
10
12.8032429
20
67.3036947
11
12.8037429
21
67.1814947
0
LINE
8
DEFAULT_255_2_778
10
12.8037429
20
67.1814947
11
12.7926429
21
67.1377947
0
LINE
8
DEFAULT_255_2_778
10
12.7926429
20
67.1377947
11
12.7677429
21
67.0756947
0
LINE
8
DEFAULT_255_2_778
10
12.7677429
20
67.0756947
11
12.7095429
21
66.9941947
0
LINE
8
DEFAULT_255_2_778
10
12.7095429
20
66.9941947
11
12.6002429
21
66.9173947
0
LINE
8
DEFAULT_255_2_778
10
12.6002429
20
66.9173947
11
12.5248429
21
66.8954947
0
LINE
8
DEFAULT_255_2_778
10
12.5248429
20
66.8954947
11
12.3465429
21
66.9060947
0
LINE
8
DEFAULT_255_2_778
10
12.3465429
20
66.9060947
11
12.2504429
21
66.9618947
0
LINE
8
DEFAULT_255_2_778
10
12.2504429
20
66.9618947
11
12.1949429
21
67.0322947
0
LINE
8
DEFAULT_255_2_778
10
12.1949429
20
67.0322947
11
12.1721429
21
67.0835947
0
LINE
8
DEFAULT_255_2_778
10
12.1721429
20
67.0835947
11
12.1637429
21
67.1163947
0
LINE
8
DEFAULT_255_2_778
10
12.1637429
20
67.1163947
11
12.0549429
21
67.0853947
0
LINE
8
DEFAULT_255_2_778
10
12.0549429
20
67.0853947
11
12.0711429
21
67.0375947
0
LINE
8
DEFAULT_255_2_778
10
12.0711429
20
67.0375947
11
12.0914429
21
66.9914947
0
LINE
8
DEFAULT_255_2_778
10
12.0914429
20
66.9914947
11
12.1465429
21
66.9078947
0
LINE
8
DEFAULT_255_2_778
10
12.1465429
20
66.9078947
11
12.2430429
21
66.8282947
0
LINE
8
DEFAULT_255_2_778
10
12.2430429
20
66.8282947
11
12.3613429
21
66.7850947
0
LINE
8
DEFAULT_255_2_778
10
12.3613429
20
66.7850947
11
12.4618429
21
66.7763947
0
LINE
8
DEFAULT_255_2_778
10
12.4618429
20
66.7763947
11
12.5859429
21
66.7948947
0
LINE
8
DEFAULT_255_2_778
10
12.5859429
20
66.7948947
11
12.6788429
21
66.8324947
0
LINE
8
DEFAULT_255_2_778
10
12.6788429
20
66.8324947
11
12.7796429
21
66.9062947
0
LINE
8
DEFAULT_255_2_778
10
12.7796429
20
66.9062947
11
12.8291429
21
66.9631947
0
LINE
8
DEFAULT_255_2_778
10
12.8291429
20
66.9631947
11
12.8688429
21
67.0274947
0
LINE
8
DEFAULT_255_2_778
10
12.8688429
20
67.0274947
11
12.8897429
21
67.0734947
0
LINE
8
DEFAULT_255_2_778
10
12.8897429
20
67.0734947
11
12.9055429
21
67.1213947
0
LINE
8
DEFAULT_255_2_778
10
12.9055429
20
67.1213947
11
12.9116429
21
67.1459947
0
LINE
8
DEFAULT_255_2_778
10
12.9116429
20
67.1459947
11
12.9164429
21
67.1708947
0
LINE
8
DEFAULT_255_2_778
10
12.9164429
20
67.1708947
11
12.9151429
21
67.3214947
0
LINE
8
DEFAULT_255_2_778
10
12.9151429
20
67.3214947
11
12.9050429
21
67.3576947
0
LINE
8
DEFAULT_255_2_778
10
12.9050429
20
67.3576947
11
12.8841429
21
67.4036947
0
LINE
8
DEFAULT_255_2_778
10
12.8841429
20
67.4036947
11
12.8127429
21
67.4912947
0
LINE
8
DEFAULT_255_2_778
10
12.8127429
20
67.4912947
11
12.7113429
21
67.5648947
0
LINE
8
DEFAULT_255_2_778
10
12.7113429
20
67.5648947
11
12.2523429
21
67.8169947
0
LINE
8
DEFAULT_255_2_778
10
12.2523429
20
67.8169947
11
12.2026429
21
67.8722947
0
LINE
8
DEFAULT_255_2_778
10
12.2026429
20
67.8722947
11
12.1859429
21
67.9058947
0
LINE
8
DEFAULT_255_2_778
10
12.1859429
20
67.9058947
11
12.1787429
21
67.9299947
0
LINE
8
DEFAULT_255_2_778
10
12.1787429
20
67.9299947
11
12.1811429
21
68.0545947
0
LINE
8
DEFAULT_255_2_778
10
12.1811429
20
68.0545947
11
12.1904429
21
68.0908947
0
LINE
8
DEFAULT_255_2_778
10
12.1904429
20
68.0908947
11
12.2097429
21
68.1368947
0
LINE
8
DEFAULT_255_2_778
10
12.2097429
20
68.1368947
11
12.2531429
21
68.1977947
0
LINE
8
DEFAULT_255_2_778
10
12.2531429
20
68.1977947
11
12.3335429
21
68.2561947
0
LINE
8
DEFAULT_255_2_778
10
12.3335429
20
68.2561947
11
12.4290429
21
68.2839947
0
LINE
8
DEFAULT_255_2_778
10
12.4290429
20
68.2839947
11
12.5664429
21
68.2847947
0
LINE
8
DEFAULT_255_2_778
10
12.5664429
20
68.2847947
11
12.6566429
21
68.2426947
0
LINE
8
DEFAULT_255_2_778
10
12.6566429
20
68.2426947
11
12.7174429
21
68.1802947
0
LINE
8
DEFAULT_255_2_778
10
12.7174429
20
68.1802947
11
12.7542429
21
68.1140947
0
LINE
8
DEFAULT_255_2_778
10
12.7542429
20
68.1140947
11
12.7711429
21
68.0662947
0
LINE
8
DEFAULT_255_2_778
10
12.7711429
20
68.0662947
11
12.8799429
21
68.0971947
0
LINE
8
DEFAULT_255_2_778
10
12.8799429
20
68.0971947
11
12.8571429
21
68.1601947
0
LINE
8
DEFAULT_255_2_778
10
12.8571429
20
68.1601947
11
12.8270429
21
68.2194947
0
LINE
8
DEFAULT_255_2_778
10
12.8270429
20
68.2194947
11
12.7886429
21
68.2739947
0
LINE
8
DEFAULT_255_2_778
10
12.7886429
20
68.2739947
11
12.7412429
21
68.3212947
0
LINE
8
DEFAULT_255_2_778
10
12.7412429
20
68.3212947
11
12.6145429
21
68.3892947
0
LINE
8
DEFAULT_255_2_778
10
12.6145429
20
68.3892947
11
12.4931429
21
68.4035947
0
LINE
8
DEFAULT_255_2_778
10
12.4931429
20
68.4035947
11
12.3605429
21
68.3847947
0
LINE
8
DEFAULT_255_2_778
10
12.3605429
20
68.3847947
11
12.2576429
21
68.3429947
0
LINE
8
DEFAULT_255_2_778
10
12.2576429
20
68.3429947
11
12.1864429
21
68.2897947
0
LINE
8
DEFAULT_255_2_778
10
12.1864429
20
68.2897947
11
12.1425429
21
68.2392947
0
LINE
8
DEFAULT_255_2_778
10
12.1425429
20
68.2392947
11
12.1076429
21
68.1818947
0
LINE
8
DEFAULT_255_2_778
10
12.1076429
20
68.1818947
11
12.0898429
21
68.1408947
0
LINE
8
DEFAULT_255_2_778
10
12.0898429
20
68.1408947
11
12.0766429
21
68.0982947
0
LINE
8
DEFAULT_255_2_778
10
12.0766429
20
68.0982947
11
12.0673429
21
68.0545947
0
LINE
8
DEFAULT_255_2_778
10
12.0673429
20
68.0545947
11
12.0689429
21
67.8989947
0
LINE
8
DEFAULT_255_2_778
10
12.0689429
20
67.8989947
11
12.0827429
21
67.8566947
0
LINE
8
DEFAULT_255_2_778
10
12.0827429
20
67.8566947
11
12.1171429
21
67.7989947
0
LINE
8
DEFAULT_255_2_778
10
12.1171429
20
67.7989947
11
12.1787429
21
67.7341947
0
LINE
8
DEFAULT_255_2_778
10
12.1787429
20
67.7341947
11
12.2901429
21
67.6600947
0
LINE
8
DEFAULT_255_2_778
10
12.2901429
20
67.6600947
11
12.3296429
21
67.6389947
0
LINE
8
DEFAULT_255_2_778
10
13.1072429
20
68.3876947
11
14.1523429
21
68.3876947
0
LINE
8
DEFAULT_255_2_778
10
14.1523429
20
68.3876947
11
14.1523429
21
68.2744947
0
LINE
8
DEFAULT_255_2_778
10
14.1523429
20
68.2744947
11
13.6773429
21
68.2744947
0
LINE
8
DEFAULT_255_2_778
10
13.6773429
20
68.2744947
11
13.6773429
21
66.7898947
0
LINE
8
DEFAULT_255_2_778
10
13.6773429
20
66.7898947
11
13.5641429
21
66.7898947
0
LINE
8
DEFAULT_255_2_778
10
13.5641429
20
66.7898947
11
13.5641429
21
68.2744947
0
LINE
8
DEFAULT_255_2_778
10
13.5641429
20
68.2744947
11
13.1069429
21
68.2744947
0
LINE
8
DEFAULT_255_2_778
10
13.1069429
20
68.2744947
11
13.1069429
21
68.3876947
0
LINE
8
DEFAULT_255_2_778
10
2.5950429
20
66.7935947
11
2.7059429
21
66.7935947
0
LINE
8
DEFAULT_255_2_778
10
2.7059429
20
66.7935947
11
2.7059429
21
68.3876947
0
LINE
8
DEFAULT_255_2_778
10
2.7059429
20
68.3876947
11
2.5950429
21
68.3876947
0
LINE
8
DEFAULT_255_2_778
10
2.5950429
20
68.3876947
11
2.5950429
21
66.7935947
0
LINE
8
DEFAULT_255_2_778
10
2.3288429
20
66.8179947
11
2.3288429
21
66.8141947
0
LINE
8
DEFAULT_255_2_778
10
2.2201429
20
66.7787947
11
2.2201429
21
66.7824947
0
LINE
8
DEFAULT_255_2_778
10
2.2201429
20
66.7824947
11
2.2026429
21
66.8366947
0
LINE
8
DEFAULT_255_2_778
10
2.2026429
20
66.8366947
11
2.1841429
21
66.8903947
0
LINE
8
DEFAULT_255_2_778
10
2.1841429
20
66.8903947
11
2.1473429
21
66.9980947
0
LINE
8
DEFAULT_255_2_778
10
2.1473429
20
66.9980947
11
2.1119429
21
67.1062947
0
LINE
8
DEFAULT_255_2_778
10
2.1119429
20
67.1062947
11
2.0777429
21
67.2147947
0
LINE
8
DEFAULT_255_2_778
10
2.0777429
20
67.2147947
11
1.3922429
21
67.2147947
0
LINE
8
DEFAULT_255_2_778
10
1.6695429
20
68.3942947
11
1.8116429
21
68.3942947
0
LINE
8
DEFAULT_255_2_778
10
2.0388429
20
67.3277947
11
1.9656429
21
67.5552947
0
LINE
8
DEFAULT_255_2_778
10
1.9656429
20
67.5552947
11
1.8899429
21
67.7862947
0
LINE
8
DEFAULT_255_2_778
10
1.8899429
20
67.7862947
11
1.8147429
21
68.0172947
0
LINE
8
DEFAULT_255_2_778
10
1.8147429
20
68.0172947
11
1.7777429
21
68.1328947
0
LINE
8
DEFAULT_255_2_778
10
1.7777429
20
68.1328947
11
1.7404429
21
68.2485947
0
LINE
8
DEFAULT_255_2_778
10
1.7404429
20
68.2485947
11
1.7404429
21
68.2522947
0
LINE
8
DEFAULT_255_2_778
10
1.7404429
20
68.2522947
11
1.7020429
21
68.1363947
0
LINE
8
DEFAULT_255_2_778
10
1.7020429
20
68.1363947
11
1.6634429
21
68.0206947
0
LINE
8
DEFAULT_255_2_778
10
1.6634429
20
68.0206947
11
1.5848429
21
67.7899947
0
LINE
8
DEFAULT_255_2_778
10
1.5848429
20
67.7899947
11
1.5070429
21
67.5590947
0
LINE
8
DEFAULT_255_2_778
10
1.5070429
20
67.5590947
11
1.4298429
21
67.3277947
0
LINE
8
DEFAULT_255_2_778
10
1.4298429
20
67.3277947
11
2.0402429
21
67.3277947
0
LINE
8
DEFAULT_255_2_778
10
2.0402429
20
67.3277947
11
1.9656429
21
67.5590947
0
LINE
8
DEFAULT_255_2_778
10
1.9656429
20
67.5590947
11
1.8899429
21
67.7899947
0
LINE
8
DEFAULT_255_2_778
10
1.8899429
20
67.7899947
11
1.8147429
21
68.0209947
0
LINE
8
DEFAULT_255_2_778
10
1.8147429
20
68.0209947
11
1.7404429
21
68.2522947
0
LINE
8
DEFAULT_255_2_778
10
10.8127429
20
65.2986947
11
10.7333429
21
65.2997947
0
LINE
8
DEFAULT_255_2_778
10
10.7333429
20
65.2997947
11
10.6942429
21
65.2952947
0
LINE
8
DEFAULT_255_2_778
10
10.6942429
20
65.2952947
11
10.6553429
21
65.2872947
0
LINE
8
DEFAULT_255_2_778
10
10.6553429
20
65.2872947
11
10.6172429
21
65.2751947
0
LINE
8
DEFAULT_255_2_778
10
10.6172429
20
65.2751947
11
10.5812429
21
65.2584947
0
LINE
8
DEFAULT_255_2_778
10
10.5812429
20
65.2584947
11
10.5640429
21
65.2483947
0
LINE
8
DEFAULT_255_2_778
10
10.5640429
20
65.2483947
11
10.5473429
21
65.2372947
0
LINE
8
DEFAULT_255_2_778
10
10.5473429
20
65.2372947
11
10.5166429
21
65.2121947
0
LINE
8
DEFAULT_255_2_778
10
10.5166429
20
65.2121947
11
10.4899429
21
65.1830947
0
LINE
8
DEFAULT_255_2_778
10
10.4899429
20
65.1830947
11
10.4674429
21
65.1499947
0
LINE
8
DEFAULT_255_2_778
10
10.4513429
20
65.1137947
11
10.4457429
21
65.0944947
0
LINE
8
DEFAULT_255_2_778
10
10.4457429
20
65.0944947
11
10.4415429
21
65.0748947
0
LINE
8
DEFAULT_255_2_778
10
10.4415429
20
65.0748947
11
10.4365429
21
65.0356947
0
LINE
8
DEFAULT_255_2_778
10
10.4365429
20
65.0356947
11
10.4341429
21
64.9962947
0
LINE
8
DEFAULT_255_2_778
10
10.4341429
20
64.9962947
11
10.4330429
21
64.9174947
0
LINE
8
DEFAULT_255_2_778
10
10.4330429
20
64.9174947
11
10.4346429
21
64.8382947
0
LINE
8
DEFAULT_255_2_778
10
10.4346429
20
64.8382947
11
10.4357429
21
64.7591947
0
LINE
8
DEFAULT_255_2_778
10
10.4357429
20
64.7591947
11
10.4354429
21
64.6800947
0
LINE
8
DEFAULT_255_2_778
10
10.4354429
20
64.6800947
11
10.4351429
21
64.6009947
0
LINE
8
DEFAULT_255_2_778
10
10.4351429
20
64.6009947
11
10.4354429
21
64.4427947
0
LINE
8
DEFAULT_255_2_778
10
10.4354429
20
64.4427947
11
10.4354429
21
64.2845947
0
LINE
8
DEFAULT_255_2_778
10
10.4354429
20
64.2845947
11
10.3222429
21
64.2845947
0
LINE
8
DEFAULT_255_2_778
10
10.3222429
20
64.2845947
11
10.3222429
21
65.4021947
0
LINE
8
DEFAULT_255_2_778
10
10.3222429
20
65.4021947
11
10.4354429
21
65.4021947
0
LINE
8
DEFAULT_255_2_778
10
10.4354429
20
65.4021947
11
10.4354429
21
65.2801947
0
LINE
8
DEFAULT_255_2_778
10
10.5158429
20
65.3449947
11
10.5611429
21
65.3695947
0
LINE
8
DEFAULT_255_2_778
10
10.5611429
20
65.3695947
11
10.6084429
21
65.3891947
0
LINE
8
DEFAULT_255_2_778
10
10.6084429
20
65.3891947
11
10.6582429
21
65.4029947
0
LINE
8
DEFAULT_255_2_778
10
10.6582429
20
65.4029947
11
10.6838429
21
65.4071947
0
LINE
8
DEFAULT_255_2_778
10
10.6838429
20
65.4071947
11
10.7095429
21
65.4095947
0
LINE
8
DEFAULT_255_2_778
10
10.7095429
20
65.4095947
11
10.7611429
21
65.4108947
0
LINE
8
DEFAULT_255_2_778
10
10.7611429
20
65.4108947
11
10.7868429
21
65.4108947
0
LINE
8
DEFAULT_255_2_778
10
10.7868429
20
65.4108947
11
10.8124429
21
65.4108947
0
LINE
8
DEFAULT_255_2_778
10
10.8124429
20
65.4108947
11
10.8124429
21
65.2941947
0
LINE
8
DEFAULT_255_2_778
10
5.2713429
20
64.8401947
11
5.7771429
21
64.8401947
0
LINE
8
DEFAULT_255_2_778
10
5.7771429
20
64.8401947
11
5.7771429
21
64.9531947
0
LINE
8
DEFAULT_255_2_778
10
5.7771429
20
64.9531947
11
5.2713429
21
64.9531947
0
LINE
8
DEFAULT_255_2_778
10
5.2713429
20
64.9531947
11
5.2713429
21
64.8401947
0
LINE
8
DEFAULT_255_2_778
10
7.5837429
20
64.8401947
11
8.0896429
21
64.8401947
0
LINE
8
DEFAULT_255_2_778
10
8.0896429
20
64.8401947
11
8.0896429
21
64.9531947
0
LINE
8
DEFAULT_255_2_778
10
8.0896429
20
64.9531947
11
7.5837429
21
64.9531947
0
LINE
8
DEFAULT_255_2_778
10
7.5837429
20
64.9531947
11
7.5837429
21
64.8401947
0
LINE
8
DEFAULT_255_2_778
10
9.9115429
20
64.2855947
11
10.0248429
21
64.2855947
0
LINE
8
DEFAULT_255_2_778
10
10.0247251
20
64.2816229
11
10.0247251
21
65.4052229
0
LINE
8
DEFAULT_255_2_778
10
10.0247251
20
65.4052229
11
9.9115251
21
65.4052229
0
LINE
8
DEFAULT_255_2_778
10
9.9115251
20
65.4052229
11
9.9115251
21
64.2816229
0
LINE
8
DEFAULT_255_2_778
10
9.9115251
20
65.6944229
11
9.9115251
21
65.6981229
0
LINE
8
DEFAULT_255_2_778
10
9.9115251
20
65.6981229
11
10.0247251
21
65.6981229
0
LINE
8
DEFAULT_255_2_778
10
10.0247251
20
65.6981229
11
10.0247251
21
65.8844229
0
LINE
8
DEFAULT_255_2_778
10
10.0247251
20
65.8844229
11
9.9115251
21
65.8844229
0
LINE
8
DEFAULT_255_2_778
10
9.9115251
20
65.8844229
11
9.9115251
21
65.6981229
0
LINE
8
DEFAULT_255_2_778
10
3.2874251
20
64.2855229
11
3.3983251
21
64.2855229
0
LINE
8
DEFAULT_255_2_778
10
1.5874938
20
65.8844906
11
1.1392938
21
64.8732906
0
LINE
8
DEFAULT_255_2_778
10
3.3982938
20
64.2818906
11
3.3982938
21
65.8799906
0
LINE
8
DEFAULT_255_2_778
10
3.3982938
20
65.8799906
11
3.2874938
21
65.8799906
0
LINE
8
DEFAULT_255_2_778
10
3.2874938
20
65.8799906
11
3.2874938
21
64.2818906
0
LINE
8
DEFAULT_255_2_778
10
1.2501938
20
64.8488906
11
1.2633938
21
64.8777906
0
LINE
8
DEFAULT_255_2_778
10
1.2633938
20
64.8777906
11
1.2763938
21
64.9065906
0
LINE
8
DEFAULT_255_2_778
10
1.2763938
20
64.9065906
11
1.3022938
21
64.9642906
0
LINE
8
DEFAULT_255_2_778
10
1.3022938
20
64.9642906
11
1.3535938
21
65.0798906
0
LINE
8
DEFAULT_255_2_778
10
1.3535938
20
65.0798906
11
1.4048938
21
65.1954906
0
LINE
8
DEFAULT_255_2_778
10
1.4048938
20
65.1954906
11
1.4564938
21
65.3108906
0
LINE
8
DEFAULT_255_2_778
10
1.4564938
20
65.3108906
11
1.5078938
21
65.4264906
0
LINE
8
DEFAULT_255_2_778
10
1.5078938
20
65.4264906
11
1.5588938
21
65.5420906
0
LINE
8
DEFAULT_255_2_778
10
1.5588938
20
65.5420906
11
1.6096938
21
65.6579906
0
LINE
8
DEFAULT_255_2_778
10
1.6096938
20
65.6579906
11
1.6350938
21
65.7159906
0
LINE
8
DEFAULT_255_2_778
10
1.6350938
20
65.7159906
11
1.6604938
21
65.7738906
0
LINE
8
DEFAULT_255_2_778
10
1.6604938
20
65.7738906
11
1.7382938
21
65.7738906
0
LINE
8
DEFAULT_255_2_778
10
1.7382938
20
65.7738906
11
1.7382938
21
64.8202906
0
LINE
8
DEFAULT_255_2_778
10
1.7382938
20
64.8202906
11
1.2501938
21
64.8202906
0
LINE
8
DEFAULT_255_2_778
10
1.2501938
20
64.8202906
11
1.2501938
21
64.8488906
0
LINE
8
DEFAULT_255_2_778
10
1.1392938
20
64.8732906
11
1.1392938
21
64.7091906
0
LINE
8
DEFAULT_255_2_778
10
1.1392938
20
64.7091906
11
1.7385938
21
64.7091906
0
LINE
8
DEFAULT_255_2_778
10
1.7385938
20
64.7091906
11
1.7385938
21
64.2855906
0
LINE
8
DEFAULT_255_2_778
10
1.7385938
20
64.2855906
11
1.8517938
21
64.2855906
0
LINE
8
DEFAULT_255_2_778
10
1.8517938
20
64.2855906
11
1.8517938
21
64.7091906
0
LINE
8
DEFAULT_255_2_778
10
1.8517938
20
64.7091906
11
2.0869938
21
64.7091906
0
LINE
8
DEFAULT_255_2_778
10
2.0869938
20
64.7091906
11
2.0869938
21
64.8200906
0
LINE
8
DEFAULT_255_2_778
10
2.0869938
20
64.8200906
11
1.8517938
21
64.8200906
0
LINE
8
DEFAULT_255_2_778
10
1.8517938
20
64.8200906
11
1.8517938
21
65.8844906
0
LINE
8
DEFAULT_255_2_778
10
1.8517938
20
65.8844906
11
1.5874938
21
65.8844906
0
ARC
8
DEFAULT_255_2_778
10
-814.9640364
20
-443.489071
40
962.6606218
50
31.8333211
51
31.8673603
0
ARC
8
DEFAULT_255_2_778
10
-1822.6757661
20
1225.0700739
40
2162.8579466
50
327.5593858
51
327.574624
0
ARC
8
DEFAULT_255_2_778
10
49.2311902
20
-12.3071322
40
89.5029712
50
121.1041746
51
121.1756016
0
ARC
8
DEFAULT_255_2_778
10
-10.4252843
20
86.4273534
40
25.85795
50
301.0162719
51
301.2635043
0
ARC
8
DEFAULT_255_2_778
10
-542.4941571
20
-274.3270619
40
641.951445
50
31.833325
51
31.8843744
0
ARC
8
DEFAULT_255_2_778
10
1445.7792627
20
-840.8291185
40
1703.7780703
50
147.8920633
51
147.9111694
0
ARC
8
DEFAULT_255_2_778
10
-1440.8872853
20
969.8562131
40
1703.7780703
50
327.8920633
51
327.9111694
0
ARC
8
DEFAULT_255_2_778
10
-18.9131571
20
30.5116276
40
39.8714913
50
57.8651471
51
58.0270664
0
ARC
8
DEFAULT_255_2_778
10
-18.9131571
20
30.5079276
40
39.8714913
50
57.8651471
51
58.0270664
0
ARC
8
DEFAULT_255_2_778
10
-1541.2614053
20
1037.9201223
40
1824.8672712
50
327.7570567
51
327.7766474
0
ARC
8
DEFAULT_255_2_778
10
558.7079345
20
412.6424462
40
655.9590617
50
211.9675365
51
212.0180011
0
ARC
8
DEFAULT_255_2_778
10
558.7079345
20
412.6387462
40
655.9590617
50
211.9675365
51
212.0180011
0
ARC
8
DEFAULT_255_2_778
10
23.4344345
20
31.5892276
40
39.8714913
50
121.9729336
51
122.1348529
0
ARC
8
DEFAULT_255_2_778
10
-392.6429594
20
-180.5760251
40
465.3034426
50
31.8504375
51
31.915085
0
ARC
8
DEFAULT_255_2_778
10
378.3471553
20
-172.8769777
40
444.6977563
50
147.5994428
51
147.6667593
0
ARC
8
DEFAULT_255_2_778
10
64.1435262
20
160.6857391
40
113.2752796
50
237.2585679
51
237.3145363
0
ARC
8
DEFAULT_255_2_778
10
-1008.7910468
20
707.9089368
40
1198.561175
50
327.5532559
51
327.5807538
0
ARC
8
DEFAULT_255_2_778
10
-1971.9005487
20
-1157.4163774
40
2322.2549013
50
31.742499
51
31.7580043
0
ARC
8
DEFAULT_255_2_778
10
13.4287175
20
83.4019479
40
19.9268027
50
242.7476855
51
243.0696835
0
ARC
8
DEFAULT_255_2_778
10
4.6447038
20
65.5171454
40
0.2668292
50
141.1708721
51
154.5644561
0
ARC
8
DEFAULT_255_2_778
10
4.6429899
20
65.5228641
40
0.2644166
50
141.2281388
51
154.7999723
0
ARC
8
DEFAULT_255_2_778
10
4.7010831
20
65.5741485
40
0.1991865
50
48.8559399
51
66.7412582
0
ARC
8
DEFAULT_255_2_778
10
4.5796831
20
65.5078448
40
0.3378886
50
8.7503021
51
19.3225397
0
ARC
8
DEFAULT_255_2_778
10
4.498658
20
65.5054018
40
0.419258
50
350.3950899
51
358.8991985
0
ARC
8
DEFAULT_255_2_778
10
4.2704853
20
65.5650423
40
0.6557418
50
332.3119813
51
343.1393206
0
ARC
8
DEFAULT_255_2_778
10
4.4597894
20
65.4909514
40
0.5674995
50
341.9429733
51
349.2549547
0
ARC
8
DEFAULT_255_2_778
10
4.3721589
20
65.5099992
40
0.6571492
50
349.0477876
51
355.3432081
0
ARC
8
DEFAULT_255_2_778
10
4.4861616
20
65.5055054
40
0.5431006
50
2.5160698
51
10.1643137
0
ARC
8
DEFAULT_255_2_778
10
4.6841594
20
65.5225079
40
0.3643592
50
59.8728776
51
71.3562747
0
ARC
8
DEFAULT_255_2_778
10
4.6252608
20
65.5390526
40
0.3542437
50
120.0934782
51
131.8449836
0
ARC
8
DEFAULT_255_2_778
10
4.6040596
20
65.5520078
40
0.3297406
50
143.1962982
51
155.8245335
0
ARC
8
DEFAULT_255_2_778
10
-4.7217401
20
47.9174467
40
19.9268027
50
62.7476855
51
63.0696835
0
ARC
8
DEFAULT_255_2_778
10
8.874706
20
74.4103334
40
8.8116128
50
253.4848492
51
254.2213586
0
ARC
8
DEFAULT_255_2_778
10
12.980014
20
88.973522
40
25.8921879
50
253.9711739
51
254.2215153
0
ARC
8
DEFAULT_255_2_778
10
-1.2099366
20
39.1676726
40
25.8921879
50
73.9711739
51
74.2215153
0
LINE
8
DEFAULT_255_2_778
10
6.9355387
20
65.8844473
11
6.4873387
21
64.8732473
0
ARC
8
DEFAULT_255_2_778
10
-3271.9247362
20
-838.1026137
40
3402.2924606
50
15.3805925
51
15.3998827
0
ARC
8
DEFAULT_255_2_778
10
3288.6520136
20
967.7750083
40
3402.2924606
50
195.3805925
51
195.3998827
0
ARC
8
DEFAULT_255_2_778
10
13.3572226
20
47.4794574
40
18.6352738
50
105.6810637
51
106.0288088
0
ARC
8
DEFAULT_255_2_778
10
-2455.9028362
20
-734.1392032
40
2591.3476336
50
17.9495583
51
17.9715137
0
ARC
8
DEFAULT_255_2_778
10
14.3490522
20
81.9786254
40
17.2296315
50
253.9433143
51
254.3191097
0
ARC
8
DEFAULT_255_2_778
10
-2179.4550571
20
671.5449038
40
2271.5179585
50
344.4940846
51
344.5229917
0
ARC
8
DEFAULT_255_2_778
10
2198.5334345
20
-541.8725092
40
2271.5179585
50
164.4940846
51
164.5229917
0
ARC
8
DEFAULT_255_2_778
10
10.960163
20
64.9443892
40
0.7599065
50
359.4841281
51
0.0033234
0
ARC
8
DEFAULT_255_2_778
10
10.9318266
20
64.9439471
40
0.7882431
50
0.0353322
51
9.2865258
0
ARC
8
DEFAULT_255_2_778
10
10.9351367
20
64.9584479
40
0.7827575
50
8.2780642
51
9.4958895
0
ARC
8
DEFAULT_255_2_778
10
11.2461486
20
65.0127188
40
0.4670591
50
9.2238698
51
15.39976
0
ARC
8
DEFAULT_255_2_778
10
11.384303
20
65.0901978
40
0.2165849
50
157.8243038
51
166.8021202
0
ARC
8
DEFAULT_255_2_778
10
11.6070611
20
65.036652
40
0.4456864
50
166.6385381
51
175.3546408
0
ARC
8
DEFAULT_255_2_778
10
11.4238611
20
65.0747528
40
0.2576727
50
158.9159288
51
166.376022
0
ARC
8
DEFAULT_255_2_778
10
11.4650933
20
65.0502302
40
0.2515144
50
51.1281996
51
66.5361913
0
ARC
8
DEFAULT_255_2_778
10
11.2349127
20
65.0041686
40
0.4789002
50
7.74983
51
15.8352729
0
ARC
8
DEFAULT_255_2_778
10
11.5505913
20
64.661456
40
0.5007581
50
190.0642523
51
200.3339003
0
ARC
8
DEFAULT_255_2_778
10
11.4297718
20
64.6894433
40
0.4223613
50
247.0731661
51
259.2841681
0
ARC
8
DEFAULT_255_2_778
10
11.4497326
20
64.6658625
40
0.3984507
50
281.5980131
51
294.4164755
0
ARC
8
DEFAULT_255_2_778
10
11.4747276
20
64.6045846
40
0.3364776
50
325.6539454
51
340.9295979
0
ARC
8
DEFAULT_255_2_778
10
11.473394
20
64.6087918
40
0.3379038
50
325.5506852
51
340.9221984
0
ARC
8
DEFAULT_255_2_778
10
11.4382135
20
64.7171116
40
0.4471745
50
269.9555613
51
281.195894
0
ARC
8
DEFAULT_255_2_778
10
11.4378366
20
64.7284093
40
0.458472
50
269.6253479
51
270.0037593
0
ARC
8
DEFAULT_255_2_778
10
11.43856
20
64.7315098
40
0.4615775
50
258.2848793
51
269.5380644
0
ARC
8
DEFAULT_255_2_778
10
11.4015976
20
64.6309079
40
0.3541311
50
231.4778522
51
246.1379238
0
ARC
8
DEFAULT_255_2_778
10
11.3828117
20
64.6084912
40
0.3248936
50
215.69024
51
231.6076298
0
ARC
8
DEFAULT_255_2_778
10
11.4969362
20
64.6484043
40
0.4449034
50
193.6717468
51
199.5334967
0
ARC
8
DEFAULT_255_2_778
10
11.4603346
20
65.0512858
40
0.4124944
50
156.9264756
51
169.4307178
0
ARC
8
DEFAULT_255_2_778
10
11.430258
20
64.989507
40
0.4329714
50
99.4139336
51
111.320162
0
ARC
8
DEFAULT_255_2_778
10
11.4424591
20
65.0086231
40
0.4149812
50
76.6839317
51
89.050104
0
ARC
8
DEFAULT_255_2_778
10
11.3878817
20
65.0377533
40
0.4275871
50
19.3809861
51
31.4026641
0
ARC
8
DEFAULT_255_2_778
10
10.921302
20
64.9196234
40
0.910369
50
5.3273432
51
10.9690539
0
ARC
8
DEFAULT_255_2_778
10
11.471698
20
64.6233962
40
0.234346
50
295.5954321
51
309.6834783
0
ARC
8
DEFAULT_255_2_778
10
43.6830137
20
155.0810302
40
96.0310232
50
250.5374907
51
250.6049328
0
ARC
8
DEFAULT_255_2_778
10
1.3026956
20
61.0860944
40
1.2651379
50
262.5811505
51
269.3135539
0
ARC
8
DEFAULT_255_2_778
10
1.4515435
20
60.7359026
40
0.3896398
50
38.272686
51
49.2201076
0
ARC
8
DEFAULT_255_2_778
10
1.3271058
20
60.6602006
40
0.5356759
50
20.4142671
51
28.3715792
0
ARC
8
DEFAULT_255_2_778
10
1.1958963
20
60.6126154
40
0.6752439
50
14.0153558
51
20.3149913
0
ARC
8
DEFAULT_255_2_778
10
0.9189029
20
60.5471782
40
0.9598458
50
4.9708218
51
13.800847
0
ARC
8
DEFAULT_255_2_778
10
1.163044
20
60.3626593
40
0.7101224
50
339.7649218
51
345.7572431
0
ARC
8
DEFAULT_255_2_778
10
1.3682657
20
60.2674423
40
0.4838222
50
324.3342951
51
333.1003976
0
ARC
8
DEFAULT_255_2_778
10
1.3014937
20
61.1402814
40
1.3158718
50
274.5878339
51
275.8861324
0
ARC
8
DEFAULT_255_2_778
10
1.3066075
20
61.0694935
40
1.2449019
50
270.0235368
51
274.6138262
0
ARC
8
DEFAULT_255_2_778
10
1.3071162
20
61.0328116
40
1.2082198
50
269.0810457
51
270.0001248
0
ARC
8
DEFAULT_255_2_778
10
1.3030248
20
61.0947337
40
1.2700784
50
262.595198
51
269.3103982
0
ARC
8
DEFAULT_255_2_778
10
1.332724
20
60.8802752
40
0.9607768
50
271.0087567
51
278.0421807
0
ARC
8
DEFAULT_255_2_778
10
1.3206928
20
60.2873954
40
0.4469681
50
331.4309404
51
339.0591677
0
ARC
8
DEFAULT_255_2_778
10
0.8672894
20
60.4327108
40
0.9238229
50
348.0640391
51
355.4016256
0
ARC
8
DEFAULT_255_2_778
10
0.8151342
20
60.5377336
40
0.9736464
50
3.4277235
51
10.4150717
0
ARC
8
DEFAULT_255_2_778
10
1.0300801
20
60.5571581
40
0.7599441
50
16.4177216
51
16.8664182
0
ARC
8
DEFAULT_255_2_778
10
1.24605
20
60.6252809
40
0.5335051
50
16.5946388
51
22.3609026
0
ARC
8
DEFAULT_255_2_778
10
1.3970998
20
60.6983803
40
0.3651366
50
30.1811136
51
39.5023412
0
ARC
8
DEFAULT_255_2_778
10
1.475045
20
60.7683103
40
0.2603419
50
51.7450758
51
64.8375802
0
ARC
8
DEFAULT_255_2_778
10
-0.7937349
20
72.8049144
40
13.6487904
50
287.9279156
51
288.3179362
0
ARC
8
DEFAULT_255_2_778
10
8.7371058
20
43.6810333
40
16.9915525
50
107.9662802
51
108.2795715
0
ARC
8
DEFAULT_255_2_778
10
-1038.1868862
20
412.8741972
40
1099.0535663
50
341.2623118
51
341.2816496
0
ARC
8
DEFAULT_255_2_778
10
7.186716
20
73.6911501
40
14.6061062
50
251.40611
51
251.7637397
0
ARC
8
DEFAULT_255_2_778
10
6887.9605117
20
-2255.3600749
40
7264.2512988
50
161.404258
51
161.4149212
0
ARC
8
DEFAULT_255_2_778
10
-5488.2945306
20
-1739.8965367
40
5779.1730348
50
18.1447637
51
18.158133
0
ARC
8
DEFAULT_255_2_778
10
14.5479945
20
19.4454598
40
42.6571668
50
103.7308478
51
103.853109
0
ARC
8
DEFAULT_255_2_778
10
4.0684166
20
60.8228992
40
0.3602162
50
10.2904062
51
16.7558399
0
ARC
8
DEFAULT_255_2_778
10
4.0850497
20
60.7062943
40
0.4314333
50
92.4059063
51
103.1308257
0
ARC
8
DEFAULT_255_2_778
10
4.0631754
20
60.7944456
40
0.338076
50
130.2050999
51
143.835259
0
ARC
8
DEFAULT_255_2_778
10
4.225187
20
60.7288704
40
0.512558
50
157.677812
51
166.6697775
0
ARC
8
DEFAULT_255_2_778
10
4.3901242
20
60.3036656
40
0.6852214
50
188.3339994
51
195.0926406
0
ARC
8
DEFAULT_255_2_778
10
4.2488423
20
60.2675829
40
0.5394213
50
195.2996605
51
203.8644168
0
ARC
8
DEFAULT_255_2_778
10
4.1027854
20
60.1876621
40
0.3712114
50
226.6229306
51
239.0974121
0
ARC
8
DEFAULT_255_2_778
10
4.0987424
20
60.1873154
40
0.3694734
50
252.1906526
51
264.6571363
0
ARC
8
DEFAULT_255_2_778
10
3.8860739
20
60.7575075
40
0.4596776
50
13.0172539
51
21.2012168
0
ARC
8
DEFAULT_255_2_778
10
3.8716054
20
60.756208
40
0.474903
50
13.2117474
51
21.1097915
0
ARC
8
DEFAULT_255_2_778
10
4.1329025
20
60.8128439
40
0.2300609
50
65.3544509
51
81.6180766
0
ARC
8
DEFAULT_255_2_778
10
4.2458699
20
60.7320427
40
0.4431699
50
157.7361826
51
166.1209428
0
ARC
8
DEFAULT_255_2_778
10
4.0988004
20
60.1943517
40
0.3798202
50
252.3817141
51
264.5518909
0
ARC
8
DEFAULT_255_2_778
10
4.109958
20
60.1946841
40
0.3845982
50
226.7297027
51
238.7325543
0
ARC
8
DEFAULT_255_2_778
10
4.1073801
20
60.1937926
40
0.3821842
50
214.8233143
51
226.919505
0
ARC
8
DEFAULT_255_2_778
10
4.2392864
20
60.2619072
40
0.531226
50
195.3205383
51
203.9871098
0
ARC
8
DEFAULT_255_2_778
10
-5.7923171
20
102.3055348
40
42.6571668
50
283.7308478
51
283.853109
0
LINE
8
DEFAULT_255_2_778
10
2.9943387
20
64.3279473
11
2.9943387
21
64.3242473
0
LINE
8
DEFAULT_255_2_778
10
2.8988387
20
64.2665473
11
2.8988387
21
64.2702473
0
LINE
8
DEFAULT_255_2_778
10
2.5969387
20
64.7560473
11
2.5969387
21
64.7523473
0
LINE
8
DEFAULT_255_2_778
10
2.2950387
20
64.2710473
11
2.2950387
21
64.2747473
0
LINE
8
DEFAULT_255_2_778
10
2.1995387
20
64.3308473
11
2.1995387
21
64.3345473
0
LINE
8
DEFAULT_255_2_778
10
2.2262387
20
65.3486473
11
2.2262387
21
65.3523473
0
LINE
8
DEFAULT_255_2_778
10
4.8556387
20
65.6958473
11
4.8533387
21
65.6987473
0
LINE
8
DEFAULT_255_2_778
10
4.8533387
20
65.6987473
11
4.8318387
21
65.7209473
0
LINE
8
DEFAULT_255_2_778
10
4.8318387
20
65.7209473
11
4.8070387
21
65.7394473
0
LINE
8
DEFAULT_255_2_778
10
4.8070387
20
65.7394473
11
4.7932387
21
65.7471473
0
LINE
8
DEFAULT_255_2_778
10
4.7932387
20
65.7471473
11
4.7792387
21
65.7537473
0
LINE
8
DEFAULT_255_2_778
10
4.7792387
20
65.7537473
11
4.7498387
21
65.7643473
0
LINE
8
DEFAULT_255_2_778
10
4.7498387
20
65.7643473
11
4.7194387
21
65.7717473
0
LINE
8
DEFAULT_255_2_778
10
4.7194387
20
65.7717473
11
4.6887387
21
65.7762473
0
LINE
8
DEFAULT_255_2_778
10
4.6887387
20
65.7762473
11
4.6577387
21
65.7783473
0
LINE
8
DEFAULT_255_2_778
10
4.6577387
20
65.7783473
11
4.6268387
21
65.7781473
0
LINE
8
DEFAULT_255_2_778
10
4.6268387
20
65.7781473
11
4.5956387
21
65.7749473
0
LINE
8
DEFAULT_255_2_778
10
4.5956387
20
65.7749473
11
4.5355387
21
65.7587473
0
LINE
8
DEFAULT_255_2_778
10
4.5355387
20
65.7587473
11
4.5074387
21
65.7450473
0
LINE
8
DEFAULT_255_2_778
10
4.5074387
20
65.7450473
11
4.4815387
21
65.7278473
0
LINE
8
DEFAULT_255_2_778
10
4.4815387
20
65.7278473
11
4.4580387
21
65.7074473
0
LINE
8
DEFAULT_255_2_778
10
4.4580387
20
65.7074473
11
4.4368387
21
65.6844473
0
LINE
8
DEFAULT_255_2_778
10
4.4037387
20
65.6317473
11
4.4037387
21
65.6354473
0
LINE
8
DEFAULT_255_2_778
10
4.4368387
20
65.6884473
11
4.4580387
21
65.7114473
0
LINE
8
DEFAULT_255_2_778
10
4.4580387
20
65.7114473
11
4.4815387
21
65.7315473
0
LINE
8
DEFAULT_255_2_778
10
4.4815387
20
65.7315473
11
4.5077387
21
65.7487473
0
LINE
8
DEFAULT_255_2_778
10
4.5077387
20
65.7487473
11
4.5358387
21
65.7622473
0
LINE
8
DEFAULT_255_2_778
10
4.5358387
20
65.7622473
11
4.5651387
21
65.7720473
0
LINE
8
DEFAULT_255_2_778
10
4.5651387
20
65.7720473
11
4.5958387
21
65.7783473
0
LINE
8
DEFAULT_255_2_778
10
4.5958387
20
65.7783473
11
4.6580387
21
65.7818473
0
LINE
8
DEFAULT_255_2_778
10
4.6580387
20
65.7818473
11
4.6892387
21
65.7796473
0
LINE
8
DEFAULT_255_2_778
10
4.6892387
20
65.7796473
11
4.7202387
21
65.7751473
0
LINE
8
DEFAULT_255_2_778
10
4.7202387
20
65.7751473
11
4.7797387
21
65.7571473
0
LINE
8
DEFAULT_255_2_778
10
4.8321387
20
65.7241473
11
4.8538387
21
65.7013473
0
LINE
8
DEFAULT_255_2_778
10
4.8538387
20
65.7013473
11
4.8718387
21
65.6759473
0
LINE
8
DEFAULT_255_2_778
10
4.8718387
20
65.6759473
11
4.8866387
21
65.6484473
0
LINE
8
DEFAULT_255_2_778
10
4.8866387
20
65.6484473
11
4.8985387
21
65.6196473
0
LINE
8
DEFAULT_255_2_778
10
4.9136387
20
65.5592473
11
4.9170387
21
65.5283473
0
LINE
8
DEFAULT_255_2_778
10
4.9170387
20
65.5283473
11
4.9178387
21
65.4973473
0
LINE
8
DEFAULT_255_2_778
10
4.9120387
20
65.4354473
11
4.9059387
21
65.4047473
0
LINE
8
DEFAULT_255_2_778
10
4.9059387
20
65.4047473
11
4.8980387
21
65.3748473
0
LINE
8
DEFAULT_255_2_778
10
4.8511387
20
65.2603473
11
4.8210387
21
65.2058473
0
LINE
8
DEFAULT_255_2_778
10
4.8210387
20
65.2058473
11
4.7884387
21
65.1534473
0
LINE
8
DEFAULT_255_2_778
10
4.7884387
20
65.1534473
11
4.7175387
21
65.0531473
0
LINE
8
DEFAULT_255_2_778
10
4.7175387
20
65.0531473
11
4.6416387
21
64.9568473
0
LINE
8
DEFAULT_255_2_778
10
4.6416387
20
64.9568473
11
4.5633387
21
64.8623473
0
LINE
8
DEFAULT_255_2_778
10
4.5633387
20
64.8623473
11
4.4043387
21
64.6753473
0
LINE
8
DEFAULT_255_2_778
10
4.4043387
20
64.6753473
11
4.2437387
21
64.4895473
0
LINE
8
DEFAULT_255_2_778
10
4.2437387
20
64.4895473
11
4.2437387
21
64.2855473
0
LINE
8
DEFAULT_255_2_778
10
4.2437387
20
64.2855473
11
5.0959387
21
64.2855473
0
LINE
8
DEFAULT_255_2_778
10
5.0959387
20
64.2855473
11
5.0959387
21
64.3964473
0
LINE
8
DEFAULT_255_2_778
10
5.0959387
20
64.3964473
11
4.3548387
21
64.3964473
0
LINE
8
DEFAULT_255_2_778
10
4.3548387
20
64.3964473
11
4.3548387
21
64.4496473
0
LINE
8
DEFAULT_255_2_778
10
4.3548387
20
64.4496473
11
4.4482387
21
64.5599473
0
LINE
8
DEFAULT_255_2_778
10
4.4482387
20
64.5599473
11
4.5418387
21
64.6700473
0
LINE
8
DEFAULT_255_2_778
10
4.5418387
20
64.6700473
11
4.6352387
21
64.7803473
0
LINE
8
DEFAULT_255_2_778
10
4.6352387
20
64.7803473
11
4.7273387
21
64.8917473
0
LINE
8
DEFAULT_255_2_778
10
4.7273387
20
64.8917473
11
4.8170387
21
65.0052473
0
LINE
8
DEFAULT_255_2_778
10
4.8170387
20
65.0052473
11
4.8599387
21
65.0634473
0
LINE
8
DEFAULT_255_2_778
10
4.8599387
20
65.0634473
11
4.9009387
21
65.1227473
0
LINE
8
DEFAULT_255_2_778
10
4.9009387
20
65.1227473
11
4.9390387
21
65.1835473
0
LINE
8
DEFAULT_255_2_778
10
4.9390387
20
65.1835473
11
4.9726387
21
65.2473473
0
LINE
8
DEFAULT_255_2_778
10
4.9726387
20
65.2473473
11
4.9869387
21
65.2806473
0
LINE
8
DEFAULT_255_2_778
10
4.9869387
20
65.2806473
11
4.9993387
21
65.3150473
0
LINE
8
DEFAULT_255_2_778
10
5.0271387
20
65.4566473
11
5.0289387
21
65.4928473
0
LINE
8
DEFAULT_255_2_778
10
5.0289387
20
65.4928473
11
5.0287387
21
65.5293473
0
LINE
8
DEFAULT_255_2_778
10
5.0207387
20
65.6013473
11
5.0131387
21
65.6368473
0
LINE
8
DEFAULT_255_2_778
10
5.0131387
20
65.6368473
11
5.0022387
21
65.6717473
0
LINE
8
DEFAULT_255_2_778
10
5.0022387
20
65.6717473
11
4.9879387
21
65.7050473
0
LINE
8
DEFAULT_255_2_778
10
4.9879387
20
65.7050473
11
4.9702387
21
65.7368473
0
LINE
8
DEFAULT_255_2_778
10
4.9702387
20
65.7368473
11
4.9488387
21
65.7664473
0
LINE
8
DEFAULT_255_2_778
10
4.9488387
20
65.7664473
11
4.9244387
21
65.7931473
0
LINE
8
DEFAULT_255_2_778
10
4.9244387
20
65.7931473
11
4.8974387
21
65.8172473
0
LINE
8
DEFAULT_255_2_778
10
4.8974387
20
65.8172473
11
4.8670387
21
65.8376473
0
LINE
8
DEFAULT_255_2_778
10
4.8006387
20
65.8677473
11
4.7300387
21
65.8865473
0
LINE
8
DEFAULT_255_2_778
10
4.7300387
20
65.8865473
11
4.6940387
21
65.8910473
0
LINE
8
DEFAULT_255_2_778
10
4.6940387
20
65.8910473
11
4.6580387
21
65.8931473
0
LINE
8
DEFAULT_255_2_778
10
4.6580387
20
65.8931473
11
4.6217387
21
65.8929473
0
LINE
8
DEFAULT_255_2_778
10
4.6217387
20
65.8929473
11
4.5852387
21
65.8900473
0
LINE
8
DEFAULT_255_2_778
10
4.5852387
20
65.8900473
11
4.5143387
21
65.8752473
0
LINE
8
DEFAULT_255_2_778
10
4.5143387
20
65.8752473
11
4.4802387
21
65.8622473
0
LINE
8
DEFAULT_255_2_778
10
4.4802387
20
65.8622473
11
4.4476387
21
65.8455473
0
LINE
8
DEFAULT_255_2_778
10
4.3889387
20
65.8029473
11
4.3630387
21
65.7773473
0
LINE
8
DEFAULT_255_2_778
10
4.3630387
20
65.7773473
11
4.3400387
21
65.7495473
0
LINE
8
DEFAULT_255_2_778
10
4.3032387
20
65.6870473
11
4.3032387
21
65.6833473
0
LINE
8
DEFAULT_255_2_778
10
5.9396387
20
64.0575473
11
6.4789387
21
65.9312473
0
LINE
8
DEFAULT_255_2_778
10
5.8306387
20
64.0884473
11
6.3698387
21
65.9622473
0
LINE
8
DEFAULT_255_2_778
10
6.4786387
20
65.9307473
11
6.4786387
21
65.9270473
0
LINE
8
DEFAULT_255_2_778
10
5.9394387
20
64.0569473
11
5.9394387
21
64.0532473
0
LINE
8
DEFAULT_255_2_778
10
5.8306387
20
64.0842473
11
5.8306387
21
64.0879473
0
LINE
8
DEFAULT_255_2_778
10
7.0866387
20
64.2855473
11
7.1998387
21
64.2855473
0
LINE
8
DEFAULT_255_2_778
10
7.0088387
20
65.7736473
11
7.0866387
21
65.7736473
0
LINE
8
DEFAULT_255_2_778
10
7.0866387
20
65.7736473
11
7.0866387
21
64.8200473
0
LINE
8
DEFAULT_255_2_778
10
7.0866387
20
64.8200473
11
6.5984387
21
64.8200473
0
LINE
8
DEFAULT_255_2_778
10
6.5984387
20
64.8200473
11
6.5984387
21
64.8488473
0
LINE
8
DEFAULT_255_2_778
10
6.5984387
20
64.8488473
11
6.6117387
21
64.8777473
0
LINE
8
DEFAULT_255_2_778
10
6.6117387
20
64.8777473
11
6.6246387
21
64.9065473
0
LINE
8
DEFAULT_255_2_778
10
6.6246387
20
64.9065473
11
6.6506387
21
64.9642473
0
LINE
8
DEFAULT_255_2_778
10
6.6506387
20
64.9642473
11
6.7019387
21
65.0798473
0
LINE
8
DEFAULT_255_2_778
10
6.7019387
20
65.0798473
11
6.7532387
21
65.1954473
0
LINE
8
DEFAULT_255_2_778
10
6.7532387
20
65.1954473
11
6.8048387
21
65.3108473
0
LINE
8
DEFAULT_255_2_778
10
6.8048387
20
65.3108473
11
6.8562387
21
65.4264473
0
LINE
8
DEFAULT_255_2_778
10
6.8562387
20
65.4264473
11
6.9072387
21
65.5420473
0
LINE
8
DEFAULT_255_2_778
10
6.9072387
20
65.5420473
11
6.9580387
21
65.6579473
0
LINE
8
DEFAULT_255_2_778
10
6.9580387
20
65.6579473
11
6.9834387
21
65.7159473
0
LINE
8
DEFAULT_255_2_778
10
6.9834387
20
65.7159473
11
7.0088387
21
65.7736473
0
LINE
8
DEFAULT_255_2_778
10
7.1996387
20
64.2818473
11
7.1996387
21
64.7091473
0
LINE
8
DEFAULT_255_2_778
10
7.1996387
20
64.7091473
11
7.4348387
21
64.7091473
0
LINE
8
DEFAULT_255_2_778
10
7.4348387
20
64.7091473
11
7.4348387
21
64.8200473
0
LINE
8
DEFAULT_255_2_778
10
7.4348387
20
64.8200473
11
7.1996387
21
64.8200473
0
LINE
8
DEFAULT_255_2_778
10
7.1996387
20
64.8200473
11
7.1996387
21
65.8844473
0
LINE
8
DEFAULT_255_2_778
10
7.1996387
20
65.8844473
11
6.9355387
21
65.8844473
0
LINE
8
DEFAULT_255_2_778
10
6.4873387
20
64.8732473
11
6.4873387
21
64.7091473
0
LINE
8
DEFAULT_255_2_778
10
6.4873387
20
64.7091473
11
7.0866387
21
64.7091473
0
LINE
8
DEFAULT_255_2_778
10
7.0866387
20
64.7091473
11
7.0866387
21
64.2818473
0
LINE
8
DEFAULT_255_2_778
10
8.9485387
20
65.2391473
11
8.9874387
21
65.1200473
0
LINE
8
DEFAULT_255_2_778
10
8.9874387
20
65.1200473
11
9.0263387
21
65.0010473
0
LINE
8
DEFAULT_255_2_778
10
9.0263387
20
65.0010473
11
9.1030387
21
64.7623473
0
LINE
8
DEFAULT_255_2_778
10
9.1030387
20
64.7623473
11
9.1416387
21
64.6430473
0
LINE
8
DEFAULT_255_2_778
10
9.1416387
20
64.6430473
11
9.1800387
21
64.5237473
0
LINE
8
DEFAULT_255_2_778
10
9.1800387
20
64.5237473
11
9.2570387
21
64.2853473
0
LINE
8
DEFAULT_255_2_778
10
9.2570387
20
64.2853473
11
9.3856387
21
64.2853473
0
LINE
8
DEFAULT_255_2_778
10
9.3856387
20
64.2853473
11
9.3856387
21
64.2816473
0
LINE
8
DEFAULT_255_2_778
10
9.3856387
20
64.2816473
11
9.2570387
21
64.2816473
0
LINE
8
DEFAULT_255_2_778
10
9.2570387
20
64.2816473
11
9.2570387
21
64.2853473
0
LINE
8
DEFAULT_255_2_778
10
9.2570387
20
64.2816473
11
9.1800387
21
64.5200473
0
LINE
8
DEFAULT_255_2_778
10
9.1800387
20
64.5200473
11
9.1416387
21
64.6393473
0
LINE
8
DEFAULT_255_2_778
10
9.1416387
20
64.6393473
11
9.1030387
21
64.7586473
0
LINE
8
DEFAULT_255_2_778
10
9.1030387
20
64.7586473
11
9.0263387
21
64.9973473
0
LINE
8
DEFAULT_255_2_778
10
9.0263387
20
64.9973473
11
8.9874387
21
65.1163473
0
LINE
8
DEFAULT_255_2_778
10
8.9874387
20
65.1163473
11
8.9485387
21
65.2354473
0
LINE
8
DEFAULT_255_2_778
10
8.9485387
20
65.2354473
11
8.9485387
21
65.2391473
0
LINE
8
DEFAULT_255_2_778
10
8.9485387
20
65.2391473
11
8.9096387
21
65.1203473
0
LINE
8
DEFAULT_255_2_778
10
8.9096387
20
65.1203473
11
8.8710387
21
65.0012473
0
LINE
8
DEFAULT_255_2_778
10
8.8710387
20
65.0012473
11
8.8334387
21
64.8819473
0
LINE
8
DEFAULT_255_2_778
10
8.8334387
20
64.8819473
11
8.7961387
21
64.7626473
0
LINE
8
DEFAULT_255_2_778
10
8.7961387
20
64.7626473
11
8.7770387
21
64.7030473
0
LINE
8
DEFAULT_255_2_778
10
8.7770387
20
64.7030473
11
8.7580387
21
64.6435473
0
LINE
8
DEFAULT_255_2_778
10
8.7580387
20
64.6435473
11
8.7199387
21
64.5245473
0
LINE
8
DEFAULT_255_2_778
10
8.7199387
20
64.5245473
11
8.6445387
21
64.2858473
0
LINE
8
DEFAULT_255_2_778
10
8.5156387
20
64.2821473
11
8.6442387
21
64.2821473
0
LINE
8
DEFAULT_255_2_778
10
8.6442387
20
64.2821473
11
8.6442387
21
64.2858473
0
LINE
8
DEFAULT_255_2_778
10
8.6442387
20
64.2858473
11
8.5156387
21
64.2858473
0
LINE
8
DEFAULT_255_2_778
10
8.5156387
20
64.2858473
11
8.5156387
21
64.2821473
0
LINE
8
DEFAULT_255_2_778
10
8.2116387
20
65.3865473
11
8.2116387
21
65.3902473
0
LINE
8
DEFAULT_255_2_778
10
8.3204387
20
65.4211473
11
8.3857387
21
65.1814473
0
LINE
8
DEFAULT_255_2_778
10
8.3857387
20
65.1814473
11
8.4190387
21
65.0618473
0
LINE
8
DEFAULT_255_2_778
10
8.4190387
20
65.0618473
11
8.4354387
21
65.0020473
0
LINE
8
DEFAULT_255_2_778
10
8.4354387
20
65.0020473
11
8.4519387
21
64.9422473
0
LINE
8
DEFAULT_255_2_778
10
8.4519387
20
64.9422473
11
8.4852387
21
64.8226473
0
LINE
8
DEFAULT_255_2_778
10
8.4852387
20
64.8226473
11
8.5183387
21
64.7030473
0
LINE
8
DEFAULT_255_2_778
10
8.5183387
20
64.7030473
11
8.5513387
21
64.5832473
0
LINE
8
DEFAULT_255_2_778
10
8.5513387
20
64.5832473
11
8.5847387
21
64.4636473
0
LINE
8
DEFAULT_255_2_778
10
8.5847387
20
64.4636473
11
8.6220387
21
64.5816473
0
LINE
8
DEFAULT_255_2_778
10
8.6220387
20
64.5816473
11
8.6590387
21
64.6996473
0
LINE
8
DEFAULT_255_2_778
10
8.6590387
20
64.6996473
11
8.6955387
21
64.8176473
0
LINE
8
DEFAULT_255_2_778
10
8.6955387
20
64.8176473
11
8.7328387
21
64.9354473
0
LINE
8
DEFAULT_255_2_778
10
8.7328387
20
64.9354473
11
8.7522387
21
64.9941473
0
LINE
8
DEFAULT_255_2_778
10
8.7522387
20
64.9941473
11
8.7712387
21
65.0528473
0
LINE
8
DEFAULT_255_2_778
10
8.7712387
20
65.0528473
11
8.8085387
21
65.1706473
0
LINE
8
DEFAULT_255_2_778
10
8.8085387
20
65.1706473
11
8.8844387
21
65.4058473
0
LINE
8
DEFAULT_255_2_778
10
8.8844387
20
65.4058473
11
9.0130387
21
65.4058473
0
LINE
8
DEFAULT_255_2_778
10
9.3192387
20
64.4612473
11
9.3517387
21
64.5813473
0
LINE
8
DEFAULT_255_2_778
10
9.3517387
20
64.5813473
11
9.3842387
21
64.7015473
0
LINE
8
DEFAULT_255_2_778
10
9.3842387
20
64.7015473
11
9.4176387
21
64.8213473
0
LINE
8
DEFAULT_255_2_778
10
9.4176387
20
64.8213473
11
9.4509387
21
64.9412473
0
LINE
8
DEFAULT_255_2_778
10
9.4509387
20
64.9412473
11
9.4673387
21
65.0012473
0
LINE
8
DEFAULT_255_2_778
10
9.4673387
20
65.0012473
11
9.4837387
21
65.0613473
0
LINE
8
DEFAULT_255_2_778
10
9.4837387
20
65.0613473
11
9.5171387
21
65.1812473
0
LINE
8
DEFAULT_255_2_778
10
9.5171387
20
65.1812473
11
9.5835387
21
65.4211473
0
LINE
8
DEFAULT_255_2_778
10
9.6922387
20
65.3865473
11
9.6922387
21
65.3902473
0
LINE
8
DEFAULT_255_2_778
10
11.6964387
20
65.1367473
11
11.6851387
21
65.1687473
0
LINE
8
DEFAULT_255_2_778
10
11.6851387
20
65.1687473
11
11.6695387
21
65.1983473
0
LINE
8
DEFAULT_255_2_778
10
11.6695387
20
65.1983473
11
11.6597387
21
65.2121473
0
LINE
8
DEFAULT_255_2_778
10
11.6597387
20
65.2121473
11
11.6488387
21
65.2251473
0
LINE
8
DEFAULT_255_2_778
10
11.6488387
20
65.2251473
11
11.6245387
21
65.2484473
0
LINE
8
DEFAULT_255_2_778
10
11.6245387
20
65.2484473
11
11.5970387
21
65.2679473
0
LINE
8
DEFAULT_255_2_778
10
11.5970387
20
65.2679473
11
11.5671387
21
65.2838473
0
LINE
8
DEFAULT_255_2_778
10
11.5671387
20
65.2838473
11
11.5353387
21
65.2957473
0
LINE
8
DEFAULT_255_2_778
10
11.5353387
20
65.2957473
11
11.5025387
21
65.3039473
0
LINE
8
DEFAULT_255_2_778
10
11.5025387
20
65.3039473
11
11.4356387
21
65.3100473
0
LINE
8
DEFAULT_255_2_778
10
11.4356387
20
65.3100473
11
11.4017387
21
65.3084473
0
LINE
8
DEFAULT_255_2_778
10
11.4017387
20
65.3084473
11
11.3684387
21
65.3037473
0
LINE
8
DEFAULT_255_2_778
10
11.3684387
20
65.3037473
11
11.3038387
21
65.2851473
0
LINE
8
DEFAULT_255_2_778
10
11.3038387
20
65.2851473
11
11.2731387
21
65.2703473
0
LINE
8
DEFAULT_255_2_778
10
11.2731387
20
65.2703473
11
11.2451387
21
65.2515473
0
LINE
8
DEFAULT_255_2_778
10
11.2451387
20
65.2515473
11
11.2199387
21
65.2285473
0
LINE
8
DEFAULT_255_2_778
10
11.2199387
20
65.2285473
11
11.1993387
21
65.2021473
0
LINE
8
DEFAULT_255_2_778
10
11.1993387
20
65.2021473
11
11.1908387
21
65.1875473
0
LINE
8
DEFAULT_255_2_778
10
11.1908387
20
65.1875473
11
11.1837387
21
65.1719473
0
LINE
8
DEFAULT_255_2_778
10
11.1628387
20
65.0727473
11
11.1575387
21
65.0049473
0
LINE
8
DEFAULT_255_2_778
10
11.1575387
20
65.0049473
11
11.1517387
21
64.9372473
0
LINE
8
DEFAULT_255_2_778
10
11.1517387
20
64.9372473
11
11.7200387
21
64.9375473
0
LINE
8
DEFAULT_255_2_778
10
11.1519387
20
64.9338473
11
11.1577387
21
65.0010473
0
LINE
8
DEFAULT_255_2_778
10
11.1577387
20
65.0010473
11
11.1630387
21
65.0684473
0
LINE
8
DEFAULT_255_2_778
10
11.1630387
20
65.0684473
11
11.1670387
21
65.1020473
0
LINE
8
DEFAULT_255_2_778
10
11.1670387
20
65.1020473
11
11.1734387
21
65.1354473
0
LINE
8
DEFAULT_255_2_778
10
11.1834387
20
65.1674473
11
11.1903387
21
65.1827473
0
LINE
8
DEFAULT_255_2_778
10
11.1903387
20
65.1827473
11
11.1988387
21
65.1976473
0
LINE
8
DEFAULT_255_2_778
10
11.1988387
20
65.1976473
11
11.2194387
21
65.2243473
0
LINE
8
DEFAULT_255_2_778
10
11.2194387
20
65.2243473
11
11.2440387
21
65.2470473
0
LINE
8
DEFAULT_255_2_778
10
11.2440387
20
65.2470473
11
11.2720387
21
65.2661473
0
LINE
8
DEFAULT_255_2_778
10
11.2720387
20
65.2661473
11
11.3022387
21
65.2809473
0
LINE
8
DEFAULT_255_2_778
10
11.3022387
20
65.2809473
11
11.3342387
21
65.2920473
0
LINE
8
DEFAULT_255_2_778
10
11.3342387
20
65.2920473
11
11.3670387
21
65.2997473
0
LINE
8
DEFAULT_255_2_778
10
11.3670387
20
65.2997473
11
11.4340387
21
65.3063473
0
LINE
8
DEFAULT_255_2_778
10
11.4340387
20
65.3063473
11
11.4678387
21
65.3050473
0
LINE
8
DEFAULT_255_2_778
10
11.4678387
20
65.3050473
11
11.5009387
21
65.3005473
0
LINE
8
DEFAULT_255_2_778
10
11.5009387
20
65.3005473
11
11.5335387
21
65.2925473
0
LINE
8
DEFAULT_255_2_778
10
11.5335387
20
65.2925473
11
11.5652387
21
65.2809473
0
LINE
8
DEFAULT_255_2_778
10
11.6229387
20
65.2460473
11
11.6356387
21
65.2349473
0
LINE
8
DEFAULT_255_2_778
10
11.6356387
20
65.2349473
11
11.6475387
21
65.2230473
0
LINE
8
DEFAULT_255_2_778
10
11.6475387
20
65.2230473
11
11.6681387
21
65.1965473
0
LINE
8
DEFAULT_255_2_778
10
11.6681387
20
65.1965473
11
11.6769387
21
65.1819473
0
LINE
8
DEFAULT_255_2_778
10
11.6769387
20
65.1819473
11
11.6843387
21
65.1666473
0
LINE
8
DEFAULT_255_2_778
10
11.6843387
20
65.1666473
11
11.6956387
21
65.1348473
0
LINE
8
DEFAULT_255_2_778
10
11.7094387
20
65.0687473
11
11.7176387
21
65.0015473
0
LINE
8
DEFAULT_255_2_778
10
11.7176387
20
65.0015473
11
11.7200387
21
64.9338473
0
LINE
8
DEFAULT_255_2_778
10
11.8340387
20
64.8697473
11
11.8340387
21
64.8734473
0
LINE
8
DEFAULT_255_2_778
10
11.0379387
20
64.8816473
11
11.0379387
21
64.8779473
0
LINE
8
DEFAULT_255_2_778
10
11.0379387
20
64.8779473
11
11.0382387
21
64.8427473
0
LINE
8
DEFAULT_255_2_778
10
11.0382387
20
64.8427473
11
11.0403387
21
64.7528473
0
LINE
8
DEFAULT_255_2_778
10
11.0403387
20
64.7528473
11
11.0456387
21
64.6631473
0
LINE
8
DEFAULT_255_2_778
10
11.0456387
20
64.6631473
11
11.0575387
21
64.5739473
0
LINE
8
DEFAULT_255_2_778
10
11.0810387
20
64.4874473
11
11.0897387
21
64.4668473
0
LINE
8
DEFAULT_255_2_778
10
11.0897387
20
64.4668473
11
11.0998387
21
64.4464473
0
LINE
8
DEFAULT_255_2_778
10
11.0998387
20
64.4464473
11
11.1241387
21
64.4088473
0
LINE
8
DEFAULT_255_2_778
10
11.1241387
20
64.4088473
11
11.1535387
21
64.3750473
0
LINE
8
DEFAULT_255_2_778
10
11.1535387
20
64.3750473
11
11.1699387
21
64.3596473
0
LINE
8
DEFAULT_255_2_778
10
11.1699387
20
64.3596473
11
11.1874387
21
64.3453473
0
LINE
8
DEFAULT_255_2_778
10
11.1874387
20
64.3453473
11
11.2247387
21
64.3205473
0
LINE
8
DEFAULT_255_2_778
10
11.2247387
20
64.3205473
11
11.2652387
21
64.3004473
0
LINE
8
DEFAULT_255_2_778
10
11.3512387
20
64.2744473
11
11.3959387
21
64.2681473
0
LINE
8
DEFAULT_255_2_778
10
11.3959387
20
64.2681473
11
11.4406387
21
64.2662473
0
LINE
8
DEFAULT_255_2_778
10
11.4406387
20
64.2662473
11
11.4853387
21
64.2686473
0
LINE
8
DEFAULT_255_2_778
10
11.4853387
20
64.2686473
11
11.5298387
21
64.2755473
0
LINE
8
DEFAULT_255_2_778
10
11.6144387
20
64.3030473
11
11.6541387
21
64.3239473
0
LINE
8
DEFAULT_255_2_778
10
11.6541387
20
64.3239473
11
11.6911387
21
64.3496473
0
LINE
8
DEFAULT_255_2_778
10
11.6911387
20
64.3496473
11
11.7242387
21
64.3797473
0
LINE
8
DEFAULT_255_2_778
10
11.7242387
20
64.3797473
11
11.7390387
21
64.3967473
0
LINE
8
DEFAULT_255_2_778
10
11.7390387
20
64.3967473
11
11.7525387
21
64.4147473
0
LINE
8
DEFAULT_255_2_778
10
11.7927387
20
64.4946473
11
11.7927387
21
64.4983473
0
LINE
8
DEFAULT_255_2_778
10
11.7520387
20
64.4176473
11
11.7382387
21
64.3993473
0
LINE
8
DEFAULT_255_2_778
10
11.7382387
20
64.3993473
11
11.7232387
21
64.3824473
0
LINE
8
DEFAULT_255_2_778
10
11.7232387
20
64.3824473
11
11.6896387
21
64.3522473
0
LINE
8
DEFAULT_255_2_778
10
11.6896387
20
64.3522473
11
11.6713387
21
64.3387473
0
LINE
8
DEFAULT_255_2_778
10
11.6713387
20
64.3387473
11
11.6520387
21
64.3265473
0
LINE
8
DEFAULT_255_2_778
10
11.6520387
20
64.3265473
11
11.6118387
21
64.3056473
0
LINE
8
DEFAULT_255_2_778
10
11.6118387
20
64.3056473
11
11.5692387
21
64.2895473
0
LINE
8
DEFAULT_255_2_778
10
11.5692387
20
64.2895473
11
11.5250387
21
64.2784473
0
LINE
8
DEFAULT_255_2_778
10
11.3448387
20
64.2795473
11
11.3009387
21
64.2908473
0
LINE
8
DEFAULT_255_2_778
10
11.3009387
20
64.2908473
11
11.2583387
21
64.3070473
0
LINE
8
DEFAULT_255_2_778
10
11.1189387
20
64.4189473
11
11.1064387
21
64.4379473
0
LINE
8
DEFAULT_255_2_778
10
11.1064387
20
64.4379473
11
11.0953387
21
64.4578473
0
LINE
8
DEFAULT_255_2_778
10
11.0953387
20
64.4578473
11
11.0776387
21
64.4996473
0
LINE
8
DEFAULT_255_2_778
10
11.0646387
20
64.5432473
11
11.0554387
21
64.5877473
0
LINE
8
DEFAULT_255_2_778
10
11.0554387
20
64.5877473
11
11.0442387
21
64.6771473
0
LINE
8
DEFAULT_255_2_778
10
11.0442387
20
64.6771473
11
11.0395387
21
64.7671473
0
LINE
8
DEFAULT_255_2_778
10
11.0395387
20
64.7671473
11
11.0376387
21
64.8570473
0
LINE
8
DEFAULT_255_2_778
10
11.0376387
20
64.8570473
11
11.0382387
21
64.9473473
0
LINE
8
DEFAULT_255_2_778
10
11.0382387
20
64.9473473
11
11.0427387
21
65.0375473
0
LINE
8
DEFAULT_255_2_778
10
11.0427387
20
65.0375473
11
11.0474387
21
65.0822473
0
LINE
8
DEFAULT_255_2_778
10
11.0474387
20
65.0822473
11
11.0548387
21
65.1269473
0
LINE
8
DEFAULT_255_2_778
10
11.0808387
20
65.2129473
11
11.0905387
21
65.2333473
0
LINE
8
DEFAULT_255_2_778
10
11.0905387
20
65.2333473
11
11.1017387
21
65.2529473
0
LINE
8
DEFAULT_255_2_778
10
11.1017387
20
65.2529473
11
11.1278387
21
65.2891473
0
LINE
8
DEFAULT_255_2_778
10
11.1278387
20
65.2891473
11
11.1585387
21
65.3216473
0
LINE
8
DEFAULT_255_2_778
10
11.1585387
20
65.3216473
11
11.1937387
21
65.3502473
0
LINE
8
DEFAULT_255_2_778
10
11.1937387
20
65.3502473
11
11.2318387
21
65.3738473
0
LINE
8
DEFAULT_255_2_778
10
11.2318387
20
65.3738473
11
11.2728387
21
65.3928473
0
LINE
8
DEFAULT_255_2_778
10
11.3594387
20
65.4166473
11
11.4041387
21
65.4222473
0
LINE
8
DEFAULT_255_2_778
10
11.4041387
20
65.4222473
11
11.4493387
21
65.4235473
0
LINE
8
DEFAULT_255_2_778
10
11.5380387
20
65.4124473
11
11.5596387
21
65.4066473
0
LINE
8
DEFAULT_255_2_778
10
11.5596387
20
65.4066473
11
11.5811387
21
65.3994473
0
LINE
8
DEFAULT_255_2_778
10
11.5811387
20
65.3994473
11
11.6221387
21
65.3812473
0
LINE
8
DEFAULT_255_2_778
10
11.6221387
20
65.3812473
11
11.6607387
21
65.3579473
0
LINE
8
DEFAULT_255_2_778
10
11.6607387
20
65.3579473
11
11.6790387
21
65.3444473
0
LINE
8
DEFAULT_255_2_778
10
11.6790387
20
65.3444473
11
11.6962387
21
65.3298473
0
LINE
8
DEFAULT_255_2_778
10
11.6962387
20
65.3298473
11
11.7269387
21
65.2973473
0
LINE
8
DEFAULT_255_2_778
10
11.7269387
20
65.2973473
11
11.7528387
21
65.2605473
0
LINE
8
DEFAULT_255_2_778
10
11.7912387
20
65.1796473
11
11.8047387
21
65.1367473
0
LINE
8
DEFAULT_255_2_778
10
11.8047387
20
65.1367473
11
11.8150387
21
65.0928473
0
LINE
8
DEFAULT_255_2_778
10
11.8277387
20
65.0041473
11
11.8332387
21
64.9150473
0
LINE
8
DEFAULT_255_2_778
10
11.8332387
20
64.9150473
11
11.8330387
21
64.8253473
0
LINE
8
DEFAULT_255_2_778
10
11.8330387
20
64.8253473
11
11.1517387
21
64.8253473
0
LINE
8
DEFAULT_255_2_778
10
11.1517387
20
64.8253473
11
11.1530387
21
64.7679473
0
LINE
8
DEFAULT_255_2_778
10
11.1530387
20
64.7679473
11
11.1548387
21
64.7393473
0
LINE
8
DEFAULT_255_2_778
10
11.1548387
20
64.7393473
11
11.1575387
21
64.7107473
0
LINE
8
DEFAULT_255_2_778
10
11.1575387
20
64.7107473
11
11.1628387
21
64.6536473
0
LINE
8
DEFAULT_255_2_778
10
11.1628387
20
64.6536473
11
11.1659387
21
64.6250473
0
LINE
8
DEFAULT_255_2_778
10
11.1659387
20
64.6250473
11
11.1697387
21
64.5967473
0
LINE
8
DEFAULT_255_2_778
10
11.1697387
20
64.5967473
11
11.1749387
21
64.5686473
0
LINE
8
DEFAULT_255_2_778
10
11.1749387
20
64.5686473
11
11.1831387
21
64.5411473
0
LINE
8
DEFAULT_255_2_778
10
11.1831387
20
64.5411473
11
11.1945387
21
64.5144473
0
LINE
8
DEFAULT_255_2_778
10
11.1945387
20
64.5144473
11
11.2088387
21
64.4895473
0
LINE
8
DEFAULT_255_2_778
10
11.2088387
20
64.4895473
11
11.2263387
21
64.4665473
0
LINE
8
DEFAULT_255_2_778
10
11.2263387
20
64.4665473
11
11.2464387
21
64.4461473
0
LINE
8
DEFAULT_255_2_778
10
11.2464387
20
64.4461473
11
11.2691387
21
64.4287473
0
LINE
8
DEFAULT_255_2_778
10
11.2691387
20
64.4287473
11
11.2943387
21
64.4141473
0
LINE
8
DEFAULT_255_2_778
10
11.2943387
20
64.4141473
11
11.3205387
21
64.4025473
0
LINE
8
DEFAULT_255_2_778
10
11.3205387
20
64.4025473
11
11.3480387
21
64.3938473
0
LINE
8
DEFAULT_255_2_778
10
11.3480387
20
64.3938473
11
11.3763387
21
64.3877473
0
LINE
8
DEFAULT_255_2_778
10
11.3763387
20
64.3877473
11
11.4049387
21
64.3837473
0
LINE
8
DEFAULT_255_2_778
10
11.4049387
20
64.3837473
11
11.4620387
21
64.3832473
0
LINE
8
DEFAULT_255_2_778
10
11.4620387
20
64.3832473
11
11.4909387
21
64.3866473
0
LINE
8
DEFAULT_255_2_778
10
11.4909387
20
64.3866473
11
11.5189387
21
64.3924473
0
LINE
8
DEFAULT_255_2_778
10
11.5189387
20
64.3924473
11
11.5729387
21
64.4120473
0
LINE
8
DEFAULT_255_2_778
10
11.6213387
20
64.4430473
11
11.6419387
21
64.4631473
0
LINE
8
DEFAULT_255_2_778
10
11.6419387
20
64.4631473
11
11.6597387
21
64.4858473
0
LINE
8
DEFAULT_255_2_778
10
11.6597387
20
64.4858473
11
11.6745387
21
64.5107473
0
LINE
8
DEFAULT_255_2_778
10
11.6745387
20
64.5107473
11
11.6864387
21
64.5372473
0
LINE
8
DEFAULT_255_2_778
10
2.1545387
20
59.8281473
11
2.2447387
21
59.8281473
0
LINE
8
DEFAULT_255_2_778
10
2.2447387
20
59.8281473
11
2.2447387
21
61.1238473
0
LINE
8
DEFAULT_255_2_778
10
2.2447387
20
61.1238473
11
2.1545387
21
61.1238473
0
LINE
8
DEFAULT_255_2_778
10
2.1545387
20
61.1238473
11
2.1545387
21
59.8281473
0
LINE
8
DEFAULT_255_2_778
10
1.8825387
20
60.4713473
11
1.8825387
21
60.4750473
0
LINE
8
DEFAULT_255_2_778
10
1.3449387
20
59.8215473
11
1.2875387
21
59.8210473
0
LINE
8
DEFAULT_255_2_778
10
1.1393387
20
59.8315473
11
1.1393387
21
61.1291473
0
LINE
8
DEFAULT_255_2_778
10
1.1393387
20
61.1291473
11
1.2126387
21
61.1296473
0
LINE
8
DEFAULT_255_2_778
10
1.2126387
20
61.1296473
11
1.2859387
21
61.1304473
0
LINE
8
DEFAULT_255_2_778
10
1.2859387
20
61.1304473
11
1.3592387
21
61.1306473
0
LINE
8
DEFAULT_255_2_778
10
1.3592387
20
61.1306473
11
1.4322387
21
61.1283473
0
LINE
8
DEFAULT_255_2_778
10
1.4322387
20
61.1283473
11
1.5050387
21
61.1203473
0
LINE
8
DEFAULT_255_2_778
10
1.5050387
20
61.1203473
11
1.5412387
21
61.1132473
0
LINE
8
DEFAULT_255_2_778
10
1.5412387
20
61.1132473
11
1.5772387
21
61.1034473
0
LINE
8
DEFAULT_255_2_778
10
1.5772387
20
61.1034473
11
1.6121387
21
61.0904473
0
LINE
8
DEFAULT_255_2_778
10
1.6121387
20
61.0904473
11
1.6452387
21
61.0740473
0
LINE
8
DEFAULT_255_2_778
10
1.6452387
20
61.0740473
11
1.6767387
21
61.0539473
0
LINE
8
DEFAULT_255_2_778
10
1.6767387
20
61.0539473
11
1.7060387
21
61.0309473
0
LINE
8
DEFAULT_255_2_778
10
1.7574387
20
60.9772473
11
1.7793387
21
60.9468473
0
LINE
8
DEFAULT_255_2_778
10
1.7793387
20
60.9468473
11
1.7984387
21
60.9147473
0
LINE
8
DEFAULT_255_2_778
10
1.8751387
20
60.6303473
11
1.8804387
21
60.5562473
0
LINE
8
DEFAULT_255_2_778
10
1.8804387
20
60.5562473
11
1.8825387
21
60.4822473
0
LINE
8
DEFAULT_255_2_778
10
1.8825387
20
60.4822473
11
1.8812387
21
60.4083473
0
LINE
8
DEFAULT_255_2_778
10
1.8812387
20
60.4083473
11
1.8762387
21
60.3345473
0
LINE
8
DEFAULT_255_2_778
10
1.8762387
20
60.3345473
11
1.8666387
21
60.2610473
0
LINE
8
DEFAULT_255_2_778
10
1.8666387
20
60.2610473
11
1.8513387
21
60.1879473
0
LINE
8
DEFAULT_255_2_778
10
1.8293387
20
60.1170473
11
1.8156387
21
60.0824473
0
LINE
8
DEFAULT_255_2_778
10
1.8156387
20
60.0824473
11
1.7997387
21
60.0485473
0
LINE
8
DEFAULT_255_2_778
10
1.7613387
20
59.9853473
11
1.7383387
21
59.9562473
0
LINE
8
DEFAULT_255_2_778
10
1.7383387
20
59.9562473
11
1.7124387
21
59.9292473
0
LINE
8
DEFAULT_255_2_778
10
1.7124387
20
59.9292473
11
1.6835387
21
59.9056473
0
LINE
8
DEFAULT_255_2_778
10
1.6835387
20
59.9056473
11
1.6521387
21
59.8860473
0
LINE
8
DEFAULT_255_2_778
10
1.6521387
20
59.8860473
11
1.6182387
21
59.8702473
0
LINE
8
DEFAULT_255_2_778
10
1.6182387
20
59.8702473
11
1.5830387
21
59.8577473
0
LINE
8
DEFAULT_255_2_778
10
1.5830387
20
59.8577473
11
1.5105387
21
59.8411473
0
LINE
8
DEFAULT_255_2_778
10
1.5105387
20
59.8411473
11
1.4364387
21
59.8313473
0
LINE
8
DEFAULT_255_2_778
10
1.2314387
20
59.9210473
11
1.2906387
21
59.9191473
0
LINE
8
DEFAULT_255_2_778
10
1.2906387
20
59.9191473
11
1.3496387
21
59.9196473
0
LINE
8
DEFAULT_255_2_778
10
1.4671387
20
59.9289473
11
1.5253387
21
59.9403473
0
LINE
8
DEFAULT_255_2_778
10
1.5253387
20
59.9403473
11
1.5819387
21
59.9585473
0
LINE
8
DEFAULT_255_2_778
10
1.5819387
20
59.9585473
11
1.6346387
21
59.9858473
0
LINE
8
DEFAULT_255_2_778
10
1.6346387
20
59.9858473
11
1.6584387
21
60.0038473
0
LINE
8
DEFAULT_255_2_778
10
1.6584387
20
60.0038473
11
1.6793387
21
60.0247473
0
LINE
8
DEFAULT_255_2_778
10
1.6793387
20
60.0247473
11
1.6976387
21
60.0482473
0
LINE
8
DEFAULT_255_2_778
10
1.6976387
20
60.0482473
11
1.7132387
21
60.0736473
0
LINE
8
DEFAULT_255_2_778
10
1.7381387
20
60.1276473
11
1.7568387
21
60.1842473
0
LINE
8
DEFAULT_255_2_778
10
1.7568387
20
60.1842473
11
1.7711387
21
60.2416473
0
LINE
8
DEFAULT_255_2_778
10
1.7881387
20
60.3586473
11
1.7912387
21
60.4179473
0
LINE
8
DEFAULT_255_2_778
10
1.7912387
20
60.4179473
11
1.7918387
21
60.4774473
0
LINE
8
DEFAULT_255_2_778
10
1.7918387
20
60.4774473
11
1.7902387
21
60.5367473
0
LINE
8
DEFAULT_255_2_778
10
1.7902387
20
60.5367473
11
1.7870387
21
60.5959473
0
LINE
8
DEFAULT_255_2_778
10
1.7727387
20
60.7137473
11
1.7590387
21
60.7719473
0
LINE
8
DEFAULT_255_2_778
10
1.7394387
20
60.8282473
11
1.7269387
21
60.8555473
0
LINE
8
DEFAULT_255_2_778
10
1.7269387
20
60.8555473
11
1.7127387
21
60.8819473
0
LINE
8
DEFAULT_255_2_778
10
1.6788387
20
60.9306473
11
1.6587387
21
60.9526473
0
LINE
8
DEFAULT_255_2_778
10
1.6587387
20
60.9526473
11
1.6362387
21
60.9727473
0
LINE
8
DEFAULT_255_2_778
10
1.5857387
20
61.0039473
11
1.5579387
21
61.0153473
0
LINE
8
DEFAULT_255_2_778
10
1.5579387
20
61.0153473
11
1.5293387
21
61.0238473
0
LINE
8
DEFAULT_255_2_778
10
1.5293387
20
61.0238473
11
1.4706387
21
61.0338473
0
LINE
8
DEFAULT_255_2_778
10
1.4706387
20
61.0338473
11
1.4108387
21
61.0375473
0
LINE
8
DEFAULT_255_2_778
10
1.4108387
20
61.0375473
11
1.3510387
21
61.0386473
0
LINE
8
DEFAULT_255_2_778
10
1.3510387
20
61.0386473
11
1.2311387
21
61.0383473
0
LINE
8
DEFAULT_255_2_778
10
1.2311387
20
61.0383473
11
1.2314387
21
59.9210473
0
LINE
8
DEFAULT_255_2_778
10
3.4959387
20
59.8477473
11
3.4959387
21
59.8440473
0
LINE
8
DEFAULT_255_2_778
10
3.4076387
20
59.8151473
11
3.4076387
21
59.8188473
0
LINE
8
DEFAULT_255_2_778
10
3.4076387
20
59.8188473
11
3.3935387
21
59.8628473
0
LINE
8
DEFAULT_255_2_778
10
3.3935387
20
59.8628473
11
3.3785387
21
59.9064473
0
LINE
8
DEFAULT_255_2_778
10
3.3785387
20
59.9064473
11
3.3486387
21
59.9940473
0
LINE
8
DEFAULT_255_2_778
10
3.3486387
20
59.9940473
11
3.3197387
21
60.0818473
0
LINE
8
DEFAULT_255_2_778
10
3.3197387
20
60.0818473
11
3.2919387
21
60.1699473
0
LINE
8
DEFAULT_255_2_778
10
3.2919387
20
60.1699473
11
2.7350387
21
60.1699473
0
LINE
8
DEFAULT_255_2_778
10
2.9604387
20
61.1288473
11
3.0758387
21
61.1288473
0
LINE
8
DEFAULT_255_2_778
10
3.2605387
20
60.2620473
11
3.2009387
21
60.4462473
0
LINE
8
DEFAULT_255_2_778
10
3.2009387
20
60.4462473
11
3.1395387
21
60.6338473
0
LINE
8
DEFAULT_255_2_778
10
3.1395387
20
60.6338473
11
3.0784387
21
60.8216473
0
LINE
8
DEFAULT_255_2_778
10
3.0784387
20
60.8216473
11
3.0483387
21
60.9155473
0
LINE
8
DEFAULT_255_2_778
10
3.0483387
20
60.9155473
11
3.0181387
21
61.0095473
0
LINE
8
DEFAULT_255_2_778
10
3.0181387
20
61.0095473
11
3.0181387
21
61.0132473
0
LINE
8
DEFAULT_255_2_778
10
3.0181387
20
61.0132473
11
2.9869387
21
60.9190473
0
LINE
8
DEFAULT_255_2_778
10
2.9869387
20
60.9190473
11
2.9554387
21
60.8251473
0
LINE
8
DEFAULT_255_2_778
10
2.9554387
20
60.8251473
11
2.8916387
21
60.6375473
0
LINE
8
DEFAULT_255_2_778
10
2.8916387
20
60.6375473
11
2.8284387
21
60.4496473
0
LINE
8
DEFAULT_255_2_778
10
2.8284387
20
60.4496473
11
2.7654387
21
60.2618473
0
LINE
8
DEFAULT_255_2_778
10
2.7654387
20
60.2618473
11
3.2613387
21
60.2618473
0
LINE
8
DEFAULT_255_2_778
10
3.2613387
20
60.2618473
11
3.2007387
21
60.4496473
0
LINE
8
DEFAULT_255_2_778
10
3.2007387
20
60.4496473
11
3.1393387
21
60.6372473
0
LINE
8
DEFAULT_255_2_778
10
3.1393387
20
60.6372473
11
3.0782387
21
60.8251473
0
LINE
8
DEFAULT_255_2_778
10
3.0782387
20
60.8251473
11
3.0178387
21
61.0132473
0
LINE
8
DEFAULT_255_2_778
10
4.4228387
20
60.8835473
11
4.4228387
21
60.8872473
0
LINE
8
DEFAULT_255_2_778
10
4.4133387
20
60.9267473
11
4.3990387
21
60.9645473
0
LINE
8
DEFAULT_255_2_778
10
4.3990387
20
60.9645473
11
4.3807387
21
61.0002473
0
LINE
8
DEFAULT_255_2_778
10
4.3807387
20
61.0002473
11
4.3585387
21
61.0338473
0
LINE
8
DEFAULT_255_2_778
10
4.3585387
20
61.0338473
11
4.3458387
21
61.0497473
0
LINE
8
DEFAULT_255_2_778
10
4.3458387
20
61.0497473
11
4.3320387
21
61.0645473
0
LINE
8
DEFAULT_255_2_778
10
4.3320387
20
61.0645473
11
4.3011387
21
61.0904473
0
LINE
8
DEFAULT_255_2_778
10
4.3011387
20
61.0904473
11
4.2839387
21
61.1013473
0
LINE
8
DEFAULT_255_2_778
10
4.2839387
20
61.1013473
11
4.2656387
21
61.1103473
0
LINE
8
DEFAULT_255_2_778
10
4.2656387
20
61.1103473
11
4.2275387
21
61.1235473
0
LINE
8
DEFAULT_255_2_778
10
4.2275387
20
61.1235473
11
4.1878387
21
61.1317473
0
LINE
8
DEFAULT_255_2_778
10
4.1878387
20
61.1317473
11
4.1476387
21
61.1362473
0
LINE
8
DEFAULT_255_2_778
10
4.1476387
20
61.1362473
11
4.1074387
21
61.1378473
0
LINE
8
DEFAULT_255_2_778
10
4.1074387
20
61.1378473
11
4.0669387
21
61.1373473
0
LINE
8
DEFAULT_255_2_778
10
3.9870387
20
61.1264473
11
3.9484387
21
61.1145473
0
LINE
8
DEFAULT_255_2_778
10
3.9484387
20
61.1145473
11
3.9116387
21
61.0978473
0
LINE
8
DEFAULT_255_2_778
10
3.9116387
20
61.0978473
11
3.8772387
21
61.0772473
0
LINE
8
DEFAULT_255_2_778
10
3.8772387
20
61.0772473
11
3.8449387
21
61.0526473
0
LINE
8
DEFAULT_255_2_778
10
3.7902387
20
60.9939473
11
3.7788387
21
60.9772473
0
LINE
8
DEFAULT_255_2_778
10
3.7788387
20
60.9772473
11
3.7685387
21
60.9597473
0
LINE
8
DEFAULT_255_2_778
10
3.7685387
20
60.9597473
11
3.7510387
21
60.9235473
0
LINE
8
DEFAULT_255_2_778
10
3.7264387
20
60.8470473
11
3.7182387
21
60.8073473
0
LINE
8
DEFAULT_255_2_778
10
3.7182387
20
60.8073473
11
3.7118387
21
60.7674473
0
LINE
8
DEFAULT_255_2_778
10
3.7118387
20
60.7674473
11
3.7028387
21
60.6872473
0
LINE
8
DEFAULT_255_2_778
10
3.7028387
20
60.6872473
11
3.6981387
21
60.6065473
0
LINE
8
DEFAULT_255_2_778
10
3.6981387
20
60.6065473
11
3.6962387
21
60.5261473
0
LINE
8
DEFAULT_255_2_778
10
3.6962387
20
60.5261473
11
3.6983387
21
60.3652473
0
LINE
8
DEFAULT_255_2_778
10
3.6983387
20
60.3652473
11
3.7031387
21
60.2848473
0
LINE
8
DEFAULT_255_2_778
10
3.7031387
20
60.2848473
11
3.7121387
21
60.2043473
0
LINE
8
DEFAULT_255_2_778
10
3.7555387
20
60.0493473
11
3.7738387
21
60.0130473
0
LINE
8
DEFAULT_255_2_778
10
3.7738387
20
60.0130473
11
3.7952387
21
59.9789473
0
LINE
8
DEFAULT_255_2_778
10
3.7952387
20
59.9789473
11
3.8198387
21
59.9472473
0
LINE
8
DEFAULT_255_2_778
10
3.8198387
20
59.9472473
11
3.8478387
21
59.9178473
0
LINE
8
DEFAULT_255_2_778
10
3.9121387
20
59.8691473
11
3.9299387
21
59.8591473
0
LINE
8
DEFAULT_255_2_778
10
3.9299387
20
59.8591473
11
3.9481387
21
59.8501473
0
LINE
8
DEFAULT_255_2_778
10
3.9481387
20
59.8501473
11
3.9857387
21
59.8355473
0
LINE
8
DEFAULT_255_2_778
10
4.0643387
20
59.8194473
11
4.1047387
21
59.8173473
0
LINE
8
DEFAULT_255_2_778
10
4.1047387
20
59.8173473
11
4.1450387
21
59.8188473
0
LINE
8
DEFAULT_255_2_778
10
4.1450387
20
59.8188473
11
4.2246387
21
59.8321473
0
LINE
8
DEFAULT_255_2_778
10
4.2246387
20
59.8321473
11
4.3016387
21
59.8564473
0
LINE
8
DEFAULT_255_2_778
10
4.3016387
20
59.8564473
11
4.3754387
21
59.8879473
0
LINE
8
DEFAULT_255_2_778
10
4.3754387
20
59.8879473
11
4.4463387
21
59.9263473
0
LINE
8
DEFAULT_255_2_778
10
3.9037387
20
60.9907473
11
3.9140387
21
60.9984473
0
LINE
8
DEFAULT_255_2_778
10
3.9140387
20
60.9984473
11
3.9423387
21
61.0142473
0
LINE
8
DEFAULT_255_2_778
10
3.9423387
20
61.0142473
11
3.9730387
21
61.0253473
0
LINE
8
DEFAULT_255_2_778
10
3.9730387
20
61.0253473
11
4.0045387
21
61.0327473
0
LINE
8
DEFAULT_255_2_778
10
4.0045387
20
61.0327473
11
4.0365387
21
61.0375473
0
LINE
8
DEFAULT_255_2_778
10
4.0365387
20
61.0375473
11
4.1016387
21
61.0410473
0
LINE
8
DEFAULT_255_2_778
10
4.1016387
20
61.0410473
11
4.1661387
21
61.0365473
0
LINE
8
DEFAULT_255_2_778
10
4.1661387
20
61.0365473
11
4.1979387
21
61.0296473
0
LINE
8
DEFAULT_255_2_778
10
4.1979387
20
61.0296473
11
4.2135387
21
61.0245473
0
LINE
8
DEFAULT_255_2_778
10
4.2135387
20
61.0245473
11
4.2286387
21
61.0182473
0
LINE
8
DEFAULT_255_2_778
10
4.2286387
20
61.0182473
11
4.2569387
21
61.0018473
0
LINE
8
DEFAULT_255_2_778
10
4.2569387
20
61.0018473
11
4.2812387
21
60.9798473
0
LINE
8
DEFAULT_255_2_778
10
4.2812387
20
60.9798473
11
4.2915387
21
60.9671473
0
LINE
8
DEFAULT_255_2_778
10
4.2915387
20
60.9671473
11
4.3005387
21
60.9534473
0
LINE
8
DEFAULT_255_2_778
10
4.3005387
20
60.9534473
11
4.3146387
21
60.9237473
0
LINE
8
DEFAULT_255_2_778
10
4.3339387
20
60.8610473
11
4.3339387
21
60.8647473
0
LINE
8
DEFAULT_255_2_778
10
4.3146387
20
60.9272473
11
4.3005387
21
60.9568473
0
LINE
8
DEFAULT_255_2_778
10
4.3005387
20
60.9568473
11
4.2815387
21
60.9833473
0
LINE
8
DEFAULT_255_2_778
10
4.2815387
20
60.9833473
11
4.2698387
21
60.9949473
0
LINE
8
DEFAULT_255_2_778
10
4.2698387
20
60.9949473
11
4.2571387
21
61.0052473
0
LINE
8
DEFAULT_255_2_778
10
4.2571387
20
61.0052473
11
4.2434387
21
61.0142473
0
LINE
8
DEFAULT_255_2_778
10
4.2434387
20
61.0142473
11
4.2288387
21
61.0219473
0
LINE
8
DEFAULT_255_2_778
10
4.1664387
20
61.0404473
11
4.1339387
21
61.0439473
0
LINE
8
DEFAULT_255_2_778
10
4.1339387
20
61.0439473
11
4.1013387
21
61.0449473
0
LINE
8
DEFAULT_255_2_778
10
4.1013387
20
61.0449473
11
4.0365387
21
61.0417473
0
LINE
8
DEFAULT_255_2_778
10
4.0365387
20
61.0417473
11
4.0042387
21
61.0370473
0
LINE
8
DEFAULT_255_2_778
10
4.0042387
20
61.0370473
11
3.9725387
21
61.0296473
0
LINE
8
DEFAULT_255_2_778
10
3.9725387
20
61.0296473
11
3.9418387
21
61.0185473
0
LINE
8
DEFAULT_255_2_778
10
3.9418387
20
61.0185473
11
3.9132387
21
61.0026473
0
LINE
8
DEFAULT_255_2_778
10
3.9132387
20
61.0026473
11
3.8881387
21
60.9819473
0
LINE
8
DEFAULT_255_2_778
10
3.8881387
20
60.9819473
11
3.8669387
21
60.9571473
0
LINE
8
DEFAULT_255_2_778
10
3.8669387
20
60.9571473
11
3.8494387
21
60.9293473
0
LINE
8
DEFAULT_255_2_778
10
3.8494387
20
60.9293473
11
3.8357387
21
60.8999473
0
LINE
8
DEFAULT_255_2_778
10
3.8156387
20
60.8383473
11
3.8084387
21
60.8065473
0
LINE
8
DEFAULT_255_2_778
10
3.8084387
20
60.8065473
11
3.8029387
21
60.7745473
0
LINE
8
DEFAULT_255_2_778
10
3.8029387
20
60.7745473
11
3.7949387
21
60.7105473
0
LINE
8
DEFAULT_255_2_778
10
3.7949387
20
60.7105473
11
3.7902387
21
60.6462473
0
LINE
8
DEFAULT_255_2_778
10
3.7902387
20
60.6462473
11
3.7867387
21
60.5173473
0
LINE
8
DEFAULT_255_2_778
10
3.7867387
20
60.5173473
11
3.7886387
21
60.3882473
0
LINE
8
DEFAULT_255_2_778
10
3.7886387
20
60.3882473
11
3.7968387
21
60.2594473
0
LINE
8
DEFAULT_255_2_778
10
3.7968387
20
60.2594473
11
3.8050387
21
60.1953473
0
LINE
8
DEFAULT_255_2_778
10
3.8050387
20
60.1953473
11
3.8185387
21
60.1324473
0
LINE
8
DEFAULT_255_2_778
10
3.8185387
20
60.1324473
11
3.8288387
21
60.1019473
0
LINE
8
DEFAULT_255_2_778
10
3.8288387
20
60.1019473
11
3.8428387
21
60.0726473
0
LINE
8
DEFAULT_255_2_778
10
3.8428387
20
60.0726473
11
3.8597387
21
60.0448473
0
LINE
8
DEFAULT_255_2_778
10
3.8597387
20
60.0448473
11
3.8783387
21
60.0183473
0
LINE
8
DEFAULT_255_2_778
10
3.8783387
20
60.0183473
11
3.8992387
21
59.9937473
0
LINE
8
DEFAULT_255_2_778
10
3.8992387
20
59.9937473
11
3.9227387
21
59.9712473
0
LINE
8
DEFAULT_255_2_778
10
3.9227387
20
59.9712473
11
3.9489387
21
59.9517473
0
LINE
8
DEFAULT_255_2_778
10
3.9489387
20
59.9517473
11
3.9772387
21
59.9361473
0
LINE
8
DEFAULT_255_2_778
10
3.9772387
20
59.9361473
11
4.0076387
21
59.9241473
0
LINE
8
DEFAULT_255_2_778
10
4.0076387
20
59.9241473
11
4.0391387
21
59.9157473
0
LINE
8
DEFAULT_255_2_778
10
4.0391387
20
59.9157473
11
4.0714387
21
59.9104473
0
LINE
8
DEFAULT_255_2_778
10
4.0714387
20
59.9104473
11
4.1042387
21
59.9088473
0
LINE
8
DEFAULT_255_2_778
10
4.1042387
20
59.9088473
11
4.1693387
21
59.9146473
0
LINE
8
DEFAULT_255_2_778
10
4.1693387
20
59.9146473
11
4.2013387
21
59.9215473
0
LINE
8
DEFAULT_255_2_778
10
4.2013387
20
59.9215473
11
4.2331387
21
59.9300473
0
LINE
8
DEFAULT_255_2_778
10
4.2331387
20
59.9300473
11
4.2643387
21
59.9398473
0
LINE
8
DEFAULT_255_2_778
10
4.2643387
20
59.9398473
11
4.2950387
21
59.9511473
0
LINE
8
DEFAULT_255_2_778
10
4.2950387
20
59.9511473
11
4.3249387
21
59.9644473
0
LINE
8
DEFAULT_255_2_778
10
4.3249387
20
59.9644473
11
4.3543387
21
59.9792473
0
LINE
8
DEFAULT_255_2_778
10
4.3543387
20
59.9792473
11
4.3543387
21
60.4657473
0
LINE
8
DEFAULT_255_2_778
10
4.3543387
20
60.4657473
11
4.1254387
21
60.4657473
0
LINE
8
DEFAULT_255_2_778
10
4.1254387
20
60.4657473
11
4.1254387
21
60.5560473
0
LINE
8
DEFAULT_255_2_778
10
4.1254387
20
60.5560473
11
4.4445387
21
60.5560473
0
LINE
8
DEFAULT_255_2_778
10
4.4445387
20
60.5560473
11
4.4445387
21
59.9234473
0
LINE
8
DEFAULT_255_2_778
10
4.4445387
20
59.9234473
11
4.3736387
21
59.8850473
0
LINE
8
DEFAULT_255_2_778
10
4.3736387
20
59.8850473
11
4.2997387
21
59.8532473
0
LINE
8
DEFAULT_255_2_778
10
4.2997387
20
59.8532473
11
4.2616387
21
59.8400473
0
LINE
8
DEFAULT_255_2_778
10
4.2616387
20
59.8400473
11
4.2228387
21
59.8289473
0
LINE
8
DEFAULT_255_2_778
10
4.2228387
20
59.8289473
11
4.1434387
21
59.8157473
0
LINE
8
DEFAULT_255_2_778
10
4.1434387
20
59.8157473
11
4.1032387
21
59.8141473
0
LINE
8
DEFAULT_255_2_778
10
4.1032387
20
59.8141473
11
4.0627387
21
59.8162473
0
LINE
8
DEFAULT_255_2_778
10
3.9838387
20
59.8323473
11
3.9648387
21
59.8392473
0
LINE
8
DEFAULT_255_2_778
10
3.9648387
20
59.8392473
11
3.9460387
21
59.8472473
0
LINE
8
DEFAULT_255_2_778
10
3.9460387
20
59.8472473
11
3.9103387
21
59.8659473
0
LINE
8
DEFAULT_255_2_778
10
3.7936387
20
59.9755473
11
3.7722387
21
60.0096473
0
LINE
8
DEFAULT_255_2_778
10
3.7722387
20
60.0096473
11
3.7539387
21
60.0459473
0
LINE
8
DEFAULT_255_2_778
10
3.7269387
20
60.1215473
11
3.7177387
21
60.1607473
0
LINE
8
DEFAULT_255_2_778
10
3.7177387
20
60.1607473
11
3.7105387
21
60.2006473
0
LINE
8
DEFAULT_255_2_778
10
3.7105387
20
60.2006473
11
3.7015387
21
60.2808473
0
LINE
8
DEFAULT_255_2_778
10
3.7015387
20
60.2808473
11
3.6968387
21
60.3610473
0
LINE
8
DEFAULT_255_2_778
10
3.6968387
20
60.3610473
11
3.6944387
21
60.4811473
0
LINE
8
DEFAULT_255_2_778
10
7.7647387
20
22.8423473
11
7.6814387
21
22.8423473
0
LINE
8
DEFAULT_255_2_778
10
7.6814387
20
22.8423473
11
7.6814387
21
21.6429473
0
LINE
8
DEFAULT_255_2_778
10
7.6814387
20
21.6429473
11
7.7647387
21
21.6429473
0
LINE
8
DEFAULT_255_2_778
10
7.7647387
20
21.6429473
11
7.7647387
21
22.8423473
0
LINE
8
DEFAULT_255_2_778
10
7.0024115
20
22.8473812
11
7.1130115
21
22.8473812
0
LINE
8
DEFAULT_255_2_778
10
7.1130115
20
22.8473812
11
7.5155115
21
21.6506812
0
LINE
8
DEFAULT_255_2_778
10
7.5155115
20
21.6506812
11
7.4308115
21
21.6236812
0
LINE
8
DEFAULT_255_2_778
10
7.4308115
20
21.6236812
11
7.3350115
21
21.9059812
0
LINE
8
DEFAULT_255_2_778
10
7.3350115
20
21.9059812
11
7.3205115
21
21.9517812
0
LINE
8
DEFAULT_255_2_778
10
7.3205115
20
21.9517812
11
6.7865115
21
21.9517812
0
LINE
8
DEFAULT_255_2_778
10
6.7865115
20
21.9517812
11
6.6725115
21
21.6233812
0
LINE
8
DEFAULT_255_2_778
10
6.6725115
20
21.6233812
11
6.5897115
21
21.6503812
0
LINE
8
DEFAULT_255_2_778
10
6.5897115
20
21.6503812
11
7.0024115
21
22.8473812
0
LINE
8
DEFAULT_255_2_778
10
7.2908115
20
22.0377812
11
6.8157115
21
22.0377812
0
LINE
8
DEFAULT_255_2_778
10
6.8157115
20
22.0377812
11
7.0575115
21
22.7396812
0
LINE
8
DEFAULT_255_2_778
10
7.0575115
20
22.7396812
11
7.2908115
21
22.0377812
0
ARC
8
DEFAULT_255_2_778
10
8.2488611
20
21.8773712
40
0.2155261
50
219.9141508
51
224.9962404
0
ARC
8
DEFAULT_255_2_778
10
8.2660517
20
21.9015468
40
0.244826
50
226.1526567
51
230.6296414
0
ARC
8
DEFAULT_255_2_778
10
8.2643315
20
21.9044623
40
0.2460091
50
231.3701098
51
240.2482391
0
ARC
8
DEFAULT_255_2_778
10
8.2727067
20
21.9249077
40
0.2679311
50
240.8629895
51
249.1745223
0
ARC
8
DEFAULT_255_2_778
10
8.281625
20
21.9476361
40
0.2925021
50
256.7837402
51
262.5430232
0
ARC
8
DEFAULT_255_2_778
10
8.2850529
20
21.9712915
40
0.3164025
50
262.4834818
51
264.2496358
0
ARC
8
DEFAULT_255_2_778
10
8.3042254
20
22.1595391
40
0.5055926
50
268.6769045
51
269.9979023
0
ARC
8
DEFAULT_255_2_778
10
8.3044463
20
22.1458797
40
0.4919332
50
269.9721141
51
277.6991241
0
ARC
8
DEFAULT_255_2_778
10
8.3278742
20
21.9974815
40
0.3417567
50
283.7234442
51
290.2659159
0
ARC
8
DEFAULT_255_2_778
10
8.346084
20
21.9481053
40
0.2891296
50
290.2699442
51
297.9840617
0
ARC
8
DEFAULT_255_2_778
10
8.3598658
20
21.9258742
40
0.2628323
50
306.0529283
51
314.3668102
0
ARC
8
DEFAULT_255_2_778
10
8.3316691
20
21.947456
40
0.2982005
50
322.6592532
51
337.0921273
0
ARC
8
DEFAULT_255_2_778
10
8.2703473
20
21.9764115
40
0.3659677
50
336.6533952
51
342.486601
0
ARC
8
DEFAULT_255_2_778
10
8.1256662
20
22.0087096
40
0.5140858
50
348.0177797
51
356.2493777
0
ARC
8
DEFAULT_255_2_778
10
8.349845
20
22.0242968
40
0.2900754
50
4.921228
51
12.2170362
0
ARC
8
DEFAULT_255_2_778
10
8.4445171
20
22.0516444
40
0.1908163
50
21.3395042
51
32.6109039
0
ARC
8
DEFAULT_255_2_778
10
8.4063102
20
22.0254258
40
0.2374685
50
42.0838125
51
51.3106998
0
ARC
8
DEFAULT_255_2_778
10
8.0940346
20
21.5357787
40
0.8182972
50
58.4049079
51
63.8441992
0
ARC
8
DEFAULT_255_2_778
10
8.3866524
20
22.5169972
40
0.2497128
50
303.465064
51
309.4886599
0
ARC
8
DEFAULT_255_2_778
10
8.4519354
20
22.4617238
40
0.1648678
50
313.3221613
51
322.5099015
0
ARC
8
DEFAULT_255_2_778
10
8.4203527
20
22.4911241
40
0.2078617
50
321.3780437
51
335.6682919
0
ARC
8
DEFAULT_255_2_778
10
8.4139527
20
22.4904807
40
0.2139489
50
343.4623802
51
350.3132235
0
ARC
8
DEFAULT_255_2_778
10
8.2958489
20
22.5092022
40
0.3335219
50
350.5567816
51
359.3779405
0
ARC
8
DEFAULT_255_2_778
10
8.1568824
20
22.5200081
40
0.4722715
50
4.417153
51
10.5627524
0
ARC
8
DEFAULT_255_2_778
10
8.2556396
20
22.5377634
40
0.3719336
50
10.6627252
51
18.5977562
0
ARC
8
DEFAULT_255_2_778
10
8.3184599
20
22.5594502
40
0.3054778
50
18.5003061
51
28.1313569
0
ARC
8
DEFAULT_255_2_778
10
8.3573244
20
22.578049
40
0.2626325
50
39.9189703
51
51.3229952
0
ARC
8
DEFAULT_255_2_778
10
8.31784
20
22.5227456
40
0.3305029
50
51.9706822
51
56.6050547
0
ARC
8
DEFAULT_255_2_778
10
8.4076234
20
22.6605695
40
0.1660192
50
56.2946331
51
64.2149886
0
ARC
8
DEFAULT_255_2_778
10
8.3838831
20
22.6139437
40
0.2183322
50
63.9277646
51
64.9140189
0
ARC
8
DEFAULT_255_2_778
10
8.3558547
20
22.5684993
40
0.2714424
50
63.6227085
51
74.9908204
0
ARC
8
DEFAULT_255_2_778
10
8.3291819
20
22.4759158
40
0.3677792
50
74.7125711
51
83.165064
0
ARC
8
DEFAULT_255_2_778
10
8.3202674
20
22.3959743
40
0.4482139
50
83.2497657
51
89.9035991
0
ARC
8
DEFAULT_255_2_778
10
8.3210215
20
22.4414688
40
0.4027187
50
90.0000011
51
90.3230189
0
ARC
8
DEFAULT_255_2_778
10
8.3156603
20
22.4177095
40
0.426483
50
89.5847628
51
89.9999705
0
ARC
8
DEFAULT_255_2_778
10
8.3158043
20
22.4102929
40
0.4338995
50
90.0189805
51
100.6049361
0
ARC
8
DEFAULT_255_2_778
10
8.3034904
20
22.4895825
40
0.3537069
50
101.0080631
51
107.734135
0
ARC
8
DEFAULT_255_2_778
10
8.2687921
20
22.5860245
40
0.2509575
50
116.3634286
51
125.7554008
0
ARC
8
DEFAULT_255_2_778
10
8.2841715
20
22.5735361
40
0.2705946
50
135.4754157
51
144.001689
0
ARC
8
DEFAULT_255_2_778
10
8.3066688
20
22.5608309
40
0.296278
50
144.571031
51
152.381242
0
ARC
8
DEFAULT_255_2_778
10
8.3111019
20
22.5619575
40
0.2125714
50
140.4260285
51
152.2660072
0
ARC
8
DEFAULT_255_2_778
10
8.2662486
20
22.5955826
40
0.1565993
50
131.2716015
51
139.4540412
0
ARC
8
DEFAULT_255_2_778
10
8.2827123
20
22.5768362
40
0.1815489
50
124.2059379
51
131.2742327
0
ARC
8
DEFAULT_255_2_778
10
8.2786532
20
22.587088
40
0.1708055
50
117.4368231
51
125.0131402
0
ARC
8
DEFAULT_255_2_778
10
8.3050908
20
22.5097001
40
0.2523507
50
98.9455943
51
109.4285378
0
ARC
8
DEFAULT_255_2_778
10
8.3208738
20
22.3860859
40
0.3769329
50
90.8090999
51
98.3937251
0
ARC
8
DEFAULT_255_2_778
10
8.3209112
20
22.468628
40
0.294402
50
89.9991309
51
91.0432274
0
ARC
8
DEFAULT_255_2_778
10
8.3206855
20
22.4413795
40
0.3216505
50
86.5036795
51
89.9589877
0
ARC
8
DEFAULT_255_2_778
10
8.3175656
20
22.3914752
40
0.3716521
50
82.6593182
51
86.4927802
0
ARC
8
DEFAULT_255_2_778
10
8.3317952
20
22.5087921
40
0.2534802
50
76.8061464
51
82.4612084
0
ARC
8
DEFAULT_255_2_778
10
8.3310058
20
22.5105078
40
0.2519926
50
74.4350876
51
76.5423654
0
ARC
8
DEFAULT_255_2_778
10
8.3563932
20
22.5999122
40
0.1590555
50
68.977791
51
74.6031091
0
ARC
8
DEFAULT_255_2_778
10
8.3505284
20
22.5688345
40
0.1902533
50
63.2196299
51
70.6868226
0
ARC
8
DEFAULT_255_2_778
10
8.3647918
20
22.5960795
40
0.1595045
50
54.5288538
51
63.3840349
0
ARC
8
DEFAULT_255_2_778
10
8.3631916
20
22.591858
40
0.1638751
50
46.4250946
51
54.9297166
0
ARC
8
DEFAULT_255_2_778
10
8.3631852
20
22.5911863
40
0.1643668
50
38.0887702
51
46.5848577
0
ARC
8
DEFAULT_255_2_778
10
8.3398216
20
22.5730635
40
0.193935
50
23.8827366
51
38.0447764
0
ARC
8
DEFAULT_255_2_778
10
8.309744
20
22.558109
40
0.2274967
50
12.3795496
51
24.2596853
0
ARC
8
DEFAULT_255_2_778
10
8.1779405
20
22.5242167
40
0.363534
50
5.74094
51
13.1435517
0
ARC
8
DEFAULT_255_2_778
10
8.0777824
20
22.5134354
40
0.4642688
50
0.0056596
51
5.828355
0
ARC
8
DEFAULT_255_2_778
10
8.3144124
20
22.5105711
40
0.2276573
50
359.9959895
51
0.7324247
0
ARC
8
DEFAULT_255_2_778
10
8.3134079
20
22.5105496
40
0.228662
50
358.3870382
51
0.0014102
0
ARC
8
DEFAULT_255_2_778
10
8.3150263
20
22.5104312
40
0.2270407
50
348.9412401
51
358.4054014
0
ARC
8
DEFAULT_255_2_778
10
8.385629
20
22.5000129
40
0.155786
50
338.8806129
51
347.7208972
0
ARC
8
DEFAULT_255_2_778
10
8.4170701
20
22.4869643
40
0.1217582
50
328.021581
51
339.2775385
0
ARC
8
DEFAULT_255_2_778
10
8.3666598
20
22.5195966
40
0.1818032
50
320.0598283
51
327.7117829
0
ARC
8
DEFAULT_255_2_778
10
8.3700989
20
22.5157707
40
0.1767117
50
312.3539589
51
320.2950849
0
ARC
8
DEFAULT_255_2_778
10
8.3620433
20
22.5246849
40
0.1887264
50
304.8366352
51
312.3380016
0
ARC
8
DEFAULT_255_2_778
10
8.3007073
20
22.6283995
40
0.3094714
50
289.3900737
51
298.5583354
0
ARC
8
DEFAULT_255_2_778
10
8.3096961
20
21.9260188
40
0.2932784
50
63.7627846
51
72.3433229
0
ARC
8
DEFAULT_255_2_778
10
8.3640828
20
22.0086928
40
0.1945709
50
41.8792834
51
54.5432345
0
ARC
8
DEFAULT_255_2_778
10
8.3635314
20
22.0091225
40
0.1946959
50
35.391006
51
41.6768171
0
ARC
8
DEFAULT_255_2_778
10
8.3757248
20
22.0173483
40
0.179992
50
28.7350634
51
35.5043412
0
ARC
8
DEFAULT_255_2_778
10
8.4283815
20
22.0436326
40
0.1212046
50
19.8965195
51
29.8071294
0
ARC
8
DEFAULT_255_2_778
10
8.4075119
20
22.0350856
40
0.1437401
50
11.9227441
51
20.2690097
0
ARC
8
DEFAULT_255_2_778
10
8.3956244
20
22.0299205
40
0.1564599
50
5.1560249
51
12.8741109
0
ARC
8
DEFAULT_255_2_778
10
8.3290437
20
22.0239384
40
0.2233087
50
359.8057312
51
5.1494531
0
ARC
8
DEFAULT_255_2_778
10
8.0042844
20
22.0259716
40
0.5480738
50
351.4386978
51
359.7082915
0
ARC
8
DEFAULT_255_2_778
10
8.250924
20
21.9766111
40
0.2963888
50
338.3746642
51
346.1141493
0
ARC
8
DEFAULT_255_2_778
10
8.3224137
20
21.9453487
40
0.2184267
50
328.5492649
51
339.0869782
0
ARC
8
DEFAULT_255_2_778
10
8.3470632
20
21.929514
40
0.1891375
50
322.6170904
51
328.7453044
0
ARC
8
DEFAULT_255_2_778
10
8.329733
20
21.9459488
40
0.2129014
50
316.4940821
51
321.9342574
0
ARC
8
DEFAULT_255_2_778
10
8.3560941
20
21.9243404
40
0.1789228
50
309.1473387
51
315.7014746
0
ARC
8
DEFAULT_255_2_778
10
8.364118
20
21.912832
40
0.1649355
50
302.3408998
51
309.5095841
0
ARC
8
DEFAULT_255_2_778
10
8.3472983
20
21.9344259
40
0.192196
50
290.7370915
51
303.1335494
0
ARC
8
DEFAULT_255_2_778
10
8.2970126
20
22.1557407
40
0.4200348
50
279.5333013
51
280.6794646
0
ARC
8
DEFAULT_255_2_778
10
8.3079467
20
22.0869511
40
0.3503848
50
274.1414443
51
279.6330344
0
ARC
8
DEFAULT_255_2_778
10
8.3015386
20
22.1122262
40
0.3759948
50
270.0019073
51
271.6173979
0
ARC
8
DEFAULT_255_2_778
10
8.3015636
20
22.1122262
40
0.375995
50
268.3826021
51
269.9980927
0
ARC
8
DEFAULT_255_2_778
10
8.2971145
20
22.0439575
40
0.307638
50
261.0305197
51
268.8520339
0
ARC
8
DEFAULT_255_2_778
10
8.2731708
20
21.9067236
40
0.1693673
50
233.3837125
51
240.4536627
0
ARC
8
DEFAULT_255_2_778
10
8.2666854
20
21.891354
40
0.153214
50
216.517503
51
231.902024
0
ARC
8
DEFAULT_255_2_778
10
8.3123494
20
21.9233455
40
0.2089552
50
204.9866684
51
216.1164827
0
ARC
8
DEFAULT_255_2_778
10
8.3055283
20
21.9208535
40
0.2875541
50
204.6370434
51
212.0685854
0
LINE
8
DEFAULT_255_2_778
10
8.0724511
20
21.7540812
11
8.0777511
21
21.7464812
0
LINE
8
DEFAULT_255_2_778
10
8.0777511
20
21.7464812
11
8.0835511
21
21.7390812
0
LINE
8
DEFAULT_255_2_778
10
8.1774511
20
21.6744812
11
8.1959511
21
21.6681812
0
LINE
8
DEFAULT_255_2_778
10
8.1959511
20
21.6681812
11
8.2147511
21
21.6628812
0
LINE
8
DEFAULT_255_2_778
10
8.2533511
20
21.6564812
11
8.2925511
21
21.6540812
0
LINE
8
DEFAULT_255_2_778
10
8.3703511
20
21.6583812
11
8.4089511
21
21.6654812
0
LINE
8
DEFAULT_255_2_778
10
8.4817511
20
21.6927812
11
8.4986511
21
21.7024812
0
LINE
8
DEFAULT_255_2_778
10
8.4986511
20
21.7024812
11
8.5145511
21
21.7133812
0
LINE
8
DEFAULT_255_2_778
10
8.5436511
20
21.7379812
11
8.5566511
21
21.7517812
0
LINE
8
DEFAULT_255_2_778
10
8.5566511
20
21.7517812
11
8.5687511
21
21.7665812
0
LINE
8
DEFAULT_255_2_778
10
8.6193511
20
21.8662812
11
8.6285511
21
21.9019812
0
LINE
8
DEFAULT_255_2_778
10
8.6386511
20
21.9750812
11
8.6399511
21
22.0120812
0
LINE
8
DEFAULT_255_2_778
10
8.6399511
20
22.0120812
11
8.6399511
21
22.0305812
0
LINE
8
DEFAULT_255_2_778
10
8.6399511
20
22.0305812
11
8.6388511
21
22.0491812
0
LINE
8
DEFAULT_255_2_778
10
8.6333511
20
22.0856812
11
8.6285511
21
22.1036812
0
LINE
8
DEFAULT_255_2_778
10
8.6285511
20
22.1036812
11
8.6222511
21
22.1210812
0
LINE
8
DEFAULT_255_2_778
10
8.6052511
20
22.1544812
11
8.5947511
21
22.1700812
0
LINE
8
DEFAULT_255_2_778
10
8.5947511
20
22.1700812
11
8.5825511
21
22.1845812
0
LINE
8
DEFAULT_255_2_778
10
8.5547511
20
22.2107812
11
8.5391511
21
22.2221812
0
LINE
8
DEFAULT_255_2_778
10
8.5391511
20
22.2221812
11
8.5227511
21
22.2327812
0
LINE
8
DEFAULT_255_2_778
10
8.4547511
20
22.2702812
11
8.5018511
21
22.2951812
0
LINE
8
DEFAULT_255_2_778
10
8.5018511
20
22.2951812
11
8.5132511
21
22.3017812
0
LINE
8
DEFAULT_255_2_778
10
8.5132511
20
22.3017812
11
8.5243511
21
22.3086812
0
LINE
8
DEFAULT_255_2_778
10
8.5454511
20
22.3242812
11
8.5650511
21
22.3417812
0
LINE
8
DEFAULT_255_2_778
10
8.6097511
20
22.4054812
11
8.6148511
21
22.4174812
0
LINE
8
DEFAULT_255_2_778
10
8.6148511
20
22.4174812
11
8.6190511
21
22.4295812
0
LINE
8
DEFAULT_255_2_778
10
8.6293511
20
22.5055812
11
8.6290511
21
22.5309812
0
LINE
8
DEFAULT_255_2_778
10
8.6290511
20
22.5309812
11
8.6277511
21
22.5563812
0
LINE
8
DEFAULT_255_2_778
10
8.5878511
20
22.7034812
11
8.5743511
21
22.7256812
0
LINE
8
DEFAULT_255_2_778
10
8.5743511
20
22.7256812
11
8.5587511
21
22.7465812
0
LINE
8
DEFAULT_255_2_778
10
8.1957511
20
22.8264812
11
8.1761511
21
22.8193812
0
LINE
8
DEFAULT_255_2_778
10
8.1761511
20
22.8193812
11
8.1573511
21
22.8108812
0
LINE
8
DEFAULT_255_2_778
10
8.1221511
20
22.7896812
11
8.1060511
21
22.7769812
0
LINE
8
DEFAULT_255_2_778
10
8.1060511
20
22.7769812
11
8.0912511
21
22.7632812
0
LINE
8
DEFAULT_255_2_778
10
8.0441511
20
22.6981812
11
8.1229511
21
22.6608812
0
LINE
8
DEFAULT_255_2_778
10
8.1999511
20
22.7386812
11
8.2102511
21
22.7433812
0
LINE
8
DEFAULT_255_2_778
10
8.2102511
20
22.7433812
11
8.2211511
21
22.7476812
0
LINE
8
DEFAULT_255_2_778
10
8.4698511
20
22.3697812
11
8.4486511
21
22.3565812
0
LINE
8
DEFAULT_255_2_778
10
8.4034511
20
22.3364812
11
8.3795511
21
22.3287812
0
LINE
8
DEFAULT_255_2_778
10
8.3795511
20
22.3287812
11
8.3555511
21
22.3213812
0
LINE
8
DEFAULT_255_2_778
10
8.3555511
20
22.3213812
11
8.3071511
21
22.3073812
0
LINE
8
DEFAULT_255_2_778
10
8.3071511
20
22.3073812
11
8.3121511
21
22.2261812
0
LINE
8
DEFAULT_255_2_778
10
8.3121511
20
22.2261812
11
8.3557511
21
22.2173812
0
LINE
8
DEFAULT_255_2_778
10
8.3557511
20
22.2173812
11
8.3772511
21
22.2118812
0
LINE
8
DEFAULT_255_2_778
10
8.3772511
20
22.2118812
11
8.3986511
21
22.2054812
0
LINE
8
DEFAULT_255_2_778
10
8.4393511
20
22.1890812
11
8.4584511
21
22.1787812
0
LINE
8
DEFAULT_255_2_778
10
8.4584511
20
22.1787812
11
8.4769511
21
22.1671812
0
LINE
8
DEFAULT_255_2_778
10
8.5462511
20
21.9443812
11
8.5386511
21
21.9054812
0
LINE
8
DEFAULT_255_2_778
10
8.4153511
20
21.7546812
11
8.3952511
21
21.7480812
0
LINE
8
DEFAULT_255_2_778
10
8.3952511
20
21.7480812
11
8.3748511
21
21.7429812
0
LINE
8
DEFAULT_255_2_778
10
8.3332511
20
21.7374812
11
8.3121511
21
21.7363812
0
LINE
8
DEFAULT_255_2_778
10
8.2491511
20
21.7400812
11
8.2285511
21
21.7443812
0
LINE
8
DEFAULT_255_2_778
10
8.2285511
20
21.7443812
11
8.2084511
21
21.7506812
0
LINE
8
DEFAULT_255_2_778
10
8.2084511
20
21.7506812
11
8.1896511
21
21.7593812
0
LINE
8
DEFAULT_255_2_778
10
8.1229511
20
21.8350812
11
8.0441511
21
21.8009812
0
LINE
8
DEFAULT_255_2_778
10
3.7147511
20
22.8394812
11
3.7147511
21
22.8423812
0
LINE
8
DEFAULT_255_2_778
10
3.7147511
20
22.8423812
11
3.6313511
21
22.8423812
0
LINE
8
DEFAULT_255_2_778
10
3.6313511
20
22.8423812
11
3.6313511
21
21.6429812
0
LINE
8
DEFAULT_255_2_778
10
3.6313511
20
21.6429812
11
3.7147511
21
21.6429812
0
LINE
8
DEFAULT_255_2_778
10
3.7147511
20
21.6429812
11
3.7147511
21
22.8394812
0
LINE
8
DEFAULT_255_2_778
10
3.7147511
20
22.8394812
11
3.6313511
21
22.8394812
0
LINE
8
DEFAULT_255_2_778
10
2.9524511
20
22.8473812
11
3.0630511
21
22.8473812
0
LINE
8
DEFAULT_255_2_778
10
3.0630511
20
22.8473812
11
3.4654511
21
21.6506812
0
LINE
8
DEFAULT_255_2_778
10
3.4654511
20
21.6506812
11
3.3808511
21
21.6236812
0
LINE
8
DEFAULT_255_2_778
10
3.3808511
20
21.6236812
11
3.2850511
21
21.9059812
0
LINE
8
DEFAULT_255_2_778
10
3.2850511
20
21.9059812
11
3.2702511
21
21.9517812
0
LINE
8
DEFAULT_255_2_778
10
3.2702511
20
21.9517812
11
2.7362511
21
21.9517812
0
LINE
8
DEFAULT_255_2_778
10
2.7362511
20
21.9517812
11
2.6222511
21
21.6233812
0
LINE
8
DEFAULT_255_2_778
10
2.6222511
20
21.6233812
11
2.5394511
21
21.6503812
0
LINE
8
DEFAULT_255_2_778
10
2.5394511
20
21.6503812
11
2.9524511
21
22.8473812
0
LINE
8
DEFAULT_255_2_778
10
3.2408511
20
22.0377812
11
2.7656511
21
22.0377812
0
LINE
8
DEFAULT_255_2_778
10
2.7656511
20
22.0377812
11
3.0074511
21
22.7396812
0
LINE
8
DEFAULT_255_2_778
10
3.0074511
20
22.7396812
11
3.2408511
21
22.0377812
0
ARC
8
DEFAULT_255_2_778
10
4.0647071
20
22.5526448
40
0.4077282
50
350.3218194
51
0.2185427
0
ARC
8
DEFAULT_255_2_778
10
4.1570694
20
22.5530484
40
0.315365
50
0.209223
51
6.6191018
0
ARC
8
DEFAULT_255_2_778
10
4.2089093
20
22.5616902
40
0.2628874
50
6.0505329
51
13.7780847
0
ARC
8
DEFAULT_255_2_778
10
4.2760972
20
22.5805304
40
0.1931595
50
13.0968581
51
33.8413068
0
ARC
8
DEFAULT_255_2_778
10
4.3065379
20
22.5974516
40
0.1584793
50
34.889045
51
53.5326843
0
ARC
8
DEFAULT_255_2_778
10
4.2661671
20
22.5590184
40
0.2016061
50
93.2514755
51
107.682066
0
ARC
8
DEFAULT_255_2_778
10
4.317399
20
22.5379868
40
0.2492532
50
141.573571
51
153.5007777
0
ARC
8
DEFAULT_255_2_778
10
4.3132455
20
22.5475579
40
0.3244342
50
140.4366775
51
154.3297403
0
ARC
8
DEFAULT_255_2_778
10
4.3247278
20
22.6209943
40
0.2129696
50
46.2748881
51
62.2674028
0
ARC
8
DEFAULT_255_2_778
10
4.2834339
20
22.5809742
40
0.270442
50
34.9758444
51
45.8130724
0
ARC
8
DEFAULT_255_2_778
10
4.1028044
20
22.545652
40
0.4530479
50
8.3142678
51
12.252751
0
ARC
8
DEFAULT_255_2_778
10
3.974311
20
22.5263077
40
0.5829883
50
6.3413724
51
8.3693562
0
ARC
8
DEFAULT_255_2_778
10
4.0392576
20
22.5538328
40
0.5162765
50
352.6851904
51
358.3980536
0
ARC
8
DEFAULT_255_2_778
10
4.1563359
20
22.5253572
40
0.3956876
50
339.6105689
51
347.0970373
0
ARC
8
DEFAULT_255_2_778
10
4.0923769
20
22.5434131
40
0.4619612
50
334.0134243
51
340.2751998
0
ARC
8
DEFAULT_255_2_778
10
4.122749
20
22.527851
40
0.3455803
50
332.9886684
51
341.2205913
0
LINE
8
DEFAULT_255_2_778
10
4.4494323
20
22.4164
11
4.4595323
21
22.45
0
LINE
8
DEFAULT_255_2_778
10
4.4595323
20
22.45
11
4.4666323
21
22.4841
0
LINE
8
DEFAULT_255_2_778
10
4.4007323
20
22.7249
11
4.3788323
21
22.7384
0
LINE
8
DEFAULT_255_2_778
10
4.3788323
20
22.7384
11
4.3552323
21
22.7484
0
LINE
8
DEFAULT_255_2_778
10
4.3552323
20
22.7484
11
4.3306323
21
22.7553
0
LINE
8
DEFAULT_255_2_778
10
4.3306323
20
22.7553
11
4.3055323
21
22.7593
0
LINE
8
DEFAULT_255_2_778
10
4.3055323
20
22.7593
11
4.2801323
21
22.7609
0
LINE
8
DEFAULT_255_2_778
10
4.2801323
20
22.7609
11
4.2547323
21
22.7603
0
LINE
8
DEFAULT_255_2_778
10
4.2049323
20
22.7511
11
4.1928323
21
22.7466
0
LINE
8
DEFAULT_255_2_778
10
4.1928323
20
22.7466
11
4.1811323
21
22.7413
0
LINE
8
DEFAULT_255_2_778
10
4.1811323
20
22.7413
11
4.1594323
21
22.7283
0
LINE
8
DEFAULT_255_2_778
10
4.1594323
20
22.7283
11
4.1396323
21
22.7119
0
LINE
8
DEFAULT_255_2_778
10
4.1396323
20
22.7119
11
4.1221323
21
22.6929
0
LINE
8
DEFAULT_255_2_778
10
4.0943323
20
22.6492
11
4.0208323
21
22.6881
0
LINE
8
DEFAULT_255_2_778
10
4.0631323
20
22.7542
11
4.0906323
21
22.7826
0
LINE
8
DEFAULT_255_2_778
10
4.0906323
20
22.7826
11
4.1219323
21
22.8058
0
LINE
8
DEFAULT_255_2_778
10
4.1219323
20
22.8058
11
4.1388323
21
22.8156
0
LINE
8
DEFAULT_255_2_778
10
4.1388323
20
22.8156
11
4.1565323
21
22.8238
0
LINE
8
DEFAULT_255_2_778
10
4.1565323
20
22.8238
11
4.1933323
21
22.836
0
LINE
8
DEFAULT_255_2_778
10
4.1933323
20
22.836
11
4.2317323
21
22.8429
0
LINE
8
DEFAULT_255_2_778
10
4.2317323
20
22.8429
11
4.2708323
21
22.845
0
LINE
8
DEFAULT_255_2_778
10
4.2708323
20
22.845
11
4.3102323
21
22.8431
0
LINE
8
DEFAULT_255_2_778
10
4.3102323
20
22.8431
11
4.3494323
21
22.8368
0
LINE
8
DEFAULT_255_2_778
10
4.3494323
20
22.8368
11
4.3685323
21
22.8318
0
LINE
8
DEFAULT_255_2_778
10
4.3685323
20
22.8318
11
4.3872323
21
22.8254
0
LINE
8
DEFAULT_255_2_778
10
4.3872323
20
22.8254
11
4.4238323
21
22.8095
0
LINE
8
DEFAULT_255_2_778
10
4.5050323
20
22.736
11
4.5185323
21
22.714
0
LINE
8
DEFAULT_255_2_778
10
4.5185323
20
22.714
11
4.5299323
21
22.6907
0
LINE
8
DEFAULT_255_2_778
10
4.5299323
20
22.6907
11
4.5388323
21
22.6667
0
LINE
8
DEFAULT_255_2_778
10
4.5388323
20
22.6667
11
4.5455323
21
22.6418
0
LINE
8
DEFAULT_255_2_778
10
4.5537323
20
22.5907
11
4.5553323
21
22.5394
0
LINE
8
DEFAULT_255_2_778
10
4.5513323
20
22.4881
11
4.5473323
21
22.4624
0
LINE
8
DEFAULT_255_2_778
10
4.5473323
20
22.4624
11
4.5420323
21
22.437
0
LINE
8
DEFAULT_255_2_778
10
4.5076323
20
22.341
11
4.4841323
21
22.297
0
LINE
8
DEFAULT_255_2_778
10
4.4841323
20
22.297
11
4.4579323
21
22.2547
0
LINE
8
DEFAULT_255_2_778
10
4.4579323
20
22.2547
11
4.4301323
21
22.2134
0
LINE
8
DEFAULT_255_2_778
10
4.4301323
20
22.2134
11
4.3714323
21
22.133
0
LINE
8
DEFAULT_255_2_778
10
4.3714323
20
22.133
11
4.3409323
21
22.0936
0
LINE
8
DEFAULT_255_2_778
10
4.3409323
20
22.0936
11
4.3100323
21
22.0544
0
LINE
8
DEFAULT_255_2_778
10
4.3100323
20
22.0544
11
4.2475323
21
21.9769
0
LINE
8
DEFAULT_255_2_778
10
4.2475323
20
21.9769
11
4.1840323
21
21.9002
0
LINE
8
DEFAULT_255_2_778
10
4.1840323
20
21.9002
11
4.0576323
21
21.7462
0
LINE
8
DEFAULT_255_2_778
10
4.0576323
20
21.7462
11
4.0576323
21
21.7057
0
LINE
8
DEFAULT_255_2_778
10
4.0576323
20
21.7057
11
4.6039323
21
21.7057
0
LINE
8
DEFAULT_255_2_778
10
4.6039323
20
21.7057
11
4.6039323
21
21.6213
0
LINE
8
DEFAULT_255_2_778
10
4.6039323
20
21.6213
11
3.9766323
21
21.6213
0
LINE
8
DEFAULT_255_2_778
10
3.9766323
20
21.6213
11
3.9766323
21
21.7766
0
LINE
8
DEFAULT_255_2_778
10
3.9766323
20
21.7766
11
3.9864323
21
21.7885
0
LINE
8
DEFAULT_255_2_778
10
3.9864323
20
21.7885
11
4.0494323
21
21.8634
0
LINE
8
DEFAULT_255_2_778
10
4.0494323
20
21.8634
11
4.1121323
21
21.9383
0
LINE
8
DEFAULT_255_2_778
10
4.1121323
20
21.9383
11
4.1433323
21
21.9758
0
LINE
8
DEFAULT_255_2_778
10
4.1433323
20
21.9758
11
4.1743323
21
22.0137
0
LINE
8
DEFAULT_255_2_778
10
4.1743323
20
22.0137
11
4.2362323
21
22.0896
0
LINE
8
DEFAULT_255_2_778
10
4.2362323
20
22.0896
11
4.2666323
21
22.128
0
LINE
8
DEFAULT_255_2_778
10
4.2666323
20
22.128
11
4.2965323
21
22.1669
0
LINE
8
DEFAULT_255_2_778
10
4.2965323
20
22.1669
11
4.3256323
21
22.206
0
LINE
8
DEFAULT_255_2_778
10
4.3256323
20
22.206
11
4.3539323
21
22.246
0
LINE
8
DEFAULT_255_2_778
10
4.3539323
20
22.246
11
4.3809323
21
22.2867
0
LINE
8
DEFAULT_255_2_778
10
4.3809323
20
22.2867
11
4.4068323
21
22.328
0
LINE
8
DEFAULT_255_2_778
10
4.4068323
20
22.328
11
4.4306323
21
22.3709
0
LINE
8
DEFAULT_255_2_778
10
3.6311323
20
23.593
11
3.7144323
21
23.593
0
LINE
8
DEFAULT_255_2_778
10
3.7144323
20
23.593
11
3.7144323
21
24.7923
0
LINE
8
DEFAULT_255_2_778
10
3.7144323
20
24.7923
11
3.6311323
21
24.7923
0
LINE
8
DEFAULT_255_2_778
10
3.6311323
20
24.7923
11
3.6311323
21
23.593
0
LINE
8
DEFAULT_255_2_778
10
2.9344323
20
24.7963
11
3.0450323
21
24.7963
0
LINE
8
DEFAULT_255_2_778
10
3.0450323
20
24.7963
11
3.4474323
21
23.5996
0
LINE
8
DEFAULT_255_2_778
10
3.4474323
20
23.5996
11
3.3628323
21
23.5726
0
LINE
8
DEFAULT_255_2_778
10
3.3628323
20
23.5726
11
3.2670323
21
23.8549
0
LINE
8
DEFAULT_255_2_778
10
3.2670323
20
23.8549
11
3.2522323
21
23.9007
0
LINE
8
DEFAULT_255_2_778
10
3.2522323
20
23.9007
11
2.7182323
21
23.9007
0
LINE
8
DEFAULT_255_2_778
10
2.7182323
20
23.9007
11
2.6042323
21
23.5723
0
LINE
8
DEFAULT_255_2_778
10
2.6042323
20
23.5723
11
2.5214323
21
23.5993
0
LINE
8
DEFAULT_255_2_778
10
2.5214323
20
23.5993
11
2.9344323
21
24.7963
0
LINE
8
DEFAULT_255_2_778
10
3.2228323
20
23.9867
11
2.7476323
21
23.9867
0
LINE
8
DEFAULT_255_2_778
10
2.7476323
20
23.9867
11
2.9894323
21
24.6886
0
LINE
8
DEFAULT_255_2_778
10
2.9894323
20
24.6886
11
3.2228323
21
23.9867
0
LINE
8
DEFAULT_255_2_778
10
4.539173
20
24.1734489
11
4.537373
21
24.3578489
0
LINE
8
DEFAULT_255_2_778
10
4.537373
20
24.3578489
11
4.536573
21
24.3832489
0
LINE
8
DEFAULT_255_2_778
10
4.536573
20
24.3832489
11
4.535173
21
24.4086489
0
LINE
8
DEFAULT_255_2_778
10
4.535173
20
24.4086489
11
4.533373
21
24.4329489
0
LINE
8
DEFAULT_255_2_778
10
4.533373
20
24.4329489
11
4.530973
21
24.4573489
0
LINE
8
DEFAULT_255_2_778
10
4.530973
20
24.4573489
11
4.528373
21
24.4803489
0
LINE
8
DEFAULT_255_2_778
10
4.528373
20
24.4803489
11
4.524873
21
24.5033489
0
LINE
8
DEFAULT_255_2_778
10
4.524873
20
24.5033489
11
4.520973
21
24.5253489
0
LINE
8
DEFAULT_255_2_778
10
4.520973
20
24.5253489
11
4.512773
21
24.5607489
0
LINE
8
DEFAULT_255_2_778
10
4.512773
20
24.5607489
11
4.495573
21
24.6136489
0
LINE
8
DEFAULT_255_2_778
10
4.495573
20
24.6136489
11
4.472273
21
24.6618489
0
LINE
8
DEFAULT_255_2_778
10
4.472273
20
24.6618489
11
4.432073
21
24.7144489
0
LINE
8
DEFAULT_255_2_778
10
4.432073
20
24.7144489
11
4.364873
21
24.7650489
0
LINE
8
DEFAULT_255_2_778
10
4.364873
20
24.7650489
11
4.260873
21
24.7954489
0
LINE
8
DEFAULT_255_2_778
10
4.260873
20
24.7954489
11
4.122773
21
24.7872489
0
LINE
8
DEFAULT_255_2_778
10
4.122773
20
24.7872489
11
4.037573
21
24.7491489
0
LINE
8
DEFAULT_255_2_778
10
4.037573
20
24.7491489
11
3.987573
21
24.7044489
0
LINE
8
DEFAULT_255_2_778
10
3.987573
20
24.7044489
11
3.956273
21
24.6615489
0
LINE
8
DEFAULT_255_2_778
10
3.956273
20
24.6615489
11
3.933073
21
24.6134489
0
LINE
8
DEFAULT_255_2_778
10
3.933073
20
24.6134489
11
3.915573
21
24.5605489
0
LINE
8
DEFAULT_255_2_778
10
3.915573
20
24.5605489
11
3.907073
21
24.5250489
0
LINE
8
DEFAULT_255_2_778
10
3.907073
20
24.5250489
11
3.902873
21
24.5030489
0
LINE
8
DEFAULT_255_2_778
10
3.902873
20
24.5030489
11
3.899173
21
24.4800489
0
LINE
8
DEFAULT_255_2_778
10
3.899173
20
24.4800489
11
3.896273
21
24.4570489
0
LINE
8
DEFAULT_255_2_778
10
3.896273
20
24.4570489
11
3.893873
21
24.4327489
0
LINE
8
DEFAULT_255_2_778
10
3.893873
20
24.4327489
11
3.893873
21
23.9329489
0
LINE
8
DEFAULT_255_2_778
10
3.893873
20
23.9329489
11
3.896273
21
23.9088489
0
LINE
8
DEFAULT_255_2_778
10
3.896273
20
23.9088489
11
3.899173
21
23.8858489
0
LINE
8
DEFAULT_255_2_778
10
3.899173
20
23.8858489
11
3.902873
21
23.8627489
0
LINE
8
DEFAULT_255_2_778
10
3.902873
20
23.8627489
11
3.911873
21
23.8191489
0
LINE
8
DEFAULT_255_2_778
10
3.911873
20
23.8191489
11
3.927973
21
23.7651489
0
LINE
8
DEFAULT_255_2_778
10
3.927973
20
23.7651489
11
3.949673
21
23.7156489
0
LINE
8
DEFAULT_255_2_778
10
3.949673
20
23.7156489
11
3.979573
21
23.6715489
0
LINE
8
DEFAULT_255_2_778
10
3.979573
20
23.6715489
11
4.047073
21
23.6109489
0
LINE
8
DEFAULT_255_2_778
10
4.047073
20
23.6109489
11
4.133073
21
23.5759489
0
LINE
8
DEFAULT_255_2_778
10
4.133073
20
23.5759489
11
4.271473
21
23.5717489
0
LINE
8
DEFAULT_255_2_778
10
4.271473
20
23.5717489
11
4.370873
21
23.6056489
0
LINE
8
DEFAULT_255_2_778
10
4.370873
20
23.6056489
11
4.428073
21
23.6513489
0
LINE
8
DEFAULT_255_2_778
10
4.428073
20
23.6513489
11
4.468773
21
23.7040489
0
LINE
8
DEFAULT_255_2_778
10
4.468773
20
23.7040489
11
4.492873
21
23.7521489
0
LINE
8
DEFAULT_255_2_778
10
4.492873
20
23.7521489
11
4.510873
21
23.8051489
0
LINE
8
DEFAULT_255_2_778
10
4.510873
20
23.8051489
11
4.520973
21
23.8479489
0
LINE
8
DEFAULT_255_2_778
10
4.520973
20
23.8479489
11
4.527273
21
23.8855489
0
LINE
8
DEFAULT_255_2_778
10
4.527273
20
23.8855489
11
4.530173
21
23.9085489
0
LINE
8
DEFAULT_255_2_778
10
4.530173
20
23.9085489
11
4.532573
21
23.9326489
0
LINE
8
DEFAULT_255_2_778
10
4.532573
20
23.9326489
11
4.534473
21
23.9567489
0
LINE
8
DEFAULT_255_2_778
10
4.534473
20
23.9567489
11
4.535773
21
23.9821489
0
LINE
8
DEFAULT_255_2_778
10
4.535773
20
23.9821489
11
4.537573
21
24.0601489
0
LINE
8
DEFAULT_255_2_778
10
4.537573
20
24.0601489
11
4.539173
21
24.1734489
0
LINE
8
DEFAULT_255_2_778
10
3.978273
20
24.1734489
11
3.980173
21
24.0249489
0
LINE
8
DEFAULT_255_2_778
10
3.980173
20
24.0249489
11
3.981973
21
23.9789489
0
LINE
8
DEFAULT_255_2_778
10
3.981973
20
23.9789489
11
3.983573
21
23.9569489
0
LINE
8
DEFAULT_255_2_778
10
3.983573
20
23.9569489
11
3.985673
21
23.9350489
0
LINE
8
DEFAULT_255_2_778
10
3.985673
20
23.9350489
11
3.990673
21
23.8934489
0
LINE
8
DEFAULT_255_2_778
10
3.990673
20
23.8934489
11
3.997573
21
23.8543489
0
LINE
8
DEFAULT_255_2_778
10
3.997573
20
23.8543489
11
4.010073
21
23.8064489
0
LINE
8
DEFAULT_255_2_778
10
4.010073
20
23.8064489
11
4.026973
21
23.7630489
0
LINE
8
DEFAULT_255_2_778
10
4.026973
20
23.7630489
11
4.060273
21
23.7130489
0
LINE
8
DEFAULT_255_2_778
10
4.060273
20
23.7130489
11
4.117173
21
23.6717489
0
LINE
8
DEFAULT_255_2_778
10
4.117173
20
23.6717489
11
4.243073
21
23.6556489
0
LINE
8
DEFAULT_255_2_778
10
4.243073
20
23.6556489
11
4.331773
21
23.6828489
0
LINE
8
DEFAULT_255_2_778
10
4.331773
20
23.6828489
11
4.382573
21
23.7323489
0
LINE
8
DEFAULT_255_2_778
10
4.382573
20
23.7323489
11
4.406073
21
23.7736489
0
LINE
8
DEFAULT_255_2_778
10
4.406073
20
23.7736489
11
4.422273
21
23.8180489
0
LINE
8
DEFAULT_255_2_778
10
4.422273
20
23.8180489
11
4.431773
21
23.8545489
0
LINE
8
DEFAULT_255_2_778
10
4.431773
20
23.8545489
11
4.438873
21
23.8937489
0
LINE
8
DEFAULT_255_2_778
10
4.438873
20
23.8937489
11
4.437873
21
24.4882489
0
LINE
8
DEFAULT_255_2_778
10
4.437873
20
24.4882489
11
4.430473
21
24.5263489
0
LINE
8
DEFAULT_255_2_778
10
4.430473
20
24.5263489
11
4.416673
21
24.5724489
0
LINE
8
DEFAULT_255_2_778
10
4.416673
20
24.5724489
11
4.397873
21
24.6131489
0
LINE
8
DEFAULT_255_2_778
10
4.397873
20
24.6131489
11
4.354473
21
24.6687489
0
LINE
8
DEFAULT_255_2_778
10
4.354473
20
24.6687489
11
4.280673
21
24.7057489
0
LINE
8
DEFAULT_255_2_778
10
4.280673
20
24.7057489
11
4.135173
21
24.7023489
0
LINE
8
DEFAULT_255_2_778
10
4.135173
20
24.7023489
11
4.070073
21
24.6642489
0
LINE
8
DEFAULT_255_2_778
10
4.070073
20
24.6642489
11
4.030373
21
24.6131489
0
LINE
8
DEFAULT_255_2_778
10
4.030373
20
24.6131489
11
4.012173
21
24.5724489
0
LINE
8
DEFAULT_255_2_778
10
4.012173
20
24.5724489
11
3.998873
21
24.5263489
0
LINE
8
DEFAULT_255_2_778
10
3.998873
20
24.5263489
11
3.991773
21
24.4882489
0
LINE
8
DEFAULT_255_2_778
10
3.991773
20
24.4882489
11
3.987273
21
24.4544489
0
LINE
8
DEFAULT_255_2_778
10
3.987273
20
24.4544489
11
3.985173
21
24.4335489
0
LINE
8
DEFAULT_255_2_778
10
3.985173
20
24.4335489
11
3.983273
21
24.4115489
0
LINE
8
DEFAULT_255_2_778
10
3.983273
20
24.4115489
11
3.981973
21
24.3895489
0
LINE
8
DEFAULT_255_2_778
10
3.981973
20
24.3895489
11
3.980173
21
24.3435489
0
LINE
8
DEFAULT_255_2_778
10
3.980173
20
24.3435489
11
3.978273
21
24.1734489
0
LINE
8
DEFAULT_255_2_778
10
7.681373
20
24.7893489
11
7.681373
21
24.7922489
0
LINE
8
DEFAULT_255_2_778
10
7.681373
20
24.7922489
11
7.764773
21
24.7922489
0
LINE
8
DEFAULT_255_2_778
10
7.764773
20
24.7922489
11
7.764773
21
24.7893489
0
LINE
8
DEFAULT_255_2_778
10
7.764773
20
24.7893489
11
7.681373
21
24.7893489
0
LINE
8
DEFAULT_255_2_778
10
7.681373
20
24.7893489
11
7.681373
21
23.5926489
0
LINE
8
DEFAULT_255_2_778
10
7.681373
20
23.5926489
11
7.764773
21
23.5926489
0
LINE
8
DEFAULT_255_2_778
10
7.764773
20
23.5926489
11
7.764773
21
24.7893489
0
LINE
8
DEFAULT_255_2_778
10
7.0024115
20
24.7972812
11
7.1130115
21
24.7972812
0
LINE
8
DEFAULT_255_2_778
10
7.1130115
20
24.7972812
11
7.5155115
21
23.6005812
0
LINE
8
DEFAULT_255_2_778
10
7.5155115
20
23.6005812
11
7.4308115
21
23.5735812
0
LINE
8
DEFAULT_255_2_778
10
7.4308115
20
23.5735812
11
7.3350115
21
23.8558812
0
LINE
8
DEFAULT_255_2_778
10
7.3350115
20
23.8558812
11
7.3205115
21
23.9016812
0
LINE
8
DEFAULT_255_2_778
10
7.3205115
20
23.9016812
11
6.7865115
21
23.9016812
0
LINE
8
DEFAULT_255_2_778
10
6.7865115
20
23.9016812
11
6.6725115
21
23.5732812
0
LINE
8
DEFAULT_255_2_778
10
6.6725115
20
23.5732812
11
6.5897115
21
23.6002812
0
LINE
8
DEFAULT_255_2_778
10
6.5897115
20
23.6002812
11
7.0024115
21
24.7972812
0
LINE
8
DEFAULT_255_2_778
10
7.2908115
20
23.9876812
11
6.8157115
21
23.9876812
0
LINE
8
DEFAULT_255_2_778
10
6.8157115
20
23.9876812
11
7.0575115
21
24.6895812
0
LINE
8
DEFAULT_255_2_778
10
7.0575115
20
24.6895812
11
7.2908115
21
23.9876812
0
ARC
8
DEFAULT_255_2_778
10
-43.5774737
20
21.4370782
40
51.8723619
50
3.3743013
51
3.4723397
0
ARC
8
DEFAULT_255_2_778
10
1.4668254
20
18.3904616
40
11.1176701
50
290.6841146
51
291.116061
0
ARC
8
DEFAULT_255_2_778
10
5.888021
20
8.1741521
40
0.5276584
50
194.143919
51
200.4939579
0
ARC
8
DEFAULT_255_2_778
10
5.8098197
20
8.1509891
40
0.4461804
50
186.2113029
51
193.7135055
0
ARC
8
DEFAULT_255_2_778
10
4.9174154
20
8.3090561
40
0.4439625
50
3.6881461
51
11.3086235
0
ARC
8
DEFAULT_255_2_778
10
5.0466521
20
8.3355382
40
0.3120426
50
11.1937864
51
22.0560508
0
ARC
8
DEFAULT_255_2_778
10
5.1459399
20
8.8926434
40
0.3010909
50
31.3553435
51
44.4822586
0
ARC
8
DEFAULT_255_2_778
10
5.1423589
20
8.8894118
40
0.3055564
50
5.5972681
51
12.0716736
0
ARC
8
DEFAULT_255_2_778
10
5.145661
20
8.8888841
40
0.3018192
50
44.6285405
51
57.7404977
0
ARC
8
DEFAULT_255_2_778
10
5.1423686
20
8.8870142
40
0.3054982
50
5.5036714
51
18.4533737
0
ARC
8
DEFAULT_255_2_778
10
5.1689028
20
8.8746947
40
0.2761826
50
325.6637984
51
340.0175944
0
ARC
8
DEFAULT_255_2_778
10
5.1531067
20
8.9021076
40
0.3064638
50
297.1511865
51
310.1369661
0
ARC
8
DEFAULT_255_2_778
10
5.1276168
20
8.3693233
40
0.3081967
50
42.1922044
51
57.5555884
0
ARC
8
DEFAULT_255_2_778
10
4.889183
20
8.3023623
40
0.555712
50
4.7846069
51
13.2693428
0
ARC
8
DEFAULT_255_2_778
10
5.8237954
20
8.1594566
40
0.3781382
50
189.0442535
51
195.3568421
0
ARC
8
DEFAULT_255_2_778
10
5.8359681
20
8.163973
40
0.3904033
50
189.2655008
51
195.2759256
0
ARC
8
DEFAULT_255_2_778
10
5.1094622
20
10.9608625
40
2.2893899
50
268.7534814
51
269.2411739
0
ARC
8
DEFAULT_255_2_778
10
5.0944991
20
9.8589462
40
1.187372
50
269.2589519
51
269.9751896
0
ARC
8
DEFAULT_255_2_778
10
5.1042703
20
9.0974454
40
0.4259953
50
268.6164913
51
283.1463635
0
ARC
8
DEFAULT_255_2_778
10
5.1648233
20
8.8769057
40
0.1961128
50
332.4879714
51
342.8919744
0
ARC
8
DEFAULT_255_2_778
10
5.1181793
20
8.8905442
40
0.244706
50
343.0526911
51
351.4384401
0
ARC
8
DEFAULT_255_2_778
10
5.1306202
20
8.8833563
40
0.2323399
50
10.3790048
51
19.1084177
0
ARC
8
DEFAULT_255_2_778
10
2755.1967621
20
-678.4989158
40
2835.9417433
50
165.966255
51
165.9887345
0
ARC
8
DEFAULT_255_2_778
10
40.149646
20
143.3067336
40
138.7431277
50
255.1387215
51
255.17354
0
ARC
8
DEFAULT_255_2_778
10
-4156.3375826
20
-1038.7728839
40
4289.6753125
50
14.1256854
51
14.1406242
0
ARC
8
DEFAULT_255_2_778
10
-29631.3087319
20
-7448.2613732
40
30558.5017675
50
14.1227172
51
14.1250069
0
ARC
8
DEFAULT_255_2_778
10
-3556.5611061
20
900.3624061
40
3670.3777989
50
345.9288994
51
345.9463229
0
ARC
8
DEFAULT_255_2_778
10
-2291.4705629
20
602.0170252
40
2371.4143458
50
345.4934221
51
345.5229763
0
ARC
8
DEFAULT_255_2_778
10
17.5117474
20
57.6683783
40
50.1603668
50
255.0422947
51
255.1386316
0
ARC
8
DEFAULT_255_2_778
10
1908.5647211
20
-467.2300727
40
1963.3482239
50
165.9562633
51
165.9887343
0
ARC
8
DEFAULT_255_2_778
10
12427.5877483
20
3135.8761893
40
12811.6197339
50
194.1256861
51
194.1306879
0
ARC
8
DEFAULT_255_2_778
10
0.6673535
20
20.043571
40
11.1662677
50
283.506288
51
283.9367633
0
ARC
8
DEFAULT_255_2_778
10
6.4340155
20
-3.576563
40
13.1449482
50
103.5386874
51
103.904364
0
ARC
8
DEFAULT_255_2_778
10
2.8413197
20
8.883009
40
0.3148866
50
9.0822105
51
17.4841826
0
ARC
8
DEFAULT_255_2_778
10
2.8400074
20
8.884475
40
0.3159554
50
0.2972847
51
8.7821391
0
ARC
8
DEFAULT_255_2_778
10
2.8609309
20
8.8854289
40
0.2950284
50
351.1647364
51
0.1331077
0
ARC
8
DEFAULT_255_2_778
10
2.8829297
20
8.879033
40
0.2720907
50
332.2192343
51
341.9694476
0
ARC
8
DEFAULT_255_2_778
10
2.8025915
20
9.1906374
40
0.6032813
50
270.7946642
51
279.6056327
0
ARC
8
DEFAULT_255_2_778
10
2.7993797
20
8.632739
40
0.5674928
50
78.7431595
51
88.0834854
0
ARC
8
DEFAULT_255_2_778
10
2.828672
20
8.8818924
40
0.3280125
50
17.6991412
51
25.8117855
0
ARC
8
DEFAULT_255_2_778
10
2.8853929
20
8.8785145
40
0.1846251
50
329.8609874
51
340.9040844
0
ARC
8
DEFAULT_255_2_778
10
2.8730848
20
8.8822577
40
0.1974811
50
341.0460745
51
351.4255251
0
ARC
8
DEFAULT_255_2_778
10
2.8653361
20
8.8897632
40
0.2048402
50
9.6823342
51
19.6407344
0
ARC
8
DEFAULT_255_2_778
10
16.5209561
20
21.3380052
40
13.967131
50
249.9578352
51
250.2993727
0
ARC
8
DEFAULT_255_2_778
10
8.5271013
20
-0.9405615
40
9.7026573
50
70.2075363
51
70.6981901
0
ARC
8
DEFAULT_255_2_778
10
11.4914225
20
8.2976142
40
0.3399748
50
327.7531111
51
340.8368467
0
ARC
8
DEFAULT_255_2_778
10
11.5732113
20
8.2461442
40
0.2433386
50
309.5503291
51
327.7274796
0
ARC
8
DEFAULT_255_2_778
10
11.7391521
20
8.387307
40
0.5992523
50
188.2214427
51
195.5942287
0
ARC
8
DEFAULT_255_2_778
10
12.2671444
20
8.4480199
40
1.1306052
50
179.6658109
51
187.4403005
0
ARC
8
DEFAULT_255_2_778
10
11.561769
20
8.8525424
40
0.4198148
50
160.98649
51
171.4145227
0
ARC
8
DEFAULT_255_2_778
10
11.4469928
20
8.8993773
40
0.297047
50
102.8245316
51
117.6029666
0
ARC
8
DEFAULT_255_2_778
10
11.5520051
20
8.9437395
40
0.265373
50
9.60415
51
26.2267444
0
ARC
8
DEFAULT_255_2_778
10
11.5164767
20
8.9371165
40
0.302012
50
10.2609513
51
17.5957326
0
ARC
8
DEFAULT_255_2_778
10
7.9630162
20
24.6613119
40
16.1370785
50
283.5062665
51
283.8040553
0
ARC
8
DEFAULT_255_2_778
10
11.4489426
20
8.9132195
40
0.2886591
50
11.4484487
51
17.686024
0
ARC
8
DEFAULT_255_2_778
10
11.5075744
20
8.6942198
40
0.4280261
50
83.7653163
51
88.8784966
0
ARC
8
DEFAULT_255_2_778
10
11.5076076
20
8.6955623
40
0.4266833
50
88.8794333
51
89.9999096
0
ARC
8
DEFAULT_255_2_778
10
11.5075594
20
8.6971002
40
0.4251454
50
89.9934048
51
100.4348023
0
ARC
8
DEFAULT_255_2_778
10
11.6004488
20
8.8485621
40
0.3746659
50
160.9234807
51
170.3736763
0
ARC
8
DEFAULT_255_2_778
10
11.8180853
20
8.8091197
40
0.5958387
50
170.1339096
51
176.0548467
0
ARC
8
DEFAULT_255_2_778
10
11.5498067
20
8.323568
40
0.3157325
50
196.7425482
51
208.0876252
0
ARC
8
DEFAULT_255_2_778
10
11.5240336
20
8.2820041
40
0.2199821
50
326.1640551
51
342.4344866
0
ARC
8
DEFAULT_255_2_778
10
11.5312585
20
8.3047656
40
0.2283417
50
289.8672379
51
305.3464435
0
ARC
8
DEFAULT_255_2_778
10
11.7577727
20
8.3924269
40
0.5339786
50
190.8606243
51
197.4822342
0
ARC
8
DEFAULT_255_2_778
10
16.3488169
20
18.5129865
40
10.9635914
50
249.9110519
51
250.346156
0
ARC
8
DEFAULT_255_2_778
10
7.7591256
20
28.9971496
40
20.5995398
50
283.5385214
51
283.7718004
0
ARC
8
DEFAULT_255_2_778
10
12.2870179
20
8.9092491
40
0.3006454
50
11.6607186
51
16.1455016
0
ARC
8
DEFAULT_255_2_778
10
12.1698288
20
8.8763431
40
0.4223639
50
16.0126286
51
17.0828568
0
ARC
8
DEFAULT_255_2_778
10
12.3574489
20
8.6866517
40
0.4350239
50
83.9023607
51
89.351894
0
ARC
8
DEFAULT_255_2_778
10
12.3574543
20
8.6871217
40
0.4345538
50
89.3519024
51
89.9976507
0
ARC
8
DEFAULT_255_2_778
10
12.357451
20
8.6879696
40
0.4337057
50
89.9972099
51
100.2791815
0
ARC
8
DEFAULT_255_2_778
10
12.4501802
20
8.8474105
40
0.3750034
50
160.8359542
51
170.2814347
0
ARC
8
DEFAULT_255_2_778
10
12.6965357
20
8.8051134
40
0.6249636
50
170.2719807
51
175.9167581
0
ARC
8
DEFAULT_255_2_778
10
12.4081236
20
8.3273683
40
0.3254476
50
197.0372419
51
208.033009
0
ARC
8
DEFAULT_255_2_778
10
12.3766994
20
8.2796603
40
0.2164089
50
326.1175601
51
342.6469211
0
ARC
8
DEFAULT_255_2_778
10
12.3795201
20
8.3060659
40
0.2305844
50
290.0195304
51
305.3588994
0
ARC
8
DEFAULT_255_2_778
10
12.5870269
20
8.3867894
40
0.5130306
50
190.7252767
51
197.6175792
0
ARC
8
DEFAULT_255_2_778
10
12.4248343
20
8.850205
40
0.4344886
50
161.1458597
51
171.2882248
0
ARC
8
DEFAULT_255_2_778
10
12.2911076
20
8.9166489
40
0.281407
50
118.516986
51
134.047398
0
ARC
8
DEFAULT_255_2_778
10
12.3645578
20
8.9366837
40
0.3035302
50
10.234534
51
17.5509365
0
ARC
8
DEFAULT_255_2_778
10
12.4036872
20
8.9441127
40
0.2632078
50
9.535289
51
26.2955982
0
ARC
8
DEFAULT_255_2_778
10
12.3032597
20
8.8821323
40
0.3151584
50
103.3185078
51
117.2496673
0
ARC
8
DEFAULT_255_2_778
10
12.4156699
20
8.8506198
40
0.4244098
50
160.9685472
51
171.2866132
0
ARC
8
DEFAULT_255_2_778
10
12.7893227
20
8.7949681
40
0.8021824
50
171.4006046
51
176.1027861
0
ARC
8
DEFAULT_255_2_778
10
13.1569622
20
8.7655709
40
1.1709779
50
175.8903356
51
176.428576
0
ARC
8
DEFAULT_255_2_778
10
13.1203326
20
8.4480387
40
1.1341915
50
179.682973
51
187.4277883
0
ARC
8
DEFAULT_255_2_778
10
12.5487872
20
8.3786791
40
0.5584991
50
187.9520071
51
195.8636053
0
ARC
8
DEFAULT_255_2_778
10
12.4211133
20
8.2473399
40
0.2455732
50
309.6336155
51
327.6439738
0
ARC
8
DEFAULT_255_2_778
10
12.3339427
20
8.3007222
40
0.3477821
50
327.9005995
51
340.6893803
0
ARC
8
DEFAULT_255_2_778
10
17.9479605
20
22.8839321
40
15.6170441
50
249.9111205
51
250.2167
0
ARC
8
DEFAULT_255_2_778
10
13.3153365
20
8.3639222
40
0.4304823
50
185.8006505
51
196.3951173
0
ARC
8
DEFAULT_255_2_778
10
13.898356
20
8.4212622
40
1.0163134
50
181.1810399
51
185.6947778
0
ARC
8
DEFAULT_255_2_778
10
12.6374953
20
8.7815278
40
0.6859862
50
1.0847459
51
14.3904071
0
ARC
8
DEFAULT_255_2_778
10
12.7785241
20
8.3685697
40
0.5389129
50
345.8815808
51
354.392883
0
ARC
8
DEFAULT_255_2_778
10
13.0978876
20
8.2796765
40
0.2065845
50
325.9526503
51
337.0773715
0
ARC
8
DEFAULT_255_2_778
10
13.228997
20
8.3342963
40
0.4239473
50
194.7701492
51
201.3555123
0
ARC
8
DEFAULT_255_2_778
10
13.7018581
20
8.4149408
40
0.9040618
50
182.9055415
51
189.0128365
0
ARC
8
DEFAULT_255_2_778
10
13.2323805
20
8.867099
40
0.4271559
50
162.5608759
51
169.0805879
0
ARC
8
DEFAULT_255_2_778
10
13.1355227
20
8.8959891
40
0.3260951
50
153.8289145
51
162.3034091
0
ARC
8
DEFAULT_255_2_778
10
13.1234013
20
8.9430423
40
0.2572867
50
27.0915842
51
37.8505283
0
ARC
8
DEFAULT_255_2_778
10
13.0527766
20
8.9064448
40
0.3368298
50
18.8936266
51
27.1627857
0
ARC
8
DEFAULT_255_2_778
10
12.9521831
20
8.8700134
40
0.4438045
50
12.9161045
51
19.1382864
0
ARC
8
DEFAULT_255_2_778
10
12.5760708
20
8.4147409
40
0.8292478
50
348.3235966
51
354.996338
0
ARC
8
DEFAULT_255_2_778
10
13.0356258
20
8.3043099
40
0.3559549
50
335.2018494
51
342.9622165
0
LINE
8
DEFAULT_255_2_778
10
8.4018585
20
24.7862143
11
8.3534585
21
24.7325143
0
LINE
8
DEFAULT_255_2_778
10
8.3534585
20
24.7325143
11
8.3044585
21
24.6793143
0
LINE
8
DEFAULT_255_2_778
10
8.3044585
20
24.6793143
11
8.2539585
21
24.6275143
0
LINE
8
DEFAULT_255_2_778
10
8.2539585
20
24.6275143
11
8.2002585
21
24.5788143
0
LINE
8
DEFAULT_255_2_778
10
8.2002585
20
24.5788143
11
8.2002585
21
24.5817143
0
LINE
8
DEFAULT_255_2_778
10
8.2002585
20
24.5817143
11
8.2539585
21
24.6304143
0
LINE
8
DEFAULT_255_2_778
10
8.2539585
20
24.6304143
11
8.3044585
21
24.6822143
0
LINE
8
DEFAULT_255_2_778
10
8.3044585
20
24.6822143
11
8.3534585
21
24.7357143
0
LINE
8
DEFAULT_255_2_778
10
8.3534585
20
24.7357143
11
8.4018585
21
24.7894143
0
LINE
8
DEFAULT_255_2_778
10
8.5065585
20
24.7865143
11
8.4018585
21
24.7865143
0
LINE
8
DEFAULT_255_2_778
10
8.4018585
20
24.7865143
11
8.4018585
21
24.7894143
0
LINE
8
DEFAULT_255_2_778
10
8.4018585
20
24.7894143
11
8.5065585
21
24.7894143
0
LINE
8
DEFAULT_255_2_778
10
8.5065585
20
24.7894143
11
8.5065585
21
23.5916143
0
LINE
8
DEFAULT_255_2_778
10
8.5065585
20
23.5916143
11
8.4232585
21
23.5916143
0
LINE
8
DEFAULT_255_2_778
10
8.4232585
20
23.5916143
11
8.4232585
21
24.6833143
0
LINE
8
DEFAULT_255_2_778
10
8.4232585
20
24.6833143
11
8.3727585
21
24.6296143
0
LINE
8
DEFAULT_255_2_778
10
8.3727585
20
24.6296143
11
8.3213585
21
24.5767143
0
LINE
8
DEFAULT_255_2_778
10
8.3213585
20
24.5767143
11
8.2951585
21
24.5507143
0
LINE
8
DEFAULT_255_2_778
10
8.2951585
20
24.5507143
11
8.2682585
21
24.5256143
0
LINE
8
DEFAULT_255_2_778
10
8.2682585
20
24.5256143
11
8.2393585
21
24.5026143
0
LINE
8
DEFAULT_255_2_778
10
8.2393585
20
24.5026143
11
8.2232585
21
24.4936143
0
LINE
8
DEFAULT_255_2_778
10
8.2232585
20
24.4936143
11
8.2142585
21
24.4912143
0
LINE
8
DEFAULT_255_2_778
10
8.2142585
20
24.4912143
11
8.2049585
21
24.4902143
0
LINE
8
DEFAULT_255_2_778
10
5.3662585
20
8.1027143
11
5.3625585
21
8.1611143
0
LINE
8
DEFAULT_255_2_778
10
5.3625585
20
8.1611143
11
5.3622585
21
8.2199143
0
LINE
8
DEFAULT_255_2_778
10
5.3622585
20
8.2199143
11
5.3604585
21
8.3376143
0
LINE
8
DEFAULT_255_2_778
10
5.3358585
20
8.4527143
11
5.3231585
21
8.4794143
0
LINE
8
DEFAULT_255_2_778
10
5.3231585
20
8.4794143
11
5.3072585
21
8.5043143
0
LINE
8
DEFAULT_255_2_778
10
5.3072585
20
8.5043143
11
5.2879585
21
8.5265143
0
LINE
8
DEFAULT_255_2_778
10
5.2879585
20
8.5265143
11
5.2651585
21
8.5456143
0
LINE
8
DEFAULT_255_2_778
10
5.2651585
20
8.5456143
11
5.2400585
21
8.5609143
0
LINE
8
DEFAULT_255_2_778
10
5.2400585
20
8.5609143
11
5.2127585
21
8.5728143
0
LINE
8
DEFAULT_255_2_778
10
5.2127585
20
8.5728143
11
5.1844585
21
8.5810143
0
LINE
8
DEFAULT_255_2_778
10
5.1844585
20
8.5810143
11
5.1551585
21
8.5858143
0
LINE
8
DEFAULT_255_2_778
10
5.1551585
20
8.5858143
11
5.0955585
21
8.5882143
0
LINE
8
DEFAULT_255_2_778
10
5.0955585
20
8.5882143
11
5.0656585
21
8.5879143
0
LINE
8
DEFAULT_255_2_778
10
5.0656585
20
8.5879143
11
5.0357585
21
8.5879143
0
LINE
8
DEFAULT_255_2_778
10
5.0357585
20
8.5879143
11
4.9167585
21
8.5879143
0
LINE
8
DEFAULT_255_2_778
10
4.9167585
20
8.5879143
11
4.9167585
21
7.9974143
0
LINE
8
DEFAULT_255_2_778
10
4.9167585
20
7.9974143
11
4.8317585
21
7.9974143
0
LINE
8
DEFAULT_255_2_778
10
4.8317585
20
7.9974143
11
4.8317585
21
9.1994143
0
LINE
8
DEFAULT_255_2_778
10
4.8317585
20
9.1994143
11
4.9011585
21
9.1991143
0
LINE
8
DEFAULT_255_2_778
10
4.9011585
20
9.1991143
11
4.9704585
21
9.1996143
0
LINE
8
DEFAULT_255_2_778
10
4.9704585
20
9.1996143
11
5.1088585
21
9.1994143
0
LINE
8
DEFAULT_255_2_778
10
5.1088585
20
9.1994143
11
5.1776585
21
9.1933143
0
LINE
8
DEFAULT_255_2_778
10
5.1776585
20
9.1933143
11
5.2445585
21
9.1771143
0
LINE
8
DEFAULT_255_2_778
10
5.2445585
20
9.1771143
11
5.2765585
21
9.1636143
0
LINE
8
DEFAULT_255_2_778
10
5.2765585
20
9.1636143
11
5.3067585
21
9.1470143
0
LINE
8
DEFAULT_255_2_778
10
5.3067585
20
9.1470143
11
5.3350585
21
9.1269143
0
LINE
8
DEFAULT_255_2_778
10
5.3350585
20
9.1269143
11
5.3607585
21
9.1036143
0
LINE
8
DEFAULT_255_2_778
10
5.4030585
20
9.0493143
11
5.4194585
21
9.0186143
0
LINE
8
DEFAULT_255_2_778
10
5.4194585
20
9.0186143
11
5.4321585
21
8.9866143
0
LINE
8
DEFAULT_255_2_778
10
5.4321585
20
8.9866143
11
5.4411585
21
8.9533143
0
LINE
8
DEFAULT_255_2_778
10
5.4464585
20
8.9192143
11
5.4477585
21
8.8901143
0
LINE
8
DEFAULT_255_2_778
10
4.8320585
20
9.1964143
11
4.9011585
21
9.1964143
0
LINE
8
DEFAULT_255_2_778
10
4.9011585
20
9.1964143
11
4.9701585
21
9.1970143
0
LINE
8
DEFAULT_255_2_778
10
4.9701585
20
9.1970143
11
5.1085585
21
9.1967143
0
LINE
8
DEFAULT_255_2_778
10
5.1085585
20
9.1967143
11
5.1432585
21
9.1946143
0
LINE
8
DEFAULT_255_2_778
10
5.1432585
20
9.1946143
11
5.1776585
21
9.1906143
0
LINE
8
DEFAULT_255_2_778
10
5.1776585
20
9.1906143
11
5.2445585
21
9.1745143
0
LINE
8
DEFAULT_255_2_778
10
5.2445585
20
9.1745143
11
5.2765585
21
9.1610143
0
LINE
8
DEFAULT_255_2_778
10
5.2765585
20
9.1610143
11
5.3067585
21
9.1441143
0
LINE
8
DEFAULT_255_2_778
10
5.3604585
20
9.1009143
11
5.3834585
21
9.0747143
0
LINE
8
DEFAULT_255_2_778
10
5.3834585
20
9.0747143
11
5.4030585
21
9.0464143
0
LINE
8
DEFAULT_255_2_778
10
5.4030585
20
9.0464143
11
5.4194585
21
9.0160143
0
LINE
8
DEFAULT_255_2_778
10
5.4194585
20
9.0160143
11
5.4321585
21
8.9837143
0
LINE
8
DEFAULT_255_2_778
10
5.4464585
20
8.9163143
11
5.4477585
21
8.8816143
0
LINE
8
DEFAULT_255_2_778
10
5.4477585
20
8.8816143
11
5.4451585
21
8.8472143
0
LINE
8
DEFAULT_255_2_778
10
5.4451585
20
8.8472143
11
5.4387585
21
8.8133143
0
LINE
8
DEFAULT_255_2_778
10
5.4387585
20
8.8133143
11
5.4284585
21
8.7803143
0
LINE
8
DEFAULT_255_2_778
10
5.3969585
20
8.7189143
11
5.3755585
21
8.6916143
0
LINE
8
DEFAULT_255_2_778
10
5.3755585
20
8.6916143
11
5.3506585
21
8.6678143
0
LINE
8
DEFAULT_255_2_778
10
5.3559585
20
8.5763143
11
5.3813585
21
8.5435143
0
LINE
8
DEFAULT_255_2_778
10
5.3813585
20
8.5435143
11
5.4022585
21
8.5077143
0
LINE
8
DEFAULT_255_2_778
10
5.4022585
20
8.5077143
11
5.4183585
21
8.4696143
0
LINE
8
DEFAULT_255_2_778
10
5.4183585
20
8.4696143
11
5.4300585
21
8.4299143
0
LINE
8
DEFAULT_255_2_778
10
5.4429585
20
8.3487143
11
5.4464585
21
8.2659143
0
LINE
8
DEFAULT_255_2_778
10
5.4464585
20
8.2659143
11
5.4458585
21
8.2244143
0
LINE
8
DEFAULT_255_2_778
10
5.4458585
20
8.2244143
11
5.4451585
21
8.1828143
0
LINE
8
DEFAULT_255_2_778
10
5.4451585
20
8.1828143
11
5.4461585
21
8.1413143
0
LINE
8
DEFAULT_255_2_778
10
5.4461585
20
8.1413143
11
5.4503585
21
8.1000143
0
LINE
8
DEFAULT_255_2_778
10
5.4591585
20
8.0593143
11
5.4728585
21
8.0191143
0
LINE
8
DEFAULT_255_2_778
10
5.4728585
20
8.0191143
11
5.4728585
21
8.0220143
0
LINE
8
DEFAULT_255_2_778
10
5.4728585
20
8.0220143
11
5.4593585
21
8.0611143
0
LINE
8
DEFAULT_255_2_778
10
5.4506585
20
8.1011143
11
5.4461585
21
8.1418143
0
LINE
8
DEFAULT_255_2_778
10
5.4461585
20
8.1418143
11
5.4451585
21
8.1804143
0
LINE
8
DEFAULT_255_2_778
10
4.9167585
20
8.6731143
11
4.9881585
21
8.6731143
0
LINE
8
DEFAULT_255_2_778
10
4.9881585
20
8.6731143
11
5.0238585
21
8.6728143
0
LINE
8
DEFAULT_255_2_778
10
5.0238585
20
8.6728143
11
5.0596585
21
8.6720143
0
LINE
8
DEFAULT_255_2_778
10
5.2011585
20
8.6826143
11
5.2350585
21
8.6937143
0
LINE
8
DEFAULT_255_2_778
10
5.2350585
20
8.6937143
11
5.2665585
21
8.7099143
0
LINE
8
DEFAULT_255_2_778
10
5.2665585
20
8.7099143
11
5.2813585
21
8.7199143
0
LINE
8
DEFAULT_255_2_778
10
5.2813585
20
8.7199143
11
5.2950585
21
8.7310143
0
LINE
8
DEFAULT_255_2_778
10
5.2950585
20
8.7310143
11
5.3194585
21
8.7564143
0
LINE
8
DEFAULT_255_2_778
10
5.3194585
20
8.7564143
11
5.3387585
21
8.7863143
0
LINE
8
DEFAULT_255_2_778
10
5.3601585
20
8.8541143
11
5.3625585
21
8.8895143
0
LINE
8
DEFAULT_255_2_778
10
5.3625585
20
8.8895143
11
5.3614585
21
8.9075143
0
LINE
8
DEFAULT_255_2_778
10
5.3614585
20
8.9075143
11
5.3591585
21
8.9252143
0
LINE
8
DEFAULT_255_2_778
10
5.3501585
20
8.9594143
11
5.3435585
21
8.9760143
0
LINE
8
DEFAULT_255_2_778
10
5.3435585
20
8.9760143
11
5.3353585
21
8.9919143
0
LINE
8
DEFAULT_255_2_778
10
5.3353585
20
8.9919143
11
5.3154585
21
9.0213143
0
LINE
8
DEFAULT_255_2_778
10
5.3154585
20
9.0213143
11
5.2911585
21
9.0475143
0
LINE
8
DEFAULT_255_2_778
10
5.2911585
20
9.0475143
11
5.2630585
21
9.0694143
0
LINE
8
DEFAULT_255_2_778
10
5.2630585
20
9.0694143
11
5.2318585
21
9.0869143
0
LINE
8
DEFAULT_255_2_778
10
5.2318585
20
9.0869143
11
5.1987585
21
9.0996143
0
LINE
8
DEFAULT_255_2_778
10
5.1987585
20
9.0996143
11
5.1638585
21
9.1075143
0
LINE
8
DEFAULT_255_2_778
10
5.1638585
20
9.1075143
11
5.1286585
21
9.1115143
0
LINE
8
DEFAULT_255_2_778
10
5.1286585
20
9.1115143
11
5.0580585
21
9.1128143
0
LINE
8
DEFAULT_255_2_778
10
5.0580585
20
9.1128143
11
5.0225585
21
9.1126143
0
LINE
8
DEFAULT_255_2_778
10
5.0225585
20
9.1126143
11
4.9871585
21
9.1126143
0
LINE
8
DEFAULT_255_2_778
10
4.9871585
20
9.1126143
11
4.9162585
21
9.1126143
0
LINE
8
DEFAULT_255_2_778
10
4.9162585
20
9.1126143
11
4.9167585
21
8.6731143
0
LINE
8
DEFAULT_255_2_778
10
4.0139585
20
9.2009143
11
4.0824585
21
8.9305143
0
LINE
8
DEFAULT_255_2_778
10
4.0824585
20
8.9305143
11
4.1161585
21
8.7951143
0
LINE
8
DEFAULT_255_2_778
10
4.1161585
20
8.7951143
11
4.1491585
21
8.6596143
0
LINE
8
DEFAULT_255_2_778
10
4.1491585
20
8.6596143
11
4.2155585
21
8.3887143
0
LINE
8
DEFAULT_255_2_778
10
4.2155585
20
8.3887143
11
4.2491585
21
8.2532143
0
LINE
8
DEFAULT_255_2_778
10
4.2491585
20
8.2532143
11
4.2666585
21
8.1857143
0
LINE
8
DEFAULT_255_2_778
10
4.2666585
20
8.1857143
11
4.2835585
21
8.1180143
0
LINE
8
DEFAULT_255_2_778
10
4.2835585
20
8.1180143
11
4.2835585
21
8.1151143
0
LINE
8
DEFAULT_255_2_778
10
4.2835585
20
8.1151143
11
4.2666585
21
8.1828143
0
LINE
8
DEFAULT_255_2_778
10
4.2666585
20
8.1828143
11
4.2491585
21
8.2503143
0
LINE
8
DEFAULT_255_2_778
10
4.2491585
20
8.2503143
11
4.2155585
21
8.3858143
0
LINE
8
DEFAULT_255_2_778
10
4.2155585
20
8.3858143
11
4.1491585
21
8.6567143
0
LINE
8
DEFAULT_255_2_778
10
4.1491585
20
8.6567143
11
4.1161585
21
8.7922143
0
LINE
8
DEFAULT_255_2_778
10
4.1161585
20
8.7922143
11
4.0824585
21
8.9276143
0
LINE
8
DEFAULT_255_2_778
10
4.0824585
20
8.9276143
11
4.0139585
21
9.1980143
0
LINE
8
DEFAULT_255_2_778
10
4.0139585
20
9.1980143
11
3.8991585
21
9.1980143
0
LINE
8
DEFAULT_255_2_778
10
3.8991585
20
9.1980143
11
3.8991585
21
9.2009143
0
LINE
8
DEFAULT_255_2_778
10
3.8991585
20
9.2009143
11
4.0139585
21
9.2009143
0
LINE
8
DEFAULT_255_2_778
10
4.0139585
20
9.2009143
11
4.0139585
21
9.1980143
0
LINE
8
DEFAULT_255_2_778
10
4.2835585
20
8.1154143
11
4.3005585
21
8.1836143
0
LINE
8
DEFAULT_255_2_778
10
4.3005585
20
8.1836143
11
4.3179585
21
8.2516143
0
LINE
8
DEFAULT_255_2_778
10
4.3179585
20
8.2516143
11
4.3531585
21
8.3879143
0
LINE
8
DEFAULT_255_2_778
10
4.3531585
20
8.3879143
11
4.4240585
21
8.6601143
0
LINE
8
DEFAULT_255_2_778
10
4.4240585
20
8.6601143
11
4.4944585
21
8.9324143
0
LINE
8
DEFAULT_255_2_778
10
4.4944585
20
8.9324143
11
4.5648585
21
9.2046143
0
LINE
8
DEFAULT_255_2_778
10
4.5648585
20
9.2046143
11
4.5648585
21
9.2076143
0
LINE
8
DEFAULT_255_2_778
10
4.5648585
20
9.2076143
11
4.4944585
21
8.9353143
0
LINE
8
DEFAULT_255_2_778
10
4.4944585
20
8.9353143
11
4.4240585
21
8.6630143
0
LINE
8
DEFAULT_255_2_778
10
4.4240585
20
8.6630143
11
4.3531585
21
8.3908143
0
LINE
8
DEFAULT_255_2_778
10
4.3531585
20
8.3908143
11
4.3179585
21
8.2545143
0
LINE
8
DEFAULT_255_2_778
10
4.3179585
20
8.2545143
11
4.3005585
21
8.1865143
0
LINE
8
DEFAULT_255_2_778
10
4.3005585
20
8.1865143
11
4.2835585
21
8.1183143
0
LINE
8
DEFAULT_255_2_778
10
3.5729585
20
7.9989143
11
3.6861585
21
7.9989143
0
LINE
8
DEFAULT_255_2_778
10
3.9573585
20
9.0816143
11
3.9737585
21
9.0139143
0
LINE
8
DEFAULT_255_2_778
10
3.9737585
20
9.0139143
11
3.9904585
21
8.9462143
0
LINE
8
DEFAULT_255_2_778
10
3.9904585
20
8.9462143
11
4.0240585
21
8.8107143
0
LINE
8
DEFAULT_255_2_778
10
4.0240585
20
8.8107143
11
4.0904585
21
8.5398143
0
LINE
8
DEFAULT_255_2_778
10
4.0904585
20
8.5398143
11
4.1235585
21
8.4043143
0
LINE
8
DEFAULT_255_2_778
10
4.1235585
20
8.4043143
11
4.1571585
21
8.2691143
0
LINE
8
DEFAULT_255_2_778
10
4.1571585
20
8.2691143
11
4.2256585
21
7.9987143
0
LINE
8
DEFAULT_255_2_778
10
4.2256585
20
7.9987143
11
4.3404585
21
7.9987143
0
LINE
8
DEFAULT_255_2_778
10
4.6465585
20
9.1830143
11
4.6465585
21
9.1859143
0
LINE
8
DEFAULT_255_2_778
10
3.6297585
20
8.1214143
11
3.6297585
21
8.1185143
0
LINE
8
DEFAULT_255_2_778
10
3.3567585
20
9.2031143
11
3.3567585
21
9.2060143
0
LINE
8
DEFAULT_255_2_778
10
3.2752585
20
9.1861143
11
3.2752585
21
9.1832143
0
LINE
8
DEFAULT_255_2_778
10
2.5394585
20
9.1980143
11
2.6325585
21
9.1980143
0
LINE
8
DEFAULT_255_2_778
10
2.6325585
20
9.1980143
11
2.7257585
21
9.1983143
0
LINE
8
DEFAULT_255_2_778
10
2.7257585
20
9.1983143
11
2.7722585
21
9.1980143
0
LINE
8
DEFAULT_255_2_778
10
2.7722585
20
9.1980143
11
2.8188585
21
9.1970143
0
LINE
8
DEFAULT_255_2_778
10
2.8188585
20
9.1970143
11
2.8654585
21
9.1935143
0
LINE
8
DEFAULT_255_2_778
10
2.8654585
20
9.1935143
11
2.9114585
21
9.1861143
0
LINE
8
DEFAULT_255_2_778
10
2.9114585
20
9.1861143
11
2.9559585
21
9.1734143
0
LINE
8
DEFAULT_255_2_778
10
2.9559585
20
9.1734143
11
2.9775585
21
9.1647143
0
LINE
8
DEFAULT_255_2_778
10
2.9775585
20
9.1647143
11
2.9985585
21
9.1541143
0
LINE
8
DEFAULT_255_2_778
10
2.9985585
20
9.1541143
11
3.0371585
21
9.1287143
0
LINE
8
DEFAULT_255_2_778
10
3.0371585
20
9.1287143
11
3.0715585
21
9.0975143
0
LINE
8
DEFAULT_255_2_778
10
3.0715585
20
9.0975143
11
3.1008585
21
9.0612143
0
LINE
8
DEFAULT_255_2_778
10
3.1008585
20
9.0612143
11
3.1241585
21
9.0210143
0
LINE
8
DEFAULT_255_2_778
10
3.1241585
20
9.0210143
11
3.1337585
21
8.9996143
0
LINE
8
DEFAULT_255_2_778
10
3.1337585
20
8.9996143
11
3.1416585
21
8.9776143
0
LINE
8
DEFAULT_255_2_778
10
3.1524585
20
8.8401143
11
3.1479585
21
8.8173143
0
LINE
8
DEFAULT_255_2_778
10
3.1479585
20
8.8173143
11
3.1416585
21
8.7948143
0
LINE
8
DEFAULT_255_2_778
10
3.1236585
20
8.7522143
11
3.1120585
21
8.7321143
0
LINE
8
DEFAULT_255_2_778
10
3.1120585
20
8.7321143
11
3.0987585
21
8.7128143
0
LINE
8
DEFAULT_255_2_778
10
3.0987585
20
8.7128143
11
3.0678585
21
8.6781143
0
LINE
8
DEFAULT_255_2_778
10
3.0678585
20
8.6781143
11
3.0315585
21
8.6488143
0
LINE
8
DEFAULT_255_2_778
10
3.0315585
20
8.6488143
11
2.9916585
21
8.6249143
0
LINE
8
DEFAULT_255_2_778
10
2.9916585
20
8.6249143
11
2.9484585
21
8.6072143
0
LINE
8
DEFAULT_255_2_778
10
2.9484585
20
8.6072143
11
2.9032585
21
8.5958143
0
LINE
8
DEFAULT_255_2_778
10
2.8109585
20
8.5874143
11
2.7177585
21
8.5876143
0
LINE
8
DEFAULT_255_2_778
10
2.7177585
20
8.5876143
11
2.6246585
21
8.5876143
0
LINE
8
DEFAULT_255_2_778
10
2.6246585
20
8.5876143
11
2.6246585
21
7.9989143
0
LINE
8
DEFAULT_255_2_778
10
2.6246585
20
7.9989143
11
2.5397585
21
7.9989143
0
LINE
8
DEFAULT_255_2_778
10
2.5397585
20
7.9989143
11
2.5397585
21
9.2009143
0
LINE
8
DEFAULT_255_2_778
10
2.5397585
20
9.2009143
11
2.6325585
21
9.2009143
0
LINE
8
DEFAULT_255_2_778
10
2.6325585
20
9.2009143
11
2.7254585
21
9.2012143
0
LINE
8
DEFAULT_255_2_778
10
2.7254585
20
9.2012143
11
2.7720585
21
9.2009143
0
LINE
8
DEFAULT_255_2_778
10
2.7720585
20
9.2009143
11
2.8183585
21
9.1999143
0
LINE
8
DEFAULT_255_2_778
10
2.9101585
20
9.1893143
11
2.9328585
21
9.1837143
0
LINE
8
DEFAULT_255_2_778
10
2.9328585
20
9.1837143
11
2.9551585
21
9.1766143
0
LINE
8
DEFAULT_255_2_778
10
2.9551585
20
9.1766143
11
2.9974585
21
9.1576143
0
LINE
8
DEFAULT_255_2_778
10
2.9974585
20
9.1576143
11
3.0172585
21
9.1456143
0
LINE
8
DEFAULT_255_2_778
10
3.0172585
20
9.1456143
11
3.0363585
21
9.1322143
0
LINE
8
DEFAULT_255_2_778
10
3.0363585
20
9.1322143
11
3.0707585
21
9.1009143
0
LINE
8
DEFAULT_255_2_778
10
3.0707585
20
9.1009143
11
3.1001585
21
9.0649143
0
LINE
8
DEFAULT_255_2_778
10
3.1001585
20
9.0649143
11
3.1128585
21
9.0451143
0
LINE
8
DEFAULT_255_2_778
10
3.1128585
20
9.0451143
11
3.1239585
21
9.0247143
0
LINE
8
DEFAULT_255_2_778
10
3.1411585
20
8.9816143
11
3.1474585
21
8.9591143
0
LINE
8
DEFAULT_255_2_778
10
3.1474585
20
8.9591143
11
3.1519585
21
8.9366143
0
LINE
8
DEFAULT_255_2_778
10
2.6246585
20
8.6731143
11
2.6947585
21
8.6731143
0
LINE
8
DEFAULT_255_2_778
10
2.6947585
20
8.6731143
11
2.7296585
21
8.6728143
0
LINE
8
DEFAULT_255_2_778
10
2.7296585
20
8.6728143
11
2.7646585
21
8.6723143
0
LINE
8
DEFAULT_255_2_778
10
2.7646585
20
8.6723143
11
2.8344585
21
8.6739143
0
LINE
8
DEFAULT_255_2_778
10
2.8344585
20
8.6739143
11
2.9040585
21
8.6839143
0
LINE
8
DEFAULT_255_2_778
10
2.9040585
20
8.6839143
11
2.9381585
21
8.6948143
0
LINE
8
DEFAULT_255_2_778
10
2.9381585
20
8.6948143
11
2.9701585
21
8.7104143
0
LINE
8
DEFAULT_255_2_778
10
2.9701585
20
8.7104143
11
2.9992585
21
8.7313143
0
LINE
8
DEFAULT_255_2_778
10
2.9992585
20
8.7313143
11
3.0244585
21
8.7564143
0
LINE
8
DEFAULT_255_2_778
10
3.0244585
20
8.7564143
11
3.0450585
21
8.7858143
0
LINE
8
DEFAULT_255_2_778
10
3.0683585
20
8.8528143
11
3.0707585
21
8.8885143
0
LINE
8
DEFAULT_255_2_778
10
3.0707585
20
8.8885143
11
3.0696585
21
8.9065143
0
LINE
8
DEFAULT_255_2_778
10
3.0696585
20
8.9065143
11
3.0672585
21
8.9242143
0
LINE
8
DEFAULT_255_2_778
10
3.0582585
20
8.9586143
11
3.0516585
21
8.9753143
0
LINE
8
DEFAULT_255_2_778
10
3.0516585
20
8.9753143
11
3.0437585
21
8.9914143
0
LINE
8
DEFAULT_255_2_778
10
3.0437585
20
8.9914143
11
3.0244585
21
9.0213143
0
LINE
8
DEFAULT_255_2_778
10
3.0244585
20
9.0213143
11
3.0000585
21
9.0478143
0
LINE
8
DEFAULT_255_2_778
10
3.0000585
20
9.0478143
11
2.9723585
21
9.0700143
0
LINE
8
DEFAULT_255_2_778
10
2.9723585
20
9.0700143
11
2.9413585
21
9.0880143
0
LINE
8
DEFAULT_255_2_778
10
2.9413585
20
9.0880143
11
2.9082585
21
9.1009143
0
LINE
8
DEFAULT_255_2_778
10
2.9082585
20
9.1009143
11
2.8733585
21
9.1089143
0
LINE
8
DEFAULT_255_2_778
10
2.8733585
20
9.1089143
11
2.8378585
21
9.1126143
0
LINE
8
DEFAULT_255_2_778
10
2.8378585
20
9.1126143
11
2.7667585
21
9.1139143
0
LINE
8
DEFAULT_255_2_778
10
2.7667585
20
9.1139143
11
2.6246585
21
9.1139143
0
LINE
8
DEFAULT_255_2_778
10
2.6246585
20
9.1139143
11
2.6246585
21
8.6731143
0
LINE
8
DEFAULT_255_2_778
10
11.8125585
20
8.1889143
11
11.8125585
21
8.1860143
0
LINE
8
DEFAULT_255_2_778
10
11.7281585
20
8.0585143
11
11.6961585
21
8.0362143
0
LINE
8
DEFAULT_255_2_778
10
11.6961585
20
8.0362143
11
11.6617585
21
8.0188143
0
LINE
8
DEFAULT_255_2_778
10
11.6617585
20
8.0188143
11
11.6252585
21
8.0053143
0
LINE
8
DEFAULT_255_2_778
10
11.6252585
20
8.0053143
11
11.5876585
21
7.9958143
0
LINE
8
DEFAULT_255_2_778
10
11.5876585
20
7.9958143
11
11.5114585
21
7.9870143
0
LINE
8
DEFAULT_255_2_778
10
11.5114585
20
7.9870143
11
11.4342585
21
7.9907143
0
LINE
8
DEFAULT_255_2_778
10
11.4342585
20
7.9907143
11
11.3582585
21
8.0050143
0
LINE
8
DEFAULT_255_2_778
10
11.3582585
20
8.0050143
11
11.3214585
21
8.0177143
0
LINE
8
DEFAULT_255_2_778
10
11.3214585
20
8.0177143
11
11.2871585
21
8.0355143
0
LINE
8
DEFAULT_255_2_778
10
11.2871585
20
8.0355143
11
11.2712585
21
8.0466143
0
LINE
8
DEFAULT_255_2_778
10
11.2712585
20
8.0466143
11
11.2561585
21
8.0590143
0
LINE
8
DEFAULT_255_2_778
10
11.2561585
20
8.0590143
11
11.2296585
21
8.0873143
0
LINE
8
DEFAULT_255_2_778
10
11.2296585
20
8.0873143
11
11.2074585
21
8.1193143
0
LINE
8
DEFAULT_255_2_778
10
11.2074585
20
8.1193143
11
11.1889585
21
8.1535143
0
LINE
8
DEFAULT_255_2_778
10
11.1889585
20
8.1535143
11
11.1738585
21
8.1892143
0
LINE
8
DEFAULT_255_2_778
10
11.1738585
20
8.1892143
11
11.1619585
21
8.2262143
0
LINE
8
DEFAULT_255_2_778
10
11.1365585
20
8.4546143
11
11.1365585
21
8.6083143
0
LINE
8
DEFAULT_255_2_778
10
11.1365585
20
8.6083143
11
11.1360585
21
8.7620143
0
LINE
8
DEFAULT_255_2_778
10
11.1360585
20
8.7620143
11
11.1386585
21
8.8387143
0
LINE
8
DEFAULT_255_2_778
10
11.1386585
20
8.8387143
11
11.1466585
21
8.9152143
0
LINE
8
DEFAULT_255_2_778
10
11.1648585
20
8.9893143
11
11.1796585
21
9.0250143
0
LINE
8
DEFAULT_255_2_778
10
11.1796585
20
9.0250143
11
11.1984585
21
9.0583143
0
LINE
8
DEFAULT_255_2_778
10
11.1984585
20
9.0583143
11
11.2212585
21
9.0893143
0
LINE
8
DEFAULT_255_2_778
10
11.2212585
20
9.0893143
11
11.2474585
21
9.1173143
0
LINE
8
DEFAULT_255_2_778
10
11.2474585
20
9.1173143
11
11.2767585
21
9.1419143
0
LINE
8
DEFAULT_255_2_778
10
11.2767585
20
9.1419143
11
11.2926585
21
9.1528143
0
LINE
8
DEFAULT_255_2_778
10
11.2926585
20
9.1528143
11
11.3093585
21
9.1626143
0
LINE
8
DEFAULT_255_2_778
10
11.3810585
20
9.1890143
11
11.4188585
21
9.1964143
0
LINE
8
DEFAULT_255_2_778
10
11.4188585
20
9.1964143
11
11.4569585
21
9.2007143
0
LINE
8
DEFAULT_255_2_778
10
11.4569585
20
9.2007143
11
11.4950585
21
9.2028143
0
LINE
8
DEFAULT_255_2_778
10
11.4950585
20
9.2028143
11
11.5331585
21
9.2028143
0
LINE
8
DEFAULT_255_2_778
10
11.5331585
20
9.2028143
11
11.5715585
21
9.2002143
0
LINE
8
DEFAULT_255_2_778
10
11.5715585
20
9.2002143
11
11.6096585
21
9.1938143
0
LINE
8
DEFAULT_255_2_778
10
11.6096585
20
9.1938143
11
11.6464585
21
9.1832143
0
LINE
8
DEFAULT_255_2_778
10
11.6464585
20
9.1832143
11
11.6815585
21
9.1676143
0
LINE
8
DEFAULT_255_2_778
10
11.6815585
20
9.1676143
11
11.7144585
21
9.1472143
0
LINE
8
DEFAULT_255_2_778
10
11.7144585
20
9.1472143
11
11.7297585
21
9.1353143
0
LINE
8
DEFAULT_255_2_778
10
11.7297585
20
9.1353143
11
11.7443585
21
9.1224143
0
LINE
8
DEFAULT_255_2_778
10
11.7443585
20
9.1224143
11
11.7697585
21
9.0938143
0
LINE
8
DEFAULT_255_2_778
10
11.7697585
20
9.0938143
11
11.7805585
21
9.0779143
0
LINE
8
DEFAULT_255_2_778
10
11.7805585
20
9.0779143
11
11.7900585
21
9.0610143
0
LINE
8
DEFAULT_255_2_778
10
11.8136585
20
8.9880143
11
11.8136585
21
8.9909143
0
LINE
8
DEFAULT_255_2_778
10
11.8043585
20
9.0284143
11
11.7977585
21
9.0467143
0
LINE
8
DEFAULT_255_2_778
10
11.7977585
20
9.0467143
11
11.7898585
21
9.0642143
0
LINE
8
DEFAULT_255_2_778
10
11.7239585
20
9.0009143
11
11.7112585
21
9.0298143
0
LINE
8
DEFAULT_255_2_778
10
11.7112585
20
9.0298143
11
11.6929585
21
9.0552143
0
LINE
8
DEFAULT_255_2_778
10
11.6929585
20
9.0552143
11
11.6818585
21
9.0663143
0
LINE
8
DEFAULT_255_2_778
10
11.6818585
20
9.0663143
11
11.6696585
21
9.0761143
0
LINE
8
DEFAULT_255_2_778
10
11.6696585
20
9.0761143
11
11.6432585
21
9.0925143
0
LINE
8
DEFAULT_255_2_778
10
11.6432585
20
9.0925143
11
11.6146585
21
9.1052143
0
LINE
8
DEFAULT_255_2_778
10
11.6146585
20
9.1052143
11
11.5540585
21
9.1197143
0
LINE
8
DEFAULT_255_2_778
10
11.4305585
20
9.1152143
11
11.3699585
21
9.1012143
0
LINE
8
DEFAULT_255_2_778
10
11.3699585
20
9.1012143
11
11.3413585
21
9.0893143
0
LINE
8
DEFAULT_255_2_778
10
11.3413585
20
9.0893143
11
11.3278585
21
9.0816143
0
LINE
8
DEFAULT_255_2_778
10
11.3278585
20
9.0816143
11
11.3151585
21
9.0726143
0
LINE
8
DEFAULT_255_2_778
10
11.3151585
20
9.0726143
11
11.2926585
21
9.0515143
0
LINE
8
DEFAULT_255_2_778
10
11.2926585
20
9.0515143
11
11.2736585
21
9.0268143
0
LINE
8
DEFAULT_255_2_778
10
11.2736585
20
9.0268143
11
11.2582585
21
8.9999143
0
LINE
8
DEFAULT_255_2_778
10
11.2582585
20
8.9999143
11
11.2463585
21
8.9710143
0
LINE
8
DEFAULT_255_2_778
10
11.2236585
20
8.8501143
11
11.2209585
21
8.7882143
0
LINE
8
DEFAULT_255_2_778
10
11.2209585
20
8.7882143
11
11.2204585
21
8.7263143
0
LINE
8
DEFAULT_255_2_778
10
11.2204585
20
8.7263143
11
11.2209585
21
8.6025143
0
LINE
8
DEFAULT_255_2_778
10
11.2209585
20
8.6025143
11
11.2209585
21
8.5405143
0
LINE
8
DEFAULT_255_2_778
10
11.2209585
20
8.5405143
11
11.2206585
21
8.4786143
0
LINE
8
DEFAULT_255_2_778
10
11.2206585
20
8.4786143
11
11.2243585
21
8.3551143
0
LINE
8
DEFAULT_255_2_778
10
11.2243585
20
8.3551143
11
11.2325585
21
8.2934143
0
LINE
8
DEFAULT_255_2_778
10
11.2325585
20
8.2934143
11
11.2392585
21
8.2627143
0
LINE
8
DEFAULT_255_2_778
10
11.2392585
20
8.2627143
11
11.2474585
21
8.2326143
0
LINE
8
DEFAULT_255_2_778
10
11.2712585
20
8.1749143
11
11.2881585
21
8.1484143
0
LINE
8
DEFAULT_255_2_778
10
11.2881585
20
8.1484143
11
11.2979585
21
8.1363143
0
LINE
8
DEFAULT_255_2_778
10
11.2979585
20
8.1363143
11
11.3090585
21
8.1251143
0
LINE
8
DEFAULT_255_2_778
10
11.3090585
20
8.1251143
11
11.3341585
21
8.1069143
0
LINE
8
DEFAULT_255_2_778
10
11.3341585
20
8.1069143
11
11.3625585
21
8.0937143
0
LINE
8
DEFAULT_255_2_778
10
11.3625585
20
8.0937143
11
11.4228585
21
8.0788143
0
LINE
8
DEFAULT_255_2_778
10
11.4228585
20
8.0788143
11
11.4537585
21
8.0749143
0
LINE
8
DEFAULT_255_2_778
10
11.4537585
20
8.0749143
11
11.4850585
21
8.0722143
0
LINE
8
DEFAULT_255_2_778
10
11.4850585
20
8.0722143
11
11.5469585
21
8.0733143
0
LINE
8
DEFAULT_255_2_778
10
11.5469585
20
8.0733143
11
11.5776585
21
8.0783143
0
LINE
8
DEFAULT_255_2_778
10
11.5776585
20
8.0783143
11
11.6075585
21
8.0870143
0
LINE
8
DEFAULT_255_2_778
10
11.6075585
20
8.0870143
11
11.6360585
21
8.0995143
0
LINE
8
DEFAULT_255_2_778
10
11.6360585
20
8.0995143
11
11.6628585
21
8.1156143
0
LINE
8
DEFAULT_255_2_778
10
11.6628585
20
8.1156143
11
11.6866585
21
8.1357143
0
LINE
8
DEFAULT_255_2_778
10
11.6866585
20
8.1357143
11
11.6972585
21
8.1471143
0
LINE
8
DEFAULT_255_2_778
10
11.6972585
20
8.1471143
11
11.7067585
21
8.1595143
0
LINE
8
DEFAULT_255_2_778
10
11.7337585
20
8.2156143
11
11.7337585
21
8.2185143
0
LINE
8
DEFAULT_255_2_778
10
11.7337585
20
8.2185143
11
11.7223585
21
8.1894143
0
LINE
8
DEFAULT_255_2_778
10
11.7223585
20
8.1894143
11
11.7069585
21
8.1625143
0
LINE
8
DEFAULT_255_2_778
10
11.7069585
20
8.1625143
11
11.6871585
21
8.1386143
0
LINE
8
DEFAULT_255_2_778
10
11.6871585
20
8.1386143
11
11.6755585
21
8.1281143
0
LINE
8
DEFAULT_255_2_778
10
11.6755585
20
8.1281143
11
11.6633585
21
8.1185143
0
LINE
8
DEFAULT_255_2_778
10
11.6088585
20
8.0900143
11
11.5789585
21
8.0810143
0
LINE
8
DEFAULT_255_2_778
10
11.5789585
20
8.0810143
11
11.5485585
21
8.0757143
0
LINE
8
DEFAULT_255_2_778
10
11.5485585
20
8.0757143
11
11.5175585
21
8.0738143
0
LINE
8
DEFAULT_255_2_778
10
11.5175585
20
8.0738143
11
11.4865585
21
8.0743143
0
LINE
8
DEFAULT_255_2_778
10
11.4865585
20
8.0743143
11
11.4559585
21
8.0767143
0
LINE
8
DEFAULT_255_2_778
10
11.4559585
20
8.0767143
11
11.4252585
21
8.0804143
0
LINE
8
DEFAULT_255_2_778
10
11.4252585
20
8.0804143
11
11.3947585
21
8.0863143
0
LINE
8
DEFAULT_255_2_778
10
11.3947585
20
8.0863143
11
11.3648585
21
8.0950143
0
LINE
8
DEFAULT_255_2_778
10
11.3648585
20
8.0950143
11
11.3365585
21
8.1077143
0
LINE
8
DEFAULT_255_2_778
10
11.3365585
20
8.1077143
11
11.3111585
21
8.1257143
0
LINE
8
DEFAULT_255_2_778
10
11.3111585
20
8.1257143
11
11.2900585
21
8.1484143
0
LINE
8
DEFAULT_255_2_778
10
11.2900585
20
8.1484143
11
11.2728585
21
8.1746143
0
LINE
8
DEFAULT_255_2_778
10
11.2728585
20
8.1746143
11
11.2593585
21
8.2027143
0
LINE
8
DEFAULT_255_2_778
10
11.2593585
20
8.2027143
11
11.2484585
21
8.2320143
0
LINE
8
DEFAULT_255_2_778
10
11.2333585
20
8.2918143
11
11.2249585
21
8.3527143
0
LINE
8
DEFAULT_255_2_778
10
11.2249585
20
8.3527143
11
11.2212585
21
8.4143143
0
LINE
8
DEFAULT_255_2_778
10
11.2212585
20
8.4143143
11
11.2206585
21
8.4763143
0
LINE
8
DEFAULT_255_2_778
10
11.2206585
20
8.4763143
11
11.2209585
21
8.5382143
0
LINE
8
DEFAULT_255_2_778
10
11.2209585
20
8.5382143
11
11.2209585
21
8.6001143
0
LINE
8
DEFAULT_255_2_778
10
11.2209585
20
8.6001143
11
11.2204585
21
8.7133143
0
LINE
8
DEFAULT_255_2_778
10
12.5735585
20
9.0004143
11
12.5608585
21
9.0292143
0
LINE
8
DEFAULT_255_2_778
10
12.5608585
20
9.0292143
11
12.5425585
21
9.0546143
0
LINE
8
DEFAULT_255_2_778
10
12.5425585
20
9.0546143
11
12.5314585
21
9.0657143
0
LINE
8
DEFAULT_255_2_778
10
12.5314585
20
9.0657143
11
12.5192585
21
9.0755143
0
LINE
8
DEFAULT_255_2_778
10
12.5192585
20
9.0755143
11
12.4928585
21
9.0919143
0
LINE
8
DEFAULT_255_2_778
10
12.4928585
20
9.0919143
11
12.4642585
21
9.1046143
0
LINE
8
DEFAULT_255_2_778
10
12.4642585
20
9.1046143
11
12.4036585
21
9.1192143
0
LINE
8
DEFAULT_255_2_778
10
12.2800585
20
9.1147143
11
12.2194585
21
9.1007143
0
LINE
8
DEFAULT_255_2_778
10
12.2194585
20
9.1007143
11
12.1909585
21
9.0888143
0
LINE
8
DEFAULT_255_2_778
10
12.1909585
20
9.0888143
11
12.1774585
21
9.0811143
0
LINE
8
DEFAULT_255_2_778
10
12.1774585
20
9.0811143
11
12.1647585
21
9.0721143
0
LINE
8
DEFAULT_255_2_778
10
12.1647585
20
9.0721143
11
12.1422585
21
9.0509143
0
LINE
8
DEFAULT_255_2_778
10
12.1422585
20
9.0509143
11
12.1231585
21
9.0263143
0
LINE
8
DEFAULT_255_2_778
10
12.1231585
20
9.0263143
11
12.1078585
21
8.9993143
0
LINE
8
DEFAULT_255_2_778
10
12.1078585
20
8.9993143
11
12.0959585
21
8.9705143
0
LINE
8
DEFAULT_255_2_778
10
12.0731585
20
8.8496143
11
12.0705585
21
8.7877143
0
LINE
8
DEFAULT_255_2_778
10
12.0705585
20
8.7877143
11
12.0700585
21
8.7258143
0
LINE
8
DEFAULT_255_2_778
10
12.0700585
20
8.7258143
11
12.0705585
21
8.6019143
0
LINE
8
DEFAULT_255_2_778
10
12.0705585
20
8.6019143
11
12.0705585
21
8.5400143
0
LINE
8
DEFAULT_255_2_778
10
12.0705585
20
8.5400143
11
12.0702585
21
8.4781143
0
LINE
8
DEFAULT_255_2_778
10
12.0702585
20
8.4781143
11
12.0739585
21
8.3545143
0
LINE
8
DEFAULT_255_2_778
10
12.0739585
20
8.3545143
11
12.0821585
21
8.2929143
0
LINE
8
DEFAULT_255_2_778
10
12.0821585
20
8.2929143
11
12.0887585
21
8.2622143
0
LINE
8
DEFAULT_255_2_778
10
12.0887585
20
8.2622143
11
12.0969585
21
8.2320143
0
LINE
8
DEFAULT_255_2_778
10
12.1208585
20
8.1744143
11
12.1377585
21
8.1479143
0
LINE
8
DEFAULT_255_2_778
10
12.1377585
20
8.1479143
11
12.1475585
21
8.1357143
0
LINE
8
DEFAULT_255_2_778
10
12.1475585
20
8.1357143
11
12.1586585
21
8.1246143
0
LINE
8
DEFAULT_255_2_778
10
12.1586585
20
8.1246143
11
12.1837585
21
8.1064143
0
LINE
8
DEFAULT_255_2_778
10
12.1837585
20
8.1064143
11
12.2120585
21
8.0931143
0
LINE
8
DEFAULT_255_2_778
10
12.2120585
20
8.0931143
11
12.2724585
21
8.0783143
0
LINE
8
DEFAULT_255_2_778
10
12.2724585
20
8.0783143
11
12.3033585
21
8.0743143
0
LINE
8
DEFAULT_255_2_778
10
12.3033585
20
8.0743143
11
12.3345585
21
8.0717143
0
LINE
8
DEFAULT_255_2_778
10
12.3345585
20
8.0717143
11
12.3965585
21
8.0728143
0
LINE
8
DEFAULT_255_2_778
10
12.3965585
20
8.0728143
11
12.4271585
21
8.0778143
0
LINE
8
DEFAULT_255_2_778
10
12.4271585
20
8.0778143
11
12.4570585
21
8.0865143
0
LINE
8
DEFAULT_255_2_778
10
12.4570585
20
8.0865143
11
12.4856585
21
8.0990143
0
LINE
8
DEFAULT_255_2_778
10
12.4856585
20
8.0990143
11
12.5123585
21
8.1151143
0
LINE
8
DEFAULT_255_2_778
10
12.5123585
20
8.1151143
11
12.5362585
21
8.1352143
0
LINE
8
DEFAULT_255_2_778
10
12.5362585
20
8.1352143
11
12.5467585
21
8.1466143
0
LINE
8
DEFAULT_255_2_778
10
12.5467585
20
8.1466143
11
12.5563585
21
8.1590143
0
LINE
8
DEFAULT_255_2_778
10
12.5832585
20
8.2151143
11
12.5832585
21
8.2180143
0
LINE
8
DEFAULT_255_2_778
10
12.5832585
20
8.2180143
11
12.5719585
21
8.1889143
0
LINE
8
DEFAULT_255_2_778
10
12.5719585
20
8.1889143
11
12.5565585
21
8.1619143
0
LINE
8
DEFAULT_255_2_778
10
12.5565585
20
8.1619143
11
12.5367585
21
8.1381143
0
LINE
8
DEFAULT_255_2_778
10
12.5367585
20
8.1381143
11
12.5250585
21
8.1275143
0
LINE
8
DEFAULT_255_2_778
10
12.5250585
20
8.1275143
11
12.5129585
21
8.1180143
0
LINE
8
DEFAULT_255_2_778
10
12.4584585
20
8.0894143
11
12.4285585
21
8.0804143
0
LINE
8
DEFAULT_255_2_778
10
12.4285585
20
8.0804143
11
12.3980585
21
8.0751143
0
LINE
8
DEFAULT_255_2_778
10
12.3980585
20
8.0751143
11
12.3671585
21
8.0733143
0
LINE
8
DEFAULT_255_2_778
10
12.3671585
20
8.0733143
11
12.3361585
21
8.0738143
0
LINE
8
DEFAULT_255_2_778
10
12.3361585
20
8.0738143
11
12.3054585
21
8.0762143
0
LINE
8
DEFAULT_255_2_778
10
12.3054585
20
8.0762143
11
12.2747585
21
8.0799143
0
LINE
8
DEFAULT_255_2_778
10
12.2747585
20
8.0799143
11
12.2443585
21
8.0857143
0
LINE
8
DEFAULT_255_2_778
10
12.2443585
20
8.0857143
11
12.2144585
21
8.0945143
0
LINE
8
DEFAULT_255_2_778
10
12.2144585
20
8.0945143
11
12.1861585
21
8.1072143
0
LINE
8
DEFAULT_255_2_778
10
12.1861585
20
8.1072143
11
12.1607585
21
8.1251143
0
LINE
8
DEFAULT_255_2_778
10
12.1607585
20
8.1251143
11
12.1395585
21
8.1479143
0
LINE
8
DEFAULT_255_2_778
10
12.1395585
20
8.1479143
11
12.1223585
21
8.1741143
0
LINE
8
DEFAULT_255_2_778
10
12.1223585
20
8.1741143
11
12.1088585
21
8.2021143
0
LINE
8
DEFAULT_255_2_778
10
12.1088585
20
8.2021143
11
12.0980585
21
8.2315143
0
LINE
8
DEFAULT_255_2_778
10
12.0829585
20
8.2913143
11
12.0745585
21
8.3522143
0
LINE
8
DEFAULT_255_2_778
10
12.0745585
20
8.3522143
11
12.0707585
21
8.4138143
0
LINE
8
DEFAULT_255_2_778
10
12.0707585
20
8.4138143
11
12.0702585
21
8.4757143
0
LINE
8
DEFAULT_255_2_778
10
12.0702585
20
8.4757143
11
12.0705585
21
8.5376143
0
LINE
8
DEFAULT_255_2_778
10
12.0705585
20
8.5376143
11
12.0705585
21
8.5995143
0
LINE
8
DEFAULT_255_2_778
10
12.0705585
20
8.5995143
11
12.0700585
21
8.7128143
0
LINE
8
DEFAULT_255_2_778
10
11.9856585
20
8.5022143
11
11.9858585
21
8.6088143
0
LINE
8
DEFAULT_255_2_778
10
11.9858585
20
8.6088143
11
11.9853585
21
8.7625143
0
LINE
8
DEFAULT_255_2_778
10
11.9853585
20
8.7625143
11
11.9877585
21
8.8393143
0
LINE
8
DEFAULT_255_2_778
10
11.9877585
20
8.8393143
11
11.9906585
21
8.8776143
0
LINE
8
DEFAULT_255_2_778
10
11.9906585
20
8.8776143
11
11.9953585
21
8.9160143
0
LINE
8
DEFAULT_255_2_778
10
12.0136585
20
8.9906143
11
12.0282585
21
9.0263143
0
LINE
8
DEFAULT_255_2_778
10
12.0282585
20
9.0263143
11
12.0467585
21
9.0597143
0
LINE
8
DEFAULT_255_2_778
10
12.0467585
20
9.0597143
11
12.0692585
21
9.0906143
0
LINE
8
DEFAULT_255_2_778
10
12.0692585
20
9.0906143
11
12.0954585
21
9.1189143
0
LINE
8
DEFAULT_255_2_778
10
12.1567585
20
9.1639143
11
12.1742585
21
9.1724143
0
LINE
8
DEFAULT_255_2_778
10
12.1742585
20
9.1724143
11
12.1919585
21
9.1798143
0
LINE
8
DEFAULT_255_2_778
10
12.1919585
20
9.1798143
11
12.2287585
21
9.1909143
0
LINE
8
DEFAULT_255_2_778
10
12.2287585
20
9.1909143
11
12.2665585
21
9.1983143
0
LINE
8
DEFAULT_255_2_778
10
12.2665585
20
9.1983143
11
12.3049585
21
9.2028143
0
LINE
8
DEFAULT_255_2_778
10
12.3049585
20
9.2028143
11
12.3433585
21
9.2049143
0
LINE
8
DEFAULT_255_2_778
10
12.3433585
20
9.2049143
11
12.3816585
21
9.2052143
0
LINE
8
DEFAULT_255_2_778
10
12.3816585
20
9.2052143
11
12.4200585
21
9.2025143
0
LINE
8
DEFAULT_255_2_778
10
12.4200585
20
9.2025143
11
12.4581585
21
9.1964143
0
LINE
8
DEFAULT_255_2_778
10
12.4581585
20
9.1964143
11
12.4949585
21
9.1859143
0
LINE
8
DEFAULT_255_2_778
10
12.4949585
20
9.1859143
11
12.5129585
21
9.1787143
0
LINE
8
DEFAULT_255_2_778
10
12.5129585
20
9.1787143
11
12.5303585
21
9.1703143
0
LINE
8
DEFAULT_255_2_778
10
12.5303585
20
9.1703143
11
12.5631585
21
9.1501143
0
LINE
8
DEFAULT_255_2_778
10
12.5631585
20
9.1501143
11
12.5928585
21
9.1255143
0
LINE
8
DEFAULT_255_2_778
10
12.5928585
20
9.1255143
11
12.6063585
21
9.1115143
0
LINE
8
DEFAULT_255_2_778
10
12.6063585
20
9.1115143
11
12.6187585
21
9.0967143
0
LINE
8
DEFAULT_255_2_778
10
12.6187585
20
9.0967143
11
12.6391585
21
9.0642143
0
LINE
8
DEFAULT_255_2_778
10
12.6391585
20
9.0642143
11
12.6473585
21
9.0464143
0
LINE
8
DEFAULT_255_2_778
10
12.6473585
20
9.0464143
11
12.6539585
21
9.0282143
0
LINE
8
DEFAULT_255_2_778
10
12.6632585
20
8.9906143
11
12.6632585
21
8.9877143
0
LINE
8
DEFAULT_255_2_778
10
12.6396585
20
9.0607143
11
12.6301585
21
9.0776143
0
LINE
8
DEFAULT_255_2_778
10
12.6301585
20
9.0776143
11
12.6192585
21
9.0935143
0
LINE
8
DEFAULT_255_2_778
10
12.6192585
20
9.0935143
11
12.5938585
21
9.1221143
0
LINE
8
DEFAULT_255_2_778
10
12.5938585
20
9.1221143
11
12.5793585
21
9.1351143
0
LINE
8
DEFAULT_255_2_778
10
12.5793585
20
9.1351143
11
12.5639585
21
9.1470143
0
LINE
8
DEFAULT_255_2_778
10
12.5639585
20
9.1470143
11
12.5311585
21
9.1673143
0
LINE
8
DEFAULT_255_2_778
10
12.5311585
20
9.1673143
11
12.4959585
21
9.1830143
0
LINE
8
DEFAULT_255_2_778
10
12.4959585
20
9.1830143
11
12.4592585
21
9.1935143
0
LINE
8
DEFAULT_255_2_778
10
12.4592585
20
9.1935143
11
12.4211585
21
9.1999143
0
LINE
8
DEFAULT_255_2_778
10
12.4211585
20
9.1999143
11
12.3827585
21
9.2025143
0
LINE
8
DEFAULT_255_2_778
10
12.3827585
20
9.2025143
11
12.3446585
21
9.2025143
0
LINE
8
DEFAULT_255_2_778
10
12.3446585
20
9.2025143
11
12.3065585
21
9.2004143
0
LINE
8
DEFAULT_255_2_778
10
12.3065585
20
9.2004143
11
12.2684585
21
9.1962143
0
LINE
8
DEFAULT_255_2_778
10
12.2684585
20
9.1962143
11
12.2306585
21
9.1888143
0
LINE
8
DEFAULT_255_2_778
10
12.1589585
20
9.1623143
11
12.1422585
21
9.1525143
0
LINE
8
DEFAULT_255_2_778
10
12.1422585
20
9.1525143
11
12.1263585
21
9.1417143
0
LINE
8
DEFAULT_255_2_778
10
12.1263585
20
9.1417143
11
12.0969585
21
9.1171143
0
LINE
8
DEFAULT_255_2_778
10
12.0969585
20
9.1171143
11
12.0707585
21
9.0890143
0
LINE
8
DEFAULT_255_2_778
10
12.0707585
20
9.0890143
11
12.0480585
21
9.0581143
0
LINE
8
DEFAULT_255_2_778
10
12.0480585
20
9.0581143
11
12.0292585
21
9.0247143
0
LINE
8
DEFAULT_255_2_778
10
12.0292585
20
9.0247143
11
12.0144585
21
8.9890143
0
LINE
8
DEFAULT_255_2_778
10
11.9882585
20
8.8385143
11
11.9856585
21
8.7617143
0
LINE
8
DEFAULT_255_2_778
10
11.9856585
20
8.7617143
11
11.9861585
21
8.6080143
0
LINE
8
DEFAULT_255_2_778
10
11.9861585
20
8.6080143
11
11.9861585
21
8.4543143
0
LINE
8
DEFAULT_255_2_778
10
12.0115585
20
8.2260143
11
12.0234585
21
8.1889143
0
LINE
8
DEFAULT_255_2_778
10
12.0234585
20
8.1889143
11
12.0385585
21
8.1532143
0
LINE
8
DEFAULT_255_2_778
10
12.0385585
20
8.1532143
11
12.0570585
21
8.1191143
0
LINE
8
DEFAULT_255_2_778
10
12.0570585
20
8.1191143
11
12.0792585
21
8.0870143
0
LINE
8
DEFAULT_255_2_778
10
12.0792585
20
8.0870143
11
12.1057585
21
8.0587143
0
LINE
8
DEFAULT_255_2_778
10
12.1057585
20
8.0587143
11
12.1208585
21
8.0463143
0
LINE
8
DEFAULT_255_2_778
10
12.1208585
20
8.0463143
11
12.1366585
21
8.0352143
0
LINE
8
DEFAULT_255_2_778
10
12.1366585
20
8.0352143
11
12.1710585
21
8.0175143
0
LINE
8
DEFAULT_255_2_778
10
12.1710585
20
8.0175143
11
12.2078585
21
8.0048143
0
LINE
8
DEFAULT_255_2_778
10
12.2078585
20
8.0048143
11
12.2837585
21
7.9905143
0
LINE
8
DEFAULT_255_2_778
10
12.2837585
20
7.9905143
11
12.3610585
21
7.9868143
0
LINE
8
DEFAULT_255_2_778
10
12.3610585
20
7.9868143
11
12.4372585
21
7.9955143
0
LINE
8
DEFAULT_255_2_778
10
12.4372585
20
7.9955143
11
12.4748585
21
8.0050143
0
LINE
8
DEFAULT_255_2_778
10
12.4748585
20
8.0050143
11
12.5113585
21
8.0185143
0
LINE
8
DEFAULT_255_2_778
10
12.5113585
20
8.0185143
11
12.5457585
21
8.0360143
0
LINE
8
DEFAULT_255_2_778
10
12.5457585
20
8.0360143
11
12.5777585
21
8.0582143
0
LINE
8
DEFAULT_255_2_778
10
12.6621585
20
8.1857143
11
12.6621585
21
8.1886143
0
LINE
8
DEFAULT_255_2_778
10
13.1389585
20
8.0773143
11
13.0992585
21
8.0730143
0
LINE
8
DEFAULT_255_2_778
10
13.0992585
20
8.0730143
11
13.0791585
21
8.0738143
0
LINE
8
DEFAULT_255_2_778
10
13.0791585
20
8.0738143
11
13.0592585
21
8.0767143
0
LINE
8
DEFAULT_255_2_778
10
13.0592585
20
8.0767143
11
13.0211585
21
8.0886143
0
LINE
8
DEFAULT_255_2_778
10
13.0211585
20
8.0886143
11
13.0031585
21
8.0979143
0
LINE
8
DEFAULT_255_2_778
10
13.0031585
20
8.0979143
11
12.9865585
21
8.1090143
0
LINE
8
DEFAULT_255_2_778
10
12.9865585
20
8.1090143
11
12.9714585
21
8.1220143
0
LINE
8
DEFAULT_255_2_778
10
12.9714585
20
8.1220143
11
12.9576585
21
8.1365143
0
LINE
8
DEFAULT_255_2_778
10
12.9576585
20
8.1365143
11
12.9343585
21
8.1691143
0
LINE
8
DEFAULT_255_2_778
10
12.9343585
20
8.1691143
11
12.9161585
21
8.2048143
0
LINE
8
DEFAULT_255_2_778
10
12.9161585
20
8.2048143
11
12.9023585
21
8.2424143
0
LINE
8
DEFAULT_255_2_778
10
12.8822585
20
8.4003143
11
12.8796585
21
8.5604143
0
LINE
8
DEFAULT_255_2_778
10
12.8796585
20
8.5604143
11
12.8804585
21
8.7205143
0
LINE
8
DEFAULT_255_2_778
10
12.8804585
20
8.7205143
11
12.8828585
21
8.8004143
0
LINE
8
DEFAULT_255_2_778
10
12.8828585
20
8.8004143
11
12.8883585
21
8.8800143
0
LINE
8
DEFAULT_255_2_778
10
12.8883585
20
8.8800143
11
12.8944585
21
8.9194143
0
LINE
8
DEFAULT_255_2_778
10
12.8944585
20
8.9194143
11
12.9042585
21
8.9586143
0
LINE
8
DEFAULT_255_2_778
10
12.9042585
20
8.9586143
11
12.9179585
21
8.9964143
0
LINE
8
DEFAULT_255_2_778
10
12.9179585
20
8.9964143
11
12.9365585
21
9.0321143
0
LINE
8
DEFAULT_255_2_778
10
12.9365585
20
9.0321143
11
12.9603585
21
9.0642143
0
LINE
8
DEFAULT_255_2_778
10
12.9603585
20
9.0642143
11
12.9746585
21
9.0784143
0
LINE
8
DEFAULT_255_2_778
10
12.9746585
20
9.0784143
11
12.9904585
21
9.0909143
0
LINE
8
DEFAULT_255_2_778
10
12.9904585
20
9.0909143
11
13.0264585
21
9.1089143
0
LINE
8
DEFAULT_255_2_778
10
13.0264585
20
9.1089143
11
13.0653585
21
9.1184143
0
LINE
8
DEFAULT_255_2_778
10
13.0653585
20
9.1184143
11
13.0854585
21
9.1202143
0
LINE
8
DEFAULT_255_2_778
10
13.0854585
20
9.1202143
11
13.1055585
21
9.1202143
0
LINE
8
DEFAULT_255_2_778
10
13.1055585
20
9.1202143
11
13.1452585
21
9.1157143
0
LINE
8
DEFAULT_255_2_778
10
13.1452585
20
9.1157143
11
13.1648585
21
9.1113143
0
LINE
8
DEFAULT_255_2_778
10
13.1648585
20
9.1113143
11
13.1841585
21
9.1052143
0
LINE
8
DEFAULT_255_2_778
10
13.1841585
20
9.1052143
11
13.2198585
21
9.0869143
0
LINE
8
DEFAULT_255_2_778
10
13.2198585
20
9.0869143
11
13.2357585
21
9.0745143
0
LINE
8
DEFAULT_255_2_778
10
13.2357585
20
9.0745143
11
13.2497585
21
9.0599143
0
LINE
8
DEFAULT_255_2_778
10
13.2497585
20
9.0599143
11
13.2725585
21
9.0266143
0
LINE
8
DEFAULT_255_2_778
10
13.2725585
20
9.0266143
11
13.2894585
21
8.9903143
0
LINE
8
DEFAULT_255_2_778
10
13.2894585
20
8.9903143
11
13.3019585
21
8.9520143
0
LINE
8
DEFAULT_255_2_778
10
13.3233585
20
8.7945143
11
13.3246585
21
8.7146143
0
LINE
8
DEFAULT_255_2_778
10
13.3246585
20
8.7146143
11
13.3254585
21
8.6347143
0
LINE
8
DEFAULT_255_2_778
10
13.3254585
20
8.6347143
11
13.3246585
21
8.4752143
0
LINE
8
DEFAULT_255_2_778
10
13.3246585
20
8.4752143
11
13.3148585
21
8.3159143
0
LINE
8
DEFAULT_255_2_778
10
13.3011585
20
8.2371143
11
13.2952585
21
8.2180143
0
LINE
8
DEFAULT_255_2_778
10
13.2952585
20
8.2180143
11
13.2881585
21
8.1992143
0
LINE
8
DEFAULT_255_2_778
10
13.2690585
20
8.1640143
11
13.2434585
21
8.1334143
0
LINE
8
DEFAULT_255_2_778
10
13.2434585
20
8.1334143
11
13.2124585
21
8.1082143
0
LINE
8
DEFAULT_255_2_778
10
13.2124585
20
8.1082143
11
13.1952585
21
8.0979143
0
LINE
8
DEFAULT_255_2_778
10
13.1952585
20
8.0979143
11
13.1772585
21
8.0892143
0
LINE
8
DEFAULT_255_2_778
10
13.1772585
20
8.0892143
11
13.1389585
21
8.0773143
0
LINE
8
DEFAULT_255_2_778
10
12.9508585
20
8.0288143
11
12.9124585
21
8.0585143
0
LINE
8
DEFAULT_255_2_778
10
12.9124585
20
8.0585143
11
12.8804585
21
8.0950143
0
LINE
8
DEFAULT_255_2_778
10
12.8804585
20
8.0950143
11
12.8544585
21
8.1360143
0
LINE
8
DEFAULT_255_2_778
10
12.8544585
20
8.1360143
11
12.8341585
21
8.1799143
0
LINE
8
DEFAULT_255_2_778
10
12.8190585
20
8.2262143
11
12.8089585
21
8.2733143
0
LINE
8
DEFAULT_255_2_778
10
12.7989585
20
8.3691143
11
12.7954585
21
8.4657143
0
LINE
8
DEFAULT_255_2_778
10
12.7954585
20
8.4657143
11
12.7949585
21
8.5622143
0
LINE
8
DEFAULT_255_2_778
10
12.7949585
20
8.5622143
11
12.7962585
21
8.7557143
0
LINE
8
DEFAULT_255_2_778
10
12.7962585
20
8.7557143
11
12.8010585
21
8.8522143
0
LINE
8
DEFAULT_255_2_778
10
12.8010585
20
8.8522143
11
12.8129585
21
8.9480143
0
LINE
8
DEFAULT_255_2_778
10
12.8428585
20
9.0398143
11
12.8544585
21
9.0612143
0
LINE
8
DEFAULT_255_2_778
10
12.8544585
20
9.0612143
11
12.8677585
21
9.0816143
0
LINE
8
DEFAULT_255_2_778
10
12.8677585
20
9.0816143
11
12.8981585
21
9.1189143
0
LINE
8
DEFAULT_255_2_778
10
12.8981585
20
9.1189143
11
12.9156585
21
9.1359143
0
LINE
8
DEFAULT_255_2_778
10
12.9156585
20
9.1359143
11
12.9343585
21
9.1515143
0
LINE
8
DEFAULT_255_2_778
10
12.9343585
20
9.1515143
11
12.9751585
21
9.1771143
0
LINE
8
DEFAULT_255_2_778
10
12.9751585
20
9.1771143
11
13.0198585
21
9.1949143
0
LINE
8
DEFAULT_255_2_778
10
13.0198585
20
9.1949143
11
13.0436585
21
9.2007143
0
LINE
8
DEFAULT_255_2_778
10
13.0436585
20
9.2007143
11
13.0674585
21
9.2044143
0
LINE
8
DEFAULT_255_2_778
10
13.0674585
20
9.2044143
11
13.1159585
21
9.2057143
0
LINE
8
DEFAULT_255_2_778
10
13.1159585
20
9.2057143
11
13.1637585
21
9.1991143
0
LINE
8
DEFAULT_255_2_778
10
13.1637585
20
9.1991143
11
13.1873585
21
9.1930143
0
LINE
8
DEFAULT_255_2_778
10
13.1873585
20
9.1930143
11
13.2103585
21
9.1851143
0
LINE
8
DEFAULT_255_2_778
10
13.2103585
20
9.1851143
11
13.2537585
21
9.1639143
0
LINE
8
DEFAULT_255_2_778
10
13.2537585
20
9.1639143
11
13.2931585
21
9.1359143
0
LINE
8
DEFAULT_255_2_778
10
13.2931585
20
9.1359143
11
13.3265585
21
9.1009143
0
LINE
8
DEFAULT_255_2_778
10
13.3847585
20
8.9692143
11
13.3939585
21
8.9215143
0
LINE
8
DEFAULT_255_2_778
10
13.3939585
20
8.9215143
11
13.4042585
21
8.8255143
0
LINE
8
DEFAULT_255_2_778
10
13.4042585
20
8.8255143
11
13.4077585
21
8.7289143
0
LINE
8
DEFAULT_255_2_778
10
13.4077585
20
8.7289143
11
13.4085585
21
8.6324143
0
LINE
8
DEFAULT_255_2_778
10
13.4085585
20
8.6324143
11
13.4085585
21
8.5355143
0
LINE
8
DEFAULT_255_2_778
10
13.4085585
20
8.5355143
11
13.4074585
21
8.4389143
0
LINE
8
DEFAULT_255_2_778
10
13.4074585
20
8.4389143
11
13.4021585
21
8.3424143
0
LINE
8
DEFAULT_255_2_778
10
13.3881585
20
8.2469143
11
13.3759585
21
8.2000143
0
LINE
8
DEFAULT_255_2_778
10
13.3587585
20
8.1550143
11
13.3352585
21
8.1130143
0
LINE
8
DEFAULT_255_2_778
10
13.3352585
20
8.1130143
11
13.3212585
21
8.0931143
0
LINE
8
DEFAULT_255_2_778
10
13.3212585
20
8.0931143
11
13.3056585
21
8.0746143
0
LINE
8
DEFAULT_255_2_778
10
13.3056585
20
8.0746143
11
13.2704585
21
8.0421143
0
LINE
8
DEFAULT_255_2_778
10
13.2704585
20
8.0421143
11
13.2294585
21
8.0164143
0
LINE
8
DEFAULT_255_2_778
10
13.2294585
20
8.0164143
11
13.1844585
21
8.0000143
0
LINE
8
DEFAULT_255_2_778
10
13.1844585
20
8.0000143
11
13.1368585
21
7.9918143
0
LINE
8
DEFAULT_255_2_778
10
13.1368585
20
7.9918143
11
13.0886585
21
7.9907143
0
LINE
8
DEFAULT_255_2_778
10
13.0886585
20
7.9907143
11
13.0645585
21
7.9926143
0
LINE
8
DEFAULT_255_2_778
10
13.0645585
20
7.9926143
11
13.0404585
21
7.9960143
0
LINE
8
DEFAULT_255_2_778
10
13.0404585
20
7.9960143
11
12.9939585
21
8.0085143
0
LINE
8
DEFAULT_255_2_778
10
12.9939585
20
8.0085143
11
12.9717585
21
8.0177143
0
LINE
8
DEFAULT_255_2_778
10
12.9717585
20
8.0177143
11
12.9608585
21
8.0233143
0
LINE
8
DEFAULT_255_2_778
10
12.9608585
20
8.0233143
11
12.9508585
21
8.0288143
0
LINE
8
DEFAULT_255_2_778
10
12.7946585
20
8.6329143
11
12.7946585
21
8.6300143
0
ARC
8
DEFAULT_255_2_778
10
-172.9288599
20
416.4916377
40
448.9190738
50
294.5458583
51
294.5565785
0
ARC
8
DEFAULT_255_2_778
10
-172.9288599
20
416.4945377
40
448.9190738
50
294.5458583
51
294.5565785
0
ARC
8
DEFAULT_255_2_778
10
13.8531368
20
8.2631917
40
0.2680318
50
307.482899
51
323.6962203
0
ARC
8
DEFAULT_255_2_778
10
13.5994941
20
8.3528617
40
0.5398605
50
348.3015406
51
356.3186987
0
ARC
8
DEFAULT_255_2_778
10
13.8437349
20
8.3700828
40
0.2957662
50
4.6186759
51
10.1366366
0
ARC
8
DEFAULT_255_2_778
10
13.9291947
20
8.3843156
40
0.209138
50
10.4188035
51
13.038691
0
ARC
8
DEFAULT_255_2_778
10
13.8799318
20
8.376484
40
0.2589211
50
12.2676093
51
20.6983302
0
ARC
8
DEFAULT_255_2_778
10
13.9281013
20
8.8405621
40
0.1994227
50
338.2606596
51
348.6745133
0
ARC
8
DEFAULT_255_2_778
10
13.8560453
20
8.8553984
40
0.2729894
50
348.5912169
51
356.2194964
0
ARC
8
DEFAULT_255_2_778
10
13.6459513
20
8.8791954
40
0.483166
50
3.6434141
51
12.2362379
0
ARC
8
DEFAULT_255_2_778
10
13.8608071
20
8.9447258
40
0.2597356
50
56.4534563
51
72.4700238
0
ARC
8
DEFAULT_255_2_778
10
13.8153821
20
8.8759945
40
0.3318104
50
93.4627804
51
105.906986
0
ARC
8
DEFAULT_255_2_778
10
10.2606628
20
2.3860356
40
7.4448767
50
63.0157653
51
63.6745219
0
ARC
8
DEFAULT_255_2_778
10
13.8060001
20
8.9404135
40
0.1854006
50
136.1306732
51
154.442281
0
ARC
8
DEFAULT_255_2_778
10
13.6541433
20
8.8840264
40
0.390412
50
0.4949735
51
9.1930371
0
ARC
8
DEFAULT_255_2_778
10
13.7779279
20
8.8685199
40
0.2666406
50
351.2155148
51
357.6311589
0
ARC
8
DEFAULT_255_2_778
10
13.884733
20
8.8542673
40
0.1589273
50
339.6497447
51
350.4131048
0
ARC
8
DEFAULT_255_2_778
10
31.6826567
20
9.6930936
40
17.8962711
50
183.3099833
51
183.5765134
0
ARC
8
DEFAULT_255_2_778
10
13.8922011
20
8.3782877
40
0.1614316
50
8.3027618
51
19.321026
0
ARC
8
DEFAULT_255_2_778
10
13.5677059
20
8.3629421
40
0.4867046
50
349.9488729
51
357.2273879
0
ARC
8
DEFAULT_255_2_778
10
13.8096585
20
8.2902287
40
0.2340062
50
326.6545984
51
341.9439201
0
ARC
8
DEFAULT_255_2_778
10
13.8596339
20
8.2576203
40
0.1743339
50
306.1773076
51
326.5788292
0
ARC
8
DEFAULT_255_2_778
10
13.8075695
20
8.2942917
40
0.2368569
50
326.3947693
51
341.4650956
0
ARC
8
DEFAULT_255_2_778
10
12.1980799
20
5.3031766
40
0.2562726
50
342.1680027
51
350.6404236
0
ARC
8
DEFAULT_255_2_778
10
12.0969515
20
5.3206497
40
0.3588972
50
350.513672
51
354.5683012
0
ARC
8
DEFAULT_255_2_778
10
12.0623747
20
5.3241851
40
0.3936533
50
354.5324174
51
356.3754452
0
ARC
8
DEFAULT_255_2_778
10
12.1125115
20
5.3305808
40
0.343297
50
1.1380367
51
13.770859
0
ARC
8
DEFAULT_255_2_778
10
12.1830628
20
5.344149
40
0.2715681
50
14.5337404
51
22.6200401
0
ARC
8
DEFAULT_255_2_778
10
-16.8261703
20
87.2224586
40
85.5004969
50
286.933571
51
286.9870963
0
ARC
8
DEFAULT_255_2_778
10
7.5243845
20
5.3273124
40
0.561835
50
10.4274444
51
17.0450085
0
ARC
8
DEFAULT_255_2_778
10
7.880495
20
4.6163823
40
0.3143032
50
270.0000505
51
270.6463791
0
ARC
8
DEFAULT_255_2_778
10
7.8803022
20
4.6114233
40
0.3093442
50
255.8998981
51
270.0357669
0
ARC
8
DEFAULT_255_2_778
10
8.0235004
20
4.7031864
40
0.4715685
50
201.8604687
51
211.5275771
0
ARC
8
DEFAULT_255_2_778
10
8.4557116
20
4.830941
40
0.923493
50
184.480429
51
194.2769574
0
ARC
8
DEFAULT_255_2_778
10
8.1622931
20
5.2914038
40
0.6216774
50
156.7407866
51
171.135886
0
ARC
8
DEFAULT_255_2_778
10
7.8674347
20
5.4181674
40
0.3041036
50
111.7106805
51
126.665706
0
ARC
8
DEFAULT_255_2_778
10
7.6842578
20
5.3779345
40
0.4769745
50
9.0911457
51
18.6670783
0
LINE
8
DEFAULT_255_2_778
10
13.5617407
20
8.144699
11
13.5617407
21
8.141799
0
LINE
8
DEFAULT_255_2_778
10
13.5617407
20
8.141799
11
13.5789407
21
8.108199
0
LINE
8
DEFAULT_255_2_778
10
13.5789407
20
8.108199
11
13.5995407
21
8.076899
0
LINE
8
DEFAULT_255_2_778
10
13.5995407
20
8.076899
11
13.6119407
21
8.062699
0
LINE
8
DEFAULT_255_2_778
10
13.6119407
20
8.062699
11
13.6260407
21
8.049699
0
LINE
8
DEFAULT_255_2_778
10
13.6260407
20
8.049699
11
13.6567407
21
8.027999
0
LINE
8
DEFAULT_255_2_778
10
13.6567407
20
8.027999
11
13.6908407
21
8.011299
0
LINE
8
DEFAULT_255_2_778
10
13.6908407
20
8.011299
11
13.7268407
21
7.999699
0
LINE
8
DEFAULT_255_2_778
10
13.7268407
20
7.999699
11
13.7638407
21
7.993099
0
LINE
8
DEFAULT_255_2_778
10
13.7638407
20
7.993099
11
13.8016407
21
7.990699
0
LINE
8
DEFAULT_255_2_778
10
13.8016407
20
7.990699
11
13.8768407
21
7.994899
0
LINE
8
DEFAULT_255_2_778
10
13.8768407
20
7.994899
11
13.9138407
21
8.002099
0
LINE
8
DEFAULT_255_2_778
10
13.9138407
20
8.002099
11
13.9501407
21
8.013699
0
LINE
8
DEFAULT_255_2_778
10
13.9501407
20
8.013699
11
13.9845407
21
8.029599
0
LINE
8
DEFAULT_255_2_778
10
13.9845407
20
8.029599
11
14.0006407
21
8.039399
0
LINE
8
DEFAULT_255_2_778
10
14.0006407
20
8.039399
11
14.0162407
21
8.050499
0
LINE
8
DEFAULT_255_2_778
10
14.0691407
20
8.104499
11
14.0898407
21
8.136499
0
LINE
8
DEFAULT_255_2_778
10
14.0898407
20
8.136499
11
14.1062407
21
8.170599
0
LINE
8
DEFAULT_255_2_778
10
14.1062407
20
8.170599
11
14.1189407
21
8.206599
0
LINE
8
DEFAULT_255_2_778
10
14.1189407
20
8.206599
11
14.1281407
21
8.243399
0
LINE
8
DEFAULT_255_2_778
10
14.1382407
20
8.318199
11
14.1395407
21
8.356099
0
LINE
8
DEFAULT_255_2_778
10
14.1395407
20
8.356099
11
14.1385407
21
8.393899
0
LINE
8
DEFAULT_255_2_778
10
14.1221407
20
8.467999
11
14.1057407
21
8.502099
0
LINE
8
DEFAULT_255_2_778
10
14.1057407
20
8.502099
11
14.0837407
21
8.533099
0
LINE
8
DEFAULT_255_2_778
10
14.0837407
20
8.533099
11
14.0567407
21
8.559799
0
LINE
8
DEFAULT_255_2_778
10
14.0567407
20
8.559799
11
14.0257407
21
8.582299
0
LINE
8
DEFAULT_255_2_778
10
14.0257407
20
8.582299
11
13.9932407
21
8.602399
0
LINE
8
DEFAULT_255_2_778
10
13.9932407
20
8.602399
11
13.9596407
21
8.620899
0
LINE
8
DEFAULT_255_2_778
10
13.9596407
20
8.620899
11
13.9914407
21
8.637899
0
LINE
8
DEFAULT_255_2_778
10
13.9914407
20
8.637899
11
14.0220407
21
8.656599
0
LINE
8
DEFAULT_255_2_778
10
14.0220407
20
8.656599
11
14.0506407
21
8.678299
0
LINE
8
DEFAULT_255_2_778
10
14.0506407
20
8.678299
11
14.0638407
21
8.690799
0
LINE
8
DEFAULT_255_2_778
10
14.0638407
20
8.690799
11
14.0763407
21
8.704299
0
LINE
8
DEFAULT_255_2_778
10
14.0763407
20
8.704299
11
14.0974407
21
8.733899
0
LINE
8
DEFAULT_255_2_778
10
14.0974407
20
8.733899
11
14.1133407
21
8.766699
0
LINE
8
DEFAULT_255_2_778
10
14.1284407
20
8.837399
11
14.1295407
21
8.873599
0
LINE
8
DEFAULT_255_2_778
10
14.1295407
20
8.873599
11
14.1281407
21
8.909899
0
LINE
8
DEFAULT_255_2_778
10
14.1181407
20
8.981599
11
14.1086407
21
9.016699
0
LINE
8
DEFAULT_255_2_778
10
14.1086407
20
9.016699
11
14.0956407
21
9.050599
0
LINE
8
DEFAULT_255_2_778
10
14.0956407
20
9.050599
11
14.0787407
21
9.082899
0
LINE
8
DEFAULT_255_2_778
10
14.0787407
20
9.082899
11
14.0578407
21
9.112499
0
LINE
8
DEFAULT_255_2_778
10
14.0578407
20
9.112499
11
14.0329407
21
9.138699
0
LINE
8
DEFAULT_255_2_778
10
14.0329407
20
9.138699
11
14.0191407
21
9.150399
0
LINE
8
DEFAULT_255_2_778
10
14.0191407
20
9.150399
11
14.0043407
21
9.161199
0
LINE
8
DEFAULT_255_2_778
10
13.9390407
20
9.192399
11
13.9038407
21
9.201399
0
LINE
8
DEFAULT_255_2_778
10
13.9038407
20
9.201399
11
13.8681407
21
9.206399
0
LINE
8
DEFAULT_255_2_778
10
13.8681407
20
9.206399
11
13.8318407
21
9.208299
0
LINE
8
DEFAULT_255_2_778
10
13.8318407
20
9.208299
11
13.7953407
21
9.207199
0
LINE
8
DEFAULT_255_2_778
10
13.7244407
20
9.195099
11
13.7072407
21
9.189499
0
LINE
8
DEFAULT_255_2_778
10
13.7072407
20
9.189499
11
13.6903407
21
9.182599
0
LINE
8
DEFAULT_255_2_778
10
13.6903407
20
9.182599
11
13.6580407
21
9.165699
0
LINE
8
DEFAULT_255_2_778
10
13.6580407
20
9.165699
11
13.6283407
21
9.144499
0
LINE
8
DEFAULT_255_2_778
10
13.6283407
20
9.144499
11
13.6146407
21
9.132399
0
LINE
8
DEFAULT_255_2_778
10
13.6146407
20
9.132399
11
13.6019407
21
9.119399
0
LINE
8
DEFAULT_255_2_778
10
13.6019407
20
9.119399
11
13.5797407
21
9.090799
0
LINE
8
DEFAULT_255_2_778
10
13.5797407
20
9.090799
11
13.5622407
21
9.058799
0
LINE
8
DEFAULT_255_2_778
10
13.5622407
20
9.058799
11
13.5622407
21
9.061699
0
LINE
8
DEFAULT_255_2_778
10
13.6723407
20
9.068899
11
13.6948407
21
9.088399
0
LINE
8
DEFAULT_255_2_778
10
13.6948407
20
9.088399
11
13.7202407
21
9.103799
0
LINE
8
DEFAULT_255_2_778
10
13.7202407
20
9.103799
11
13.7479407
21
9.114599
0
LINE
8
DEFAULT_255_2_778
10
13.7479407
20
9.114599
11
13.7768407
21
9.121299
0
LINE
8
DEFAULT_255_2_778
10
13.7768407
20
9.121299
11
13.8064407
21
9.124699
0
LINE
8
DEFAULT_255_2_778
10
13.8064407
20
9.124699
11
13.8363407
21
9.125499
0
LINE
8
DEFAULT_255_2_778
10
13.8363407
20
9.125499
11
13.8953407
21
9.118299
0
LINE
8
DEFAULT_255_2_778
10
13.8953407
20
9.118299
11
13.9239407
21
9.109299
0
LINE
8
DEFAULT_255_2_778
10
13.9239407
20
9.109299
11
13.9503407
21
9.095899
0
LINE
8
DEFAULT_255_2_778
10
13.9503407
20
9.095899
11
13.9625407
21
9.087099
0
LINE
8
DEFAULT_255_2_778
10
13.9625407
20
9.087099
11
13.9739407
21
9.077299
0
LINE
8
DEFAULT_255_2_778
10
13.9739407
20
9.077299
11
13.9940407
21
9.055399
0
LINE
8
DEFAULT_255_2_778
10
13.9940407
20
9.055399
11
14.0107407
21
9.030499
0
LINE
8
DEFAULT_255_2_778
10
14.0107407
20
9.030499
11
14.0236407
21
9.003799
0
LINE
8
DEFAULT_255_2_778
10
14.0236407
20
9.003799
11
14.0332407
21
8.975499
0
LINE
8
DEFAULT_255_2_778
10
14.0332407
20
8.975499
11
14.0395407
21
8.946399
0
LINE
8
DEFAULT_255_2_778
10
14.0445407
20
8.887399
11
14.0443407
21
8.857499
0
LINE
8
DEFAULT_255_2_778
10
14.0337407
20
8.798999
11
14.0205407
21
8.772499
0
LINE
8
DEFAULT_255_2_778
10
14.0205407
20
8.772499
11
14.0120407
21
8.760399
0
LINE
8
DEFAULT_255_2_778
10
14.0120407
20
8.760399
11
14.0025407
21
8.748699
0
LINE
8
DEFAULT_255_2_778
10
14.0025407
20
8.748699
11
13.9808407
21
8.728099
0
LINE
8
DEFAULT_255_2_778
10
13.9808407
20
8.728099
11
13.9562407
21
8.711099
0
LINE
8
DEFAULT_255_2_778
10
13.9562407
20
8.711099
11
13.9300407
21
8.697399
0
LINE
8
DEFAULT_255_2_778
10
13.9300407
20
8.697399
11
13.9022407
21
8.686299
0
LINE
8
DEFAULT_255_2_778
10
13.9022407
20
8.686299
11
13.8736407
21
8.676999
0
LINE
8
DEFAULT_255_2_778
10
13.8736407
20
8.676999
11
13.8162407
21
8.659599
0
LINE
8
DEFAULT_255_2_778
10
13.8162407
20
8.659599
11
13.8162407
21
8.662499
0
LINE
8
DEFAULT_255_2_778
10
13.8162407
20
8.662499
11
13.8731407
21
8.679699
0
LINE
8
DEFAULT_255_2_778
10
13.8731407
20
8.679699
11
13.9289407
21
8.699799
0
LINE
8
DEFAULT_255_2_778
10
13.9289407
20
8.699799
11
13.9342407
21
8.702399
0
LINE
8
DEFAULT_255_2_778
10
13.8212407
20
8.576699
11
13.8813407
21
8.562999
0
LINE
8
DEFAULT_255_2_778
10
13.8813407
20
8.562999
11
13.9390407
21
8.541599
0
LINE
8
DEFAULT_255_2_778
10
13.9390407
20
8.541599
11
13.9662407
21
8.526199
0
LINE
8
DEFAULT_255_2_778
10
13.9662407
20
8.526199
11
13.9911407
21
8.507699
0
LINE
8
DEFAULT_255_2_778
10
13.9911407
20
8.507699
11
14.0130407
21
8.485499
0
LINE
8
DEFAULT_255_2_778
10
14.0130407
20
8.485499
11
14.0310407
21
8.460099
0
LINE
8
DEFAULT_255_2_778
10
14.0310407
20
8.460099
11
14.0384407
21
8.446299
0
LINE
8
DEFAULT_255_2_778
10
14.0384407
20
8.446299
11
14.0445407
21
8.431699
0
LINE
8
DEFAULT_255_2_778
10
14.0519407
20
8.401599
11
14.0543407
21
8.370399
0
LINE
8
DEFAULT_255_2_778
10
14.0543407
20
8.370399
11
14.0538407
21
8.339399
0
LINE
8
DEFAULT_255_2_778
10
14.0469407
20
8.277999
11
14.0408407
21
8.247599
0
LINE
8
DEFAULT_255_2_778
10
14.0408407
20
8.247599
11
14.0321407
21
8.217699
0
LINE
8
DEFAULT_255_2_778
10
13.9625407
20
8.116899
11
13.9495407
21
8.108199
0
LINE
8
DEFAULT_255_2_778
10
13.9495407
20
8.108199
11
13.9358407
21
8.100499
0
LINE
8
DEFAULT_255_2_778
10
13.9358407
20
8.100499
11
13.9069407
21
8.088799
0
LINE
8
DEFAULT_255_2_778
10
13.9069407
20
8.088799
11
13.8768407
21
8.081199
0
LINE
8
DEFAULT_255_2_778
10
13.8768407
20
8.081199
11
13.8461407
21
8.076899
0
LINE
8
DEFAULT_255_2_778
10
13.8461407
20
8.076899
11
13.8151407
21
8.075599
0
LINE
8
DEFAULT_255_2_778
10
13.8151407
20
8.075599
11
13.7839407
21
8.076699
0
LINE
8
DEFAULT_255_2_778
10
13.7839407
20
8.076699
11
13.7532407
21
8.080899
0
LINE
8
DEFAULT_255_2_778
10
13.7532407
20
8.080899
11
13.7233407
21
8.089599
0
LINE
8
DEFAULT_255_2_778
10
13.7233407
20
8.089599
11
13.6958407
21
8.103899
0
LINE
8
DEFAULT_255_2_778
10
13.6958407
20
8.103899
11
13.6834407
21
8.113499
0
LINE
8
DEFAULT_255_2_778
10
13.6834407
20
8.113499
11
13.6723407
21
8.124299
0
LINE
8
DEFAULT_255_2_778
10
13.6723407
20
8.124299
11
13.6532407
21
8.149199
0
LINE
8
DEFAULT_255_2_778
10
13.6532407
20
8.149199
11
13.6387407
21
8.176999
0
LINE
8
DEFAULT_255_2_778
10
13.6387407
20
8.176999
11
13.6387407
21
8.179899
0
LINE
8
DEFAULT_255_2_778
10
13.6387407
20
8.179899
11
13.6529407
21
8.152299
0
LINE
8
DEFAULT_255_2_778
10
13.6529407
20
8.152299
11
13.6715407
21
8.127699
0
LINE
8
DEFAULT_255_2_778
10
13.6715407
20
8.127699
11
13.6826407
21
8.116899
0
LINE
8
DEFAULT_255_2_778
10
13.6826407
20
8.116899
11
13.6948407
21
8.107399
0
LINE
8
DEFAULT_255_2_778
10
13.6948407
20
8.107399
11
13.7080407
21
8.099399
0
LINE
8
DEFAULT_255_2_778
10
13.7080407
20
8.099399
11
13.7223407
21
8.092799
0
LINE
8
DEFAULT_255_2_778
10
13.7223407
20
8.092799
11
13.7522407
21
8.084099
0
LINE
8
DEFAULT_255_2_778
10
13.7522407
20
8.084099
11
13.7831407
21
8.079599
0
LINE
8
DEFAULT_255_2_778
10
13.7831407
20
8.079599
11
13.8141407
21
8.078299
0
LINE
8
DEFAULT_255_2_778
10
13.8141407
20
8.078299
11
13.8450407
21
8.079599
0
LINE
8
DEFAULT_255_2_778
10
13.8450407
20
8.079599
11
13.8757407
21
8.083599
0
LINE
8
DEFAULT_255_2_778
10
13.8757407
20
8.083599
11
13.9062407
21
8.090999
0
LINE
8
DEFAULT_255_2_778
10
13.9062407
20
8.090999
11
13.9350407
21
8.102299
0
LINE
8
DEFAULT_255_2_778
10
13.9350407
20
8.102299
11
13.9488407
21
8.109799
0
LINE
8
DEFAULT_255_2_778
10
13.9488407
20
8.109799
11
13.9617407
21
8.118499
0
LINE
8
DEFAULT_255_2_778
10
13.9617407
20
8.118499
11
13.9853407
21
8.138899
0
LINE
8
DEFAULT_255_2_778
10
13.9853407
20
8.138899
11
13.9956407
21
8.150499
0
LINE
8
DEFAULT_255_2_778
10
13.9956407
20
8.150499
11
14.0048407
21
8.163199
0
LINE
8
DEFAULT_255_2_778
10
14.0321407
20
8.218999
11
14.0408407
21
8.248899
0
LINE
8
DEFAULT_255_2_778
10
14.0408407
20
8.248899
11
14.0422407
21
8.254999
0
LINE
8
DEFAULT_255_2_778
10
12.0049407
20
5.096899
11
12.0813407
21
5.097199
0
LINE
8
DEFAULT_255_2_778
10
12.0813407
20
5.097199
11
12.1578407
21
5.096699
0
LINE
8
DEFAULT_255_2_778
10
12.1578407
20
5.096699
11
12.2343407
21
5.095599
0
LINE
8
DEFAULT_255_2_778
10
12.2343407
20
5.095599
11
12.2726407
21
5.096699
0
LINE
8
DEFAULT_255_2_778
10
12.2726407
20
5.096699
11
12.3107407
21
5.100099
0
LINE
8
DEFAULT_255_2_778
10
12.3107407
20
5.100099
11
12.3295407
21
5.104099
0
LINE
8
DEFAULT_255_2_778
10
12.3295407
20
5.104099
11
12.3475407
21
5.110399
0
LINE
8
DEFAULT_255_2_778
10
12.3475407
20
5.110399
11
12.3642407
21
5.119399
0
LINE
8
DEFAULT_255_2_778
10
12.3642407
20
5.119399
11
12.3798407
21
5.130499
0
LINE
8
DEFAULT_255_2_778
10
12.3798407
20
5.130499
11
12.3938407
21
5.143499
0
LINE
8
DEFAULT_255_2_778
10
12.3938407
20
5.143499
11
12.4065407
21
5.157799
0
LINE
8
DEFAULT_255_2_778
10
12.4065407
20
5.157799
11
12.4271407
21
5.189499
0
LINE
8
DEFAULT_255_2_778
10
12.4271407
20
5.189499
11
12.4353407
21
5.206699
0
LINE
8
DEFAULT_255_2_778
10
12.4353407
20
5.206699
11
12.4420407
21
5.224699
0
LINE
8
DEFAULT_255_2_778
10
12.4552407
20
5.299299
11
12.4557407
21
5.337399
0
LINE
8
DEFAULT_255_2_778
10
12.4337407
20
5.448599
11
12.4166407
21
5.482399
0
LINE
8
DEFAULT_255_2_778
10
12.4166407
20
5.482399
11
12.4062407
21
5.498299
0
LINE
8
DEFAULT_255_2_778
10
12.4062407
20
5.498299
11
12.3946407
21
5.513699
0
LINE
8
DEFAULT_255_2_778
10
12.3946407
20
5.513699
11
12.3681407
21
5.540899
0
LINE
8
DEFAULT_255_2_778
10
12.3681407
20
5.540899
11
12.3377407
21
5.563899
0
LINE
8
DEFAULT_255_2_778
10
12.3377407
20
5.563899
11
12.3044407
21
5.582499
0
LINE
8
DEFAULT_255_2_778
10
12.3044407
20
5.582499
11
12.2686407
21
5.595899
0
LINE
8
DEFAULT_255_2_778
10
12.2686407
20
5.595899
11
12.2501407
21
5.600699
0
LINE
8
DEFAULT_255_2_778
10
12.2501407
20
5.600699
11
12.2313407
21
5.604099
0
LINE
8
DEFAULT_255_2_778
10
12.2313407
20
5.604099
11
12.1559407
21
5.609399
0
LINE
8
DEFAULT_255_2_778
10
12.1559407
20
5.609399
11
12.0803407
21
5.608899
0
LINE
8
DEFAULT_255_2_778
10
12.0803407
20
5.608899
11
12.0049407
21
5.608899
0
LINE
8
DEFAULT_255_2_778
10
12.0049407
20
5.608899
11
12.0049407
21
5.096699
0
LINE
8
DEFAULT_255_2_778
10
8.0615407
20
5.491999
11
8.0507407
21
5.522699
0
LINE
8
DEFAULT_255_2_778
10
8.0507407
20
5.522699
11
8.0356407
21
5.551199
0
LINE
8
DEFAULT_255_2_778
10
8.0356407
20
5.551199
11
8.0261407
21
5.564199
0
LINE
8
DEFAULT_255_2_778
10
8.0261407
20
5.564199
11
8.0152407
21
5.576099
0
LINE
8
DEFAULT_255_2_778
10
8.0152407
20
5.576099
11
7.9898407
21
5.595899
0
LINE
8
DEFAULT_255_2_778
10
7.9898407
20
5.595899
11
7.9755407
21
5.603899
0
LINE
8
DEFAULT_255_2_778
10
7.9755407
20
5.603899
11
7.9607407
21
5.610199
0
LINE
8
DEFAULT_255_2_778
10
7.9607407
20
5.610199
11
7.9292407
21
5.618699
0
LINE
8
DEFAULT_255_2_778
10
7.9292407
20
5.618699
11
7.8972407
21
5.622399
0
LINE
8
DEFAULT_255_2_778
10
7.8972407
20
5.622399
11
7.8649407
21
5.622899
0
LINE
8
DEFAULT_255_2_778
10
7.8649407
20
5.622899
11
7.8326407
21
5.621099
0
LINE
8
DEFAULT_255_2_778
10
7.8326407
20
5.621099
11
7.8006407
21
5.616099
0
LINE
8
DEFAULT_255_2_778
10
7.8006407
20
5.616099
11
7.7694407
21
5.607899
0
LINE
8
DEFAULT_255_2_778
10
7.7694407
20
5.607899
11
7.7395407
21
5.595199
0
LINE
8
DEFAULT_255_2_778
10
7.7395407
20
5.595199
11
7.7128407
21
5.576899
0
LINE
8
DEFAULT_255_2_778
10
7.7128407
20
5.576899
11
7.6903407
21
5.553599
0
LINE
8
DEFAULT_255_2_778
10
7.6903407
20
5.553599
11
7.6723407
21
5.526599
0
LINE
8
DEFAULT_255_2_778
10
7.6723407
20
5.526599
11
7.6580407
21
5.497799
0
LINE
8
DEFAULT_255_2_778
10
7.6580407
20
5.497799
11
7.6466407
21
5.467599
0
LINE
8
DEFAULT_255_2_778
10
7.6466407
20
5.467599
11
7.6374407
21
5.436699
0
LINE
8
DEFAULT_255_2_778
10
7.6374407
20
5.436699
11
7.6242407
21
5.373699
0
LINE
8
DEFAULT_255_2_778
10
7.6242407
20
5.373699
11
7.6154407
21
5.310499
0
LINE
8
DEFAULT_255_2_778
10
7.6154407
20
5.310499
11
7.6099407
21
5.246999
0
LINE
8
DEFAULT_255_2_778
10
7.6099407
20
5.246999
11
7.6064407
21
5.183199
0
LINE
8
DEFAULT_255_2_778
10
7.6064407
20
5.183199
11
7.6040407
21
5.055099
0
LINE
8
DEFAULT_255_2_778
10
7.6040407
20
5.055099
11
7.6054407
21
4.927099
0
LINE
8
DEFAULT_255_2_778
10
7.6054407
20
4.927099
11
7.6112407
21
4.798999
0
LINE
8
DEFAULT_255_2_778
10
7.6112407
20
4.798999
11
7.6167407
21
4.735299
0
LINE
8
DEFAULT_255_2_778
10
7.6167407
20
4.735299
11
7.6255407
21
4.671799
0
LINE
8
DEFAULT_255_2_778
10
7.6255407
20
4.671799
11
7.6318407
21
4.640299
0
LINE
8
DEFAULT_255_2_778
10
7.6318407
20
4.640299
11
7.6400407
21
4.609299
0
LINE
8
DEFAULT_255_2_778
10
7.6400407
20
4.609299
11
7.6514407
21
4.579399
0
LINE
8
DEFAULT_255_2_778
10
7.6514407
20
4.579399
11
7.6652407
21
4.550599
0
LINE
8
DEFAULT_255_2_778
10
7.6652407
20
4.550599
11
7.6805407
21
4.522799
0
LINE
8
DEFAULT_255_2_778
10
7.6805407
20
4.522799
11
7.6982407
21
4.496099
0
LINE
8
DEFAULT_255_2_778
10
7.6982407
20
4.496099
11
7.7183407
21
4.471199
0
LINE
8
DEFAULT_255_2_778
10
7.7183407
20
4.471199
11
7.7411407
21
4.448699
0
LINE
8
DEFAULT_255_2_778
10
7.7411407
20
4.448699
11
7.7538407
21
4.438899
0
LINE
8
DEFAULT_255_2_778
10
7.7538407
20
4.438899
11
7.7670407
21
4.430199
0
LINE
8
DEFAULT_255_2_778
10
7.7670407
20
4.430199
11
7.7953407
21
4.416199
0
LINE
8
DEFAULT_255_2_778
10
7.7953407
20
4.416199
11
7.8258407
21
4.406099
0
LINE
8
DEFAULT_255_2_778
10
7.8258407
20
4.406099
11
7.8573407
21
4.400599
0
LINE
8
DEFAULT_255_2_778
10
7.8573407
20
4.400599
11
7.8893407
21
4.399499
0
LINE
8
DEFAULT_255_2_778
10
7.8893407
20
4.399499
11
7.9210407
21
4.402699
0
LINE
8
DEFAULT_255_2_778
10
7.9210407
20
4.402699
11
7.9520407
21
4.409599
0
LINE
8
DEFAULT_255_2_778
10
7.9520407
20
4.409599
11
7.9824407
21
4.418799
0
LINE
8
DEFAULT_255_2_778
10
7.9824407
20
4.418799
11
8.0123407
21
4.429899
0
LINE
8
DEFAULT_255_2_778
10
8.0123407
20
4.429899
11
8.0414407
21
4.442899
0
LINE
8
DEFAULT_255_2_778
10
8.0414407
20
4.442899
11
8.0694407
21
4.457999
0
LINE
8
DEFAULT_255_2_778
10
8.0694407
20
4.457999
11
8.0964407
21
4.474899
0
LINE
8
DEFAULT_255_2_778
10
8.0964407
20
4.474899
11
8.0964407
21
4.998799
0
LINE
8
DEFAULT_255_2_778
10
8.0964407
20
4.998799
11
7.8983407
21
4.998799
0
LINE
8
DEFAULT_255_2_778
10
7.8983407
20
4.998799
11
7.8983407
21
5.098499
0
LINE
8
DEFAULT_255_2_778
10
7.8983407
20
5.098499
11
8.1748407
21
5.098499
0
LINE
8
DEFAULT_255_2_778
10
8.1748407
20
5.098499
11
8.1748407
21
4.418499
0
LINE
8
DEFAULT_255_2_778
10
8.1748407
20
4.418499
11
8.1099407
21
4.372199
0
LINE
8
DEFAULT_255_2_778
10
8.1099407
20
4.372199
11
8.0390407
21
4.336799
0
LINE
8
DEFAULT_255_2_778
10
8.0390407
20
4.336799
11
8.0014407
21
4.322999
0
LINE
8
DEFAULT_255_2_778
10
8.0014407
20
4.322999
11
7.9631407
21
4.312199
0
LINE
8
DEFAULT_255_2_778
10
7.9631407
20
4.312199
11
7.9239407
21
4.304999
0
LINE
8
DEFAULT_255_2_778
10
7.9239407
20
4.304999
11
7.8840407
21
4.302099
0
LINE
8
DEFAULT_255_2_778
10
7.8049407
20
4.311399
11
7.7855407
21
4.316899
0
LINE
8
DEFAULT_255_2_778
10
7.7855407
20
4.316899
11
7.7668407
21
4.324099
0
LINE
8
DEFAULT_255_2_778
10
7.7668407
20
4.324099
11
7.7316407
21
4.342299
0
LINE
8
DEFAULT_255_2_778
10
7.7316407
20
4.342299
11
7.7149407
21
4.353499
0
LINE
8
DEFAULT_255_2_778
10
7.7149407
20
4.353499
11
7.6990407
21
4.365899
0
LINE
8
DEFAULT_255_2_778
10
7.6990407
20
4.365899
11
7.6699407
21
4.393099
0
LINE
8
DEFAULT_255_2_778
10
7.6699407
20
4.393099
11
7.6443407
21
4.423599
0
LINE
8
DEFAULT_255_2_778
10
7.6443407
20
4.423599
11
7.6215407
21
4.456599
0
LINE
8
DEFAULT_255_2_778
10
7.5858407
20
4.527599
11
7.5720407
21
4.564899
0
LINE
8
DEFAULT_255_2_778
10
7.5720407
20
4.564899
11
7.5607407
21
4.603199
0
LINE
8
DEFAULT_255_2_778
10
7.5350407
20
4.758799
11
7.5297407
21
4.837099
0
LINE
8
DEFAULT_255_2_778
10
7.5297407
20
4.837099
11
7.5265407
21
4.915699
0
LINE
8
DEFAULT_255_2_778
10
7.5265407
20
4.915699
11
7.5252407
21
5.073099
0
LINE
8
DEFAULT_255_2_778
10
7.5252407
20
5.073099
11
7.5271407
21
5.151999
0
LINE
8
DEFAULT_255_2_778
10
7.5271407
20
5.151999
11
7.5308407
21
5.230599
0
LINE
8
DEFAULT_255_2_778
10
7.5308407
20
5.230599
11
7.5374407
21
5.309099
0
LINE
8
DEFAULT_255_2_778
10
7.5374407
20
5.309099
11
7.5480407
21
5.387199
0
LINE
8
DEFAULT_255_2_778
10
7.5911407
20
5.536899
11
7.6088407
21
5.572399
0
LINE
8
DEFAULT_255_2_778
10
7.6088407
20
5.572399
11
7.6302407
21
5.605699
0
LINE
8
DEFAULT_255_2_778
10
7.6302407
20
5.605699
11
7.6556407
21
5.635899
0
LINE
8
DEFAULT_255_2_778
10
7.6556407
20
5.635899
11
7.6858407
21
5.662099
0
LINE
8
DEFAULT_255_2_778
10
7.7549407
20
5.700699
11
7.7927407
21
5.713399
0
LINE
8
DEFAULT_255_2_778
10
7.7927407
20
5.713399
11
7.8316407
21
5.721899
0
LINE
8
DEFAULT_255_2_778
10
7.8316407
20
5.721899
11
7.8713407
21
5.725599
0
LINE
8
DEFAULT_255_2_778
10
7.8713407
20
5.725599
11
7.9107407
21
5.724299
0
LINE
8
DEFAULT_255_2_778
10
7.9107407
20
5.724299
11
7.9496407
21
5.717899
0
LINE
8
DEFAULT_255_2_778
10
7.9496407
20
5.717899
11
7.9877407
21
5.705999
0
LINE
8
DEFAULT_255_2_778
10
7.9877407
20
5.705999
11
8.0234407
21
5.688499
0
LINE
8
DEFAULT_255_2_778
10
8.0234407
20
5.688499
11
8.0401407
21
5.677699
0
LINE
8
DEFAULT_255_2_778
10
8.0401407
20
5.677699
11
8.0560407
21
5.665499
0
LINE
8
DEFAULT_255_2_778
10
8.0560407
20
5.665499
11
8.0835407
21
5.637199
0
LINE
8
DEFAULT_255_2_778
10
8.0835407
20
5.637199
11
8.0951407
21
5.621099
0
LINE
8
DEFAULT_255_2_778
10
8.0951407
20
5.621099
11
8.1054407
21
5.603899
0
LINE
8
DEFAULT_255_2_778
10
8.1054407
20
5.603899
11
8.1224407
21
5.567899
0
LINE
8
DEFAULT_255_2_778
10
8.1224407
20
5.567899
11
8.1361407
21
5.530599
0
LINE
8
DEFAULT_255_2_778
10
8.1552407
20
5.453299
11
8.1552407
21
5.456199
0
ARC
8
DEFAULT_255_2_778
10
12.1849209
20
4.6808827
40
0.2971601
50
335.3513014
51
343.473135
0
ARC
8
DEFAULT_255_2_778
10
11.8996626
20
4.7311131
40
0.5874245
50
350.8450597
51
359.0380361
0
ARC
8
DEFAULT_255_2_778
10
11.8987258
20
4.7380286
40
0.5885177
50
358.3663749
51
359.9998173
0
ARC
8
DEFAULT_255_2_778
10
11.9114922
20
4.7382162
40
0.5757514
50
359.9811518
51
6.7061635
0
ARC
8
DEFAULT_255_2_778
10
12.0949296
20
4.7603645
40
0.390983
50
6.621848
51
12.794725
0
ARC
8
DEFAULT_255_2_778
10
12.1838143
20
4.7809605
40
0.2997444
50
12.7181869
51
20.8100528
0
ARC
8
DEFAULT_255_2_778
10
12.3202943
20
4.8429068
40
0.1492777
50
33.3401199
51
49.5192385
0
ARC
8
DEFAULT_255_2_778
10
12.1871762
20
5.3603587
40
0.346752
50
51.0828777
51
62.7947127
0
ARC
8
DEFAULT_255_2_778
10
12.1681983
20
5.3574167
40
0.3633371
50
15.3914764
51
26.5906202
0
ARC
8
DEFAULT_255_2_778
10
12.0315075
20
5.3235437
40
0.5044749
50
0.9137333
51
6.9230335
0
ARC
8
DEFAULT_255_2_778
10
11.9061684
20
5.3197851
40
0.6298606
50
359.9914929
51
1.0737741
0
ARC
8
DEFAULT_255_2_778
10
11.8609329
20
5.3197143
40
0.6750961
50
359.5108623
51
359.9980696
0
ARC
8
DEFAULT_255_2_778
10
12.1763431
20
5.3072094
40
0.3588076
50
338.4218878
51
349.7320036
0
ARC
8
DEFAULT_255_2_778
10
12.1105762
20
5.3546947
40
0.4390675
50
317.2136706
51
326.4990414
0
ARC
8
DEFAULT_255_2_778
10
12.2967629
20
4.8416856
40
0.2542272
50
39.7214763
51
57.6481261
0
ARC
8
DEFAULT_255_2_778
10
12.0073184
20
4.7489216
40
0.5594922
50
3.2613068
51
11.3834596
0
ARC
8
DEFAULT_255_2_778
10
11.4992191
20
4.5951384
40
0.3164972
50
198.7983161
51
208.4728053
0
ARC
8
DEFAULT_255_2_778
10
11.6782785
20
4.6568894
40
0.5059044
50
192.8297345
51
198.8840967
0
ARC
8
DEFAULT_255_2_778
10
12.0866169
20
4.7351938
40
0.9215475
50
185.3636228
51
191.9391309
0
ARC
8
DEFAULT_255_2_778
10
11.5991788
20
5.3806288
40
0.4231975
50
150.0744688
51
164.6365782
0
ARC
8
DEFAULT_255_2_778
10
11.4440472
20
5.4761578
40
0.2414431
50
36.6706416
51
49.3899486
0
ARC
8
DEFAULT_255_2_778
10
11.293676
20
5.3895286
40
0.4154538
50
19.0385003
51
26.3995493
0
ARC
8
DEFAULT_255_2_778
10
10.8663139
20
5.271706
40
0.8592113
50
6.4986308
51
13.5799886
0
ARC
8
DEFAULT_255_2_778
10
10.9775969
20
4.7309817
40
0.7458717
50
343.9248187
51
352.0523255
0
ARC
8
DEFAULT_255_2_778
10
11.3078753
20
4.6230977
40
0.3977673
50
330.4210881
51
338.0869104
0
ARC
8
DEFAULT_255_2_778
10
11.4140449
20
4.5624845
40
0.2755144
50
319.3901884
51
330.4847789
0
ARC
8
DEFAULT_255_2_778
10
11.4471234
20
4.5340811
40
0.2319146
50
306.0809548
51
319.3980424
0
LINE
8
DEFAULT_255_2_778
10
6.2765043
20
4.796451
11
6.6323043
21
4.796451
0
LINE
8
DEFAULT_255_2_778
10
6.6323043
20
4.796451
11
6.6323043
21
4.898251
0
LINE
8
DEFAULT_255_2_778
10
6.6323043
20
4.898251
11
6.2765043
21
4.898251
0
LINE
8
DEFAULT_255_2_778
10
6.2765043
20
4.898251
11
6.2765043
21
4.796451
0
LINE
8
DEFAULT_255_2_778
10
10.6746043
20
4.796451
11
11.0305043
21
4.796451
0
LINE
8
DEFAULT_255_2_778
10
11.0305043
20
4.796451
11
11.0305043
21
4.898251
0
LINE
8
DEFAULT_255_2_778
10
11.0305043
20
4.898251
11
10.6746043
21
4.898251
0
LINE
8
DEFAULT_255_2_778
10
10.6746043
20
4.898251
11
10.6746043
21
4.796451
0
LINE
8
DEFAULT_255_2_778
10
2.4120043
20
5.099051
11
1.9593043
21
5.099051
0
LINE
8
DEFAULT_255_2_778
10
1.9593043
20
5.099051
11
1.9593043
21
5.611351
0
LINE
8
DEFAULT_255_2_778
10
1.9593043
20
5.611351
11
2.4416043
21
5.611351
0
LINE
8
DEFAULT_255_2_778
10
2.4416043
20
5.611351
11
2.4416043
21
5.713151
0
LINE
8
DEFAULT_255_2_778
10
2.4416043
20
5.713151
11
1.8812043
21
5.713151
0
LINE
8
DEFAULT_255_2_778
10
1.8812043
20
5.713151
11
1.8812043
21
4.315351
0
LINE
8
DEFAULT_255_2_778
10
1.8812043
20
4.315351
11
2.4419043
21
4.315351
0
LINE
8
DEFAULT_255_2_778
10
2.4419043
20
4.315351
11
2.4419043
21
4.412451
0
LINE
8
DEFAULT_255_2_778
10
2.4419043
20
4.412451
11
1.9593043
21
4.412451
0
LINE
8
DEFAULT_255_2_778
10
1.9593043
20
4.412451
11
1.9593043
21
5.002251
0
LINE
8
DEFAULT_255_2_778
10
1.9593043
20
5.002251
11
2.4120043
21
5.002251
0
LINE
8
DEFAULT_255_2_778
10
2.4120043
20
5.002251
11
2.4120043
21
5.102051
0
LINE
8
DEFAULT_255_2_778
10
2.4120043
20
5.102051
11
1.9593043
21
5.102051
0
LINE
8
DEFAULT_255_2_778
10
12.0050043
20
4.407951
11
12.0899043
21
4.407451
0
LINE
8
DEFAULT_255_2_778
10
12.0899043
20
4.407451
11
12.1322043
21
4.407951
0
LINE
8
DEFAULT_255_2_778
10
12.1322043
20
4.407951
11
12.1745043
21
4.408251
0
LINE
8
DEFAULT_255_2_778
10
12.1745043
20
4.408251
11
12.2587043
21
4.414651
0
LINE
8
DEFAULT_255_2_778
10
12.2587043
20
4.414651
11
12.3000043
21
4.423851
0
LINE
8
DEFAULT_255_2_778
10
12.3000043
20
4.423851
11
12.3396043
21
4.438451
0
LINE
8
DEFAULT_255_2_778
10
12.3396043
20
4.438451
11
12.3764043
21
4.459351
0
LINE
8
DEFAULT_255_2_778
10
12.3764043
20
4.459351
11
12.4084043
21
4.486851
0
LINE
8
DEFAULT_255_2_778
10
12.4084043
20
4.486851
11
12.4346043
21
4.519951
0
LINE
8
DEFAULT_255_2_778
10
12.4346043
20
4.519951
11
12.4550043
21
4.556951
0
LINE
8
DEFAULT_255_2_778
10
12.4698043
20
4.596351
11
12.4754043
21
4.617051
0
LINE
8
DEFAULT_255_2_778
10
12.4754043
20
4.617051
11
12.4796043
21
4.637651
0
LINE
8
DEFAULT_255_2_778
10
12.4640043
20
4.887451
11
12.4555043
21
4.906751
0
LINE
8
DEFAULT_255_2_778
10
12.4555043
20
4.906751
11
12.4450043
21
4.924951
0
LINE
8
DEFAULT_255_2_778
10
12.4172043
20
4.956451
11
12.4002043
21
4.969151
0
LINE
8
DEFAULT_255_2_778
10
12.4002043
20
4.969151
11
12.3820043
21
4.979451
0
LINE
8
DEFAULT_255_2_778
10
12.3820043
20
4.979451
11
12.3624043
21
4.987451
0
LINE
8
DEFAULT_255_2_778
10
12.3624043
20
4.987451
11
12.3420043
21
4.992951
0
LINE
8
DEFAULT_255_2_778
10
12.3420043
20
4.992951
11
12.3002043
21
4.998551
0
LINE
8
DEFAULT_255_2_778
10
12.3002043
20
4.998551
11
12.2579043
21
5.000151
0
LINE
8
DEFAULT_255_2_778
10
12.2579043
20
5.000151
11
12.1735043
21
4.999651
0
LINE
8
DEFAULT_255_2_778
10
12.1735043
20
4.999651
11
12.0891043
21
4.999651
0
LINE
8
DEFAULT_255_2_778
10
12.0891043
20
4.999651
11
12.0047043
21
4.999651
0
LINE
8
DEFAULT_255_2_778
10
12.0047043
20
4.999651
11
12.0047043
21
4.407751
0
LINE
8
DEFAULT_255_2_778
10
11.9253043
20
5.708451
11
11.9965043
21
5.708451
0
LINE
8
DEFAULT_255_2_778
10
11.9965043
20
5.708451
11
12.0677043
21
5.708651
0
LINE
8
DEFAULT_255_2_778
10
12.0677043
20
5.708651
11
12.1388043
21
5.709251
0
LINE
8
DEFAULT_255_2_778
10
12.1388043
20
5.709251
11
12.1745043
21
5.708651
0
LINE
8
DEFAULT_255_2_778
10
12.1745043
20
5.708651
11
12.2100043
21
5.706851
0
LINE
8
DEFAULT_255_2_778
10
12.2100043
20
5.706851
11
12.2452043
21
5.702651
0
LINE
8
DEFAULT_255_2_778
10
12.2452043
20
5.702651
11
12.2796043
21
5.694951
0
LINE
8
DEFAULT_255_2_778
10
12.2796043
20
5.694951
11
12.3135043
21
5.683551
0
LINE
8
DEFAULT_255_2_778
10
12.3135043
20
5.683551
11
12.3457043
21
5.668751
0
LINE
8
DEFAULT_255_2_778
10
12.4050043
20
5.630151
11
12.4315043
21
5.606251
0
LINE
8
DEFAULT_255_2_778
10
12.4315043
20
5.606251
11
12.4550043
21
5.579851
0
LINE
8
DEFAULT_255_2_778
10
12.4550043
20
5.579851
11
12.4756043
21
5.550951
0
LINE
8
DEFAULT_255_2_778
10
12.4756043
20
5.550951
11
12.4931043
21
5.520051
0
LINE
8
DEFAULT_255_2_778
10
12.5185043
20
5.453851
11
12.5267043
21
5.419251
0
LINE
8
DEFAULT_255_2_778
10
12.5267043
20
5.419251
11
12.5323043
21
5.384351
0
LINE
8
DEFAULT_255_2_778
10
12.5360043
20
5.313951
11
12.5341043
21
5.278451
0
LINE
8
DEFAULT_255_2_778
10
12.5341043
20
5.278451
11
12.5294043
21
5.243251
0
LINE
8
DEFAULT_255_2_778
10
12.5100043
20
5.175251
11
12.4950043
21
5.143051
0
LINE
8
DEFAULT_255_2_778
10
12.4950043
20
5.143051
11
12.4767043
21
5.112351
0
LINE
8
DEFAULT_255_2_778
10
12.4923043
20
5.004151
11
12.5045043
21
4.987951
0
LINE
8
DEFAULT_255_2_778
10
12.5045043
20
4.987951
11
12.5151043
21
4.971051
0
LINE
8
DEFAULT_255_2_778
10
12.5151043
20
4.971051
11
12.5328043
21
4.935351
0
LINE
8
DEFAULT_255_2_778
10
12.5328043
20
4.935351
11
12.5463043
21
4.897751
0
LINE
8
DEFAULT_255_2_778
10
12.5463043
20
4.897751
11
12.5558043
21
4.859351
0
LINE
8
DEFAULT_255_2_778
10
12.5659043
20
4.780751
11
12.5672043
21
4.741151
0
LINE
8
DEFAULT_255_2_778
10
12.5672043
20
4.741151
11
12.5661043
21
4.701451
0
LINE
8
DEFAULT_255_2_778
10
12.5661043
20
4.701451
11
12.5630043
21
4.661951
0
LINE
8
DEFAULT_255_2_778
10
12.5630043
20
4.661951
11
12.5579043
21
4.622851
0
LINE
8
DEFAULT_255_2_778
10
12.5579043
20
4.622851
11
12.5505043
21
4.583951
0
LINE
8
DEFAULT_255_2_778
10
12.5505043
20
4.583951
11
12.5399043
21
4.545551
0
LINE
8
DEFAULT_255_2_778
10
12.5399043
20
4.545551
11
12.5257043
21
4.508551
0
LINE
8
DEFAULT_255_2_778
10
12.5257043
20
4.508551
11
12.5071043
21
4.473351
0
LINE
8
DEFAULT_255_2_778
10
12.5071043
20
4.473351
11
12.4963043
21
4.456651
0
LINE
8
DEFAULT_255_2_778
10
12.4963043
20
4.456651
11
12.4844043
21
4.440851
0
LINE
8
DEFAULT_255_2_778
10
12.4844043
20
4.440851
11
12.4579043
21
4.411451
0
LINE
8
DEFAULT_255_2_778
10
12.4579043
20
4.411451
11
12.4278043
21
4.385551
0
LINE
8
DEFAULT_255_2_778
10
12.4278043
20
4.385551
11
12.3944043
21
4.363551
0
LINE
8
DEFAULT_255_2_778
10
12.3944043
20
4.363551
11
12.3590043
21
4.345851
0
LINE
8
DEFAULT_255_2_778
10
12.3590043
20
4.345851
11
12.3214043
21
4.332051
0
LINE
8
DEFAULT_255_2_778
10
12.3214043
20
4.332051
11
12.2439043
21
4.315351
0
LINE
8
DEFAULT_255_2_778
10
12.2439043
20
4.315351
11
12.1645043
21
4.310351
0
LINE
8
DEFAULT_255_2_778
10
12.1645043
20
4.310351
11
12.0846043
21
4.311151
0
LINE
8
DEFAULT_255_2_778
10
12.0846043
20
4.311151
11
12.0446043
21
4.311951
0
LINE
8
DEFAULT_255_2_778
10
12.0446043
20
4.311951
11
12.0047043
21
4.311951
0
LINE
8
DEFAULT_255_2_778
10
12.0047043
20
4.311951
11
11.9248043
21
4.311951
0
LINE
8
DEFAULT_255_2_778
10
11.9248043
20
4.311951
11
11.9248043
21
5.711851
0
LINE
8
DEFAULT_255_2_778
10
11.3803043
20
4.308751
11
11.3311043
21
4.329651
0
LINE
8
DEFAULT_255_2_778
10
11.3311043
20
4.329651
11
11.3086043
21
4.343951
0
LINE
8
DEFAULT_255_2_778
10
11.3086043
20
4.343951
11
11.2874043
21
4.360651
0
LINE
8
DEFAULT_255_2_778
10
11.2874043
20
4.360651
11
11.2506043
21
4.399551
0
LINE
8
DEFAULT_255_2_778
10
11.2506043
20
4.399551
11
11.2347043
21
4.421251
0
LINE
8
DEFAULT_255_2_778
10
11.2347043
20
4.421251
11
11.2210043
21
4.444251
0
LINE
8
DEFAULT_255_2_778
10
11.1691043
20
4.649051
11
11.1601043
21
4.754351
0
LINE
8
DEFAULT_255_2_778
10
11.1601043
20
4.754351
11
11.1554043
21
4.860151
0
LINE
8
DEFAULT_255_2_778
10
11.1554043
20
4.860151
11
11.1554043
21
5.071551
0
LINE
8
DEFAULT_255_2_778
10
11.1554043
20
5.071551
11
11.1601043
21
5.282751
0
LINE
8
DEFAULT_255_2_778
10
11.1601043
20
5.282751
11
11.1702043
21
5.388051
0
LINE
8
DEFAULT_255_2_778
10
11.1702043
20
5.388051
11
11.1787043
21
5.440451
0
LINE
8
DEFAULT_255_2_778
10
11.1787043
20
5.440451
11
11.1842043
21
5.466551
0
LINE
8
DEFAULT_255_2_778
10
11.1842043
20
5.466551
11
11.1911043
21
5.492751
0
LINE
8
DEFAULT_255_2_778
10
11.2324043
20
5.591751
11
11.2469043
21
5.614451
0
LINE
8
DEFAULT_255_2_778
10
11.2469043
20
5.614451
11
11.2633043
21
5.635951
0
LINE
8
DEFAULT_255_2_778
10
11.2633043
20
5.635951
11
11.2816043
21
5.655551
0
LINE
8
DEFAULT_255_2_778
10
11.2816043
20
5.655551
11
11.3022043
21
5.673251
0
LINE
8
DEFAULT_255_2_778
10
11.3022043
20
5.673251
11
11.3485043
21
5.699651
0
LINE
8
DEFAULT_255_2_778
10
11.3485043
20
5.699651
11
11.3739043
21
5.708651
0
LINE
8
DEFAULT_255_2_778
10
11.3739043
20
5.708651
11
11.4001043
21
5.714751
0
LINE
8
DEFAULT_255_2_778
10
11.4001043
20
5.714751
11
11.4268043
21
5.717951
0
LINE
8
DEFAULT_255_2_778
10
11.4268043
20
5.717951
11
11.4538043
21
5.717951
0
LINE
8
DEFAULT_255_2_778
10
11.4538043
20
5.717951
11
11.5067043
21
5.709451
0
LINE
8
DEFAULT_255_2_778
10
11.5067043
20
5.709451
11
11.5324043
21
5.700751
0
LINE
8
DEFAULT_255_2_778
10
11.5324043
20
5.700751
11
11.5567043
21
5.689651
0
LINE
8
DEFAULT_255_2_778
10
11.5567043
20
5.689651
11
11.5798043
21
5.675851
0
LINE
8
DEFAULT_255_2_778
10
11.5798043
20
5.675851
11
11.6012043
21
5.659451
0
LINE
8
DEFAULT_255_2_778
10
11.6377043
20
5.620351
11
11.6528043
21
5.597851
0
LINE
8
DEFAULT_255_2_778
10
11.6528043
20
5.597851
11
11.6658043
21
5.574251
0
LINE
8
DEFAULT_255_2_778
10
11.6864043
20
5.525051
11
11.7015043
21
5.473451
0
LINE
8
DEFAULT_255_2_778
10
11.7200043
20
5.368951
11
11.7279043
21
5.263351
0
LINE
8
DEFAULT_255_2_778
10
11.7279043
20
5.263351
11
11.7306043
21
5.157551
0
LINE
8
DEFAULT_255_2_778
10
11.7306043
20
5.157551
11
11.7311043
21
5.051451
0
LINE
8
DEFAULT_255_2_778
10
11.7311043
20
5.051451
11
11.7314043
21
4.945351
0
LINE
8
DEFAULT_255_2_778
10
11.7314043
20
4.945351
11
11.7306043
21
4.839251
0
LINE
8
DEFAULT_255_2_778
10
11.7306043
20
4.839251
11
11.7269043
21
4.733451
0
LINE
8
DEFAULT_255_2_778
10
11.7269043
20
4.733451
11
11.7163043
21
4.627851
0
LINE
8
DEFAULT_255_2_778
10
11.6943043
20
4.524451
11
11.6769043
21
4.474651
0
LINE
8
DEFAULT_255_2_778
10
11.5837043
20
4.346651
11
11.5377043
21
4.319651
0
LINE
8
DEFAULT_255_2_778
10
11.5377043
20
4.319651
11
11.5126043
21
4.310151
0
LINE
8
DEFAULT_255_2_778
10
11.5126043
20
4.310151
11
11.4866043
21
4.303751
0
LINE
8
DEFAULT_255_2_778
10
11.4866043
20
4.303751
11
11.4602043
21
4.300351
0
LINE
8
DEFAULT_255_2_778
10
11.4602043
20
4.300351
11
11.4332043
21
4.300051
0
LINE
8
DEFAULT_255_2_778
10
11.4332043
20
4.300051
11
11.3805043
21
4.308751
0
ARC
8
DEFAULT_255_2_778
10
11.4588196
20
4.5482552
40
0.1444058
50
294.6971123
51
312.5412596
0
ARC
8
DEFAULT_255_2_778
10
11.8038109
20
4.695487
40
0.5556784
50
187.3958103
51
196.5868523
0
ARC
8
DEFAULT_255_2_778
10
11.6123109
20
5.3601193
40
0.364624
50
163.1423614
51
170.1558943
0
ARC
8
DEFAULT_255_2_778
10
11.5353782
20
5.3808292
40
0.2850024
50
153.755426
51
162.6417546
0
ARC
8
DEFAULT_255_2_778
10
11.3629299
20
5.3861839
40
0.2693267
50
20.4668757
51
29.8799541
0
ARC
8
DEFAULT_255_2_778
10
11.3132391
20
5.3696618
40
0.3216637
50
12.1855973
51
20.1291425
0
ARC
8
DEFAULT_255_2_778
10
11.3599484
20
4.6118171
40
0.2624352
50
328.6441113
51
338.3413019
0
ARC
8
DEFAULT_255_2_778
10
8.8852494
20
17.006948
40
13.7230519
50
247.4122581
51
247.7505441
0
ARC
8
DEFAULT_255_2_778
10
5656.5407386
20
-1425.4385688
40
5830.8575336
50
165.7933425
51
165.8061646
0
ARC
8
DEFAULT_255_2_778
10
9.6897561
20
-6.8776144
40
14.7754548
50
122.7991491
51
123.1305374
0
ARC
8
DEFAULT_255_2_778
10
1.4002018
20
5.4127419
40
0.229588
50
21.1978029
51
36.2063149
0
ARC
8
DEFAULT_255_2_778
10
1.559768
20
5.3830702
40
0.3171812
50
151.4501788
51
162.3275704
0
ARC
8
DEFAULT_255_2_778
10
1.7666545
20
5.3171142
40
0.5343267
50
162.3235056
51
168.7716276
0
ARC
8
DEFAULT_255_2_778
10
1.5528651
20
4.8746658
40
0.3584297
50
149.7453784
51
158.6841302
0
ARC
8
DEFAULT_255_2_778
10
1.515228
20
4.896402
40
0.3149674
50
139.5475009
51
149.7112478
0
ARC
8
DEFAULT_255_2_778
10
1.3765765
20
4.915008
40
0.3404874
50
24.0297626
51
33.4843989
0
ARC
8
DEFAULT_255_2_778
10
0.6695672
20
4.7711076
40
1.0661256
50
0.4810334
51
6.4925265
0
ARC
8
DEFAULT_255_2_778
10
1.4210112
20
4.5754893
40
0.290624
50
323.6075345
51
334.606075
0
ARC
8
DEFAULT_255_2_778
10
1.4502811
20
4.5454891
40
0.2512293
50
221.8545844
51
234.6578139
0
ARC
8
DEFAULT_255_2_778
10
1.5536134
20
4.6240991
40
0.3817146
50
203.4235052
51
211.8166233
0
ARC
8
DEFAULT_255_2_778
10
1.7028783
20
4.6884444
40
0.5442576
50
197.4806454
51
203.3925781
0
ARC
8
DEFAULT_255_2_778
10
1.9272774
20
4.7484509
40
0.7763852
50
188.5175796
51
196.7300642
0
ARC
8
DEFAULT_255_2_778
10
1.5382598
20
5.4100524
40
0.3717044
50
154.0066081
51
162.6563411
0
ARC
8
DEFAULT_255_2_778
10
1.4858746
20
5.4395137
40
0.3117262
50
144.2910414
51
154.6540418
0
ARC
8
DEFAULT_255_2_778
10
1.414491
20
5.505797
40
0.2136843
50
117.4296475
51
132.453676
0
ARC
8
DEFAULT_255_2_778
10
1.4439107
20
5.4621246
40
0.2533867
50
43.9109279
51
56.5566199
0
ARC
8
DEFAULT_255_2_778
10
1.3988046
20
5.4333288
40
0.3070506
50
20.8985828
51
31.4116354
0
ARC
8
DEFAULT_255_2_778
10
1.4639816
20
4.5713286
40
0.1751951
50
223.6688048
51
242.2674207
0
ARC
8
DEFAULT_255_2_778
10
1.6162641
20
4.7011751
40
0.3758906
50
204.6236059
51
213.2898384
0
ARC
8
DEFAULT_255_2_778
10
1.6024028
20
4.6955547
40
0.3609485
50
195.7203781
51
204.7293408
0
ARC
8
DEFAULT_255_2_778
10
1.6766876
20
4.7156471
40
0.4378993
50
188.1909638
51
195.6175186
0
ARC
8
DEFAULT_255_2_778
10
1.8691851
20
4.7370253
40
0.6315101
50
182.4564962
51
187.6224987
0
ARC
8
DEFAULT_255_2_778
10
1.9688763
20
4.7414428
40
0.731299
50
180.2622272
51
182.4675043
0
ARC
8
DEFAULT_255_2_778
10
1.911002
20
4.7408911
40
0.6734228
50
179.9959696
51
180.2378249
0
ARC
8
DEFAULT_255_2_778
10
1.815807
20
4.7429416
40
0.5782314
50
172.1058055
51
180.1984899
0
ARC
8
DEFAULT_255_2_778
10
1.6668897
20
4.772774
40
0.425976
50
158.0274271
51
165.6765848
0
ARC
8
DEFAULT_255_2_778
10
1.6510185
20
4.7790153
40
0.4089224
50
150.0353056
51
158.0063504
0
ARC
8
DEFAULT_255_2_778
10
1.5998364
20
4.8057366
40
0.3512436
50
140.3087778
51
149.641489
0
ARC
8
DEFAULT_255_2_778
10
1.1578965
20
4.8348471
40
0.493564
50
8.5654786
51
15.128326
0
ARC
8
DEFAULT_255_2_778
10
1.3693431
20
4.6220057
40
0.2663724
50
324.4830655
51
336.6801082
0
LINE
8
DEFAULT_255_2_778
10
11.5191554
20
4.4170583
11
11.4980554
21
4.4088583
0
LINE
8
DEFAULT_255_2_778
10
11.4980554
20
4.4088583
11
11.4763554
21
4.4030583
0
LINE
8
DEFAULT_255_2_778
10
11.4763554
20
4.4030583
11
11.4313554
21
4.3990583
0
LINE
8
DEFAULT_255_2_778
10
11.4313554
20
4.3990583
11
11.4088554
21
4.4014583
0
LINE
8
DEFAULT_255_2_778
10
11.4088554
20
4.4014583
11
11.3868554
21
4.4069583
0
LINE
8
DEFAULT_255_2_778
10
11.3868554
20
4.4069583
11
11.3662554
21
4.4157583
0
LINE
8
DEFAULT_255_2_778
10
11.3662554
20
4.4157583
11
11.3469554
21
4.4276583
0
LINE
8
DEFAULT_255_2_778
10
11.3469554
20
4.4276583
11
11.3138554
21
4.4580583
0
LINE
8
DEFAULT_255_2_778
10
11.3138554
20
4.4580583
11
11.3001554
21
4.4760583
0
LINE
8
DEFAULT_255_2_778
10
11.3001554
20
4.4760583
11
11.2884554
21
4.4953583
0
LINE
8
DEFAULT_255_2_778
10
11.2884554
20
4.4953583
11
11.2789554
21
4.5157583
0
LINE
8
DEFAULT_255_2_778
10
11.2789554
20
4.5157583
11
11.2712554
21
4.5368583
0
LINE
8
DEFAULT_255_2_778
10
11.2527554
20
4.6239583
11
11.2416554
21
4.7120583
0
LINE
8
DEFAULT_255_2_778
10
11.2416554
20
4.7120583
11
11.2352554
21
4.8006583
0
LINE
8
DEFAULT_255_2_778
10
11.2352554
20
4.8006583
11
11.2336554
21
4.8895583
0
LINE
8
DEFAULT_255_2_778
10
11.2336554
20
4.8895583
11
11.2339554
21
4.9784583
0
LINE
8
DEFAULT_255_2_778
10
11.2339554
20
4.9784583
11
11.2339554
21
5.0673583
0
LINE
8
DEFAULT_255_2_778
10
11.2339554
20
5.0673583
11
11.2347554
21
5.1562583
0
LINE
8
DEFAULT_255_2_778
10
11.2347554
20
5.1562583
11
11.2381554
21
5.2451583
0
LINE
8
DEFAULT_255_2_778
10
11.2381554
20
5.2451583
11
11.2434554
21
5.3340583
0
LINE
8
DEFAULT_255_2_778
10
11.2434554
20
5.3340583
11
11.2530554
21
5.4224583
0
LINE
8
DEFAULT_255_2_778
10
11.2797554
20
5.5068583
11
11.3032554
21
5.5446583
0
LINE
8
DEFAULT_255_2_778
10
11.3032554
20
5.5446583
11
11.3334554
21
5.5772583
0
LINE
8
DEFAULT_255_2_778
10
11.3334554
20
5.5772583
11
11.3511554
21
5.5909583
0
LINE
8
DEFAULT_255_2_778
10
11.3511554
20
5.5909583
11
11.3702554
21
5.6026583
0
LINE
8
DEFAULT_255_2_778
10
11.3702554
20
5.6026583
11
11.3908554
21
5.6116583
0
LINE
8
DEFAULT_255_2_778
10
11.3908554
20
5.6116583
11
11.4122554
21
5.6174583
0
LINE
8
DEFAULT_255_2_778
10
11.4122554
20
5.6174583
11
11.4342554
21
5.6200583
0
LINE
8
DEFAULT_255_2_778
10
11.4342554
20
5.6200583
11
11.4567554
21
5.6195583
0
LINE
8
DEFAULT_255_2_778
10
11.4567554
20
5.6195583
11
11.4787554
21
5.6161583
0
LINE
8
DEFAULT_255_2_778
10
11.4787554
20
5.6161583
11
11.5001554
21
5.6095583
0
LINE
8
DEFAULT_255_2_778
10
11.5001554
20
5.6095583
11
11.5387554
21
5.5875583
0
LINE
8
DEFAULT_255_2_778
10
11.5387554
20
5.5875583
11
11.5710554
21
5.5568583
0
LINE
8
DEFAULT_255_2_778
10
11.5710554
20
5.5568583
11
11.5845554
21
5.5391583
0
LINE
8
DEFAULT_255_2_778
10
11.5845554
20
5.5391583
11
11.5964554
21
5.5203583
0
LINE
8
DEFAULT_255_2_778
10
11.6276554
20
5.4375583
11
11.6355554
21
5.3938583
0
LINE
8
DEFAULT_255_2_778
10
11.6355554
20
5.3938583
11
11.6451554
21
5.3060583
0
LINE
8
DEFAULT_255_2_778
10
11.6451554
20
5.3060583
11
11.6496554
21
5.2179583
0
LINE
8
DEFAULT_255_2_778
10
11.6496554
20
5.2179583
11
11.6514554
21
5.1295583
0
LINE
8
DEFAULT_255_2_778
10
11.6514554
20
5.1295583
11
11.6517554
21
4.9525583
0
LINE
8
DEFAULT_255_2_778
10
11.6517554
20
4.9525583
11
11.6488554
21
4.7755583
0
LINE
8
DEFAULT_255_2_778
10
11.6488554
20
4.7755583
11
11.6424554
21
4.6874583
0
LINE
8
DEFAULT_255_2_778
10
11.6424554
20
4.6874583
11
11.6369554
21
4.6435583
0
LINE
8
DEFAULT_255_2_778
10
11.6369554
20
4.6435583
11
11.6292554
21
4.5998583
0
LINE
8
DEFAULT_255_2_778
10
11.6292554
20
4.5998583
11
11.6186554
21
4.5567583
0
LINE
8
DEFAULT_255_2_778
10
11.6186554
20
4.5567583
11
11.6038554
21
4.5149583
0
LINE
8
DEFAULT_255_2_778
10
11.5840554
20
4.4752583
11
11.5713554
21
4.4572583
0
LINE
8
DEFAULT_255_2_778
10
11.5713554
20
4.4572583
11
11.5641554
21
4.4487583
0
LINE
8
DEFAULT_255_2_778
10
11.5641554
20
4.4487583
11
11.5562554
21
4.4408583
0
LINE
8
DEFAULT_255_2_778
10
4.0092554
20
5.5706583
11
4.0092554
21
5.7150583
0
LINE
8
DEFAULT_255_2_778
10
4.0092554
20
5.7150583
11
3.4472554
21
5.7150583
0
LINE
8
DEFAULT_255_2_778
10
3.4472554
20
5.7150583
11
3.4472554
21
5.6132583
0
LINE
8
DEFAULT_255_2_778
10
3.4472554
20
5.6132583
11
3.9311554
21
5.6132583
0
LINE
8
DEFAULT_255_2_778
10
3.9311554
20
5.6132583
11
3.9311554
21
5.5859583
0
LINE
8
DEFAULT_255_2_778
10
3.9311554
20
5.5859583
11
3.9256554
21
5.5666583
0
LINE
8
DEFAULT_255_2_778
10
3.9256554
20
5.5666583
11
3.9206554
21
5.5470583
0
LINE
8
DEFAULT_255_2_778
10
3.9206554
20
5.5470583
11
3.9105554
21
5.5081583
0
LINE
8
DEFAULT_255_2_778
10
3.9105554
20
5.5081583
11
3.8907554
21
5.4301583
0
LINE
8
DEFAULT_255_2_778
10
3.8907554
20
5.4301583
11
3.8510554
21
5.2740583
0
LINE
8
DEFAULT_255_2_778
10
3.8510554
20
5.2740583
11
3.8116554
21
5.1176583
0
LINE
8
DEFAULT_255_2_778
10
3.8116554
20
5.1176583
11
3.7719554
21
4.9615583
0
LINE
8
DEFAULT_255_2_778
10
3.7719554
20
4.9615583
11
3.7324554
21
4.8051583
0
LINE
8
DEFAULT_255_2_778
10
3.7324554
20
4.8051583
11
3.6930554
21
4.6488583
0
LINE
8
DEFAULT_255_2_778
10
3.6930554
20
4.6488583
11
3.6139554
21
4.3363583
0
LINE
8
DEFAULT_255_2_778
10
3.6139554
20
4.3363583
11
3.6139554
21
4.3392583
0
LINE
8
DEFAULT_255_2_778
10
3.6139554
20
4.3392583
11
3.6930554
21
4.6517583
0
LINE
8
DEFAULT_255_2_778
10
3.6930554
20
4.6517583
11
3.7324554
21
4.8080583
0
LINE
8
DEFAULT_255_2_778
10
3.7324554
20
4.8080583
11
3.7719554
21
4.9644583
0
LINE
8
DEFAULT_255_2_778
10
3.7719554
20
4.9644583
11
3.8116554
21
5.1205583
0
LINE
8
DEFAULT_255_2_778
10
3.8116554
20
5.1205583
11
3.8510554
21
5.2769583
0
LINE
8
DEFAULT_255_2_778
10
3.8510554
20
5.2769583
11
3.8907554
21
5.4330583
0
LINE
8
DEFAULT_255_2_778
10
3.8907554
20
5.4330583
11
3.9105554
21
5.5110583
0
LINE
8
DEFAULT_255_2_778
10
3.9105554
20
5.5110583
11
3.9206554
21
5.5499583
0
LINE
8
DEFAULT_255_2_778
10
3.9206554
20
5.5499583
11
3.9256554
21
5.5695583
0
LINE
8
DEFAULT_255_2_778
10
3.9256554
20
5.5695583
11
3.9311554
21
5.5888583
0
LINE
8
DEFAULT_255_2_778
10
1.5854554
20
5.5483583
11
1.5655554
21
5.5714583
0
LINE
8
DEFAULT_255_2_778
10
1.5655554
20
5.5714583
11
1.5425554
21
5.5907583
0
LINE
8
DEFAULT_255_2_778
10
1.5425554
20
5.5907583
11
1.5163554
21
5.6060583
0
LINE
8
DEFAULT_255_2_778
10
1.5163554
20
5.6060583
11
1.4882554
21
5.6166583
0
LINE
8
DEFAULT_255_2_778
10
1.4882554
20
5.6166583
11
1.4584554
21
5.6224583
0
LINE
8
DEFAULT_255_2_778
10
1.4584554
20
5.6224583
11
1.4282554
21
5.6235583
0
LINE
8
DEFAULT_255_2_778
10
1.4282554
20
5.6235583
11
1.3980554
21
5.6206583
0
LINE
8
DEFAULT_255_2_778
10
1.3980554
20
5.6206583
11
1.3687554
21
5.6134583
0
LINE
8
DEFAULT_255_2_778
10
1.3687554
20
5.6134583
11
1.3546554
21
5.6079583
0
LINE
8
DEFAULT_255_2_778
10
1.3546554
20
5.6079583
11
1.3414554
21
5.6007583
0
LINE
8
DEFAULT_255_2_778
10
1.3414554
20
5.6007583
11
1.3173554
21
5.5825583
0
LINE
8
DEFAULT_255_2_778
10
1.3173554
20
5.5825583
11
1.2975554
21
5.5600583
0
LINE
8
DEFAULT_255_2_778
10
1.2975554
20
5.5600583
11
1.2811554
21
5.5346583
0
LINE
8
DEFAULT_255_2_778
10
1.2425554
20
5.4211583
11
1.2327554
21
5.3621583
0
LINE
8
DEFAULT_255_2_778
10
1.2327554
20
5.3621583
11
1.2234554
21
5.2433583
0
LINE
8
DEFAULT_255_2_778
10
1.2234554
20
5.2433583
11
1.2213554
21
5.1837583
0
LINE
8
DEFAULT_255_2_778
10
1.2213554
20
5.1837583
11
1.2200554
21
5.1242583
0
LINE
8
DEFAULT_255_2_778
10
1.2200554
20
5.1242583
11
1.2189554
21
5.0049583
0
LINE
8
DEFAULT_255_2_778
10
1.2755554
20
5.1007583
11
1.2946554
21
5.1213583
0
LINE
8
DEFAULT_255_2_778
10
1.2946554
20
5.1213583
11
1.3149554
21
5.1403583
0
LINE
8
DEFAULT_255_2_778
10
1.3149554
20
5.1403583
11
1.3607554
21
5.1724583
0
LINE
8
DEFAULT_255_2_778
10
1.3607554
20
5.1724583
11
1.3861554
21
5.1845583
0
LINE
8
DEFAULT_255_2_778
10
1.3861554
20
5.1845583
11
1.4128554
21
5.1933583
0
LINE
8
DEFAULT_255_2_778
10
1.4128554
20
5.1933583
11
1.4687554
21
5.2004583
0
LINE
8
DEFAULT_255_2_778
10
1.4687554
20
5.2004583
11
1.4967554
21
5.1993583
0
LINE
8
DEFAULT_255_2_778
10
1.4967554
20
5.1993583
11
1.5248554
21
5.1951583
0
LINE
8
DEFAULT_255_2_778
10
1.5248554
20
5.1951583
11
1.5777554
21
5.1774583
0
LINE
8
DEFAULT_255_2_778
10
1.5777554
20
5.1774583
11
1.5901554
21
5.1708583
0
LINE
8
DEFAULT_255_2_778
10
1.5901554
20
5.1708583
11
1.6023554
21
5.1634583
0
LINE
8
DEFAULT_255_2_778
10
1.6023554
20
5.1634583
11
1.6242554
21
5.1459583
0
LINE
8
DEFAULT_255_2_778
10
1.6242554
20
5.1459583
11
1.6436554
21
5.1255583
0
LINE
8
DEFAULT_255_2_778
10
1.6436554
20
5.1255583
11
1.6605554
21
5.1028583
0
LINE
8
DEFAULT_255_2_778
10
1.6875554
20
5.0536583
11
1.6981554
21
5.0276583
0
LINE
8
DEFAULT_255_2_778
10
1.6981554
20
5.0276583
11
1.7071554
21
5.0009583
0
LINE
8
DEFAULT_255_2_778
10
1.7071554
20
5.0009583
11
1.7203554
21
4.9467583
0
LINE
8
DEFAULT_255_2_778
10
1.7203554
20
4.9467583
11
1.7288554
21
4.8916583
0
LINE
8
DEFAULT_255_2_778
10
1.7356554
20
4.7800583
11
1.7351554
21
4.7242583
0
LINE
8
DEFAULT_255_2_778
10
1.7351554
20
4.7242583
11
1.7325554
21
4.6683583
0
LINE
8
DEFAULT_255_2_778
10
1.7325554
20
4.6683583
11
1.7269554
21
4.6128583
0
LINE
8
DEFAULT_255_2_778
10
1.7269554
20
4.6128583
11
1.7176554
21
4.5575583
0
LINE
8
DEFAULT_255_2_778
10
1.7176554
20
4.5575583
11
1.7039554
21
4.5032583
0
LINE
8
DEFAULT_255_2_778
10
1.7039554
20
4.5032583
11
1.6946554
21
4.4768583
0
LINE
8
DEFAULT_255_2_778
10
1.6946554
20
4.4768583
11
1.6835554
21
4.4508583
0
LINE
8
DEFAULT_255_2_778
10
1.6549554
20
4.4030583
11
1.6372554
21
4.3813583
0
LINE
8
DEFAULT_255_2_778
10
1.6372554
20
4.3813583
11
1.6171554
21
4.3614583
0
LINE
8
DEFAULT_255_2_778
10
1.6171554
20
4.3614583
11
1.5719554
21
4.3289583
0
LINE
8
DEFAULT_255_2_778
10
1.5719554
20
4.3289583
11
1.5465554
21
4.3164583
0
LINE
8
DEFAULT_255_2_778
10
1.5465554
20
4.3164583
11
1.5200554
21
4.3069583
0
LINE
8
DEFAULT_255_2_778
10
1.5200554
20
4.3069583
11
1.4927554
21
4.3006583
0
LINE
8
DEFAULT_255_2_778
10
1.4927554
20
4.3006583
11
1.4647554
21
4.2974583
0
LINE
8
DEFAULT_255_2_778
10
1.4647554
20
4.2974583
11
1.4086554
21
4.2998583
0
LINE
8
DEFAULT_255_2_778
10
1.4086554
20
4.2998583
11
1.3811554
21
4.3053583
0
LINE
8
DEFAULT_255_2_778
10
1.3811554
20
4.3053583
11
1.3544554
21
4.3141583
0
LINE
8
DEFAULT_255_2_778
10
1.3544554
20
4.3141583
11
1.3290554
21
4.3257583
0
LINE
8
DEFAULT_255_2_778
10
1.3290554
20
4.3257583
11
1.3049554
21
4.3405583
0
LINE
8
DEFAULT_255_2_778
10
1.2631554
20
4.3778583
11
1.2451554
21
4.3995583
0
LINE
8
DEFAULT_255_2_778
10
1.2451554
20
4.3995583
11
1.2292554
21
4.4228583
0
LINE
8
DEFAULT_255_2_778
10
1.1594554
20
4.6334583
11
1.1461554
21
4.7437583
0
LINE
8
DEFAULT_255_2_778
10
1.1461554
20
4.7437583
11
1.1403554
21
4.8551583
0
LINE
8
DEFAULT_255_2_778
10
1.1403554
20
4.8551583
11
1.1390554
21
4.9668583
0
LINE
8
DEFAULT_255_2_778
10
1.1390554
20
4.9668583
11
1.1390554
21
5.0784583
0
LINE
8
DEFAULT_255_2_778
10
1.1390554
20
5.0784583
11
1.1406554
21
5.1901583
0
LINE
8
DEFAULT_255_2_778
10
1.1406554
20
5.1901583
11
1.1459554
21
5.3015583
0
LINE
8
DEFAULT_255_2_778
10
1.1459554
20
5.3015583
11
1.1509554
21
5.3570583
0
LINE
8
DEFAULT_255_2_778
10
1.1509554
20
5.3570583
11
1.1583554
21
5.4123583
0
LINE
8
DEFAULT_255_2_778
10
1.1583554
20
5.4123583
11
1.1689554
21
5.4671583
0
LINE
8
DEFAULT_255_2_778
10
1.1689554
20
5.4671583
11
1.1834554
21
5.5208583
0
LINE
8
DEFAULT_255_2_778
10
1.2327554
20
5.6214583
11
1.2504554
21
5.6433583
0
LINE
8
DEFAULT_255_2_778
10
1.2504554
20
5.6433583
11
1.2702554
21
5.6634583
0
LINE
8
DEFAULT_255_2_778
10
1.3160554
20
5.6954583
11
1.3417554
21
5.7068583
0
LINE
8
DEFAULT_255_2_778
10
1.3417554
20
5.7068583
11
1.3684554
21
5.7150583
0
LINE
8
DEFAULT_255_2_778
10
1.3684554
20
5.7150583
11
1.3962554
21
5.7200583
0
LINE
8
DEFAULT_255_2_778
10
1.3962554
20
5.7200583
11
1.4242554
21
5.7219583
0
LINE
8
DEFAULT_255_2_778
10
1.4242554
20
5.7219583
11
1.4523554
21
5.7208583
0
LINE
8
DEFAULT_255_2_778
10
1.4523554
20
5.7208583
11
1.4803554
21
5.7166583
0
LINE
8
DEFAULT_255_2_778
10
1.4803554
20
5.7166583
11
1.5340554
21
5.7002583
0
LINE
8
DEFAULT_255_2_778
10
1.5340554
20
5.7002583
11
1.5594554
21
5.6880583
0
LINE
8
DEFAULT_255_2_778
10
1.5594554
20
5.6880583
11
1.5835554
21
5.6735583
0
LINE
8
DEFAULT_255_2_778
10
1.6264554
20
5.6378583
11
1.6449554
21
5.6163583
0
LINE
8
DEFAULT_255_2_778
10
1.6449554
20
5.6163583
11
1.6608554
21
5.5933583
0
LINE
8
DEFAULT_255_2_778
10
1.6856554
20
5.5428583
11
1.6856554
21
5.5457583
0
LINE
8
DEFAULT_255_2_778
10
1.3372554
20
4.4503583
11
1.3184554
21
4.4717583
0
LINE
8
DEFAULT_255_2_778
10
1.3184554
20
4.4717583
11
1.3020554
21
4.4948583
0
LINE
8
DEFAULT_255_2_778
10
1.2430554
20
4.8223583
11
1.2477554
21
4.8504583
0
LINE
8
DEFAULT_255_2_778
10
1.2477554
20
4.8504583
11
1.2541554
21
4.8781583
0
LINE
8
DEFAULT_255_2_778
10
1.3295554
20
5.0300583
11
1.3488554
21
5.0512583
0
LINE
8
DEFAULT_255_2_778
10
1.3488554
20
5.0512583
11
1.3705554
21
5.0700583
0
LINE
8
DEFAULT_255_2_778
10
1.3705554
20
5.0700583
11
1.3946554
21
5.0853583
0
LINE
8
DEFAULT_255_2_778
10
1.3946554
20
5.0853583
11
1.4078554
21
5.0911583
0
LINE
8
DEFAULT_255_2_778
10
1.4078554
20
5.0911583
11
1.4213554
21
5.0959583
0
LINE
8
DEFAULT_255_2_778
10
1.4213554
20
5.0959583
11
1.4491554
21
5.1017583
0
LINE
8
DEFAULT_255_2_778
10
1.4491554
20
5.1017583
11
1.4777554
21
5.1033583
0
LINE
8
DEFAULT_255_2_778
10
1.4777554
20
5.1033583
11
1.5062554
21
5.1009583
0
LINE
8
DEFAULT_255_2_778
10
1.5062554
20
5.1009583
11
1.5340554
21
5.0940583
0
LINE
8
DEFAULT_255_2_778
10
1.5340554
20
5.0940583
11
1.5473554
21
5.0888583
0
LINE
8
DEFAULT_255_2_778
10
1.5473554
20
5.0888583
11
1.5600554
21
5.0819583
0
LINE
8
DEFAULT_255_2_778
10
1.5600554
20
5.0819583
11
1.5824554
21
5.0644583
0
LINE
8
DEFAULT_255_2_778
10
1.5824554
20
5.0644583
11
1.6004554
21
5.0422583
0
LINE
8
DEFAULT_255_2_778
10
1.6004554
20
5.0422583
11
1.6145554
21
5.0173583
0
LINE
8
DEFAULT_255_2_778
10
1.6145554
20
5.0173583
11
1.6256554
21
4.9909583
0
LINE
8
DEFAULT_255_2_778
10
1.6256554
20
4.9909583
11
1.6343554
21
4.9636583
0
LINE
8
DEFAULT_255_2_778
10
1.6459554
20
4.9083583
11
1.6526554
21
4.8520583
0
LINE
8
DEFAULT_255_2_778
10
1.6526554
20
4.8520583
11
1.6555554
21
4.7951583
0
LINE
8
DEFAULT_255_2_778
10
1.6555554
20
4.7951583
11
1.6552554
21
4.7384583
0
LINE
8
DEFAULT_255_2_778
10
1.6552554
20
4.7384583
11
1.6523554
21
4.6818583
0
LINE
8
DEFAULT_255_2_778
10
1.6523554
20
4.6818583
11
1.6454554
21
4.6255583
0
LINE
8
DEFAULT_255_2_778
10
1.6454554
20
4.6255583
11
1.6332554
21
4.5699583
0
LINE
8
DEFAULT_255_2_778
10
1.6332554
20
4.5699583
11
1.6245554
21
4.5429583
0
LINE
8
DEFAULT_255_2_778
10
1.6245554
20
4.5429583
11
1.6139554
21
4.5165583
0
LINE
8
DEFAULT_255_2_778
10
1.5861554
20
4.4672583
11
1.5679554
21
4.4453583
0
LINE
8
DEFAULT_255_2_778
10
1.5679554
20
4.4453583
11
1.5462554
21
4.4268583
0
LINE
8
DEFAULT_255_2_778
10
1.5462554
20
4.4268583
11
1.5340554
21
4.4191583
0
LINE
8
DEFAULT_255_2_778
10
1.5340554
20
4.4191583
11
1.5211554
21
4.4127583
0
LINE
8
DEFAULT_255_2_778
10
1.5211554
20
4.4127583
11
1.4941554
21
4.4035583
0
LINE
8
DEFAULT_255_2_778
10
1.4941554
20
4.4035583
11
1.4658554
21
4.3990583
0
LINE
8
DEFAULT_255_2_778
10
1.4658554
20
4.3990583
11
1.4372554
21
4.3995583
0
LINE
8
DEFAULT_255_2_778
10
1.4372554
20
4.3995583
11
1.4089554
21
4.4051583
0
LINE
8
DEFAULT_255_2_778
10
1.4089554
20
4.4051583
11
1.3824554
21
4.4162583
0
ARC
8
DEFAULT_255_2_778
10
6.5106035
20
-6.1649292
40
11.4071538
50
109.3692209
51
109.7770308
0
ARC
8
DEFAULT_255_2_778
10
3.1197828
20
5.363523
40
0.4632465
50
163.6935877
51
173.6584847
0
ARC
8
DEFAULT_255_2_778
10
2.9840463
20
5.4229863
40
0.3140626
50
137.6417246
51
152.4205125
0
ARC
8
DEFAULT_255_2_778
10
2.8270958
20
5.3865171
40
0.4084596
50
21.2548509
51
32.6345439
0
ARC
8
DEFAULT_255_2_778
10
2.647135
20
5.3156714
40
0.6018622
50
13.5800301
51
21.3298424
0
ARC
8
DEFAULT_255_2_778
10
2.6715355
20
5.3195183
40
0.5765602
50
13.4976493
51
21.4746121
0
ARC
8
DEFAULT_255_2_778
10
2.8207796
20
5.3800934
40
0.4155045
50
21.235592
51
32.2790321
0
ARC
8
DEFAULT_255_2_778
10
3.0633567
20
5.3772736
40
0.4037839
50
151.9594931
51
163.4650362
0
ARC
8
DEFAULT_255_2_778
10
2.8989955
20
5.3229652
40
0.2409689
50
187.6491604
51
197.2543123
0
ARC
8
DEFAULT_255_2_778
10
2.8988419
20
5.3231573
40
0.2408792
50
197.308793
51
206.9759167
0
ARC
8
DEFAULT_255_2_778
10
2.9833595
20
4.7215955
40
0.1983316
50
10.3390484
51
21.9061768
0
ARC
8
DEFAULT_255_2_778
10
2.8989178
20
4.7097792
40
0.283545
50
1.4573718
51
9.6256205
0
ARC
8
DEFAULT_255_2_778
10
3.041986
20
4.6515847
40
0.3194718
50
190.0033511
51
197.2420074
0
ARC
8
DEFAULT_255_2_778
10
2.9767724
20
4.6386781
40
0.2525396
50
189.0417235
51
190.3447655
0
ARC
8
DEFAULT_255_2_778
10
2.9750472
20
4.6382431
40
0.2507643
50
190.3177638
51
198.231271
0
ARC
8
DEFAULT_255_2_778
10
7.5104762
20
-6.685154
40
12.8707259
50
109.4162859
51
109.7773029
0
ARC
8
DEFAULT_255_2_778
10
2.7854579
20
5.3397215
40
0.3800278
50
13.1828805
51
19.3262746
0
ARC
8
DEFAULT_255_2_778
10
2.9979826
20
5.3865586
40
0.259236
50
159.1821362
51
168.1504764
0
ARC
8
DEFAULT_255_2_778
10
3.1149595
20
5.3624197
40
0.3786771
50
168.2103739
51
174.2755574
0
ARC
8
DEFAULT_255_2_778
10
2.9052243
20
5.3353579
40
0.1690809
50
185.3167261
51
197.0231767
0
ARC
8
DEFAULT_255_2_778
10
2.9040329
20
5.3352216
40
0.1679021
50
197.0977484
51
199.0965692
0
ARC
8
DEFAULT_255_2_778
10
2.860264
20
4.7113036
40
0.4011422
50
8.2465436
51
11.1230419
0
ARC
8
DEFAULT_255_2_778
10
2.8278733
20
4.7065852
40
0.4338747
50
5.6088405
51
8.2496757
0
ARC
8
DEFAULT_255_2_778
10
2.7833844
20
4.7055577
40
0.4780413
50
345.8741723
51
355.5288095
0
ARC
8
DEFAULT_255_2_778
10
2.8260089
20
4.6802034
40
0.4299236
50
326.320493
51
337.0393408
0
ARC
8
DEFAULT_255_2_778
10
3.0574846
20
4.6414941
40
0.410179
50
201.2408671
51
212.4030829
0
ARC
8
DEFAULT_255_2_778
10
3.2189819
20
4.7018024
40
0.5825587
50
193.1377821
51
201.0149054
0
ARC
8
DEFAULT_255_2_778
10
-1.1315618
20
15.3338104
40
11.4071538
50
289.3692209
51
289.7770308
0
LINE
8
DEFAULT_255_2_778
10
2.6556708
20
5.3508906
11
2.6561708
21
5.3741906
0
LINE
8
DEFAULT_255_2_778
10
2.6561708
20
5.3741906
11
2.6593708
21
5.4146906
0
LINE
8
DEFAULT_255_2_778
10
2.6751708
20
5.4935906
11
2.6884708
21
5.5316906
0
LINE
8
DEFAULT_255_2_778
10
2.6884708
20
5.5316906
11
2.7056708
21
5.5683906
0
LINE
8
DEFAULT_255_2_778
10
2.7519708
20
5.6345906
11
2.7662708
21
5.6490906
0
LINE
8
DEFAULT_255_2_778
10
2.7662708
20
5.6490906
11
2.7815708
21
5.6623906
0
LINE
8
DEFAULT_255_2_778
10
2.7815708
20
5.6623906
11
2.8146708
21
5.6850906
0
LINE
8
DEFAULT_255_2_778
10
2.8146708
20
5.6850906
11
2.8326708
21
5.6945906
0
LINE
8
DEFAULT_255_2_778
10
2.8326708
20
5.6945906
11
2.8511708
21
5.7027906
0
LINE
8
DEFAULT_255_2_778
10
2.8511708
20
5.7027906
11
2.8897708
21
5.7152906
0
LINE
8
DEFAULT_255_2_778
10
2.8897708
20
5.7152906
11
2.9297708
21
5.7223906
0
LINE
8
DEFAULT_255_2_778
10
2.9297708
20
5.7223906
11
2.9702708
21
5.7247906
0
LINE
8
DEFAULT_255_2_778
10
2.9702708
20
5.7247906
11
3.0104708
21
5.7215906
0
LINE
8
DEFAULT_255_2_778
10
3.0104708
20
5.7215906
11
3.0302708
21
5.7173906
0
LINE
8
DEFAULT_255_2_778
10
3.0302708
20
5.7173906
11
3.0495708
21
5.7109906
0
LINE
8
DEFAULT_255_2_778
10
3.0495708
20
5.7109906
11
3.0858708
21
5.6930906
0
LINE
8
DEFAULT_255_2_778
10
3.0858708
20
5.6930906
11
3.1027708
21
5.6813906
0
LINE
8
DEFAULT_255_2_778
10
3.1027708
20
5.6813906
11
3.1186708
21
5.6683906
0
LINE
8
DEFAULT_255_2_778
10
3.1186708
20
5.6683906
11
3.1469708
21
5.6392906
0
LINE
8
DEFAULT_255_2_778
10
3.1469708
20
5.6392906
11
3.1710708
21
5.6067906
0
LINE
8
DEFAULT_255_2_778
10
3.2321708
20
5.4569906
11
3.2321708
21
5.4540906
0
LINE
8
DEFAULT_255_2_778
10
3.1720708
20
5.6019906
11
3.1482708
21
5.6347906
0
LINE
8
DEFAULT_255_2_778
10
3.1482708
20
5.6347906
11
3.1202708
21
5.6641906
0
LINE
8
DEFAULT_255_2_778
10
3.1202708
20
5.6641906
11
3.0879708
21
5.6887906
0
LINE
8
DEFAULT_255_2_778
10
3.0879708
20
5.6887906
11
3.0519708
21
5.7070906
0
LINE
8
DEFAULT_255_2_778
10
3.0519708
20
5.7070906
11
3.0127708
21
5.7181906
0
LINE
8
DEFAULT_255_2_778
10
3.0127708
20
5.7181906
11
2.9723708
21
5.7218906
0
LINE
8
DEFAULT_255_2_778
10
2.9723708
20
5.7218906
11
2.9519708
21
5.7215906
0
LINE
8
DEFAULT_255_2_778
10
2.9519708
20
5.7215906
11
2.9318708
21
5.7199906
0
LINE
8
DEFAULT_255_2_778
10
2.9318708
20
5.7199906
11
2.8921708
21
5.7131906
0
LINE
8
DEFAULT_255_2_778
10
2.8921708
20
5.7131906
11
2.8535708
21
5.7009906
0
LINE
8
DEFAULT_255_2_778
10
2.8535708
20
5.7009906
11
2.8170708
21
5.6834906
0
LINE
8
DEFAULT_255_2_778
10
2.8170708
20
5.6834906
11
2.7836708
21
5.6609906
0
LINE
8
DEFAULT_255_2_778
10
2.7836708
20
5.6609906
11
2.7683708
21
5.6477906
0
LINE
8
DEFAULT_255_2_778
10
2.7683708
20
5.6477906
11
2.7537708
21
5.6332906
0
LINE
8
DEFAULT_255_2_778
10
2.7537708
20
5.6332906
11
2.7283708
21
5.6017906
0
LINE
8
DEFAULT_255_2_778
10
2.7283708
20
5.6017906
11
2.7069708
21
5.5670906
0
LINE
8
DEFAULT_255_2_778
10
2.6762708
20
5.4921906
11
2.6664708
21
5.4527906
0
LINE
8
DEFAULT_255_2_778
10
2.6664708
20
5.4527906
11
2.6601708
21
5.4125906
0
LINE
8
DEFAULT_255_2_778
10
2.6601708
20
5.4125906
11
2.6569708
21
5.3720906
0
LINE
8
DEFAULT_255_2_778
10
2.6569708
20
5.3720906
11
2.6566708
21
5.3315906
0
LINE
8
DEFAULT_255_2_778
10
2.6566708
20
5.3315906
11
2.6577708
21
5.3112906
0
LINE
8
DEFAULT_255_2_778
10
2.6577708
20
5.3112906
11
2.6601708
21
5.2908906
0
LINE
8
DEFAULT_255_2_778
10
2.6841708
20
5.2138906
11
2.7050708
21
5.1786906
0
LINE
8
DEFAULT_255_2_778
10
2.7050708
20
5.1786906
11
2.7299708
21
5.1466906
0
LINE
8
DEFAULT_255_2_778
10
2.7299708
20
5.1466906
11
2.7587708
21
5.1175906
0
LINE
8
DEFAULT_255_2_778
10
2.7587708
20
5.1175906
11
2.7897708
21
5.0913906
0
LINE
8
DEFAULT_255_2_778
10
2.7897708
20
5.0913906
11
2.8228708
21
5.0677906
0
LINE
8
DEFAULT_255_2_778
10
2.8228708
20
5.0677906
11
2.8569708
21
5.0458906
0
LINE
8
DEFAULT_255_2_778
10
2.8569708
20
5.0458906
11
2.8908708
21
5.0236906
0
LINE
8
DEFAULT_255_2_778
10
2.8908708
20
5.0236906
11
2.9241708
21
5.0005906
0
LINE
8
DEFAULT_255_2_778
10
2.9241708
20
5.0005906
11
2.9577708
21
4.9780906
0
LINE
8
DEFAULT_255_2_778
10
2.9577708
20
4.9780906
11
2.9918708
21
4.9564906
0
LINE
8
DEFAULT_255_2_778
10
2.9918708
20
4.9564906
11
3.0268708
21
4.9354906
0
LINE
8
DEFAULT_255_2_778
10
3.0268708
20
4.9354906
11
3.0609708
21
4.9138906
0
LINE
8
DEFAULT_255_2_778
10
3.0609708
20
4.9138906
11
3.0932708
21
4.8897906
0
LINE
8
DEFAULT_255_2_778
10
3.0932708
20
4.8897906
11
3.1228708
21
4.8624906
0
LINE
8
DEFAULT_255_2_778
10
3.1228708
20
4.8624906
11
3.1480708
21
4.8309906
0
LINE
8
DEFAULT_255_2_778
10
3.1480708
20
4.8309906
11
3.1585708
21
4.8137906
0
LINE
8
DEFAULT_255_2_778
10
3.1585708
20
4.8137906
11
3.1673708
21
4.7955906
0
LINE
8
DEFAULT_255_2_778
10
3.1823708
20
4.7169906
11
3.1808708
21
4.6770906
0
LINE
8
DEFAULT_255_2_778
10
3.1808708
20
4.6770906
11
3.1749708
21
4.6373906
0
LINE
8
DEFAULT_255_2_778
10
3.1749708
20
4.6373906
11
3.1659708
21
4.5981906
0
LINE
8
DEFAULT_255_2_778
10
3.1659708
20
4.5981906
11
3.1530708
21
4.5605906
0
LINE
8
DEFAULT_255_2_778
10
3.1530708
20
4.5605906
11
3.1355708
21
4.5246906
0
LINE
8
DEFAULT_255_2_778
10
3.1355708
20
4.5246906
11
3.1249708
21
4.5074906
0
LINE
8
DEFAULT_255_2_778
10
3.1249708
20
4.5074906
11
3.1133708
21
4.4909906
0
LINE
8
DEFAULT_255_2_778
10
3.1133708
20
4.4909906
11
3.0866708
21
4.4611906
0
LINE
8
DEFAULT_255_2_778
10
3.0866708
20
4.4611906
11
3.0556708
21
4.4351906
0
LINE
8
DEFAULT_255_2_778
10
3.0556708
20
4.4351906
11
3.0210708
21
4.4153906
0
LINE
8
DEFAULT_255_2_778
10
3.0210708
20
4.4153906
11
3.0019708
21
4.4081906
0
LINE
8
DEFAULT_255_2_778
10
3.0019708
20
4.4081906
11
2.9823708
21
4.4031906
0
LINE
8
DEFAULT_255_2_778
10
2.9823708
20
4.4031906
11
2.9424708
21
4.3983906
0
LINE
8
DEFAULT_255_2_778
10
2.9424708
20
4.3983906
11
2.9022708
21
4.4002906
0
LINE
8
DEFAULT_255_2_778
10
2.9022708
20
4.4002906
11
2.8823708
21
4.4036906
0
LINE
8
DEFAULT_255_2_778
10
2.8823708
20
4.4036906
11
2.8627708
21
4.4092906
0
LINE
8
DEFAULT_255_2_778
10
2.8627708
20
4.4092906
11
2.8267708
21
4.4267906
0
LINE
8
DEFAULT_255_2_778
10
2.8267708
20
4.4267906
11
2.8106708
21
4.4388906
0
LINE
8
DEFAULT_255_2_778
10
2.8106708
20
4.4388906
11
2.7961708
21
4.4526906
0
LINE
8
DEFAULT_255_2_778
10
2.7961708
20
4.4526906
11
2.7709708
21
4.4843906
0
LINE
8
DEFAULT_255_2_778
10
2.7709708
20
4.4843906
11
2.7513708
21
4.5193906
0
LINE
8
DEFAULT_255_2_778
10
2.7513708
20
4.5193906
11
2.7368708
21
4.5568906
0
LINE
8
DEFAULT_255_2_778
10
2.7273708
20
4.5960906
11
2.7273708
21
4.5989906
0
LINE
8
DEFAULT_255_2_778
10
2.7368708
20
4.5597906
11
2.7503708
21
4.5243906
0
LINE
8
DEFAULT_255_2_778
10
3.1440708
20
5.4654906
11
3.1292708
21
5.5030906
0
LINE
8
DEFAULT_255_2_778
10
3.1292708
20
5.5030906
11
3.1096708
21
5.5384906
0
LINE
8
DEFAULT_255_2_778
10
3.1096708
20
5.5384906
11
3.0847708
21
5.5707906
0
LINE
8
DEFAULT_255_2_778
10
3.0847708
20
5.5707906
11
3.0699708
21
5.5847906
0
LINE
8
DEFAULT_255_2_778
10
3.0699708
20
5.5847906
11
3.0538708
21
5.5972906
0
LINE
8
DEFAULT_255_2_778
10
3.0538708
20
5.5972906
11
3.0363708
21
5.6078906
0
LINE
8
DEFAULT_255_2_778
10
3.0363708
20
5.6078906
11
3.0172708
21
5.6154906
0
LINE
8
DEFAULT_255_2_778
10
3.0172708
20
5.6154906
11
2.9770708
21
5.6220906
0
LINE
8
DEFAULT_255_2_778
10
2.9770708
20
5.6220906
11
2.9363708
21
5.6197906
0
LINE
8
DEFAULT_255_2_778
10
2.9363708
20
5.6197906
11
2.9162708
21
5.6168906
0
LINE
8
DEFAULT_255_2_778
10
2.9162708
20
5.6168906
11
2.8961708
21
5.6128906
0
LINE
8
DEFAULT_255_2_778
10
2.8961708
20
5.6128906
11
2.8768708
21
5.6070906
0
LINE
8
DEFAULT_255_2_778
10
2.8768708
20
5.6070906
11
2.8582708
21
5.5988906
0
LINE
8
DEFAULT_255_2_778
10
2.8582708
20
5.5988906
11
2.8408708
21
5.5884906
0
LINE
8
DEFAULT_255_2_778
10
2.8408708
20
5.5884906
11
2.8244708
21
5.5765906
0
LINE
8
DEFAULT_255_2_778
10
2.8244708
20
5.5765906
11
2.7961708
21
5.5482906
0
LINE
8
DEFAULT_255_2_778
10
2.7961708
20
5.5482906
11
2.7730708
21
5.5149906
0
LINE
8
DEFAULT_255_2_778
10
2.7730708
20
5.5149906
11
2.7556708
21
5.4786906
0
LINE
8
DEFAULT_255_2_778
10
2.7381708
20
5.4001906
11
2.7355708
21
5.3598906
0
LINE
8
DEFAULT_255_2_778
10
2.7355708
20
5.3598906
11
2.7355708
21
5.3397906
0
LINE
8
DEFAULT_255_2_778
10
2.7355708
20
5.3397906
11
2.7368708
21
5.3196906
0
LINE
8
DEFAULT_255_2_778
10
2.7453708
20
5.2802906
11
2.7529708
21
5.2614906
0
LINE
8
DEFAULT_255_2_778
10
2.7529708
20
5.2614906
11
2.7627708
21
5.2440906
0
LINE
8
DEFAULT_255_2_778
10
2.7627708
20
5.2440906
11
2.7744708
21
5.2275906
0
LINE
8
DEFAULT_255_2_778
10
2.7744708
20
5.2275906
11
2.7876708
21
5.2119906
0
LINE
8
DEFAULT_255_2_778
10
2.7876708
20
5.2119906
11
2.8172708
21
5.1847906
0
LINE
8
DEFAULT_255_2_778
10
2.8172708
20
5.1847906
11
2.8495708
21
5.1603906
0
LINE
8
DEFAULT_255_2_778
10
2.8495708
20
5.1603906
11
2.8834708
21
5.1381906
0
LINE
8
DEFAULT_255_2_778
10
2.8834708
20
5.1381906
11
2.9175708
21
5.1164906
0
LINE
8
DEFAULT_255_2_778
10
2.9175708
20
5.1164906
11
2.9514708
21
5.0945906
0
LINE
8
DEFAULT_255_2_778
10
2.9514708
20
5.0945906
11
3.0188708
21
5.0497906
0
LINE
8
DEFAULT_255_2_778
10
3.0188708
20
5.0497906
11
3.0530708
21
5.0281906
0
LINE
8
DEFAULT_255_2_778
10
3.0530708
20
5.0281906
11
3.0871708
21
5.0064906
0
LINE
8
DEFAULT_255_2_778
10
3.0871708
20
5.0064906
11
3.1199708
21
4.9831906
0
LINE
8
DEFAULT_255_2_778
10
3.1199708
20
4.9831906
11
3.1509708
21
4.9577906
0
LINE
8
DEFAULT_255_2_778
10
3.1509708
20
4.9577906
11
3.1794708
21
4.9296906
0
LINE
8
DEFAULT_255_2_778
10
3.1794708
20
4.9296906
11
3.2048708
21
4.8981906
0
LINE
8
DEFAULT_255_2_778
10
3.2048708
20
4.8981906
11
3.2260708
21
4.8640906
0
LINE
8
DEFAULT_255_2_778
10
3.2260708
20
4.8640906
11
3.2427708
21
4.8275906
0
LINE
8
DEFAULT_255_2_778
10
3.2427708
20
4.8275906
11
3.2490708
21
4.8082906
0
LINE
8
DEFAULT_255_2_778
10
3.2490708
20
4.8082906
11
3.2538708
21
4.7886906
0
LINE
8
DEFAULT_255_2_778
10
3.2596708
20
4.7489906
11
3.2615708
21
4.7087906
0
LINE
8
DEFAULT_255_2_778
10
3.2615708
20
4.7087906
11
3.2599708
21
4.6682906
0
LINE
8
DEFAULT_255_2_778
10
3.2469708
20
4.5888906
11
3.2358708
21
4.5500906
0
LINE
8
DEFAULT_255_2_778
10
3.2358708
20
4.5500906
11
3.2218708
21
4.5124906
0
LINE
8
DEFAULT_255_2_778
10
3.1837708
20
4.4417906
11
3.1593708
21
4.4095906
0
LINE
8
DEFAULT_255_2_778
10
3.1593708
20
4.4095906
11
3.1315708
21
4.3804906
0
LINE
8
DEFAULT_255_2_778
10
3.1315708
20
4.3804906
11
3.1003708
21
4.3547906
0
LINE
8
DEFAULT_255_2_778
10
3.1003708
20
4.3547906
11
3.0665708
21
4.3330906
0
LINE
8
DEFAULT_255_2_778
10
3.0665708
20
4.3330906
11
3.0297708
21
4.3161906
0
LINE
8
DEFAULT_255_2_778
10
3.0297708
20
4.3161906
11
2.9908708
21
4.3049906
0
LINE
8
DEFAULT_255_2_778
10
2.9908708
20
4.3049906
11
2.9508708
21
4.2999906
0
LINE
8
DEFAULT_255_2_778
10
2.9508708
20
4.2999906
11
2.9104708
21
4.3002906
0
LINE
8
DEFAULT_255_2_778
10
2.9104708
20
4.3002906
11
2.8704708
21
4.3060906
0
LINE
8
DEFAULT_255_2_778
10
2.8704708
20
4.3060906
11
2.8318708
21
4.3179906
0
LINE
8
DEFAULT_255_2_778
10
2.8318708
20
4.3179906
11
2.7961708
21
4.3362906
0
LINE
8
DEFAULT_255_2_778
10
2.7961708
20
4.3362906
11
2.7635708
21
4.3602906
0
LINE
8
DEFAULT_255_2_778
10
2.7635708
20
4.3602906
11
2.7352708
21
4.3891906
0
LINE
8
DEFAULT_255_2_778
10
2.7352708
20
4.3891906
11
2.7228708
21
4.4050906
0
LINE
8
DEFAULT_255_2_778
10
2.7228708
20
4.4050906
11
2.7111708
21
4.4216906
0
LINE
8
DEFAULT_255_2_778
10
2.6516708
20
4.5693906
11
2.6516708
21
4.5722906
0
LINE
8
DEFAULT_255_2_778
10
4.2918313
20
5.3573708
11
4.2870313
21
5.4605708
0
LINE
8
DEFAULT_255_2_778
10
4.4762313
20
5.7026708
11
4.4312313
21
5.6404708
0
LINE
8
DEFAULT_255_2_778
10
4.4312313
20
5.6404708
11
4.3854313
21
5.5788708
0
LINE
8
DEFAULT_255_2_778
10
4.3854313
20
5.5788708
11
4.3381313
21
5.5182708
0
LINE
8
DEFAULT_255_2_778
10
4.3381313
20
5.5182708
11
4.2873313
21
5.4605708
0
LINE
8
DEFAULT_255_2_778
10
4.2873313
20
5.4605708
11
4.2873313
21
5.4634708
0
LINE
8
DEFAULT_255_2_778
10
4.2873313
20
5.4634708
11
4.3381313
21
5.5211708
0
LINE
8
DEFAULT_255_2_778
10
4.3381313
20
5.5211708
11
4.3852313
21
5.5817708
0
LINE
8
DEFAULT_255_2_778
10
4.3852313
20
5.5817708
11
4.4309313
21
5.6433708
0
LINE
8
DEFAULT_255_2_778
10
4.4309313
20
5.6433708
11
4.4759313
21
5.7055708
0
LINE
8
DEFAULT_255_2_778
10
4.5743313
20
5.7026708
11
4.4759313
21
5.7026708
0
LINE
8
DEFAULT_255_2_778
10
4.4759313
20
5.7026708
11
4.4759313
21
5.7055708
0
LINE
8
DEFAULT_255_2_778
10
4.4759313
20
5.7055708
11
4.5743313
21
5.7055708
0
LINE
8
DEFAULT_255_2_778
10
4.5743313
20
5.7055708
11
4.5743313
21
4.3096708
0
LINE
8
DEFAULT_255_2_778
10
4.5743313
20
4.3096708
11
4.4963313
21
4.3096708
0
LINE
8
DEFAULT_255_2_778
10
4.4963313
20
4.3096708
11
4.4963313
21
5.5825708
0
LINE
8
DEFAULT_255_2_778
10
4.4963313
20
5.5825708
11
4.4497313
21
5.5208708
0
LINE
8
DEFAULT_255_2_778
10
4.4497313
20
5.5208708
11
4.4024313
21
5.4600708
0
LINE
8
DEFAULT_255_2_778
10
4.4024313
20
5.4600708
11
4.3780313
21
5.4301708
0
LINE
8
DEFAULT_255_2_778
10
4.3780313
20
5.4301708
11
4.3529313
21
5.4010708
0
LINE
8
DEFAULT_255_2_778
10
4.3529313
20
5.4010708
11
4.3259313
21
5.3734708
0
LINE
8
DEFAULT_255_2_778
10
4.3259313
20
5.3734708
11
4.3185313
21
5.3674708
0
LINE
8
DEFAULT_255_2_778
10
4.3185313
20
5.3674708
11
4.3103313
21
5.3621708
0
LINE
8
DEFAULT_255_2_778
10
4.3103313
20
5.3621708
11
4.3013313
21
5.3589708
0
LINE
8
DEFAULT_255_2_778
10
4.3013313
20
5.3589708
11
4.2918313
21
5.3573708
0
ARC
8
DEFAULT_255_2_778
10
32.3401154
20
-43.8493252
40
55.5968664
50
119.5386228
51
119.6235884
0
ARC
8
DEFAULT_255_2_778
10
5.0468813
20
4.6057151
40
0.3349928
50
321.3208086
51
335.0032556
0
ARC
8
DEFAULT_255_2_778
10
4.7571464
20
4.7022133
40
0.6412223
50
345.3055719
51
352.4406364
0
ARC
8
DEFAULT_255_2_778
10
5.0458291
20
4.7541226
40
0.3531205
50
10.2665147
51
16.8462057
0
ARC
8
DEFAULT_255_2_778
10
5.1068059
20
4.7744124
40
0.2888858
50
16.4995625
51
32.4829755
0
ARC
8
DEFAULT_255_2_778
10
5.0938305
20
5.29498
40
0.2948779
50
342.6527035
51
350.075627
0
ARC
8
DEFAULT_255_2_778
10
5.0421813
20
5.3038813
40
0.3472884
50
350.0976548
51
356.4303227
0
ARC
8
DEFAULT_255_2_778
10
4.7271529
20
5.3390409
40
0.6627334
50
1.6962425
51
8.2692212
0
ARC
8
DEFAULT_255_2_778
10
4.9650172
20
5.3935851
40
0.4189635
50
16.0272064
51
26.520267
0
ARC
8
DEFAULT_255_2_778
10
5.0994864
20
5.4534356
40
0.2674569
50
92.3979672
51
108.7769666
0
ARC
8
DEFAULT_255_2_778
10
12.0315194
20
-8.0755462
40
14.4586826
50
119.4177496
51
119.7444617
0
ARC
8
DEFAULT_255_2_778
10
-1.2475339
20
-4.3268901
40
11.6087768
50
57.8507998
51
58.2678182
0
ARC
8
DEFAULT_255_2_778
10
5.1584886
20
5.4121456
40
0.2456598
50
144.1389942
51
158.5806745
0
ARC
8
DEFAULT_255_2_778
10
4.7314649
20
5.3427356
40
0.5791363
50
3.8334234
51
6.3071253
0
ARC
8
DEFAULT_255_2_778
10
4.6044763
20
5.3346106
40
0.7063841
50
0.7744493
51
3.8023454
0
ARC
8
DEFAULT_255_2_778
10
5.0526295
20
5.3121371
40
0.2575761
50
348.0538459
51
353.2043105
0
ARC
8
DEFAULT_255_2_778
10
5.1400742
20
5.2946626
40
0.1684111
50
345.0647048
51
347.7121643
0
ARC
8
DEFAULT_255_2_778
10
5.1036418
20
5.3105164
40
0.2073858
50
301.1104686
51
318.2634524
0
ARC
8
DEFAULT_255_2_778
10
5.0701939
20
5.3139935
40
0.2397406
50
345.4977888
51
352.8992998
0
ARC
8
DEFAULT_255_2_778
10
60.3784316
20
7.7096452
40
55.3443269
50
182.7208446
51
182.821486
0
ARC
8
DEFAULT_255_2_778
10
5.0886192
20
4.753975
40
0.2301174
50
5.7070351
51
13.7981065
0
ARC
8
DEFAULT_255_2_778
10
5.0764752
20
4.6088637
40
0.2244833
50
320.4614468
51
337.2513054
0
ARC
8
DEFAULT_255_2_778
10
5.1555564
20
4.5983832
40
0.2385976
50
198.6562445
51
213.1075404
0
ARC
8
DEFAULT_255_2_778
10
-12366.8310053
20
4416.1244459
40
13135.2294748
50
340.3765448
51
340.3806417
0
ARC
8
DEFAULT_255_2_778
10
12378.1563968
20
-4405.5851291
40
13135.2294745
50
160.3765448
51
160.3806417
0
ARC
8
DEFAULT_255_2_778
10
15.2949966
20
-6.8776144
40
14.7754548
50
122.7991491
51
123.1305374
0
ARC
8
DEFAULT_255_2_778
10
7.0052469
20
5.4122828
40
0.2299365
50
21.2868415
51
36.2845673
0
ARC
8
DEFAULT_255_2_778
10
7.151572
20
5.3888049
40
0.302641
50
151.1881245
51
162.5898037
0
ARC
8
DEFAULT_255_2_778
10
7.3720851
20
5.3161643
40
0.5347969
50
162.232724
51
168.6778573
0
ARC
8
DEFAULT_255_2_778
10
7.1581056
20
4.8746658
40
0.3584297
50
149.7453784
51
158.6841302
0
ARC
8
DEFAULT_255_2_778
10
7.1142783
20
4.9007963
40
0.3074066
50
139.4221691
51
149.8365791
0
ARC
8
DEFAULT_255_2_778
10
6.9730857
20
4.9102158
40
0.3504147
50
24.1640662
51
33.3502705
0
ARC
8
DEFAULT_255_2_778
10
6.3011622
20
4.771787
40
1.0397666
50
0.4557932
51
6.620167
0
ARC
8
DEFAULT_255_2_778
10
7.0262677
20
4.5754798
40
0.2906055
50
323.6071802
51
334.6064225
0
ARC
8
DEFAULT_255_2_778
10
7.0555216
20
4.5454891
40
0.2512293
50
221.8545844
51
234.6578139
0
ARC
8
DEFAULT_255_2_778
10
7.158854
20
4.6240991
40
0.3817146
50
203.4235052
51
211.8166233
0
ARC
8
DEFAULT_255_2_778
10
7.2845756
20
4.6796716
40
0.519168
50
197.3376592
51
203.5355678
0
ARC
8
DEFAULT_255_2_778
10
7.532518
20
4.7484509
40
0.7763852
50
188.5175796
51
196.7300642
0
ARC
8
DEFAULT_255_2_778
10
7.1435004
20
5.4100524
40
0.3717044
50
154.0066081
51
162.6563411
0
ARC
8
DEFAULT_255_2_778
10
7.0977818
20
5.4361187
40
0.3192044
50
144.5051429
51
154.61558
0
ARC
8
DEFAULT_255_2_778
10
7.0197295
20
5.5057996
40
0.213681
50
117.4294919
51
132.4537501
0
ARC
8
DEFAULT_255_2_778
10
7.0467592
20
5.459768
40
0.2566724
50
43.9350685
51
56.4009816
0
ARC
8
DEFAULT_255_2_778
10
7.0107967
20
5.436139
40
0.2997408
50
20.8571152
51
31.6357742
0
ARC
8
DEFAULT_255_2_778
10
7.0692207
20
4.5713263
40
0.1751924
50
223.6685891
51
242.2674932
0
ARC
8
DEFAULT_255_2_778
10
7.2217342
20
4.7019889
40
0.3765296
50
204.7152852
51
213.3741798
0
ARC
8
DEFAULT_255_2_778
10
7.2183892
20
4.6988772
40
0.3721928
50
195.7645058
51
204.4954372
0
ARC
8
DEFAULT_255_2_778
10
7.2654813
20
4.7121814
40
0.4211282
50
188.0430608
51
195.7658153
0
ARC
8
DEFAULT_255_2_778
10
7.4744256
20
4.7370254
40
0.6315101
50
182.4565052
51
187.6225077
0
ARC
8
DEFAULT_255_2_778
10
7.5741169
20
4.7414428
40
0.731299
50
180.2622272
51
182.4675043
0
ARC
8
DEFAULT_255_2_778
10
7.5162426
20
4.7408911
40
0.6734228
50
179.9959696
51
180.2378249
0
ARC
8
DEFAULT_255_2_778
10
7.4210476
20
4.7429416
40
0.5782314
50
172.1058055
51
180.1984899
0
ARC
8
DEFAULT_255_2_778
10
7.2721303
20
4.772774
40
0.425976
50
158.0274271
51
165.6765848
0
ARC
8
DEFAULT_255_2_778
10
7.2328252
20
4.7904343
40
0.3829217
50
149.7642063
51
158.2774572
0
ARC
8
DEFAULT_255_2_778
10
7.2050769
20
4.8057366
40
0.3512436
50
140.3087778
51
149.641489
0
ARC
8
DEFAULT_255_2_778
10
6.763107
20
4.8348399
40
0.4935948
50
8.565786
51
15.1282236
0
ARC
8
DEFAULT_255_2_778
10
6.964073
20
4.6279326
40
0.2783737
50
324.7469196
51
336.4162541
0
ARC
8
DEFAULT_255_2_778
10
8.707257
20
5.3663758
40
0.3522733
50
34.2345423
51
45.9481255
0
ARC
8
DEFAULT_255_2_778
10
8.4936023
20
5.2484664
40
0.5970334
50
18.2219762
51
25.1138524
0
ARC
8
DEFAULT_255_2_778
10
7.7155455
20
5.0720284
40
1.3967848
50
3.3832197
51
9.2170486
0
ARC
8
DEFAULT_255_2_778
10
8.5898542
20
4.724766
40
0.4852173
50
327.0226003
51
335.4751596
0
ARC
8
DEFAULT_255_2_778
10
8.7314393
20
4.6315095
40
0.3156855
50
314.2434753
51
327.2341544
0
ARC
8
DEFAULT_255_2_778
10
8.6142327
20
5.1973179
40
0.8876596
50
260.7269732
51
269.9911694
0
ARC
8
DEFAULT_255_2_778
10
8.7273328
20
4.6705215
40
0.2561061
50
308.4523726
51
321.5476117
0
ARC
8
DEFAULT_255_2_778
10
8.6156548
20
4.7445518
40
0.3906107
50
331.7983152
51
340.2968071
0
ARC
8
DEFAULT_255_2_778
10
8.6602469
20
5.3114254
40
0.3361637
50
27.2523544
51
37.1761648
0
ARC
8
DEFAULT_255_2_778
10
9.5691121
20
4.551186
40
0.1478833
50
294.9083617
51
312.329586
0
ARC
8
DEFAULT_255_2_778
10
9.9051291
20
4.6931677
40
0.5445491
50
187.3017414
51
196.6810425
0
ARC
8
DEFAULT_255_2_778
10
9.7242514
20
5.3601193
40
0.364624
50
163.1423614
51
170.1558943
0
ARC
8
DEFAULT_255_2_778
10
9.6473347
20
5.3808234
40
0.2850194
50
153.755804
51
162.641603
0
ARC
8
DEFAULT_255_2_778
10
9.4836653
20
5.3903169
40
0.2596433
50
20.2910347
51
30.0560144
0
ARC
8
DEFAULT_255_2_778
10
9.4251796
20
5.3696618
40
0.3216637
50
12.1855973
51
20.1291425
0
ARC
8
DEFAULT_255_2_778
10
9.4715889
20
4.6118171
40
0.2624352
50
328.6441113
51
338.3413019
0
ARC
8
DEFAULT_255_2_778
10
9.6175966
20
4.597639
40
0.3231244
50
198.846611
51
208.3385223
0
ARC
8
DEFAULT_255_2_778
10
9.8071111
20
4.6619529
40
0.5232543
50
192.9649338
51
198.8078242
0
ARC
8
DEFAULT_255_2_778
10
10.176963
20
4.7310193
40
0.8993097
50
185.2290594
51
191.9663927
0
ARC
8
DEFAULT_255_2_778
10
9.7106382
20
5.380828
40
0.4224672
50
150.0474945
51
164.622294
0
ARC
8
DEFAULT_255_2_778
10
9.5587702
20
5.4789898
40
0.2377269
50
36.4889407
51
49.4256581
0
ARC
8
DEFAULT_255_2_778
10
9.3992616
20
5.38687
40
0.4226009
50
19.1008228
51
26.3372142
0
ARC
8
DEFAULT_255_2_778
10
9.0103825
20
5.2775441
40
0.8268821
50
6.3471862
51
13.7126199
0
ARC
8
DEFAULT_255_2_778
10
9.0899687
20
4.7302583
40
0.7455925
50
343.9770655
51
352.1060209
0
ARC
8
DEFAULT_255_2_778
10
9.4198681
20
4.6225782
40
0.3977183
50
330.5208682
51
338.1813742
0
ARC
8
DEFAULT_255_2_778
10
9.5251814
20
4.5634713
40
0.2769529
50
319.3784321
51
330.4441687
0
ARC
8
DEFAULT_255_2_778
10
9.5567786
20
4.5364521
40
0.2353787
50
306.2607586
51
319.3630036
0
LINE
8
DEFAULT_255_2_778
10
4.8585959
20
4.4805583
11
4.8585959
21
4.4776583
0
LINE
8
DEFAULT_255_2_778
10
4.8585959
20
4.4776583
11
4.8736959
21
4.4405583
0
LINE
8
DEFAULT_255_2_778
10
4.8736959
20
4.4405583
11
4.8918959
21
4.4051583
0
LINE
8
DEFAULT_255_2_778
10
4.8918959
20
4.4051583
11
4.9029959
21
4.3884583
0
LINE
8
DEFAULT_255_2_778
10
4.9029959
20
4.3884583
11
4.9159959
21
4.3728583
0
LINE
8
DEFAULT_255_2_778
10
4.9159959
20
4.3728583
11
4.9455959
21
4.3458583
0
LINE
8
DEFAULT_255_2_778
10
4.9455959
20
4.3458583
11
4.9799959
21
4.3246583
0
LINE
8
DEFAULT_255_2_778
10
4.9799959
20
4.3246583
11
5.0172959
21
4.3101583
0
LINE
8
DEFAULT_255_2_778
10
5.0172959
20
4.3101583
11
5.0371959
21
4.3056583
0
LINE
8
DEFAULT_255_2_778
10
5.0371959
20
4.3056583
11
5.0569959
21
4.3027583
0
LINE
8
DEFAULT_255_2_778
10
5.0569959
20
4.3027583
11
5.0969959
21
4.3008583
0
LINE
8
DEFAULT_255_2_778
10
5.0969959
20
4.3008583
11
5.1170959
21
4.3016583
0
LINE
8
DEFAULT_255_2_778
10
5.1170959
20
4.3016583
11
5.1371959
21
4.3035583
0
LINE
8
DEFAULT_255_2_778
10
5.1371959
20
4.3035583
11
5.1763959
21
4.3109583
0
LINE
8
DEFAULT_255_2_778
10
5.1763959
20
4.3109583
11
5.2138959
21
4.3238583
0
LINE
8
DEFAULT_255_2_778
10
5.2138959
20
4.3238583
11
5.2493959
21
4.3429583
0
LINE
8
DEFAULT_255_2_778
10
5.2493959
20
4.3429583
11
5.2808959
21
4.3672583
0
LINE
8
DEFAULT_255_2_778
10
5.2808959
20
4.3672583
11
5.2951959
21
4.3813583
0
LINE
8
DEFAULT_255_2_778
10
5.2951959
20
4.3813583
11
5.3083959
21
4.3963583
0
LINE
8
DEFAULT_255_2_778
10
5.3504959
20
4.4641583
11
5.3657959
21
4.5014583
0
LINE
8
DEFAULT_255_2_778
10
5.3657959
20
4.5014583
11
5.3773959
21
4.5395583
0
LINE
8
DEFAULT_255_2_778
10
5.3927959
20
4.6178583
11
5.3969959
21
4.6577583
0
LINE
8
DEFAULT_255_2_778
10
5.3969959
20
4.6577583
11
5.3993959
21
4.6977583
0
LINE
8
DEFAULT_255_2_778
10
5.3993959
20
4.6977583
11
5.3998959
21
4.7377583
0
LINE
8
DEFAULT_255_2_778
10
5.3998959
20
4.7377583
11
5.3982959
21
4.7773583
0
LINE
8
DEFAULT_255_2_778
10
5.3982959
20
4.7773583
11
5.3932959
21
4.8170583
0
LINE
8
DEFAULT_255_2_778
10
5.3504959
20
4.9295583
11
5.3255959
21
4.9612583
0
LINE
8
DEFAULT_255_2_778
10
5.3255959
20
4.9612583
11
5.2961959
21
4.9887583
0
LINE
8
DEFAULT_255_2_778
10
5.2961959
20
4.9887583
11
5.2641959
21
5.0133583
0
LINE
8
DEFAULT_255_2_778
10
5.2641959
20
5.0133583
11
5.2308959
21
5.0361583
0
LINE
8
DEFAULT_255_2_778
10
5.2308959
20
5.0361583
11
5.2625959
21
5.0573583
0
LINE
8
DEFAULT_255_2_778
10
5.2625959
20
5.0573583
11
5.2927959
21
5.0806583
0
LINE
8
DEFAULT_255_2_778
10
5.2927959
20
5.0806583
11
5.3067959
21
5.0933583
0
LINE
8
DEFAULT_255_2_778
10
5.3067959
20
5.0933583
11
5.3199959
21
5.1073583
0
LINE
8
DEFAULT_255_2_778
10
5.3199959
20
5.1073583
11
5.3432959
21
5.1377583
0
LINE
8
DEFAULT_255_2_778
10
5.3432959
20
5.1377583
11
5.3615959
21
5.1710583
0
LINE
8
DEFAULT_255_2_778
10
5.3615959
20
5.1710583
11
5.3752959
21
5.2070583
0
LINE
8
DEFAULT_255_2_778
10
5.3887959
20
5.2822583
11
5.3900959
21
5.3205583
0
LINE
8
DEFAULT_255_2_778
10
5.3900959
20
5.3205583
11
5.3895959
21
5.3586583
0
LINE
8
DEFAULT_255_2_778
10
5.3829959
20
5.4343583
11
5.3765959
21
5.4719583
0
LINE
8
DEFAULT_255_2_778
10
5.3765959
20
5.4719583
11
5.3676959
21
5.5092583
0
LINE
8
DEFAULT_255_2_778
10
5.3398959
20
5.5806583
11
5.3202959
21
5.6137583
0
LINE
8
DEFAULT_255_2_778
10
5.3202959
20
5.6137583
11
5.2966959
21
5.6436583
0
LINE
8
DEFAULT_255_2_778
10
5.2966959
20
5.6436583
11
5.2686959
21
5.6698583
0
LINE
8
DEFAULT_255_2_778
10
5.2686959
20
5.6698583
11
5.2366959
21
5.6909583
0
LINE
8
DEFAULT_255_2_778
10
5.2366959
20
5.6909583
11
5.2017959
21
5.7063583
0
LINE
8
DEFAULT_255_2_778
10
5.2017959
20
5.7063583
11
5.1831959
21
5.7118583
0
LINE
8
DEFAULT_255_2_778
10
5.1831959
20
5.7118583
11
5.1644959
21
5.7161583
0
LINE
8
DEFAULT_255_2_778
10
5.1644959
20
5.7161583
11
5.1265959
21
5.7206583
0
LINE
8
DEFAULT_255_2_778
10
5.1265959
20
5.7206583
11
5.0882959
21
5.7206583
0
LINE
8
DEFAULT_255_2_778
10
5.0133959
20
5.7066583
11
4.9781959
21
5.6909583
0
LINE
8
DEFAULT_255_2_778
10
4.9781959
20
5.6909583
11
4.9461959
21
5.6700583
0
LINE
8
DEFAULT_255_2_778
10
4.9461959
20
5.6700583
11
4.9175959
21
5.6444583
0
LINE
8
DEFAULT_255_2_778
10
4.9175959
20
5.6444583
11
4.8929959
21
5.6147583
0
LINE
8
DEFAULT_255_2_778
10
4.8929959
20
5.6147583
11
4.8728959
21
5.5819583
0
LINE
8
DEFAULT_255_2_778
10
4.8728959
20
5.5819583
11
4.8577959
21
5.5465583
0
LINE
8
DEFAULT_255_2_778
10
4.8577959
20
5.5465583
11
4.8577959
21
5.5494583
0
LINE
8
DEFAULT_255_2_778
10
4.9593959
20
5.5560583
11
4.9694959
21
5.5682583
0
LINE
8
DEFAULT_255_2_778
10
4.9694959
20
5.5682583
11
4.9802959
21
5.5793583
0
LINE
8
DEFAULT_255_2_778
10
4.9802959
20
5.5793583
11
5.0048959
21
5.5983583
0
LINE
8
DEFAULT_255_2_778
10
5.0048959
20
5.5983583
11
5.0186959
21
5.6057583
0
LINE
8
DEFAULT_255_2_778
10
5.0186959
20
5.6057583
11
5.0329959
21
5.6118583
0
LINE
8
DEFAULT_255_2_778
10
5.0329959
20
5.6118583
11
5.0477959
21
5.6166583
0
LINE
8
DEFAULT_255_2_778
10
5.0477959
20
5.6166583
11
5.0630959
21
5.6200583
0
LINE
8
DEFAULT_255_2_778
10
5.0630959
20
5.6200583
11
5.0940959
21
5.6237583
0
LINE
8
DEFAULT_255_2_778
10
5.0940959
20
5.6237583
11
5.1249959
21
5.6235583
0
LINE
8
DEFAULT_255_2_778
10
5.1249959
20
5.6235583
11
5.1559959
21
5.6190583
0
LINE
8
DEFAULT_255_2_778
10
5.1559959
20
5.6190583
11
5.1858959
21
5.6100583
0
LINE
8
DEFAULT_255_2_778
10
5.1858959
20
5.6100583
11
5.2136959
21
5.5957583
0
LINE
8
DEFAULT_255_2_778
10
5.2136959
20
5.5957583
11
5.2376959
21
5.5761583
0
LINE
8
DEFAULT_255_2_778
10
5.2376959
20
5.5761583
11
5.2575959
21
5.5520583
0
LINE
8
DEFAULT_255_2_778
10
5.2575959
20
5.5520583
11
5.2734959
21
5.5253583
0
LINE
8
DEFAULT_255_2_778
10
5.2734959
20
5.5253583
11
5.2858959
21
5.4967583
0
LINE
8
DEFAULT_255_2_778
10
5.2858959
20
5.4967583
11
5.2953959
21
5.4674583
0
LINE
8
DEFAULT_255_2_778
10
5.2953959
20
5.4674583
11
5.3022959
21
5.4372583
0
LINE
8
DEFAULT_255_2_778
10
5.3022959
20
5.4372583
11
5.3070959
21
5.4063583
0
LINE
8
DEFAULT_255_2_778
10
5.3107959
20
5.3441583
11
5.3104959
21
5.3129583
0
LINE
8
DEFAULT_255_2_778
10
5.3104959
20
5.3129583
11
5.3083959
21
5.2816583
0
LINE
8
DEFAULT_255_2_778
10
5.3027959
20
5.2512583
11
5.2982959
21
5.2364583
0
LINE
8
DEFAULT_255_2_778
10
5.2982959
20
5.2364583
11
5.2924959
21
5.2218583
0
LINE
8
DEFAULT_255_2_778
10
5.2924959
20
5.2218583
11
5.2776959
21
5.1946583
0
LINE
8
DEFAULT_255_2_778
10
5.2776959
20
5.1946583
11
5.2591959
21
5.1697583
0
LINE
8
DEFAULT_255_2_778
10
5.2591959
20
5.1697583
11
5.2482959
21
5.1583583
0
LINE
8
DEFAULT_255_2_778
10
5.2482959
20
5.1583583
11
5.2366959
21
5.1480583
0
LINE
8
DEFAULT_255_2_778
10
5.2366959
20
5.1480583
11
5.2112959
21
5.1300583
0
LINE
8
DEFAULT_255_2_778
10
5.2112959
20
5.1300583
11
5.1977959
21
5.1221583
0
LINE
8
DEFAULT_255_2_778
10
5.1977959
20
5.1221583
11
5.1837959
21
5.1152583
0
LINE
8
DEFAULT_255_2_778
10
5.1837959
20
5.1152583
11
5.1548959
21
5.1033583
0
LINE
8
DEFAULT_255_2_778
10
5.1548959
20
5.1033583
11
5.0966959
21
5.0813583
0
LINE
8
DEFAULT_255_2_778
10
5.0966959
20
5.0813583
11
5.0966959
21
5.0843583
0
LINE
8
DEFAULT_255_2_778
10
5.0966959
20
5.0843583
11
5.1546959
21
5.1062583
0
LINE
8
DEFAULT_255_2_778
10
5.1546959
20
5.1062583
11
5.1831959
21
5.1181583
0
LINE
8
DEFAULT_255_2_778
10
5.1831959
20
5.1181583
11
5.1972959
21
5.1250583
0
LINE
8
DEFAULT_255_2_778
10
5.1972959
20
5.1250583
11
5.2107959
21
5.1329583
0
LINE
8
DEFAULT_255_2_778
10
5.2583959
20
5.1724583
11
5.2771959
21
5.1972583
0
LINE
8
DEFAULT_255_2_778
10
5.2771959
20
5.1972583
11
5.2919959
21
5.2245583
0
LINE
8
DEFAULT_255_2_778
10
5.2919959
20
5.2245583
11
5.3022959
21
5.2539583
0
LINE
8
DEFAULT_255_2_778
10
5.3080959
20
5.2843583
11
5.3101959
21
5.3155583
0
LINE
8
DEFAULT_255_2_778
10
5.3101959
20
5.3155583
11
5.3104959
21
5.3401583
0
LINE
8
DEFAULT_255_2_778
10
5.1011959
20
4.9853583
11
5.1323959
21
4.9774583
0
LINE
8
DEFAULT_255_2_778
10
5.1323959
20
4.9774583
11
5.1628959
21
4.9673583
0
LINE
8
DEFAULT_255_2_778
10
5.1628959
20
4.9673583
11
5.1921959
21
4.9549583
0
LINE
8
DEFAULT_255_2_778
10
5.1921959
20
4.9549583
11
5.2202959
21
4.9387583
0
LINE
8
DEFAULT_255_2_778
10
5.2202959
20
4.9387583
11
5.2461959
21
4.9189583
0
LINE
8
DEFAULT_255_2_778
10
5.2461959
20
4.9189583
11
5.2686959
21
4.8956583
0
LINE
8
DEFAULT_255_2_778
10
5.2686959
20
4.8956583
11
5.2874959
21
4.8689583
0
LINE
8
DEFAULT_255_2_778
10
5.2874959
20
4.8689583
11
5.3019959
21
4.8400583
0
LINE
8
DEFAULT_255_2_778
10
5.3019959
20
4.8400583
11
5.3075959
21
4.8247583
0
LINE
8
DEFAULT_255_2_778
10
5.3075959
20
4.8247583
11
5.3120959
21
4.8088583
0
LINE
8
DEFAULT_255_2_778
10
5.3175959
20
4.7768583
11
5.3194959
21
4.7445583
0
LINE
8
DEFAULT_255_2_778
10
5.3194959
20
4.7445583
11
5.3191959
21
4.7120583
0
LINE
8
DEFAULT_255_2_778
10
5.3191959
20
4.7120583
11
5.3141959
21
4.6474583
0
LINE
8
DEFAULT_255_2_778
10
5.3141959
20
4.6474583
11
5.3033959
21
4.5839583
0
LINE
8
DEFAULT_255_2_778
10
5.3033959
20
4.5839583
11
5.2948959
21
4.5527583
0
LINE
8
DEFAULT_255_2_778
10
5.2948959
20
4.5527583
11
5.2834959
21
4.5220583
0
LINE
8
DEFAULT_255_2_778
10
5.2495959
20
4.4659583
11
5.2263959
21
4.4429583
0
LINE
8
DEFAULT_255_2_778
10
5.2263959
20
4.4429583
11
5.1990959
21
4.4249583
0
LINE
8
DEFAULT_255_2_778
10
5.1990959
20
4.4249583
11
5.1686959
21
4.4119583
0
LINE
8
DEFAULT_255_2_778
10
5.1686959
20
4.4119583
11
5.1366959
21
4.4043583
0
LINE
8
DEFAULT_255_2_778
10
5.1366959
20
4.4043583
11
5.1040959
21
4.4011583
0
LINE
8
DEFAULT_255_2_778
10
5.1040959
20
4.4011583
11
5.0715959
21
4.4016583
0
LINE
8
DEFAULT_255_2_778
10
5.0715959
20
4.4016583
11
5.0389959
21
4.4067583
0
LINE
8
DEFAULT_255_2_778
10
5.0389959
20
4.4067583
11
5.0080959
21
4.4178583
0
LINE
8
DEFAULT_255_2_778
10
5.0080959
20
4.4178583
11
4.9807959
21
4.4360583
0
LINE
8
DEFAULT_255_2_778
10
4.9807959
20
4.4360583
11
4.9588959
21
4.4606583
0
LINE
8
DEFAULT_255_2_778
10
4.9588959
20
4.4606583
11
4.9421959
21
4.4887583
0
LINE
8
DEFAULT_255_2_778
10
4.9421959
20
4.4887583
11
4.9294959
21
4.5191583
0
LINE
8
DEFAULT_255_2_778
10
4.9294959
20
4.5191583
11
4.9294959
21
4.5220583
0
LINE
8
DEFAULT_255_2_778
10
5.5829959
20
4.8043583
11
5.6014959
21
4.8549583
0
LINE
8
DEFAULT_255_2_778
10
5.6014959
20
4.8549583
11
5.6197959
21
4.9054583
0
LINE
8
DEFAULT_255_2_778
10
5.6197959
20
4.9054583
11
5.6559959
21
5.0065583
0
LINE
8
DEFAULT_255_2_778
10
5.6559959
20
5.0065583
11
5.7284959
21
5.2086583
0
LINE
8
DEFAULT_255_2_778
10
5.7284959
20
5.2086583
11
5.8004959
21
5.4110583
0
LINE
8
DEFAULT_255_2_778
10
5.8004959
20
5.4110583
11
5.8361959
21
5.5124583
0
LINE
8
DEFAULT_255_2_778
10
5.8361959
20
5.5124583
11
5.8541959
21
5.5629583
0
LINE
8
DEFAULT_255_2_778
10
5.8541959
20
5.5629583
11
5.8718959
21
5.6134583
0
LINE
8
DEFAULT_255_2_778
10
5.8718959
20
5.6134583
11
5.9266959
21
5.6134583
0
LINE
8
DEFAULT_255_2_778
10
5.9266959
20
5.6134583
11
5.9266959
21
4.7792583
0
LINE
8
DEFAULT_255_2_778
10
5.9266959
20
4.7792583
11
5.5832959
21
4.7792583
0
LINE
8
DEFAULT_255_2_778
10
5.5832959
20
4.7792583
11
5.5829959
21
4.8043583
0
LINE
8
DEFAULT_255_2_778
10
6.0060959
20
5.7105583
11
6.0060959
21
5.7134583
0
LINE
8
DEFAULT_255_2_778
10
6.0060959
20
5.7134583
11
5.8203959
21
5.7134583
0
LINE
8
DEFAULT_255_2_778
10
5.8203959
20
5.7134583
11
5.8203959
21
5.7105583
0
LINE
8
DEFAULT_255_2_778
10
5.8203959
20
5.7105583
11
6.0060959
21
5.7105583
0
LINE
8
DEFAULT_255_2_778
10
6.0060959
20
5.7105583
11
6.0060959
21
4.7792583
0
LINE
8
DEFAULT_255_2_778
10
6.0060959
20
4.7792583
11
6.1716959
21
4.7792583
0
LINE
8
DEFAULT_255_2_778
10
5.5049959
20
4.8287583
11
5.5049959
21
4.6824583
0
LINE
8
DEFAULT_255_2_778
10
5.5049959
20
4.6824583
11
5.9264959
21
4.6824583
0
LINE
8
DEFAULT_255_2_778
10
5.9264959
20
4.6824583
11
5.9264959
21
4.3117583
0
LINE
8
DEFAULT_255_2_778
10
5.9264959
20
4.3117583
11
6.0060959
21
4.3117583
0
LINE
8
DEFAULT_255_2_778
10
6.0060959
20
4.3117583
11
6.0060959
21
4.6824583
0
LINE
8
DEFAULT_255_2_778
10
6.0060959
20
4.6824583
11
6.1716959
21
4.6824583
0
LINE
8
DEFAULT_255_2_778
10
6.1716959
20
4.6824583
11
6.1716959
21
4.7821583
0
LINE
8
DEFAULT_255_2_778
10
6.1716959
20
4.7821583
11
6.0060959
21
4.7821583
0
LINE
8
DEFAULT_255_2_778
10
7.1905959
20
5.5483583
11
7.1707959
21
5.5714583
0
LINE
8
DEFAULT_255_2_778
10
7.1707959
20
5.5714583
11
7.1477959
21
5.5907583
0
LINE
8
DEFAULT_255_2_778
10
7.1477959
20
5.5907583
11
7.1215959
21
5.6060583
0
LINE
8
DEFAULT_255_2_778
10
7.1215959
20
5.6060583
11
7.0934959
21
5.6166583
0
LINE
8
DEFAULT_255_2_778
10
7.0934959
20
5.6166583
11
7.0635959
21
5.6224583
0
LINE
8
DEFAULT_255_2_778
10
7.0635959
20
5.6224583
11
7.0334959
21
5.6235583
0
LINE
8
DEFAULT_255_2_778
10
7.0334959
20
5.6235583
11
7.0032959
21
5.6206583
0
LINE
8
DEFAULT_255_2_778
10
7.0032959
20
5.6206583
11
6.9738959
21
5.6134583
0
LINE
8
DEFAULT_255_2_778
10
6.9738959
20
5.6134583
11
6.9598959
21
5.6079583
0
LINE
8
DEFAULT_255_2_778
10
6.9598959
20
5.6079583
11
6.9466959
21
5.6007583
0
LINE
8
DEFAULT_255_2_778
10
6.9466959
20
5.6007583
11
6.9225959
21
5.5825583
0
LINE
8
DEFAULT_255_2_778
10
6.9225959
20
5.5825583
11
6.9027959
21
5.5600583
0
LINE
8
DEFAULT_255_2_778
10
6.9027959
20
5.5600583
11
6.8863959
21
5.5346583
0
LINE
8
DEFAULT_255_2_778
10
6.8476959
20
5.4211583
11
6.8378959
21
5.3621583
0
LINE
8
DEFAULT_255_2_778
10
6.8378959
20
5.3621583
11
6.8286959
21
5.2433583
0
LINE
8
DEFAULT_255_2_778
10
6.8286959
20
5.2433583
11
6.8265959
21
5.1837583
0
LINE
8
DEFAULT_255_2_778
10
6.8265959
20
5.1837583
11
6.8251959
21
5.1242583
0
LINE
8
DEFAULT_255_2_778
10
6.8251959
20
5.1242583
11
6.8241959
21
5.0049583
0
LINE
8
DEFAULT_255_2_778
10
6.8807959
20
5.1007583
11
6.8998959
21
5.1213583
0
LINE
8
DEFAULT_255_2_778
10
6.8998959
20
5.1213583
11
6.9201959
21
5.1403583
0
LINE
8
DEFAULT_255_2_778
10
6.9201959
20
5.1403583
11
6.9659959
21
5.1724583
0
LINE
8
DEFAULT_255_2_778
10
6.9659959
20
5.1724583
11
6.9913959
21
5.1845583
0
LINE
8
DEFAULT_255_2_778
10
6.9913959
20
5.1845583
11
7.0180959
21
5.1933583
0
LINE
8
DEFAULT_255_2_778
10
7.0180959
20
5.1933583
11
7.0738959
21
5.2004583
0
LINE
8
DEFAULT_255_2_778
10
7.0738959
20
5.2004583
11
7.1019959
21
5.1993583
0
LINE
8
DEFAULT_255_2_778
10
7.1019959
20
5.1993583
11
7.1299959
21
5.1951583
0
LINE
8
DEFAULT_255_2_778
10
7.1299959
20
5.1951583
11
7.1829959
21
5.1774583
0
LINE
8
DEFAULT_255_2_778
10
7.1829959
20
5.1774583
11
7.1953959
21
5.1708583
0
LINE
8
DEFAULT_255_2_778
10
7.1953959
20
5.1708583
11
7.2075959
21
5.1634583
0
LINE
8
DEFAULT_255_2_778
10
7.2075959
20
5.1634583
11
7.2294959
21
5.1459583
0
LINE
8
DEFAULT_255_2_778
10
7.2294959
20
5.1459583
11
7.2487959
21
5.1255583
0
LINE
8
DEFAULT_255_2_778
10
7.2487959
20
5.1255583
11
7.2657959
21
5.1028583
0
LINE
8
DEFAULT_255_2_778
10
7.2927959
20
5.0536583
11
7.3032959
21
5.0276583
0
LINE
8
DEFAULT_255_2_778
10
7.3032959
20
5.0276583
11
7.3122959
21
5.0009583
0
LINE
8
DEFAULT_255_2_778
10
7.3122959
20
5.0009583
11
7.3255959
21
4.9467583
0
LINE
8
DEFAULT_255_2_778
10
7.3255959
20
4.9467583
11
7.3339959
21
4.8916583
0
LINE
8
DEFAULT_255_2_778
10
7.3408959
20
4.7800583
11
7.3403959
21
4.7242583
0
LINE
8
DEFAULT_255_2_778
10
7.3403959
20
4.7242583
11
7.3376959
21
4.6683583
0
LINE
8
DEFAULT_255_2_778
10
7.3376959
20
4.6683583
11
7.3321959
21
4.6128583
0
LINE
8
DEFAULT_255_2_778
10
7.3321959
20
4.6128583
11
7.3228959
21
4.5575583
0
LINE
8
DEFAULT_255_2_778
10
7.3228959
20
4.5575583
11
7.3091959
21
4.5032583
0
LINE
8
DEFAULT_255_2_778
10
7.3091959
20
4.5032583
11
7.2998959
21
4.4768583
0
LINE
8
DEFAULT_255_2_778
10
7.2998959
20
4.4768583
11
7.2887959
21
4.4508583
0
LINE
8
DEFAULT_255_2_778
10
7.2601959
20
4.4030583
11
7.2424959
21
4.3813583
0
LINE
8
DEFAULT_255_2_778
10
7.2424959
20
4.3813583
11
7.2223959
21
4.3614583
0
LINE
8
DEFAULT_255_2_778
10
7.2223959
20
4.3614583
11
7.1770959
21
4.3289583
0
LINE
8
DEFAULT_255_2_778
10
7.1770959
20
4.3289583
11
7.1516959
21
4.3164583
0
LINE
8
DEFAULT_255_2_778
10
7.1516959
20
4.3164583
11
7.1252959
21
4.3069583
0
LINE
8
DEFAULT_255_2_778
10
7.1252959
20
4.3069583
11
7.0979959
21
4.3006583
0
LINE
8
DEFAULT_255_2_778
10
7.0979959
20
4.3006583
11
7.0699959
21
4.2974583
0
LINE
8
DEFAULT_255_2_778
10
7.0699959
20
4.2974583
11
7.0138959
21
4.2998583
0
LINE
8
DEFAULT_255_2_778
10
7.0138959
20
4.2998583
11
6.9863959
21
4.3053583
0
LINE
8
DEFAULT_255_2_778
10
6.9863959
20
4.3053583
11
6.9595959
21
4.3141583
0
LINE
8
DEFAULT_255_2_778
10
6.9595959
20
4.3141583
11
6.9341959
21
4.3257583
0
LINE
8
DEFAULT_255_2_778
10
6.9341959
20
4.3257583
11
6.9101959
21
4.3405583
0
LINE
8
DEFAULT_255_2_778
10
6.8683959
20
4.3778583
11
6.8503959
21
4.3995583
0
LINE
8
DEFAULT_255_2_778
10
6.8503959
20
4.3995583
11
6.8344959
21
4.4228583
0
LINE
8
DEFAULT_255_2_778
10
6.7646959
20
4.6334583
11
6.7513959
21
4.7437583
0
LINE
8
DEFAULT_255_2_778
10
6.7513959
20
4.7437583
11
6.7455959
21
4.8551583
0
LINE
8
DEFAULT_255_2_778
10
6.7455959
20
4.8551583
11
6.7442959
21
4.9668583
0
LINE
8
DEFAULT_255_2_778
10
6.7442959
20
4.9668583
11
6.7442959
21
5.0784583
0
LINE
8
DEFAULT_255_2_778
10
6.7442959
20
5.0784583
11
6.7458959
21
5.1901583
0
LINE
8
DEFAULT_255_2_778
10
6.7458959
20
5.1901583
11
6.7511959
21
5.3015583
0
LINE
8
DEFAULT_255_2_778
10
6.7511959
20
5.3015583
11
6.7561959
21
5.3570583
0
LINE
8
DEFAULT_255_2_778
10
6.7561959
20
5.3570583
11
6.7635959
21
5.4123583
0
LINE
8
DEFAULT_255_2_778
10
6.7635959
20
5.4123583
11
6.7741959
21
5.4671583
0
LINE
8
DEFAULT_255_2_778
10
6.7741959
20
5.4671583
11
6.7886959
21
5.5208583
0
LINE
8
DEFAULT_255_2_778
10
6.8378959
20
5.6214583
11
6.8556959
21
5.6433583
0
LINE
8
DEFAULT_255_2_778
10
6.8556959
20
5.6433583
11
6.8754959
21
5.6634583
0
LINE
8
DEFAULT_255_2_778
10
6.9212959
20
5.6954583
11
6.9468959
21
5.7068583
0
LINE
8
DEFAULT_255_2_778
10
6.9468959
20
5.7068583
11
6.9736959
21
5.7150583
0
LINE
8
DEFAULT_255_2_778
10
6.9736959
20
5.7150583
11
7.0014959
21
5.7200583
0
LINE
8
DEFAULT_255_2_778
10
7.0014959
20
5.7200583
11
7.0294959
21
5.7219583
0
LINE
8
DEFAULT_255_2_778
10
7.0294959
20
5.7219583
11
7.0574959
21
5.7208583
0
LINE
8
DEFAULT_255_2_778
10
7.0574959
20
5.7208583
11
7.0855959
21
5.7166583
0
LINE
8
DEFAULT_255_2_778
10
7.0855959
20
5.7166583
11
7.1392959
21
5.7002583
0
LINE
8
DEFAULT_255_2_778
10
7.1392959
20
5.7002583
11
7.1646959
21
5.6880583
0
LINE
8
DEFAULT_255_2_778
10
7.1646959
20
5.6880583
11
7.1887959
21
5.6735583
0
LINE
8
DEFAULT_255_2_778
10
7.2315959
20
5.6378583
11
7.2501959
21
5.6163583
0
LINE
8
DEFAULT_255_2_778
10
7.2501959
20
5.6163583
11
7.2659959
21
5.5933583
0
LINE
8
DEFAULT_255_2_778
10
7.2908959
20
5.5428583
11
7.2908959
21
5.5457583
0
LINE
8
DEFAULT_255_2_778
10
6.9424959
20
4.4503583
11
6.9236959
21
4.4717583
0
LINE
8
DEFAULT_255_2_778
10
6.9236959
20
4.4717583
11
6.9072959
21
4.4948583
0
LINE
8
DEFAULT_255_2_778
10
6.8482959
20
4.8223583
11
6.8529959
21
4.8504583
0
LINE
8
DEFAULT_255_2_778
10
6.8529959
20
4.8504583
11
6.8593959
21
4.8781583
0
LINE
8
DEFAULT_255_2_778
10
6.9347959
20
5.0300583
11
6.9540959
21
5.0512583
0
LINE
8
DEFAULT_255_2_778
10
6.9540959
20
5.0512583
11
6.9757959
21
5.0700583
0
LINE
8
DEFAULT_255_2_778
10
6.9757959
20
5.0700583
11
6.9998959
21
5.0853583
0
LINE
8
DEFAULT_255_2_778
10
6.9998959
20
5.0853583
11
7.0130959
21
5.0911583
0
LINE
8
DEFAULT_255_2_778
10
7.0130959
20
5.0911583
11
7.0265959
21
5.0959583
0
LINE
8
DEFAULT_255_2_778
10
7.0265959
20
5.0959583
11
7.0543959
21
5.1017583
0
LINE
8
DEFAULT_255_2_778
10
7.0543959
20
5.1017583
11
7.0828959
21
5.1033583
0
LINE
8
DEFAULT_255_2_778
10
7.0828959
20
5.1033583
11
7.1114959
21
5.1009583
0
LINE
8
DEFAULT_255_2_778
10
7.1114959
20
5.1009583
11
7.1392959
21
5.0940583
0
LINE
8
DEFAULT_255_2_778
10
7.1392959
20
5.0940583
11
7.1524959
21
5.0888583
0
LINE
8
DEFAULT_255_2_778
10
7.1524959
20
5.0888583
11
7.1651959
21
5.0819583
0
LINE
8
DEFAULT_255_2_778
10
7.1651959
20
5.0819583
11
7.1876959
21
5.0644583
0
LINE
8
DEFAULT_255_2_778
10
7.1876959
20
5.0644583
11
7.2056959
21
5.0422583
0
LINE
8
DEFAULT_255_2_778
10
7.2056959
20
5.0422583
11
7.2196959
21
5.0173583
0
LINE
8
DEFAULT_255_2_778
10
7.2196959
20
5.0173583
11
7.2307959
21
4.9909583
0
LINE
8
DEFAULT_255_2_778
10
7.2307959
20
4.9909583
11
7.2395959
21
4.9636583
0
LINE
8
DEFAULT_255_2_778
10
7.2511959
20
4.9083583
11
7.2577959
21
4.8520583
0
LINE
8
DEFAULT_255_2_778
10
7.2577959
20
4.8520583
11
7.2606959
21
4.7951583
0
LINE
8
DEFAULT_255_2_778
10
7.2606959
20
4.7951583
11
7.2604959
21
4.7384583
0
LINE
8
DEFAULT_255_2_778
10
7.2604959
20
4.7384583
11
7.2575959
21
4.6818583
0
LINE
8
DEFAULT_255_2_778
10
7.2575959
20
4.6818583
11
7.2506959
21
4.6255583
0
LINE
8
DEFAULT_255_2_778
10
7.2506959
20
4.6255583
11
7.2384959
21
4.5699583
0
LINE
8
DEFAULT_255_2_778
10
7.2384959
20
4.5699583
11
7.2297959
21
4.5429583
0
LINE
8
DEFAULT_255_2_778
10
7.2297959
20
4.5429583
11
7.2191959
21
4.5165583
0
LINE
8
DEFAULT_255_2_778
10
7.1913959
20
4.4672583
11
7.1731959
21
4.4453583
0
LINE
8
DEFAULT_255_2_778
10
7.1731959
20
4.4453583
11
7.1514959
21
4.4268583
0
LINE
8
DEFAULT_255_2_778
10
7.1514959
20
4.4268583
11
7.1392959
21
4.4191583
0
LINE
8
DEFAULT_255_2_778
10
7.1392959
20
4.4191583
11
7.1262959
21
4.4127583
0
LINE
8
DEFAULT_255_2_778
10
7.1262959
20
4.4127583
11
7.0992959
21
4.4035583
0
LINE
8
DEFAULT_255_2_778
10
7.0992959
20
4.4035583
11
7.0709959
21
4.3990583
0
LINE
8
DEFAULT_255_2_778
10
7.0709959
20
4.3990583
11
7.0424959
21
4.3995583
0
LINE
8
DEFAULT_255_2_778
10
7.0424959
20
4.3995583
11
7.0141959
21
4.4051583
0
LINE
8
DEFAULT_255_2_778
10
7.0141959
20
4.4051583
11
6.9876959
21
4.4162583
0
LINE
8
DEFAULT_255_2_778
10
7.5231959
20
5.0266583
11
7.5231959
21
5.0237583
0
LINE
8
DEFAULT_255_2_778
10
8.4716959
20
5.7142583
11
8.6161959
21
5.7166583
0
LINE
8
DEFAULT_255_2_778
10
8.6161959
20
5.7166583
11
8.6883959
21
5.7150583
0
LINE
8
DEFAULT_255_2_778
10
8.6883959
20
5.7150583
11
8.7603959
21
5.7095583
0
LINE
8
DEFAULT_255_2_778
10
8.7603959
20
5.7095583
11
8.8304959
21
5.6941583
0
LINE
8
DEFAULT_255_2_778
10
8.8304959
20
5.6941583
11
8.8640959
21
5.6806583
0
LINE
8
DEFAULT_255_2_778
10
8.8640959
20
5.6806583
11
8.8955959
21
5.6634583
0
LINE
8
DEFAULT_255_2_778
10
8.8955959
20
5.6634583
11
8.9249959
21
5.6431583
0
LINE
8
DEFAULT_255_2_778
10
8.9249959
20
5.6431583
11
8.9521959
21
5.6195583
0
LINE
8
DEFAULT_255_2_778
10
8.9984959
20
5.5645583
11
9.0175959
21
5.5338583
0
LINE
8
DEFAULT_255_2_778
10
9.0175959
20
5.5338583
11
9.0341959
21
5.5018583
0
LINE
8
DEFAULT_255_2_778
10
9.0606959
20
5.4351583
11
9.0802959
21
5.3660583
0
LINE
8
DEFAULT_255_2_778
10
9.0802959
20
5.3660583
11
9.0942959
21
5.2957583
0
LINE
8
DEFAULT_255_2_778
10
9.1098959
20
5.1544583
11
9.1130959
21
5.0835583
0
LINE
8
DEFAULT_255_2_778
10
9.1130959
20
5.0835583
11
9.1141959
21
5.0126583
0
LINE
8
DEFAULT_255_2_778
10
9.1141959
20
5.0126583
11
9.1096959
21
4.8702583
0
LINE
8
DEFAULT_255_2_778
10
9.1096959
20
4.8702583
11
9.0931959
21
4.7281583
0
LINE
8
DEFAULT_255_2_778
10
9.0931959
20
4.7281583
11
9.0783959
21
4.6583583
0
LINE
8
DEFAULT_255_2_778
10
9.0783959
20
4.6583583
11
9.0580959
21
4.5895583
0
LINE
8
DEFAULT_255_2_778
10
9.0580959
20
4.5895583
11
9.0312959
21
4.5233583
0
LINE
8
DEFAULT_255_2_778
10
8.9516959
20
4.4053583
11
8.9238959
21
4.3823583
0
LINE
8
DEFAULT_255_2_778
10
8.9238959
20
4.3823583
11
8.8931959
21
4.3635583
0
LINE
8
DEFAULT_255_2_778
10
8.8931959
20
4.3635583
11
8.8606959
21
4.3487583
0
LINE
8
DEFAULT_255_2_778
10
8.8606959
20
4.3487583
11
8.8264959
21
4.3371583
0
LINE
8
DEFAULT_255_2_778
10
8.8264959
20
4.3371583
11
8.7566959
21
4.3212583
0
LINE
8
DEFAULT_255_2_778
10
8.7566959
20
4.3212583
11
8.6857959
21
4.3125583
0
LINE
8
DEFAULT_255_2_778
10
8.6857959
20
4.3125583
11
8.6140959
21
4.3096583
0
LINE
8
DEFAULT_255_2_778
10
8.4711959
20
4.3212583
11
8.4711959
21
5.7171583
0
LINE
8
DEFAULT_255_2_778
10
8.4711959
20
5.7171583
11
8.5992959
21
5.7195583
0
LINE
8
DEFAULT_255_2_778
10
8.5508959
20
4.4114583
11
8.6661959
21
4.4106583
0
LINE
8
DEFAULT_255_2_778
10
8.6661959
20
4.4106583
11
8.7233959
21
4.4154583
0
LINE
8
DEFAULT_255_2_778
10
8.7233959
20
4.4154583
11
8.7518959
21
4.4194583
0
LINE
8
DEFAULT_255_2_778
10
8.7518959
20
4.4194583
11
8.7801959
21
4.4244583
0
LINE
8
DEFAULT_255_2_778
10
8.7801959
20
4.4244583
11
8.8085959
21
4.4313583
0
LINE
8
DEFAULT_255_2_778
10
8.8085959
20
4.4313583
11
8.8360959
21
4.4408583
0
LINE
8
DEFAULT_255_2_778
10
8.8360959
20
4.4408583
11
8.8622959
21
4.4535583
0
LINE
8
DEFAULT_255_2_778
10
8.8622959
20
4.4535583
11
8.8865959
21
4.4699583
0
LINE
8
DEFAULT_255_2_778
10
8.9278959
20
4.5112583
11
8.9450959
21
4.5350583
0
LINE
8
DEFAULT_255_2_778
10
8.9450959
20
4.5350583
11
8.9598959
21
4.5599583
0
LINE
8
DEFAULT_255_2_778
10
8.9833959
20
4.6128583
11
8.9926959
21
4.6405583
0
LINE
8
DEFAULT_255_2_778
10
8.9926959
20
4.6405583
11
9.0003959
21
4.6686583
0
LINE
8
DEFAULT_255_2_778
10
9.0003959
20
4.6686583
11
9.0127959
21
4.7250583
0
LINE
8
DEFAULT_255_2_778
10
9.0127959
20
4.7250583
11
9.0222959
21
4.7818583
0
LINE
8
DEFAULT_255_2_778
10
9.0222959
20
4.7818583
11
9.0339959
21
4.8967583
0
LINE
8
DEFAULT_255_2_778
10
9.0339959
20
4.8967583
11
9.0373959
21
5.0126583
0
LINE
8
DEFAULT_255_2_778
10
9.0373959
20
5.0126583
11
9.0336959
21
5.1279583
0
LINE
8
DEFAULT_255_2_778
10
9.0336959
20
5.1279583
11
9.0291959
21
5.1853583
0
LINE
8
DEFAULT_255_2_778
10
9.0291959
20
5.1853583
11
9.0228959
21
5.2427583
0
LINE
8
DEFAULT_255_2_778
10
9.0228959
20
5.2427583
11
9.0135959
21
5.2999583
0
LINE
8
DEFAULT_255_2_778
10
9.0135959
20
5.2999583
11
9.0003959
21
5.3565583
0
LINE
8
DEFAULT_255_2_778
10
9.0003959
20
5.3565583
11
8.9826959
21
5.4118583
0
LINE
8
DEFAULT_255_2_778
10
8.9826959
20
5.4118583
11
8.9717959
21
5.4388583
0
LINE
8
DEFAULT_255_2_778
10
8.9717959
20
5.4388583
11
8.9590959
21
5.4653583
0
LINE
8
DEFAULT_255_2_778
10
8.9280959
20
5.5145583
11
8.9093959
21
5.5367583
0
LINE
8
DEFAULT_255_2_778
10
8.9093959
20
5.5367583
11
8.8878959
21
5.5565583
0
LINE
8
DEFAULT_255_2_778
10
8.8878959
20
5.5565583
11
8.8643959
21
5.5732583
0
LINE
8
DEFAULT_255_2_778
10
8.8643959
20
5.5732583
11
8.8386959
21
5.5870583
0
LINE
8
DEFAULT_255_2_778
10
8.8386959
20
5.5870583
11
8.7833959
21
5.6052583
0
LINE
8
DEFAULT_255_2_778
10
8.7833959
20
5.6052583
11
8.7545959
21
5.6102583
0
LINE
8
DEFAULT_255_2_778
10
8.7545959
20
5.6102583
11
8.7254959
21
5.6129583
0
LINE
8
DEFAULT_255_2_778
10
8.7254959
20
5.6129583
11
8.6672959
21
5.6147583
0
LINE
8
DEFAULT_255_2_778
10
8.6672959
20
5.6147583
11
8.5508959
21
5.6147583
0
LINE
8
DEFAULT_255_2_778
10
8.5508959
20
5.6147583
11
8.5508959
21
4.4114583
0
LINE
8
DEFAULT_255_2_778
10
9.6313959
20
4.4170583
11
9.6101959
21
4.4088583
0
LINE
8
DEFAULT_255_2_778
10
9.6101959
20
4.4088583
11
9.5884959
21
4.4030583
0
LINE
8
DEFAULT_255_2_778
10
9.5884959
20
4.4030583
11
9.5435959
21
4.3990583
0
LINE
8
DEFAULT_255_2_778
10
9.5435959
20
4.3990583
11
9.5210959
21
4.4014583
0
LINE
8
DEFAULT_255_2_778
10
9.5210959
20
4.4014583
11
9.4990959
21
4.4069583
0
LINE
8
DEFAULT_255_2_778
10
9.4990959
20
4.4069583
11
9.4784959
21
4.4157583
0
LINE
8
DEFAULT_255_2_778
10
9.4784959
20
4.4157583
11
9.4591959
21
4.4276583
0
LINE
8
DEFAULT_255_2_778
10
9.4591959
20
4.4276583
11
9.4260959
21
4.4580583
0
LINE
8
DEFAULT_255_2_778
10
9.4260959
20
4.4580583
11
9.4122959
21
4.4760583
0
LINE
8
DEFAULT_255_2_778
10
9.4122959
20
4.4760583
11
9.4006959
21
4.4953583
0
LINE
8
DEFAULT_255_2_778
10
9.4006959
20
4.4953583
11
9.3911959
21
4.5157583
0
LINE
8
DEFAULT_255_2_778
10
9.3911959
20
4.5157583
11
9.3834959
21
4.5368583
0
LINE
8
DEFAULT_255_2_778
10
9.3649959
20
4.6239583
11
9.3538959
21
4.7120583
0
LINE
8
DEFAULT_255_2_778
10
9.3538959
20
4.7120583
11
9.3474959
21
4.8006583
0
LINE
8
DEFAULT_255_2_778
10
9.3474959
20
4.8006583
11
9.3458959
21
4.8895583
0
LINE
8
DEFAULT_255_2_778
10
9.3458959
20
4.8895583
11
9.3461959
21
4.9784583
0
LINE
8
DEFAULT_255_2_778
10
9.3461959
20
4.9784583
11
9.3458959
21
5.0673583
0
LINE
8
DEFAULT_255_2_778
10
9.3458959
20
5.0673583
11
9.3466959
21
5.1562583
0
LINE
8
DEFAULT_255_2_778
10
9.3466959
20
5.1562583
11
9.3501959
21
5.2451583
0
LINE
8
DEFAULT_255_2_778
10
9.3501959
20
5.2451583
11
9.3554959
21
5.3340583
0
LINE
8
DEFAULT_255_2_778
10
9.3554959
20
5.3340583
11
9.3649959
21
5.4224583
0
LINE
8
DEFAULT_255_2_778
10
9.3916959
20
5.5068583
11
9.4151959
21
5.5446583
0
LINE
8
DEFAULT_255_2_778
10
9.4151959
20
5.5446583
11
9.4453959
21
5.5772583
0
LINE
8
DEFAULT_255_2_778
10
9.4453959
20
5.5772583
11
9.4630959
21
5.5909583
0
LINE
8
DEFAULT_255_2_778
10
9.4630959
20
5.5909583
11
9.4821959
21
5.6026583
0
LINE
8
DEFAULT_255_2_778
10
9.4821959
20
5.6026583
11
9.5027959
21
5.6116583
0
LINE
8
DEFAULT_255_2_778
10
9.5027959
20
5.6116583
11
9.5242959
21
5.6174583
0
LINE
8
DEFAULT_255_2_778
10
9.5242959
20
5.6174583
11
9.5461959
21
5.6200583
0
LINE
8
DEFAULT_255_2_778
10
9.5461959
20
5.6200583
11
9.5686959
21
5.6195583
0
LINE
8
DEFAULT_255_2_778
10
9.5686959
20
5.6195583
11
9.5906959
21
5.6161583
0
LINE
8
DEFAULT_255_2_778
10
9.5906959
20
5.6161583
11
9.6120959
21
5.6095583
0
LINE
8
DEFAULT_255_2_778
10
9.6120959
20
5.6095583
11
9.6506959
21
5.5875583
0
LINE
8
DEFAULT_255_2_778
10
9.6506959
20
5.5875583
11
9.6829959
21
5.5568583
0
LINE
8
DEFAULT_255_2_778
10
9.6829959
20
5.5568583
11
9.6964959
21
5.5391583
0
LINE
8
DEFAULT_255_2_778
10
9.6964959
20
5.5391583
11
9.7083959
21
5.5203583
0
LINE
8
DEFAULT_255_2_778
10
9.7395959
20
5.4375583
11
9.7475959
21
5.3938583
0
LINE
8
DEFAULT_255_2_778
10
9.7475959
20
5.3938583
11
9.7570959
21
5.3060583
0
LINE
8
DEFAULT_255_2_778
10
9.7570959
20
5.3060583
11
9.7615959
21
5.2179583
0
LINE
8
DEFAULT_255_2_778
10
9.7615959
20
5.2179583
11
9.7633959
21
5.1295583
0
LINE
8
DEFAULT_255_2_778
10
9.7633959
20
5.1295583
11
9.7633959
21
4.9525583
0
LINE
8
DEFAULT_255_2_778
10
9.7633959
20
4.9525583
11
9.7604959
21
4.7755583
0
LINE
8
DEFAULT_255_2_778
10
9.7604959
20
4.7755583
11
9.7541959
21
4.6874583
0
LINE
8
DEFAULT_255_2_778
10
9.7541959
20
4.6874583
11
9.7485959
21
4.6435583
0
LINE
8
DEFAULT_255_2_778
10
9.7485959
20
4.6435583
11
9.7408959
21
4.5998583
0
LINE
8
DEFAULT_255_2_778
10
9.7408959
20
4.5998583
11
9.7303959
21
4.5567583
0
LINE
8
DEFAULT_255_2_778
10
9.7303959
20
4.5567583
11
9.7154959
21
4.5149583
0
LINE
8
DEFAULT_255_2_778
10
9.6956959
20
4.4752583
11
9.6829959
21
4.4572583
0
LINE
8
DEFAULT_255_2_778
10
9.6829959
20
4.4572583
11
9.6758959
21
4.4487583
0
LINE
8
DEFAULT_255_2_778
10
9.6758959
20
4.4487583
11
9.6686959
21
4.4418583
0
LINE
8
DEFAULT_255_2_778
10
9.4924959
20
4.3088583
11
9.4432959
21
4.3297583
0
LINE
8
DEFAULT_255_2_778
10
9.4432959
20
4.3297583
11
9.4207959
21
4.3440583
0
LINE
8
DEFAULT_255_2_778
10
9.4207959
20
4.3440583
11
9.3995959
21
4.3606583
0
LINE
8
DEFAULT_255_2_778
10
9.3995959
20
4.3606583
11
9.3628959
21
4.3995583
0
LINE
8
DEFAULT_255_2_778
10
9.3628959
20
4.3995583
11
9.3469959
21
4.4212583
0
LINE
8
DEFAULT_255_2_778
10
9.3469959
20
4.4212583
11
9.3331959
21
4.4442583
0
LINE
8
DEFAULT_255_2_778
10
9.2813959
20
4.6490583
11
9.2723959
21
4.7543583
0
LINE
8
DEFAULT_255_2_778
10
9.2723959
20
4.7543583
11
9.2675959
21
4.8602583
0
LINE
8
DEFAULT_255_2_778
10
9.2675959
20
4.8602583
11
9.2675959
21
5.0716583
0
LINE
8
DEFAULT_255_2_778
10
9.2675959
20
5.0716583
11
9.2723959
21
5.2827583
0
LINE
8
DEFAULT_255_2_778
10
9.2723959
20
5.2827583
11
9.2823959
21
5.3880583
0
LINE
8
DEFAULT_255_2_778
10
9.2823959
20
5.3880583
11
9.2908959
21
5.4404583
0
LINE
8
DEFAULT_255_2_778
10
9.2908959
20
5.4404583
11
9.2963959
21
5.4666583
0
LINE
8
DEFAULT_255_2_778
10
9.2963959
20
5.4666583
11
9.3032959
21
5.4928583
0
LINE
8
DEFAULT_255_2_778
10
9.3445959
20
5.5917583
11
9.3591959
21
5.6145583
0
LINE
8
DEFAULT_255_2_778
10
9.3591959
20
5.6145583
11
9.3755959
21
5.6359583
0
LINE
8
DEFAULT_255_2_778
10
9.3755959
20
5.6359583
11
9.3937959
21
5.6555583
0
LINE
8
DEFAULT_255_2_778
10
9.3937959
20
5.6555583
11
9.4144959
21
5.6732583
0
LINE
8
DEFAULT_255_2_778
10
9.4144959
20
5.6732583
11
9.4607959
21
5.6997583
0
LINE
8
DEFAULT_255_2_778
10
9.4607959
20
5.6997583
11
9.4861959
21
5.7087583
0
LINE
8
DEFAULT_255_2_778
10
9.4861959
20
5.7087583
11
9.5122959
21
5.7148583
0
LINE
8
DEFAULT_255_2_778
10
9.5122959
20
5.7148583
11
9.5390959
21
5.7179583
0
LINE
8
DEFAULT_255_2_778
10
9.5390959
20
5.7179583
11
9.5660959
21
5.7179583
0
LINE
8
DEFAULT_255_2_778
10
9.5660959
20
5.7179583
11
9.6189959
21
5.7095583
0
LINE
8
DEFAULT_255_2_778
10
9.6189959
20
5.7095583
11
9.6445959
21
5.7007583
0
LINE
8
DEFAULT_255_2_778
10
9.6445959
20
5.7007583
11
9.6689959
21
5.6896583
0
LINE
8
DEFAULT_255_2_778
10
9.6689959
20
5.6896583
11
9.6919959
21
5.6759583
0
LINE
8
DEFAULT_255_2_778
10
9.6919959
20
5.6759583
11
9.7133959
21
5.6595583
0
LINE
8
DEFAULT_255_2_778
10
9.7498959
20
5.6203583
11
9.7649959
21
5.5978583
0
LINE
8
DEFAULT_255_2_778
10
9.7649959
20
5.5978583
11
9.7779959
21
5.5743583
0
LINE
8
DEFAULT_255_2_778
10
9.7985959
20
5.5251583
11
9.8136959
21
5.4735583
0
LINE
8
DEFAULT_255_2_778
10
9.8321959
20
5.3689583
11
9.8401959
21
5.2634583
0
LINE
8
DEFAULT_255_2_778
10
9.8401959
20
5.2634583
11
9.8427959
21
5.1575583
0
LINE
8
DEFAULT_255_2_778
10
9.8427959
20
5.1575583
11
9.8432959
21
5.0514583
0
LINE
8
DEFAULT_255_2_778
10
9.8432959
20
5.0514583
11
9.8435959
21
4.9453583
0
LINE
8
DEFAULT_255_2_778
10
9.8435959
20
4.9453583
11
9.8427959
21
4.8393583
0
LINE
8
DEFAULT_255_2_778
10
9.8427959
20
4.8393583
11
9.8390959
21
4.7334583
0
LINE
8
DEFAULT_255_2_778
10
9.8390959
20
4.7334583
11
9.8284959
21
4.6278583
0
LINE
8
DEFAULT_255_2_778
10
9.8065959
20
4.5244583
11
9.7890959
21
4.4747583
0
LINE
8
DEFAULT_255_2_778
10
9.6959959
20
4.3466583
11
9.6498959
21
4.3196583
0
LINE
8
DEFAULT_255_2_778
10
9.6498959
20
4.3196583
11
9.6247959
21
4.3101583
0
LINE
8
DEFAULT_255_2_778
10
9.6247959
20
4.3101583
11
9.5988959
21
4.3037583
0
LINE
8
DEFAULT_255_2_778
10
9.5988959
20
4.3037583
11
9.5723959
21
4.3003583
0
LINE
8
DEFAULT_255_2_778
10
9.5723959
20
4.3003583
11
9.5453959
21
4.3000583
0
LINE
8
DEFAULT_255_2_778
10
9.5453959
20
4.3000583
11
9.4924959
21
4.3088583
0
LINE
8
DEFAULT_255_2_778
10
10.1026313
20
5.3504708
11
10.0978313
21
5.4536708
0
LINE
8
DEFAULT_255_2_778
10
10.2870313
20
5.6957708
11
10.2420313
21
5.6335708
0
LINE
8
DEFAULT_255_2_778
10
10.2420313
20
5.6335708
11
10.1962313
21
5.5719708
0
LINE
8
DEFAULT_255_2_778
10
10.1962313
20
5.5719708
11
10.1489313
21
5.5113708
0
LINE
8
DEFAULT_255_2_778
10
10.1489313
20
5.5113708
11
10.0981313
21
5.4536708
0
LINE
8
DEFAULT_255_2_778
10
10.0981313
20
5.4536708
11
10.0981313
21
5.4565708
0
LINE
8
DEFAULT_255_2_778
10
10.0981313
20
5.4565708
11
10.1489313
21
5.5142708
0
LINE
8
DEFAULT_255_2_778
10
10.1489313
20
5.5142708
11
10.1960313
21
5.5748708
0
LINE
8
DEFAULT_255_2_778
10
10.1960313
20
5.5748708
11
10.2417313
21
5.6364708
0
LINE
8
DEFAULT_255_2_778
10
10.2417313
20
5.6364708
11
10.2867313
21
5.6986708
0
LINE
8
DEFAULT_255_2_778
10
10.3851313
20
5.6957708
11
10.2867313
21
5.6957708
0
LINE
8
DEFAULT_255_2_778
10
10.2867313
20
5.6957708
11
10.2867313
21
5.6986708
0
LINE
8
DEFAULT_255_2_778
10
10.2867313
20
5.6986708
11
10.3851313
21
5.6986708
0
LINE
8
DEFAULT_255_2_778
10
10.3851313
20
5.6986708
11
10.3851313
21
4.3027708
0
LINE
8
DEFAULT_255_2_778
10
10.3851313
20
4.3027708
11
10.3071313
21
4.3027708
0
LINE
8
DEFAULT_255_2_778
10
10.3071313
20
4.3027708
11
10.3071313
21
5.5756708
0
LINE
8
DEFAULT_255_2_778
10
10.3071313
20
5.5756708
11
10.2605313
21
5.5139708
0
LINE
8
DEFAULT_255_2_778
10
10.2605313
20
5.5139708
11
10.2132313
21
5.4531708
0
LINE
8
DEFAULT_255_2_778
10
10.2132313
20
5.4531708
11
10.1888313
21
5.4232708
0
LINE
8
DEFAULT_255_2_778
10
10.1888313
20
5.4232708
11
10.1637313
21
5.3941708
0
LINE
8
DEFAULT_255_2_778
10
10.1637313
20
5.3941708
11
10.1367313
21
5.3665708
0
LINE
8
DEFAULT_255_2_778
10
10.1367313
20
5.3665708
11
10.1293313
21
5.3605708
0
LINE
8
DEFAULT_255_2_778
10
10.1293313
20
5.3605708
11
10.1211313
21
5.3552708
0
LINE
8
DEFAULT_255_2_778
10
10.1211313
20
5.3552708
11
10.1121313
21
5.3520708
0
LINE
8
DEFAULT_255_2_778
10
10.1121313
20
5.3520708
11
10.1026313
21
5.3504708
0
ARC
8
DEFAULT_255_2_778
10
-2710.3733183
20
-713.2923547
40
2816.9167808
50
14.7591024
51
14.7881206
0
ARC
8
DEFAULT_255_2_778
10
17.0853003
20
14.6544183
40
11.1896691
50
247.2817012
51
247.6962991
0
ARC
8
DEFAULT_255_2_778
10
-371.5987323
20
109.1484861
40
398.4782321
50
344.7448775
51
344.8012659
0
ARC
8
DEFAULT_255_2_778
10
31.1630046
20
-39.1168595
40
46.8649694
50
112.0087495
51
112.1096635
0
ARC
8
DEFAULT_255_2_778
10
-5847.8745635
20
-1540.7072729
40
6061.6868405
50
14.766869
51
14.780354
0
ARC
8
DEFAULT_255_2_778
10
14009.610506
20
-3780.5184862
40
14499.5456806
50
164.8630223
51
164.8686693
0
ARC
8
DEFAULT_255_2_778
10
14009.610506
20
-3780.5155862
40
14499.5456806
50
164.8630223
51
164.8686693
0
ARC
8
DEFAULT_255_2_778
10
-13.0978323
20
4.1153752
40
26.7194299
50
2.663011
51
2.8845676
0
LINE
8
DEFAULT_255_2_778
10
13.1868427
20
5.5880021
11
13.2130427
21
5.4870021
0
LINE
8
DEFAULT_255_2_778
10
13.2130427
20
5.4870021
11
13.2390427
21
5.3856021
0
LINE
8
DEFAULT_255_2_778
10
13.2390427
20
5.3856021
11
13.2919427
21
5.1835021
0
LINE
8
DEFAULT_255_2_778
10
13.2919427
20
5.1835021
11
13.3451427
21
4.9813021
0
LINE
8
DEFAULT_255_2_778
10
13.3451427
20
4.9813021
11
13.3974427
21
4.7789021
0
LINE
8
DEFAULT_255_2_778
10
13.3974427
20
4.7789021
11
12.9680427
21
4.7789021
0
LINE
8
DEFAULT_255_2_778
10
12.9680427
20
4.7789021
11
13.0225427
21
4.9813021
0
LINE
8
DEFAULT_255_2_778
10
13.0225427
20
4.9813021
11
13.0773427
21
5.1835021
0
LINE
8
DEFAULT_255_2_778
10
13.0773427
20
5.1835021
11
13.1326427
21
5.3856021
0
LINE
8
DEFAULT_255_2_778
10
13.1326427
20
5.3856021
11
13.1598427
21
5.4867021
0
LINE
8
DEFAULT_255_2_778
10
13.1598427
20
5.4867021
11
13.1868427
21
5.5880021
0
LINE
8
DEFAULT_255_2_778
10
12.9416427
20
4.6803021
11
13.4239427
21
4.6803021
0
LINE
8
DEFAULT_255_2_778
10
13.4239427
20
4.6803021
11
13.4728427
21
4.4908021
0
LINE
8
DEFAULT_255_2_778
10
13.4728427
20
4.4908021
11
13.4988427
21
4.3964021
0
LINE
8
DEFAULT_255_2_778
10
13.4988427
20
4.3964021
11
13.5117427
21
4.3493021
0
LINE
8
DEFAULT_255_2_778
10
13.5117427
20
4.3493021
11
13.5239427
21
4.3019021
0
LINE
8
DEFAULT_255_2_778
10
13.6004427
20
4.3329021
11
13.6004427
21
4.3358021
0
LINE
8
DEFAULT_255_2_778
10
13.1366427
20
5.7124021
11
13.2366427
21
5.7124021
0
LINE
8
DEFAULT_255_2_778
10
13.2366427
20
5.7124021
11
13.2366427
21
5.7153021
0
LINE
8
DEFAULT_255_2_778
10
13.2366427
20
5.7153021
11
13.1366427
21
5.7153021
0
LINE
8
DEFAULT_255_2_778
10
13.1366427
20
5.7153021
11
13.1366427
21
5.7124021
0
LINE
8
DEFAULT_255_2_778
10
12.7635427
20
4.3329021
11
12.7635427
21
4.3358021
0
LINE
8
DEFAULT_255_2_778
10
13.7766427
20
5.7026021
11
13.7316427
21
5.6404021
0
LINE
8
DEFAULT_255_2_778
10
13.7316427
20
5.6404021
11
13.6858427
21
5.5788021
0
LINE
8
DEFAULT_255_2_778
10
13.6858427
20
5.5788021
11
13.6385427
21
5.5182021
0
LINE
8
DEFAULT_255_2_778
10
13.6385427
20
5.5182021
11
13.5877427
21
5.4605021
0
LINE
8
DEFAULT_255_2_778
10
13.5877427
20
5.4605021
11
13.5877427
21
5.4634021
0
LINE
8
DEFAULT_255_2_778
10
13.5877427
20
5.4634021
11
13.6385427
21
5.5211021
0
LINE
8
DEFAULT_255_2_778
10
13.6385427
20
5.5211021
11
13.6856427
21
5.5817021
0
LINE
8
DEFAULT_255_2_778
10
13.6856427
20
5.5817021
11
13.7316427
21
5.6433021
0
LINE
8
DEFAULT_255_2_778
10
13.7316427
20
5.6433021
11
13.7766427
21
5.7055021
0
LINE
8
DEFAULT_255_2_778
10
13.8750427
20
5.7026021
11
13.7766427
21
5.7026021
0
LINE
8
DEFAULT_255_2_778
10
13.7766427
20
5.7026021
11
13.7766427
21
5.7055021
0
LINE
8
DEFAULT_255_2_778
10
13.7766427
20
5.7055021
11
13.8750427
21
5.7055021
0
LINE
8
DEFAULT_255_2_778
10
13.8750427
20
5.7055021
11
13.8750427
21
4.3096021
0
LINE
8
DEFAULT_255_2_778
10
13.8750427
20
4.3096021
11
13.7970427
21
4.3096021
0
LINE
8
DEFAULT_255_2_778
10
13.7970427
20
4.3096021
11
13.7970427
21
5.5822021
0
LINE
8
DEFAULT_255_2_778
10
13.7970427
20
5.5822021
11
13.7507427
21
5.5206021
0
LINE
8
DEFAULT_255_2_778
10
13.7507427
20
5.5206021
11
13.7033427
21
5.4597021
0
LINE
8
DEFAULT_255_2_778
10
13.7033427
20
5.4597021
11
13.6790427
21
5.4298021
0
LINE
8
DEFAULT_255_2_778
10
13.6790427
20
5.4298021
11
13.6538427
21
5.4007021
0
LINE
8
DEFAULT_255_2_778
10
13.6538427
20
5.4007021
11
13.6268427
21
5.3732021
0
LINE
8
DEFAULT_255_2_778
10
13.6268427
20
5.3732021
11
13.6194427
21
5.3671021
0
LINE
8
DEFAULT_255_2_778
10
13.6194427
20
5.3671021
11
13.6112427
21
5.3618021
0
LINE
8
DEFAULT_255_2_778
10
13.6112427
20
5.3618021
11
13.6022427
21
5.3584021
0
LINE
8
DEFAULT_255_2_778
10
13.6022427
20
5.3584021
11
13.5927427
21
5.3568021
0
ENDSEC
0
EOF