0
SECTION
2
HEADER
9
$MEASUREMENT
70
1
0
ENDSEC
0
SECTION
2
TABLES
0
TABLE
2
LTYPE
0
LTYPE
72
65
70
64
2
CONTINUOUS
3
______
73
0
40
0
0
ENDTAB
0
TABLE
2
LAYER
0
LAYER
2
DEFAULT_255_2_778
70
0
62
255
6
CONTINUOUS
0
ENDTAB
0
ENDSEC
0
SECTION
2
ENTITIES
0
ARC
8
DEFAULT_255_2_778
10
6.4767348
20
92.2726188
40
28.2993907
50
283.174996
51
297.8706442
0
ARC
8
DEFAULT_255_2_778
10
6.4767595
20
92.2716628
40
28.2984543
50
269.9997736
51
283.1753885
0
LINE
8
DEFAULT_255_2_778
10
58.0838477
20
9.1978085
11
58.0838477
21
9.1981085
0
LINE
8
DEFAULT_255_2_778
10
57.8602477
20
66.8143085
11
57.9581477
21
66.8180085
0
LINE
8
DEFAULT_255_2_778
10
57.9581477
20
66.8180085
11
57.9584477
21
66.8090085
0
LINE
8
DEFAULT_255_2_778
10
57.9584477
20
66.8090085
11
57.9587477
21
66.8000085
0
LINE
8
DEFAULT_255_2_778
10
57.9587477
20
66.8000085
11
57.9594477
21
66.7822085
0
LINE
8
DEFAULT_255_2_778
10
57.9594477
20
66.7822085
11
57.8616477
21
66.7785085
0
LINE
8
DEFAULT_255_2_778
10
4.8761477
20
65.7483085
11
1.4762477
21
65.7483085
0
LINE
8
DEFAULT_255_2_778
10
1.4762477
20
65.7483085
11
1.4762477
21
50.3982085
0
LINE
8
DEFAULT_255_2_778
10
1.4762477
20
50.3982085
11
4.8761477
21
50.3982085
0
LINE
8
DEFAULT_255_2_778
10
4.9764477
20
49.9733085
11
4.8764477
21
49.9733085
0
LINE
8
DEFAULT_255_2_778
10
4.8764477
20
49.9733085
11
4.8764477
21
66.0732085
0
LINE
8
DEFAULT_255_2_778
10
4.8764477
20
66.0732085
11
4.9764477
21
66.0732085
0
LINE
8
DEFAULT_255_2_778
10
6.4766477
20
63.9732085
11
4.9766477
21
63.9732085
0
LINE
8
DEFAULT_255_2_778
10
4.9766477
20
63.9732085
11
4.9766477
21
69.1439085
0
LINE
8
DEFAULT_255_2_778
10
4.9766477
20
69.1439085
11
19.7063477
21
69.2725085
0
LINE
8
DEFAULT_255_2_778
10
57.9798477
20
9.1375085
11
58.0642477
21
9.1351085
0
LINE
8
DEFAULT_255_2_778
10
58.0642477
20
9.1351085
11
58.0327477
21
8.0355085
0
LINE
8
DEFAULT_255_2_778
10
58.0327477
20
8.0355085
11
57.9391477
21
8.0381085
0
LINE
8
DEFAULT_255_2_778
10
58.3524477
20
22.7820085
11
58.4553477
21
22.7791085
0
LINE
8
DEFAULT_255_2_778
10
58.4553477
20
22.7791085
11
58.4238477
21
21.6798085
0
LINE
8
DEFAULT_255_2_778
10
58.4238477
20
21.6798085
11
58.3315477
21
21.6824085
0
LINE
8
DEFAULT_255_2_778
10
58.3852477
20
24.7317085
11
58.5111477
21
24.7280085
0
LINE
8
DEFAULT_255_2_778
10
58.5111477
20
24.7280085
11
58.4796477
21
23.6287085
0
LINE
8
DEFAULT_255_2_778
10
58.4796477
20
23.6287085
11
58.3672477
21
23.6319085
0
LINE
8
DEFAULT_255_2_778
10
58.1836477
20
62.1317085
11
58.3476477
21
62.1377085
0
LINE
8
DEFAULT_255_2_778
10
58.3476477
20
62.1377085
11
58.3068477
21
63.2363085
0
LINE
8
DEFAULT_255_2_778
10
58.3068477
20
63.2363085
11
58.1306477
21
63.2297085
0
ARC
8
DEFAULT_255_2_778
10
55.9251707
20
62.5728426
40
2.3011438
50
359.9958292
51
26.5414348
0
ARC
8
DEFAULT_255_2_778
10
55.9205626
20
62.5726944
40
2.3057519
50
359.3911096
51
359.9995201
0
ARC
8
DEFAULT_255_2_778
10
55.9250616
20
62.5725706
40
2.3012519
50
337.4778275
51
359.3930006
0
ARC
8
DEFAULT_255_2_778
10
-691.4739515
20
36.4226134
40
749.9505649
50
0.1102864
51
1.9308626
0
ARC
8
DEFAULT_255_2_778
10
-691.5492383
20
36.4223942
40
750.025852
50
1e-7
51
0.1102921
0
ARC
8
DEFAULT_255_2_778
10
-691.5471626
20
36.4226777
40
750.0237765
50
357.4808834
51
359.9999784
0
ARC
8
DEFAULT_255_2_778
10
21.4777498
20
393.2708078
40
391.4978109
50
269.9998318
51
275.3163395
0
ARC
8
DEFAULT_255_2_778
10
21.475835
20
-320.4593956
40
391.5325925
50
84.6838968
51
89.9999319
0
LINE
8
DEFAULT_255_2_778
10
57.7515003
20
69.388897
11
57.9838003
21
63.601097
0
LINE
8
DEFAULT_255_2_778
10
21.4766003
20
1.772997
11
4.9764003
21
1.772997
0
LINE
8
DEFAULT_255_2_778
10
4.9764003
20
1.772997
11
4.9764003
21
63.973097
0
LINE
8
DEFAULT_255_2_778
10
19.7060003
20
67.255797
11
19.7060003
21
71.073197
0
LINE
8
DEFAULT_255_2_778
10
19.7060003
20
71.073197
11
21.4763003
21
71.073197
0
LINE
8
DEFAULT_255_2_778
10
57.8923003
20
68.405397
11
57.7944003
21
68.401697
0
LINE
8
DEFAULT_255_2_778
10
57.9592003
20
64.270797
11
58.0574003
21
64.274497
0
LINE
8
DEFAULT_255_2_778
10
58.367985
20
23.6141335
11
58.367785
21
23.6008335
0
LINE
8
DEFAULT_255_2_778
10
58.367785
20
23.6008335
11
58.367785
21
23.5942335
0
LINE
8
DEFAULT_255_2_778
10
58.367785
20
23.5942335
11
58.367785
21
23.5876335
0
LINE
8
DEFAULT_255_2_778
10
58.367785
20
23.5876335
11
58.467785
21
23.5847335
0
LINE
8
DEFAULT_255_2_778
10
58.467785
20
23.5847335
11
58.467985
21
23.5979335
0
LINE
8
DEFAULT_255_2_778
10
58.467985
20
23.5979335
11
58.467985
21
23.6046335
0
LINE
8
DEFAULT_255_2_778
10
58.467985
20
23.6046335
11
58.467985
21
23.6112335
0
LINE
8
DEFAULT_255_2_778
10
58.467985
20
23.6112335
11
58.367985
21
23.6141335
0
LINE
8
DEFAULT_255_2_778
10
58.331485
20
21.6374335
11
58.331485
21
21.6374335
0
LINE
8
DEFAULT_255_2_778
10
58.331485
20
21.6374335
11
58.431485
21
21.6345335
0
LINE
8
DEFAULT_255_2_778
10
58.431485
20
21.6345335
11
58.431785
21
21.6477335
0
LINE
8
DEFAULT_255_2_778
10
58.431785
20
21.6477335
11
58.431785
21
21.6543335
0
LINE
8
DEFAULT_255_2_778
10
58.431785
20
21.6543335
11
58.431785
21
21.6609335
0
LINE
8
DEFAULT_255_2_778
10
58.431785
20
21.6609335
11
58.331785
21
21.6638335
0
LINE
8
DEFAULT_255_2_778
10
58.331785
20
21.6638335
11
58.331185
21
21.6371335
0
LINE
8
DEFAULT_255_2_778
10
57.936685
20
64.8695335
11
58.034885
21
64.8732335
0
LINE
8
DEFAULT_255_2_778
10
58.034885
20
64.8732335
11
58.041285
21
64.7092335
0
LINE
8
DEFAULT_255_2_778
10
58.041285
20
64.7092335
11
57.943085
21
64.7055335
0
LINE
8
DEFAULT_255_2_778
10
58.039685
20
7.9986335
11
58.084085
21
9.1977335
0
LINE
8
DEFAULT_255_2_778
10
58.084085
20
9.1977335
11
57.984085
21
9.2006335
0
LINE
8
DEFAULT_255_2_778
10
57.984085
20
9.2006335
11
57.981685
21
9.1371335
0
LINE
8
DEFAULT_255_2_778
10
57.794685
20
68.3906335
11
57.892585
21
68.3943335
0
LINE
8
DEFAULT_255_2_778
10
57.894685
20
65.9583335
11
57.992585
21
65.9620335
0
LINE
8
DEFAULT_255_2_778
10
57.966085
20
64.0845335
11
58.064285
21
64.0882335
0
LINE
8
DEFAULT_255_2_778
10
58.064285
20
64.0882335
11
58.064485
21
64.0805335
0
LINE
8
DEFAULT_255_2_778
10
58.064485
20
64.0805335
11
58.064785
21
64.0728335
0
LINE
8
DEFAULT_255_2_778
10
58.064785
20
64.0728335
11
58.065285
21
64.0572335
0
LINE
8
DEFAULT_255_2_778
10
58.065285
20
64.0572335
11
57.967185
21
64.0535335
0
LINE
8
DEFAULT_255_2_778
10
15.012585
20
69.2314335
11
17.076285
21
70.4231335
0
LINE
8
DEFAULT_255_2_778
10
17.076285
20
70.4231335
11
17.276385
21
70.4231335
0
LINE
8
DEFAULT_255_2_778
10
17.276385
20
70.4231335
11
17.378785
21
69.2521335
0
LINE
8
DEFAULT_255_2_778
10
57.959485
20
64.2662335
11
58.057685
21
64.2700335
0
ARC
8
DEFAULT_255_2_778
10
32.9770995
20
25.8239805
40
26.0010045
50
247.6485026
51
269.9985476
0
ARC
8
DEFAULT_255_2_778
10
32.9772136
20
47.0203642
40
26.0028118
50
90.0017037
51
112.3501316
0
LINE
8
DEFAULT_255_2_778
10
58.4317404
20
21.6429761
11
58.4016404
21
20.1834761
0
LINE
8
DEFAULT_255_2_778
10
58.4016404
20
20.1834761
11
58.3015404
21
20.1863761
0
LINE
8
DEFAULT_255_2_778
10
58.3015404
20
20.1863761
11
58.3317404
21
21.6458761
0
LINE
8
DEFAULT_255_2_778
10
58.4860404
20
24.7290761
11
58.4870404
21
24.7943761
0
LINE
8
DEFAULT_255_2_778
10
58.4870404
20
24.7943761
11
58.3870404
21
24.7972761
0
LINE
8
DEFAULT_255_2_778
10
58.3870404
20
24.7972761
11
58.3859404
21
24.7319761
0
LINE
8
DEFAULT_255_2_778
10
58.4542404
20
22.8443761
11
58.3542404
21
22.8473761
0
LINE
8
DEFAULT_255_2_778
10
58.3542404
20
22.8473761
11
58.3531404
21
22.7819761
0
LINE
8
DEFAULT_255_2_778
10
58.1671404
20
61.1383761
11
58.0690404
21
61.1346761
0
LINE
8
DEFAULT_255_2_778
10
57.9586404
20
64.2815761
11
58.0568404
21
64.2852761
0
LINE
8
DEFAULT_255_2_778
10
58.0568404
20
64.2852761
11
58.0409404
21
64.7088761
0
LINE
8
DEFAULT_255_2_778
10
57.8975404
20
65.8804761
11
57.9954404
21
65.8841761
0
LINE
8
DEFAULT_255_2_778
10
57.9954404
20
65.8841761
11
58.0346404
21
64.8729761
0
LINE
8
DEFAULT_255_2_778
10
58.0396404
20
7.9986761
11
57.9396404
21
8.0015761
0
LINE
8
DEFAULT_255_2_778
10
57.9952404
20
65.8931761
11
57.8973404
21
65.8894761
0
LINE
8
DEFAULT_255_2_778
10
33.0875404
20
1.9452761
11
32.9764404
21
-0.1770239
0
LINE
8
DEFAULT_255_2_778
10
32.9764404
20
73.0231761
11
33.0875404
21
70.9009761
0
LINE
8
DEFAULT_255_2_778
10
58.3542404
20
22.8422761
11
58.3674404
21
23.5955761
0
LINE
8
DEFAULT_255_2_778
10
58.2092404
20
59.8371761
11
58.1677404
21
61.1309761
0
LINE
8
DEFAULT_255_2_778
10
58.4542404
20
22.8396761
11
58.4674404
21
23.5928761
0
LINE
8
DEFAULT_255_2_778
10
57.8928404
20
68.3942761
11
57.9584404
21
66.8178761
0
LINE
8
DEFAULT_255_2_778
10
58.4542404
20
22.8443761
11
58.4532404
21
22.7790761
0
LINE
8
DEFAULT_255_2_778
10
58.4492404
20
22.5718761
11
58.4434404
21
22.2572761
0
LINE
8
DEFAULT_255_2_778
10
58.4434404
20
22.2572761
11
58.4320404
21
21.6614761
0
LINE
8
DEFAULT_255_2_778
10
57.9930404
20
65.9619761
11
57.9957404
21
65.8931761
0
LINE
8
DEFAULT_255_2_778
10
58.0571404
20
64.2855761
11
58.0645404
21
64.0881761
0
LINE
8
DEFAULT_255_2_778
10
57.8901404
20
4.2978761
11
57.8901404
21
4.3008761
0
LINE
8
DEFAULT_255_2_778
10
57.8901404
20
4.3008761
11
57.8904404
21
4.3063761
0
LINE
8
DEFAULT_255_2_778
10
57.8904404
20
4.3063761
11
57.8906404
21
4.3150761
0
LINE
8
DEFAULT_255_2_778
10
57.8906404
20
4.3150761
11
57.8912404
21
4.3267761
0
LINE
8
DEFAULT_255_2_778
10
57.8912404
20
4.3267761
11
57.8917404
21
4.3415761
0
LINE
8
DEFAULT_255_2_778
10
57.8917404
20
4.3415761
11
57.8933404
21
4.3788761
0
LINE
8
DEFAULT_255_2_778
10
57.8933404
20
4.3788761
11
57.8944404
21
4.4005761
0
LINE
8
DEFAULT_255_2_778
10
57.8944404
20
4.4005761
11
57.8954404
21
4.4238761
0
LINE
8
DEFAULT_255_2_778
10
57.8954404
20
4.4238761
11
57.8975404
21
4.4733761
0
LINE
8
DEFAULT_255_2_778
10
57.8975404
20
4.4733761
11
57.8996404
21
4.5259761
0
LINE
8
DEFAULT_255_2_778
10
57.8996404
20
4.5259761
11
57.9041404
21
4.6344761
0
LINE
8
DEFAULT_255_2_778
10
57.9041404
20
4.6344761
11
57.9089404
21
4.7447761
0
LINE
8
DEFAULT_255_2_778
10
57.9089404
20
4.7447761
11
57.9137404
21
4.8561761
0
LINE
8
DEFAULT_255_2_778
10
57.9137404
20
4.8561761
11
57.9184404
21
4.9678761
0
LINE
8
DEFAULT_255_2_778
10
57.9184404
20
4.9678761
11
57.9232404
21
5.0794761
0
LINE
8
DEFAULT_255_2_778
10
57.9232404
20
5.0794761
11
57.9280404
21
5.1911761
0
LINE
8
DEFAULT_255_2_778
10
57.9280404
20
5.1911761
11
57.9325404
21
5.3025761
0
LINE
8
DEFAULT_255_2_778
10
57.9325404
20
5.3025761
11
57.9348404
21
5.3580761
0
LINE
8
DEFAULT_255_2_778
10
57.9348404
20
5.3580761
11
57.9372404
21
5.4133761
0
LINE
8
DEFAULT_255_2_778
10
57.9372404
20
5.4133761
11
57.9396404
21
5.4681761
0
LINE
8
DEFAULT_255_2_778
10
57.9396404
20
5.4681761
11
57.9417404
21
5.5218761
0
LINE
8
DEFAULT_255_2_778
10
57.9417404
20
5.5218761
11
57.9438404
21
5.5739761
0
LINE
8
DEFAULT_255_2_778
10
57.9438404
20
5.5739761
11
57.9457404
21
5.6223761
0
LINE
8
DEFAULT_255_2_778
10
57.9457404
20
5.6223761
11
57.9465404
21
5.6443761
0
LINE
8
DEFAULT_255_2_778
10
57.9465404
20
5.6443761
11
57.9473404
21
5.6644761
0
LINE
8
DEFAULT_255_2_778
10
57.9473404
20
5.6644761
11
57.9486404
21
5.6964761
0
LINE
8
DEFAULT_255_2_778
10
57.9486404
20
5.6964761
11
57.9491404
21
5.7078761
0
LINE
8
DEFAULT_255_2_778
10
57.9491404
20
5.7078761
11
57.9494404
21
5.7160761
0
LINE
8
DEFAULT_255_2_778
10
57.9494404
20
5.7160761
11
57.9497404
21
5.7229761
0
LINE
8
DEFAULT_255_2_778
10
0.2263404
20
39.2919761
11
0.2263404
21
36.7731761
0
LINE
8
DEFAULT_255_2_778
10
0.2263404
20
36.7731761
11
4.9764404
21
36.7731761
0
LINE
8
DEFAULT_255_2_778
10
0.2263678
20
42.8543
11
4.9764678
21
42.8543
0
LINE
8
DEFAULT_255_2_778
10
4.9764678
20
39.2919443
11
0.2263678
21
39.2919443
0
LINE
8
DEFAULT_255_2_778
10
0.2263678
20
39.2919443
11
0.2263678
21
45.3731443
0
LINE
8
DEFAULT_255_2_778
10
0.2263678
20
45.3731443
11
4.9764678
21
45.3731443
0
LINE
8
DEFAULT_255_2_778
10
3.5765678
20
31.1081443
11
2.1763678
21
31.1081443
0
LINE
8
DEFAULT_255_2_778
10
2.1763678
20
31.1081443
11
2.1763678
21
8.0380443
0
LINE
8
DEFAULT_255_2_778
10
2.1763678
20
8.0380443
11
3.5765678
21
8.0380443
0
LINE
8
DEFAULT_255_2_778
10
4.9762008
20
6.0732767
11
4.5761008
21
6.0732767
0
LINE
8
DEFAULT_255_2_778
10
4.5761008
20
6.0732767
11
3.5760008
21
7.0733767
0
LINE
8
DEFAULT_255_2_778
10
3.5760008
20
7.0733767
11
3.5760008
21
32.0733767
0
LINE
8
DEFAULT_255_2_778
10
3.5760008
20
32.0733767
11
4.5761008
21
33.0734767
0
LINE
8
DEFAULT_255_2_778
10
4.5761008
20
33.0734767
11
4.9762008
21
33.0734767
0
LINE
8
DEFAULT_255_2_778
10
57.9391008
20
7.9917767
11
58.0392008
21
7.9888767
0
LINE
8
DEFAULT_255_2_778
10
58.0844008
20
9.2077767
11
57.9844008
21
9.2106767
0
LINE
8
DEFAULT_255_2_778
10
57.7904008
20
4.3008767
11
57.8905008
21
4.2978767
0
LINE
8
DEFAULT_255_2_778
10
57.7904479
20
4.3044878
11
57.8904479
21
4.3015878
0
LINE
8
DEFAULT_255_2_778
10
57.9499479
20
5.7247878
11
57.8499479
21
5.7276878
0
LINE
8
DEFAULT_255_2_778
10
58.0693479
20
61.1271878
11
58.1674479
21
61.1327878
0
LINE
8
DEFAULT_255_2_778
10
58.1113479
20
59.8153878
11
58.2098479
21
59.8190878
0
LINE
8
DEFAULT_255_2_778
10
58.0841479
20
9.2048878
11
57.9841479
21
9.2077878
0
LINE
8
DEFAULT_255_2_778
10
58.1108479
20
59.8333878
11
58.2092479
21
59.8370878
0
LINE
8
DEFAULT_255_2_778
10
58.2092479
20
59.8370878
11
58.2095479
21
59.8262878
0
LINE
8
DEFAULT_255_2_778
10
58.4545479
20
22.8493878
11
58.3545479
21
22.8523878
0
LINE
8
DEFAULT_255_2_778
10
58.4544938
20
22.8529552
11
58.3544938
21
22.8558552
0
ENDSEC
0
EOF