0
SECTION
2
HEADER
9
$MEASUREMENT
70
1
0
ENDSEC
0
SECTION
2
TABLES
0
TABLE
2
LTYPE
0
LTYPE
72
65
70
64
2
CONTINUOUS
3
______
73
0
40
0
0
ENDTAB
0
TABLE
2
LAYER
0
LAYER
2
DEFAULT_255_2_778
70
0
62
255
6
CONTINUOUS
0
LAYER
2
DEFAULT_255_1_234
70
0
62
255
6
CONTINUOUS
0
ENDTAB
0
ENDSEC
0
SECTION
2
ENTITIES
0
ARC
8
DEFAULT_255_2_778
10
3.5695693
20
67.8676531
40
0.7914215
50
129.1312896
51
180.1450914
0
ARC
8
DEFAULT_255_2_778
10
3.5698345
20
67.8681402
40
0.7912112
50
89.854026
51
129.1684493
0
ARC
8
DEFAULT_255_2_778
10
25.7988937
20
67.8678268
40
0.7915249
50
39.4792447
51
90.147911
0
ARC
8
DEFAULT_255_2_778
10
25.7994935
20
67.8676734
40
0.7911595
50
359.8533901
51
39.5154338
0
ARC
8
DEFAULT_255_2_778
10
25.7991693
20
-1.9863991
40
0.7914836
50
309.4761667
51
0.1482649
0
ARC
8
DEFAULT_255_2_778
10
25.798898
20
-1.9868302
40
0.7913235
50
269.8517415
51
309.511178
0
ARC
8
DEFAULT_255_2_778
10
3.569842
20
-1.986772
40
0.7913815
50
219.1282118
51
270.1454017
0
ARC
8
DEFAULT_255_2_778
10
3.5695247
20
-1.9863896
40
0.7913769
50
179.8524075
51
219.1641908
0
LINE
8
DEFAULT_255_2_778
10
3.5718503
20
68.659349
11
25.7968503
21
68.659349
0
LINE
8
DEFAULT_255_2_778
10
26.5906503
20
67.865649
11
26.5906503
21
-1.984351
0
LINE
8
DEFAULT_255_2_778
10
25.7968503
20
-2.778151
11
3.5718503
21
-2.778151
0
LINE
8
DEFAULT_255_2_778
10
2.7781503
20
-1.984351
11
2.7781503
21
67.865649
0
LINE
8
DEFAULT_255_1_234
10
6.6523835
20
0.5189243
11
6.6788882
21
0.5189243
0
LINE
8
DEFAULT_255_1_234
10
6.6788882
20
0.5189243
11
6.6788882
21
0.392826
0
LINE
8
DEFAULT_255_1_234
10
6.6788882
20
0.392826
11
6.6515803
21
0.392826
0
LINE
8
DEFAULT_255_1_234
10
6.1046189
20
-0.2063417
11
6.1046189
21
-0.1493164
0
LINE
8
DEFAULT_255_1_234
10
6.2540093
20
-0.1685925
11
6.2540093
21
-0.2232083
0
ARC
8
DEFAULT_255_1_234
10
6.6568151
20
-0.1069545
40
0.4998079
50
90.6001036
51
104.514704
0
ARC
8
DEFAULT_255_1_234
10
6.6179667
20
0.0375131
40
0.3502176
50
104.2855254
51
133.862935
0
ARC
8
DEFAULT_255_1_234
10
6.6343424
20
0.026683
40
0.3693984
50
134.5302688
51
161.6210873
0
ARC
8
DEFAULT_255_1_234
10
6.7996613
20
-0.0316105
40
0.5446739
50
161.2849839
51
174.2076652
0
ARC
8
DEFAULT_255_1_234
10
6.940355
20
-0.0510213
40
0.6866274
50
173.7810589
51
174.9254635
0
ARC
8
DEFAULT_255_1_234
10
6.4853382
20
-0.1893161
40
0.3033419
50
95.8330959
51
138.9954921
0
ARC
8
DEFAULT_255_1_234
10
6.5076738
20
-0.3171625
40
0.4328947
50
89.8753725
51
97.0544009
0
ARC
8
DEFAULT_255_1_234
10
6.5124204
20
-0.2336252
40
0.3493769
50
71.6407809
51
90.6240094
0
ARC
8
DEFAULT_255_1_234
10
6.5274777
20
-0.1781918
40
0.2920396
50
39.6367836
51
71.019018
0
ARC
8
DEFAULT_255_1_234
10
6.463825
20
-0.2332002
40
0.3761538
50
10.658731
51
39.9043955
0
ARC
8
DEFAULT_255_1_234
10
6.3090333
20
-0.2668314
40
0.5345136
50
359.682601
51
11.132623
0
ARC
8
DEFAULT_255_1_234
10
6.3050464
20
-0.273899
40
0.5385081
50
347.2486944
51
0.4369317
0
ARC
8
DEFAULT_255_1_234
10
6.4717941
20
-0.3140193
40
0.3670249
50
318.1409698
51
347.6118597
0
ARC
8
DEFAULT_255_1_234
10
6.5042934
20
-0.3407298
40
0.3250007
50
275.6342139
51
317.8248465
0
ARC
8
DEFAULT_255_1_234
10
6.4822045
20
-0.2107781
40
0.4565864
50
269.8874292
51
276.7917694
0
ARC
8
DEFAULT_255_1_234
10
6.4767116
20
-0.3133257
40
0.3540676
50
246.9140195
51
270.7437342
0
ARC
8
DEFAULT_255_1_234
10
6.4773506
20
-0.3275616
40
0.3412781
50
218.1665114
51
245.878116
0
ARC
8
DEFAULT_255_1_234
10
6.5652967
20
-0.2539721
40
0.455911
50
191.4115814
51
218.6077802
0
ARC
8
DEFAULT_255_1_234
10
6.7591056
20
-0.2105167
40
0.6545001
50
179.6345085
51
191.7836486
0
ARC
8
DEFAULT_255_1_234
10
7.3173393
20
-0.1426303
40
1.2127388
50
171.4525249
51
180.3158839
0
ARC
8
DEFAULT_255_1_234
10
6.8778269
20
-0.0742392
40
0.7679464
50
157.9802646
51
171.6246686
0
ARC
8
DEFAULT_255_1_234
10
6.656429
20
0.0140421
40
0.5296008
50
141.4298019
51
157.854097
0
ARC
8
DEFAULT_255_1_234
10
6.592261
20
0.0594381
40
0.4511509
50
102.8715806
51
140.8564722
0
ARC
8
DEFAULT_255_1_234
10
6.6570226
20
-0.1845448
40
0.7034845
50
90.3778349
51
103.5869322
0
ARC
8
DEFAULT_255_1_234
10
6.4832002
20
-0.245027
40
0.2370698
50
89.8751008
51
126.2071704
0
ARC
8
DEFAULT_255_1_234
10
6.4877792
20
-0.2604697
40
0.2522934
50
124.9745049
51
144.895901
0
ARC
8
DEFAULT_255_1_234
10
6.4701982
20
-0.246144
40
0.2296779
50
145.2974905
51
160.2660252
0
ARC
8
DEFAULT_255_1_234
10
6.7774521
20
-0.2263929
40
0.5234525
50
179.6514266
51
190.2855912
0
ARC
8
DEFAULT_255_1_234
10
6.6080658
20
-0.2583214
40
0.3510893
50
190.0945431
51
207.5098196
0
ARC
8
DEFAULT_255_1_234
10
6.5514928
20
-0.2852377
40
0.288489
50
207.9583163
51
216.3251085
0
ARC
8
DEFAULT_255_1_234
10
6.5175036
20
-0.3131895
40
0.2445587
50
215.7661442
51
232.5456785
0
ARC
8
DEFAULT_255_1_234
10
6.4792019
20
-0.3618518
40
0.1826382
50
232.8005391
51
270.6605633
0
ARC
8
DEFAULT_255_1_234
10
6.483772
20
-0.3254388
40
0.2190529
50
269.35537
51
288.4744281
0
ARC
8
DEFAULT_255_1_234
10
6.4930617
20
-0.3603882
40
0.1829749
50
289.1833337
51
322.9683818
0
ARC
8
DEFAULT_255_1_234
10
6.4319139
20
-0.3121609
40
0.2608399
50
322.6007884
51
346.5182367
0
ARC
8
DEFAULT_255_1_234
10
6.3161735
20
-0.2826384
40
0.3802777
50
346.2582162
51
358.7741648
0
ARC
8
DEFAULT_255_1_234
10
6.2143404
20
-0.2771035
40
0.4822176
50
358.3755224
51
0.0098023
0
ARC
8
DEFAULT_255_1_234
10
6.2899591
20
-0.2743343
40
0.4066078
50
359.6214041
51
11.2839074
0
ARC
8
DEFAULT_255_1_234
10
6.4176738
20
-0.2476934
40
0.2761514
50
11.0482309
51
31.8146458
0
ARC
8
DEFAULT_255_1_234
10
6.4485781
20
-0.2309416
40
0.2410679
50
32.3035391
51
38.082671
0
ARC
8
DEFAULT_255_1_234
10
6.4906441
20
-0.1928338
40
0.1844966
50
36.825067
51
85.7415724
0
ARC
8
DEFAULT_255_1_234
10
6.4839274
20
-0.2428699
40
0.2349122
50
85.0140713
51
90.0513278
0
LINE
8
DEFAULT_255_1_234
10
7.7189983
20
0.0153343
11
7.7189983
21
-0.110764
0
LINE
8
DEFAULT_255_1_234
10
7.7189983
20
-0.110764
11
7.2121957
21
-0.110764
0
LINE
8
DEFAULT_255_1_234
10
7.2121957
20
-0.110764
11
7.2121957
21
-0.5252017
0
LINE
8
DEFAULT_255_1_234
10
7.2121957
20
-0.5252017
11
7.8009221
21
-0.5252017
0
LINE
8
DEFAULT_255_1_234
10
7.8009221
20
-0.5252017
11
7.8009221
21
-0.6513
0
LINE
8
DEFAULT_255_1_234
10
7.8009221
20
-0.6513
11
7.0579863
21
-0.6513
0
LINE
8
DEFAULT_255_1_234
10
7.0579863
20
-0.6513
11
7.0579863
21
0.5181211
0
LINE
8
DEFAULT_255_1_234
10
7.0579863
20
0.5181211
11
7.7928903
21
0.5181211
0
LINE
8
DEFAULT_255_1_234
10
7.7928903
20
0.5181211
11
7.7928903
21
0.3912196
0
LINE
8
DEFAULT_255_1_234
10
7.7928903
20
0.3912196
11
7.2121957
21
0.3912196
0
LINE
8
DEFAULT_255_1_234
10
7.2121957
20
0.3912196
11
7.2121957
21
0.0153343
0
LINE
8
DEFAULT_255_1_234
10
7.2121957
20
0.0153343
11
7.7189983
21
0.0153343
0
LINE
8
DEFAULT_255_1_234
10
8.4225786
20
-0.1934909
11
8.14709
21
-0.1934909
0
LINE
8
DEFAULT_255_1_234
10
8.14709
20
-0.1934909
11
8.14709
21
-0.6513
0
LINE
8
DEFAULT_255_1_234
10
8.14709
20
-0.6513
11
7.9928806
21
-0.6513
0
LINE
8
DEFAULT_255_1_234
10
7.9928806
20
-0.6513
11
7.9928806
21
0.5181211
0
LINE
8
DEFAULT_255_1_234
10
7.9928806
20
0.5181211
11
8.424185
21
0.5181211
0
LINE
8
DEFAULT_255_1_234
10
8.14709
20
0.3912196
11
8.14709
21
-0.0673926
0
LINE
8
DEFAULT_255_1_234
10
8.14709
20
-0.0673926
11
8.424185
21
-0.0673926
0
LINE
8
DEFAULT_255_1_234
10
8.4330199
20
0.3912196
11
8.14709
21
0.3912196
0
ARC
8
DEFAULT_255_1_234
10
8.4283976
20
-0.0877805
40
0.6059162
50
78.8378113
51
90.3983573
0
ARC
8
DEFAULT_255_1_234
10
8.469999
20
0.1142879
40
0.3996205
50
58.9632738
51
79.0810598
0
ARC
8
DEFAULT_255_1_234
10
8.5001532
20
0.1702721
40
0.3361177
50
48.0197965
51
58.447194
0
ARC
8
DEFAULT_255_1_234
10
8.5090393
20
0.1788225
40
0.3238191
50
3.3375044
51
48.1766626
0
ARC
8
DEFAULT_255_1_234
10
8.3860233
20
0.1611171
40
0.4477806
50
359.9477528
51
4.6829065
0
ARC
8
DEFAULT_255_1_234
10
8.398355
20
0.1568628
40
0.4354656
50
346.1877825
51
0.5060252
0
ARC
8
DEFAULT_255_1_234
10
8.5342417
20
0.1215731
40
0.295089
50
310.8831995
51
346.5426355
0
ARC
8
DEFAULT_255_1_234
10
8.5033837
20
0.1632695
40
0.3468331
50
286.6925341
51
310.2288297
0
ARC
8
DEFAULT_255_1_234
10
8.4464668
20
0.3422882
40
0.5346654
50
274.6850312
51
287.0245141
0
ARC
8
DEFAULT_255_1_234
10
8.4239391
20
0.5631932
40
0.7566852
50
269.8969846
51
275.018904
0
ARC
8
DEFAULT_255_1_234
10
8.4266982
20
0.3552707
40
0.4226708
50
269.6593078
51
279.4153575
0
ARC
8
DEFAULT_255_1_234
10
8.4524258
20
0.2062133
40
0.2714146
50
279.2049762
51
294.9900808
0
ARC
8
DEFAULT_255_1_234
10
8.4814583
20
0.1414508
40
0.2004525
50
295.2888114
51
311.2911209
0
ARC
8
DEFAULT_255_1_234
10
8.4885478
20
0.130922
40
0.1878703
50
311.7854996
51
347.2861051
0
ARC
8
DEFAULT_255_1_234
10
8.3901636
20
0.1562092
40
0.2894234
50
346.6893224
51
0.1059443
0
ARC
8
DEFAULT_255_1_234
10
8.3146531
20
0.1590685
40
0.3649409
50
359.6350983
51
0.0053152
0
ARC
8
DEFAULT_255_1_234
10
8.411686
20
0.1615937
40
0.2679199
50
359.4672059
51
15.5933957
0
ARC
8
DEFAULT_255_1_234
10
8.4741748
20
0.1784779
40
0.2031932
50
15.7442113
51
46.6203375
0
ARC
8
DEFAULT_255_1_234
10
8.4593969
20
0.1614484
40
0.2257226
50
46.8628658
51
75.6676503
0
ARC
8
DEFAULT_255_1_234
10
8.429979
20
0.0555718
40
0.3355939
50
75.276167
51
88.2915297
0
ARC
8
DEFAULT_255_1_234
10
8.4241496
20
-0.0322476
40
0.4235602
50
87.8575022
51
88.8000139
0
LINE
8
DEFAULT_255_1_234
10
9.7470123
20
0.5181211
11
9.7470123
21
0.434591
0
LINE
8
DEFAULT_255_1_234
10
9.7470123
20
0.434591
11
9.2626984
21
-0.6513
0
LINE
8
DEFAULT_255_1_234
10
9.2626984
20
-0.6513
11
9.1068827
21
-0.6513
0
LINE
8
DEFAULT_255_1_234
10
9.1068827
20
-0.6513
11
9.5895902
21
0.3960387
0
LINE
8
DEFAULT_255_1_234
10
9.5895902
20
0.3960387
11
8.9566892
21
0.3960387
0
LINE
8
DEFAULT_255_1_234
10
8.9566892
20
0.3960387
11
8.9566892
21
0.5181211
0
LINE
8
DEFAULT_255_1_234
10
8.9566892
20
0.5181211
11
9.7470123
21
0.5181211
0
LINE
8
DEFAULT_255_1_234
10
10.4040084
20
0.5237433
11
10.4040084
21
-0.6513
0
LINE
8
DEFAULT_255_1_234
10
10.4040084
20
-0.6513
11
10.2546181
21
-0.6513
0
LINE
8
DEFAULT_255_1_234
10
10.2546181
20
-0.6513
11
10.2546181
21
0.3390133
0
LINE
8
DEFAULT_255_1_234
10
10.2546181
20
0.3390133
11
9.9550343
21
0.2289785
0
LINE
8
DEFAULT_255_1_234
10
9.9550343
20
0.2289785
11
9.9550343
21
0.3639117
0
LINE
8
DEFAULT_255_1_234
10
9.9550343
20
0.3639117
11
10.3807164
21
0.5237433
0
LINE
8
DEFAULT_255_1_234
10
10.3807164
20
0.5237433
11
10.4040084
21
0.5237433
0
LINE
8
DEFAULT_255_1_234
10
11.0553824
20
-0.1155831
11
11.0553824
21
0.0056962
0
LINE
8
DEFAULT_255_1_234
10
11.0553824
20
0.0056962
11
11.1670236
21
0.0056962
0
LINE
8
DEFAULT_255_1_234
10
10.9766714
20
0.2113087
11
10.8280842
21
0.2113087
0
LINE
8
DEFAULT_255_1_234
10
10.817643
20
-0.3428813
11
10.9670333
21
-0.3428813
0
LINE
8
DEFAULT_255_1_234
10
11.1670236
20
-0.1155831
11
11.0553824
21
-0.1155831
0
ARC
8
DEFAULT_255_1_234
10
11.1641102
20
0.3449713
40
0.3392876
50
270.4919872
51
281.8951556
0
ARC
8
DEFAULT_255_1_234
10
11.1882364
20
0.2347702
40
0.2264817
50
281.6691735
51
301.2943132
0
ARC
8
DEFAULT_255_1_234
10
11.2052574
20
0.2036304
40
0.1910381
50
301.7833094
51
311.7545298
0
ARC
8
DEFAULT_255_1_234
10
11.214415
20
0.1934748
40
0.1773635
50
311.7323931
51
354.2802411
0
ARC
8
DEFAULT_255_1_234
10
11.1417775
20
0.2059722
40
0.2509385
50
353.0937916
51
0.1181479
0
ARC
8
DEFAULT_255_1_234
10
11.095656
20
0.2107386
40
0.2970898
50
359.1805295
51
15.0453146
0
ARC
8
DEFAULT_255_1_234
10
11.2302397
20
0.2499992
40
0.1569564
50
13.9577229
51
77.6713066
0
ARC
8
DEFAULT_255_1_234
10
11.1915926
20
0.1114949
40
0.3006298
50
76.1116566
51
90.7026153
0
ARC
8
DEFAULT_255_1_234
10
11.1856765
20
0.1388545
40
0.2732568
50
89.5324876
51
103.531937
0
ARC
8
DEFAULT_255_1_234
10
11.1656209
20
0.2187884
40
0.1908508
50
103.2931773
51
133.5619022
0
ARC
8
DEFAULT_255_1_234
10
11.1611697
20
0.2247375
40
0.1834746
50
133.8349307
51
173.5344437
0
ARC
8
DEFAULT_255_1_234
10
11.233474
20
0.2119213
40
0.2568033
50
172.5096846
51
180.1366907
0
ARC
8
DEFAULT_255_1_234
10
11.1383634
20
0.2153622
40
0.3103056
50
155.3484492
51
180.7484736
0
ARC
8
DEFAULT_255_1_234
10
11.1334723
20
0.2124846
40
0.3070957
50
131.5744599
51
154.4798489
0
ARC
8
DEFAULT_255_1_234
10
11.164787
20
0.180831
40
0.3515643
50
96.9875458
51
131.9690667
0
ARC
8
DEFAULT_255_1_234
10
11.186735
20
0.0562636
40
0.4779224
50
89.8596053
51
97.7825159
0
ARC
8
DEFAULT_255_1_234
10
11.1915413
20
0.0300616
40
0.5041361
50
78.3655447
51
90.4131539
0
ARC
8
DEFAULT_255_1_234
10
11.2273331
20
0.1959887
40
0.3344039
50
56.6229102
51
78.638727
0
ARC
8
DEFAULT_255_1_234
10
11.2488275
20
0.2335805
40
0.2912001
50
47.0253525
51
56.0854072
0
ARC
8
DEFAULT_255_1_234
10
11.2508055
20
0.2375223
40
0.2869704
50
10.9208013
51
46.7778124
0
ARC
8
DEFAULT_255_1_234
10
11.1144122
20
0.2059857
40
0.426899
50
359.6364486
51
11.6087304
0
ARC
8
DEFAULT_255_1_234
10
11.2978966
20
0.2044752
40
0.243409
50
332.3549906
51
359.7179418
0
ARC
8
DEFAULT_255_1_234
10
11.2328567
20
0.2353142
40
0.3153459
50
325.2333722
51
332.8745602
0
ARC
8
DEFAULT_255_1_234
10
11.2481191
20
0.2246828
40
0.2967456
50
292.9802137
51
325.2392345
0
ARC
8
DEFAULT_255_1_234
10
11.2206565
20
0.2780863
40
0.3566604
50
292.5402179
51
293.6924929
0
ARC
8
DEFAULT_255_1_234
10
11.2599161
20
-0.3673909
40
0.3307468
50
57.6435486
51
72.8625112
0
ARC
8
DEFAULT_255_1_234
10
11.295366
20
-0.3099451
40
0.2632492
50
36.7248896
51
57.4697979
0
ARC
8
DEFAULT_255_1_234
10
11.2942293
20
-0.308678
40
0.2634081
50
8.0545065
51
36.356114
0
ARC
8
DEFAULT_255_1_234
10
11.2079478
20
-0.3241826
40
0.3510261
50
359.8320645
51
8.5869982
0
ARC
8
DEFAULT_255_1_234
10
11.1704254
20
-0.3289899
40
0.3885653
50
343.9829931
51
0.5571613
0
ARC
8
DEFAULT_255_1_234
10
11.2590452
20
-0.3532562
40
0.2966924
50
311.6359546
51
343.7651759
0
ARC
8
DEFAULT_255_1_234
10
11.2212021
20
-0.3105898
40
0.3537231
50
279.7829875
51
311.6255694
0
ARC
8
DEFAULT_255_1_234
10
11.1910797
20
-0.166872
40
0.5004971
50
269.7286406
51
280.3856417
0
ARC
8
DEFAULT_255_1_234
10
11.184887
20
-0.1710004
40
0.4963778
50
256.6828919
51
270.4412052
0
ARC
8
DEFAULT_255_1_234
10
11.1510165
20
-0.3094606
40
0.3538406
50
229.4223008
51
256.8556159
0
ARC
8
DEFAULT_255_1_234
10
11.1095558
20
-0.3561264
40
0.2914296
50
181.818294
51
229.6455059
0
ARC
8
DEFAULT_255_1_234
10
11.2135515
20
-0.3430504
40
0.3959084
50
179.9755256
51
183.2323064
0
ARC
8
DEFAULT_255_1_234
10
11.196326
20
-0.3450963
40
0.2293034
50
179.4465117
51
196.2869258
0
ARC
8
DEFAULT_255_1_234
10
11.1475668
20
-0.3584349
40
0.1787621
50
196.5661473
51
227.705904
0
ARC
8
DEFAULT_255_1_234
10
11.1639763
20
-0.3400845
40
0.2033784
50
227.7652068
51
257.8762805
0
ARC
8
DEFAULT_255_1_234
10
11.1864733
20
-0.2457844
40
0.3003081
50
257.4584385
51
270.426602
0
ARC
8
DEFAULT_255_1_234
10
11.1910299
20
-0.2168004
40
0.329292
50
269.5962073
51
280.8789248
0
ARC
8
DEFAULT_255_1_234
10
11.2139828
20
-0.3314315
40
0.2123908
50
280.6346389
51
299.8595945
0
ARC
8
DEFAULT_255_1_234
10
11.2330735
20
-0.3676788
40
0.171457
50
300.3576302
51
314.5517981
0
ARC
8
DEFAULT_255_1_234
10
11.2247795
20
-0.3616081
40
0.1816095
50
315.0728369
51
345.0431014
0
ARC
8
DEFAULT_255_1_234
10
11.1324609
20
-0.3347159
40
0.2777492
50
344.5986631
51
357.9269593
0
ARC
8
DEFAULT_255_1_234
10
11.0428936
20
-0.3285724
40
0.3674917
50
357.4748886
51
0.0231117
0
ARC
8
DEFAULT_255_1_234
10
11.1452045
20
-0.3261321
40
0.2651907
50
359.5047933
51
13.4239635
0
ARC
8
DEFAULT_255_1_234
10
11.2318689
20
-0.3039522
40
0.1757509
50
12.9498199
51
48.7551375
0
ARC
8
DEFAULT_255_1_234
10
11.2136423
20
-0.32886
40
0.2065134
50
49.5088623
51
72.1836453
0
ARC
8
DEFAULT_255_1_234
10
11.1778575
20
-0.4350709
40
0.3185836
50
71.9010081
51
84.3554254
0
ARC
8
DEFAULT_255_1_234
10
11.1617207
20
-0.5711674
40
0.4556151
50
84.0193428
51
89.333121
0
LINE
8
DEFAULT_255_1_234
10
11.9790323
20
-0.1155831
11
11.9790323
21
0.0056962
0
LINE
8
DEFAULT_255_1_234
10
11.9790323
20
0.0056962
11
12.0906735
21
0.0056962
0
LINE
8
DEFAULT_255_1_234
10
11.9003213
20
0.2113087
11
11.7517341
21
0.2113087
0
LINE
8
DEFAULT_255_1_234
10
11.7412929
20
-0.3428813
11
11.8906832
21
-0.3428813
0
LINE
8
DEFAULT_255_1_234
10
12.0906735
20
-0.1155831
11
11.9790323
21
-0.1155831
0
ARC
8
DEFAULT_255_1_234
10
12.0877601
20
0.3449713
40
0.3392876
50
270.4919872
51
281.8951556
0
ARC
8
DEFAULT_255_1_234
10
12.1118863
20
0.2347702
40
0.2264817
50
281.6691735
51
301.2943132
0
ARC
8
DEFAULT_255_1_234
10
12.1289073
20
0.2036304
40
0.1910381
50
301.7833094
51
311.7545298
0
ARC
8
DEFAULT_255_1_234
10
12.1380649
20
0.1934748
40
0.1773635
50
311.7323931
51
354.2802411
0
ARC
8
DEFAULT_255_1_234
10
12.0654274
20
0.2059722
40
0.2509385
50
353.0937916
51
0.1181479
0
ARC
8
DEFAULT_255_1_234
10
12.0193059
20
0.2107386
40
0.2970898
50
359.1805295
51
15.0453146
0
ARC
8
DEFAULT_255_1_234
10
12.1538896
20
0.2499992
40
0.1569564
50
13.9577229
51
77.6713066
0
ARC
8
DEFAULT_255_1_234
10
12.1152425
20
0.1114949
40
0.3006298
50
76.1116566
51
90.7026153
0
ARC
8
DEFAULT_255_1_234
10
12.1093264
20
0.1388545
40
0.2732568
50
89.5324876
51
103.531937
0
ARC
8
DEFAULT_255_1_234
10
12.0892708
20
0.2187884
40
0.1908508
50
103.2931773
51
133.5619022
0
ARC
8
DEFAULT_255_1_234
10
12.0848196
20
0.2247375
40
0.1834746
50
133.8349307
51
173.5344437
0
ARC
8
DEFAULT_255_1_234
10
12.1571239
20
0.2119213
40
0.2568033
50
172.5096846
51
180.1366907
0
ARC
8
DEFAULT_255_1_234
10
12.0620133
20
0.2153622
40
0.3103056
50
155.3484492
51
180.7484736
0
ARC
8
DEFAULT_255_1_234
10
12.0571222
20
0.2124846
40
0.3070957
50
131.5744599
51
154.4798489
0
ARC
8
DEFAULT_255_1_234
10
12.088437
20
0.180831
40
0.3515643
50
96.9875458
51
131.9690667
0
ARC
8
DEFAULT_255_1_234
10
12.1103849
20
0.0562636
40
0.4779224
50
89.8596053
51
97.7825159
0
ARC
8
DEFAULT_255_1_234
10
12.1151912
20
0.0300616
40
0.5041361
50
78.3655447
51
90.4131539
0
ARC
8
DEFAULT_255_1_234
10
12.150983
20
0.1959887
40
0.3344039
50
56.6229102
51
78.638727
0
ARC
8
DEFAULT_255_1_234
10
12.1724774
20
0.2335805
40
0.2912001
50
47.0253525
51
56.0854072
0
ARC
8
DEFAULT_255_1_234
10
12.1744554
20
0.2375223
40
0.2869704
50
10.9208013
51
46.7778124
0
ARC
8
DEFAULT_255_1_234
10
12.0380621
20
0.2059857
40
0.426899
50
359.6364486
51
11.6087304
0
ARC
8
DEFAULT_255_1_234
10
12.2215465
20
0.2044752
40
0.243409
50
332.3549906
51
359.7179418
0
ARC
8
DEFAULT_255_1_234
10
12.1565066
20
0.2353142
40
0.3153459
50
325.2333722
51
332.8745602
0
ARC
8
DEFAULT_255_1_234
10
12.171769
20
0.2246828
40
0.2967456
50
292.9802137
51
325.2392345
0
ARC
8
DEFAULT_255_1_234
10
12.1443064
20
0.2780863
40
0.3566604
50
292.5402179
51
293.6924929
0
ARC
8
DEFAULT_255_1_234
10
12.183566
20
-0.3673909
40
0.3307468
50
57.6435486
51
72.8625112
0
ARC
8
DEFAULT_255_1_234
10
12.2190159
20
-0.3099451
40
0.2632492
50
36.7248896
51
57.4697979
0
ARC
8
DEFAULT_255_1_234
10
12.2178792
20
-0.308678
40
0.2634081
50
8.0545065
51
36.356114
0
ARC
8
DEFAULT_255_1_234
10
12.1315977
20
-0.3241826
40
0.3510261
50
359.8320645
51
8.5869982
0
ARC
8
DEFAULT_255_1_234
10
12.0940753
20
-0.3289899
40
0.3885653
50
343.9829931
51
0.5571613
0
ARC
8
DEFAULT_255_1_234
10
12.1826951
20
-0.3532562
40
0.2966924
50
311.6359546
51
343.7651759
0
ARC
8
DEFAULT_255_1_234
10
12.144852
20
-0.3105898
40
0.3537231
50
279.7829875
51
311.6255694
0
ARC
8
DEFAULT_255_1_234
10
12.1147296
20
-0.166872
40
0.5004971
50
269.7286406
51
280.3856417
0
ARC
8
DEFAULT_255_1_234
10
12.1085369
20
-0.1710004
40
0.4963778
50
256.6828919
51
270.4412052
0
ARC
8
DEFAULT_255_1_234
10
12.0746664
20
-0.3094606
40
0.3538406
50
229.4223008
51
256.8556159
0
ARC
8
DEFAULT_255_1_234
10
12.0332057
20
-0.3561264
40
0.2914296
50
181.818294
51
229.6455059
0
ARC
8
DEFAULT_255_1_234
10
12.1372014
20
-0.3430504
40
0.3959084
50
179.9755256
51
183.2323064
0
ARC
8
DEFAULT_255_1_234
10
12.1199759
20
-0.3450963
40
0.2293034
50
179.4465117
51
196.2869258
0
ARC
8
DEFAULT_255_1_234
10
12.0712167
20
-0.3584349
40
0.1787621
50
196.5661473
51
227.705904
0
ARC
8
DEFAULT_255_1_234
10
12.0876262
20
-0.3400845
40
0.2033784
50
227.7652068
51
257.8762805
0
ARC
8
DEFAULT_255_1_234
10
12.1101232
20
-0.2457844
40
0.3003081
50
257.4584385
51
270.426602
0
ARC
8
DEFAULT_255_1_234
10
12.1146798
20
-0.2168004
40
0.329292
50
269.5962073
51
280.8789248
0
ARC
8
DEFAULT_255_1_234
10
12.1376327
20
-0.3314315
40
0.2123908
50
280.6346389
51
299.8595945
0
ARC
8
DEFAULT_255_1_234
10
12.1567234
20
-0.3676788
40
0.171457
50
300.3576302
51
314.5517981
0
ARC
8
DEFAULT_255_1_234
10
12.1484294
20
-0.3616081
40
0.1816095
50
315.0728369
51
345.0431014
0
ARC
8
DEFAULT_255_1_234
10
12.0561108
20
-0.3347159
40
0.2777492
50
344.5986631
51
357.9269593
0
ARC
8
DEFAULT_255_1_234
10
11.9665435
20
-0.3285724
40
0.3674917
50
357.4748886
51
0.0231117
0
ARC
8
DEFAULT_255_1_234
10
12.0688544
20
-0.3261321
40
0.2651907
50
359.5047933
51
13.4239635
0
ARC
8
DEFAULT_255_1_234
10
12.1555188
20
-0.3039522
40
0.1757509
50
12.9498199
51
48.7551375
0
ARC
8
DEFAULT_255_1_234
10
12.1372922
20
-0.32886
40
0.2065134
50
49.5088623
51
72.1836453
0
ARC
8
DEFAULT_255_1_234
10
12.1015074
20
-0.4350709
40
0.3185836
50
71.9010081
51
84.3554254
0
ARC
8
DEFAULT_255_1_234
10
12.0853706
20
-0.5711674
40
0.4556151
50
84.0193428
51
89.333121
0
LINE
8
DEFAULT_255_1_234
10
13.0111107
20
-0.0938974
11
13.0111107
21
-0.2151766
0
LINE
8
DEFAULT_255_1_234
10
13.0111107
20
-0.2151766
11
12.6191619
21
-0.2151766
0
LINE
8
DEFAULT_255_1_234
10
12.6191619
20
-0.2151766
11
12.6191619
21
-0.0938974
0
LINE
8
DEFAULT_255_1_234
10
12.6191619
20
-0.0938974
11
13.0111107
21
-0.0938974
0
LINE
8
DEFAULT_255_1_234
10
13.6970211
20
0.5189243
11
13.7235259
21
0.5189243
0
LINE
8
DEFAULT_255_1_234
10
13.7235259
20
0.5189243
11
13.7235259
21
0.392826
0
LINE
8
DEFAULT_255_1_234
10
13.7235259
20
0.392826
11
13.696218
21
0.392826
0
LINE
8
DEFAULT_255_1_234
10
13.1492566
20
-0.2063417
11
13.1492566
21
-0.1493164
0
LINE
8
DEFAULT_255_1_234
10
13.2986469
20
-0.1685925
11
13.2986469
21
-0.2232083
0
ARC
8
DEFAULT_255_1_234
10
13.7014528
20
-0.1069545
40
0.4998079
50
90.6001036
51
104.514704
0
ARC
8
DEFAULT_255_1_234
10
13.6626043
20
0.0375131
40
0.3502176
50
104.2855254
51
133.862935
0
ARC
8
DEFAULT_255_1_234
10
13.6789801
20
0.026683
40
0.3693984
50
134.5302688
51
161.6210873
0
ARC
8
DEFAULT_255_1_234
10
13.8442989
20
-0.0316105
40
0.5446739
50
161.2849839
51
174.2076652
0
ARC
8
DEFAULT_255_1_234
10
13.9849926
20
-0.0510213
40
0.6866274
50
173.7810589
51
174.9254635
0
ARC
8
DEFAULT_255_1_234
10
13.5299758
20
-0.1893161
40
0.3033419
50
95.8330959
51
138.9954921
0
ARC
8
DEFAULT_255_1_234
10
13.5523114
20
-0.3171625
40
0.4328947
50
89.8753725
51
97.0544009
0
ARC
8
DEFAULT_255_1_234
10
13.557058
20
-0.2336252
40
0.3493769
50
71.6407809
51
90.6240094
0
ARC
8
DEFAULT_255_1_234
10
13.5721154
20
-0.1781918
40
0.2920396
50
39.6367836
51
71.019018
0
ARC
8
DEFAULT_255_1_234
10
13.5084627
20
-0.2332002
40
0.3761538
50
10.658731
51
39.9043955
0
ARC
8
DEFAULT_255_1_234
10
13.353671
20
-0.2668314
40
0.5345136
50
359.682601
51
11.132623
0
ARC
8
DEFAULT_255_1_234
10
13.349684
20
-0.273899
40
0.5385081
50
347.2486944
51
0.4369317
0
ARC
8
DEFAULT_255_1_234
10
13.5164317
20
-0.3140193
40
0.3670249
50
318.1409698
51
347.6118597
0
ARC
8
DEFAULT_255_1_234
10
13.548931
20
-0.3407298
40
0.3250007
50
275.6342139
51
317.8248465
0
ARC
8
DEFAULT_255_1_234
10
13.5268422
20
-0.2107781
40
0.4565864
50
269.8874292
51
276.7917694
0
ARC
8
DEFAULT_255_1_234
10
13.5213492
20
-0.3133257
40
0.3540676
50
246.9140195
51
270.7437342
0
ARC
8
DEFAULT_255_1_234
10
13.5219883
20
-0.3275616
40
0.3412781
50
218.1665114
51
245.878116
0
ARC
8
DEFAULT_255_1_234
10
13.6099343
20
-0.2539721
40
0.455911
50
191.4115814
51
218.6077802
0
ARC
8
DEFAULT_255_1_234
10
13.8037433
20
-0.2105167
40
0.6545001
50
179.6345085
51
191.7836486
0
ARC
8
DEFAULT_255_1_234
10
14.3619769
20
-0.1426303
40
1.2127388
50
171.4525249
51
180.3158839
0
ARC
8
DEFAULT_255_1_234
10
13.9224645
20
-0.0742392
40
0.7679464
50
157.9802646
51
171.6246686
0
ARC
8
DEFAULT_255_1_234
10
13.7010666
20
0.0140421
40
0.5296008
50
141.4298019
51
157.854097
0
ARC
8
DEFAULT_255_1_234
10
13.6368987
20
0.0594381
40
0.4511509
50
102.8715806
51
140.8564722
0
ARC
8
DEFAULT_255_1_234
10
13.7016602
20
-0.1845448
40
0.7034845
50
90.3778349
51
103.5869322
0
ARC
8
DEFAULT_255_1_234
10
13.5278379
20
-0.245027
40
0.2370698
50
89.8751008
51
126.2071704
0
ARC
8
DEFAULT_255_1_234
10
13.5324168
20
-0.2604697
40
0.2522934
50
124.9745049
51
144.895901
0
ARC
8
DEFAULT_255_1_234
10
13.5148359
20
-0.246144
40
0.2296779
50
145.2974905
51
160.2660252
0
ARC
8
DEFAULT_255_1_234
10
13.8220898
20
-0.2263929
40
0.5234525
50
179.6514266
51
190.2855912
0
ARC
8
DEFAULT_255_1_234
10
13.6527035
20
-0.2583214
40
0.3510893
50
190.0945431
51
207.5098196
0
ARC
8
DEFAULT_255_1_234
10
13.5961305
20
-0.2852377
40
0.288489
50
207.9583163
51
216.3251085
0
ARC
8
DEFAULT_255_1_234
10
13.5621412
20
-0.3131895
40
0.2445587
50
215.7661442
51
232.5456785
0
ARC
8
DEFAULT_255_1_234
10
13.5238395
20
-0.3618518
40
0.1826382
50
232.8005391
51
270.6605633
0
ARC
8
DEFAULT_255_1_234
10
13.5284096
20
-0.3254388
40
0.2190529
50
269.35537
51
288.4744281
0
ARC
8
DEFAULT_255_1_234
10
13.5376993
20
-0.3603882
40
0.1829749
50
289.1833337
51
322.9683818
0
ARC
8
DEFAULT_255_1_234
10
13.4765516
20
-0.3121609
40
0.2608399
50
322.6007884
51
346.5182367
0
ARC
8
DEFAULT_255_1_234
10
13.3608112
20
-0.2826384
40
0.3802777
50
346.2582162
51
358.7741648
0
ARC
8
DEFAULT_255_1_234
10
13.258978
20
-0.2771035
40
0.4822176
50
358.3755224
51
0.0098023
0
ARC
8
DEFAULT_255_1_234
10
13.3345968
20
-0.2743343
40
0.4066078
50
359.6214041
51
11.2839074
0
ARC
8
DEFAULT_255_1_234
10
13.4623115
20
-0.2476934
40
0.2761514
50
11.0482309
51
31.8146458
0
ARC
8
DEFAULT_255_1_234
10
13.4932157
20
-0.2309416
40
0.2410679
50
32.3035391
51
38.082671
0
ARC
8
DEFAULT_255_1_234
10
13.5352817
20
-0.1928338
40
0.1844966
50
36.825067
51
85.7415724
0
ARC
8
DEFAULT_255_1_234
10
13.5285651
20
-0.2428699
40
0.2349122
50
85.0140713
51
90.0513278
0
LINE
8
DEFAULT_255_1_234
10
14.8600168
20
-0.6513
11
14.7483757
21
-0.3460939
0
LINE
8
DEFAULT_255_1_234
10
14.7483757
20
-0.3460939
11
14.2584396
21
-0.3460939
0
LINE
8
DEFAULT_255_1_234
10
14.2584396
20
-0.3460939
11
14.1484048
21
-0.6513
0
LINE
8
DEFAULT_255_1_234
10
14.1484048
20
-0.6513
11
13.9893764
21
-0.6513
0
LINE
8
DEFAULT_255_1_234
10
13.9893764
20
-0.6513
11
14.4359411
21
0.5181211
0
LINE
8
DEFAULT_255_1_234
10
14.4359411
20
0.5181211
11
14.5708743
21
0.5181211
0
LINE
8
DEFAULT_255_1_234
10
14.5708743
20
0.5181211
11
15.0182421
21
-0.6513
0
LINE
8
DEFAULT_255_1_234
10
15.0182421
20
-0.6513
11
14.8600168
21
-0.6513
0
LINE
8
DEFAULT_255_1_234
10
14.5034077
20
0.3277689
11
14.3050237
21
-0.2191925
0
LINE
8
DEFAULT_255_1_234
10
14.3050237
20
-0.2191925
11
14.7025948
21
-0.2191925
0
LINE
8
DEFAULT_255_1_234
10
14.7025948
20
-0.2191925
11
14.5034077
21
0.3277689
0
LINE
8
DEFAULT_255_1_234
10
15.8366762
20
0.0153343
11
15.8366762
21
-0.110764
0
LINE
8
DEFAULT_255_1_234
10
15.8366762
20
-0.110764
11
15.3298735
21
-0.110764
0
LINE
8
DEFAULT_255_1_234
10
15.3298735
20
-0.110764
11
15.3298735
21
-0.5252017
0
LINE
8
DEFAULT_255_1_234
10
15.3298735
20
-0.5252017
11
15.9186
21
-0.5252017
0
LINE
8
DEFAULT_255_1_234
10
15.9186
20
-0.5252017
11
15.9186
21
-0.6513
0
LINE
8
DEFAULT_255_1_234
10
15.9186
20
-0.6513
11
15.1756642
21
-0.6513
0
LINE
8
DEFAULT_255_1_234
10
15.1756642
20
-0.6513
11
15.1756642
21
0.5181211
0
LINE
8
DEFAULT_255_1_234
10
15.1756642
20
0.5181211
11
15.9105682
21
0.5181211
0
LINE
8
DEFAULT_255_1_234
10
15.9105682
20
0.5181211
11
15.9105682
21
0.3912196
0
LINE
8
DEFAULT_255_1_234
10
15.9105682
20
0.3912196
11
15.3298735
21
0.3912196
0
LINE
8
DEFAULT_255_1_234
10
15.3298735
20
0.3912196
11
15.3298735
21
0.0153343
0
LINE
8
DEFAULT_255_1_234
10
15.3298735
20
0.0153343
11
15.8366762
21
0.0153343
0
LINE
8
DEFAULT_255_1_234
10
16.8053039
20
0.0402327
11
16.8053039
21
-0.1525291
0
LINE
8
DEFAULT_255_1_234
10
16.0671871
20
-0.1726084
11
16.0671871
21
0.0257755
0
LINE
8
DEFAULT_255_1_234
10
16.6567167
20
-0.1926877
11
16.6567167
21
0.0506739
0
LINE
8
DEFAULT_255_1_234
10
16.2157743
20
0.0619184
11
16.2157743
21
-0.1758211
0
ARC
8
DEFAULT_255_1_234
10
15.5805928
20
-0.1574195
40
1.2247208
50
353.8441951
51
0.2287902
0
ARC
8
DEFAULT_255_1_234
10
16.0445432
20
-0.2092194
40
0.7578929
50
344.4934747
51
353.9765454
0
ARC
8
DEFAULT_255_1_234
10
16.3438022
20
-0.2943019
40
0.4467846
50
329.2803592
51
344.7472793
0
ARC
8
DEFAULT_255_1_234
10
16.4430847
20
-0.3487982
40
0.3336173
50
324.9352394
51
328.6160465
0
ARC
8
DEFAULT_255_1_234
10
16.4807956
20
-0.3751573
40
0.2876076
50
280.580143
51
324.9173126
0
ARC
8
DEFAULT_255_1_234
10
16.4406748
20
-0.2080901
40
0.4592847
50
269.5977311
51
281.6734359
0
ARC
8
DEFAULT_255_1_234
10
16.4334654
20
-0.2200827
40
0.4472986
50
256.6228859
51
270.51044
0
ARC
8
DEFAULT_255_1_234
10
16.3932632
20
-0.3749123
40
0.2873874
50
215.8618325
51
257.2788573
0
ARC
8
DEFAULT_255_1_234
10
16.4953663
20
-0.3064023
40
0.4102928
50
197.9693508
51
215.2623606
0
ARC
8
DEFAULT_255_1_234
10
16.7438779
20
-0.2225291
40
0.6725652
50
187.8816417
51
198.2346507
0
ARC
8
DEFAULT_255_1_234
10
17.1396987
20
-0.1653921
40
1.0724845
50
180.8976217
51
188.0055519
0
ARC
8
DEFAULT_255_1_234
10
17.4197175
20
-0.1550223
40
1.3526448
50
180.7449369
51
181.1510016
0
ARC
8
DEFAULT_255_1_234
10
17.2619904
20
0.0306042
40
1.1948131
50
173.7675579
51
180.231553
0
ARC
8
DEFAULT_255_1_234
10
16.8102051
20
0.0816666
40
0.7401564
50
164.3058563
51
173.9002247
0
ARC
8
DEFAULT_255_1_234
10
16.519012
20
0.1655656
40
0.4371288
50
148.7922025
51
164.568378
0
ARC
8
DEFAULT_255_1_234
10
16.4238572
20
0.2186929
40
0.3282386
50
144.5883898
51
148.1176286
0
ARC
8
DEFAULT_255_1_234
10
16.389547
20
0.2426315
40
0.2864044
50
101.6440918
51
144.514236
0
ARC
8
DEFAULT_255_1_234
10
16.4320537
20
0.0737069
40
0.4604934
50
89.5284041
51
102.5819763
0
ARC
8
DEFAULT_255_1_234
10
16.4399624
20
0.0698018
40
0.464401
50
77.0437873
51
90.5081339
0
ARC
8
DEFAULT_255_1_234
10
16.4801626
20
0.2340615
40
0.2953195
50
48.2778575
51
77.4994676
0
ARC
8
DEFAULT_255_1_234
10
16.4874257
20
0.2469746
40
0.2808655
50
36.3142134
51
47.6305865
0
ARC
8
DEFAULT_255_1_234
10
16.4005564
20
0.1884515
40
0.3855453
50
18.2931786
51
35.6769206
0
ARC
8
DEFAULT_255_1_234
10
16.1462323
20
0.1011593
40
0.654423
50
8.024666
51
18.5605216
0
ARC
8
DEFAULT_255_1_234
10
15.7299243
20
0.0396792
40
1.0752407
50
1.1274072
51
8.1718305
0
ARC
8
DEFAULT_255_1_234
10
15.4063434
20
0.0269885
40
1.3990231
50
0.5424119
51
1.3863029
0
ARC
8
DEFAULT_255_1_234
10
15.5884812
20
0.0542342
40
1.0682415
50
359.8090433
51
4.9407866
0
ARC
8
DEFAULT_255_1_234
10
16.0094826
20
0.0918113
40
0.6455691
50
4.8362157
51
12.2904523
0
ARC
8
DEFAULT_255_1_234
10
16.2849941
20
0.1531965
40
0.3633074
50
12.0805627
51
23.8173984
0
ARC
8
DEFAULT_255_1_234
10
16.4023646
20
0.2028919
40
0.2358723
50
24.2871213
51
31.3935614
0
ARC
8
DEFAULT_255_1_234
10
16.4548343
20
0.2372233
40
0.1732111
50
30.7407893
51
82.4657128
0
ARC
8
DEFAULT_255_1_234
10
16.4368477
20
0.1488691
40
0.263235
50
81.1060089
51
90.2184952
0
ARC
8
DEFAULT_255_1_234
10
16.4332776
20
0.1746924
40
0.2374236
50
89.3806855
51
105.6762551
0
ARC
8
DEFAULT_255_1_234
10
16.4149407
20
0.2413567
40
0.1682847
50
105.7981136
51
149.7388061
0
ARC
8
DEFAULT_255_1_234
10
16.5213485
20
0.177395
40
0.2924306
50
149.4208916
51
163.6286378
0
ARC
8
DEFAULT_255_1_234
10
16.7304373
20
0.113625
40
0.5110213
50
163.3763315
51
172.1410975
0
ARC
8
DEFAULT_255_1_234
10
17.0605092
20
0.0663518
40
0.8444586
50
172.0259487
51
178.0703232
0
ARC
8
DEFAULT_255_1_234
10
17.3635182
20
0.0519906
40
1.1477868
50
177.8631668
51
179.5044149
0
ARC
8
DEFAULT_255_1_234
10
17.2562586
20
-0.1794611
40
1.0404907
50
179.7995573
51
185.2460446
0
ARC
8
DEFAULT_255_1_234
10
16.8519625
20
-0.2177487
40
0.6343885
50
185.1411642
51
193.0079639
0
ARC
8
DEFAULT_255_1_234
10
16.5876098
20
-0.2802359
40
0.3627568
50
192.7897626
51
205.2507664
0
ARC
8
DEFAULT_255_1_234
10
16.4829645
20
-0.3269585
40
0.2481908
50
205.8005384
51
211.2537509
0
ARC
8
DEFAULT_255_1_234
10
16.4306085
20
-0.362042
40
0.1852521
50
210.3789793
51
238.4008143
0
ARC
8
DEFAULT_255_1_234
10
16.4286607
20
-0.3573624
40
0.1882621
50
239.6520629
51
265.9793761
0
ARC
8
DEFAULT_255_1_234
10
16.4371808
20
-0.2901573
40
0.2559272
50
265.1315437
51
270.060332
0
ARC
8
DEFAULT_255_1_234
10
16.4400586
20
-0.3225466
40
0.2235528
50
269.3314664
51
287.2178029
0
ARC
8
DEFAULT_255_1_234
10
16.4538438
20
-0.3728721
40
0.1714108
50
287.7958004
51
329.080874
0
ARC
8
DEFAULT_255_1_234
10
16.3580895
20
-0.313107
40
0.2842745
50
328.6634704
51
343.3325132
0
ARC
8
DEFAULT_255_1_234
10
16.1407915
20
-0.2454137
40
0.5118644
50
343.0499468
51
351.9393422
0
ARC
8
DEFAULT_255_1_234
10
15.7941215
20
-0.1943051
40
0.8622784
50
351.8069023
51
357.7959224
0
ARC
8
DEFAULT_255_1_234
10
15.4705771
20
-0.1775279
40
1.1862365
50
357.5871873
51
359.2677531
0
LINE
8
DEFAULT_255_1_234
10
17.7289538
20
0.0402327
11
17.7289538
21
-0.1525291
0
LINE
8
DEFAULT_255_1_234
10
16.990837
20
-0.1726084
11
16.990837
21
0.0257755
0
LINE
8
DEFAULT_255_1_234
10
17.5803666
20
-0.1926877
11
17.5803666
21
0.0506739
0
LINE
8
DEFAULT_255_1_234
10
17.1394242
20
0.0619184
11
17.1394242
21
-0.1758211
0
ARC
8
DEFAULT_255_1_234
10
16.5042427
20
-0.1574195
40
1.2247208
50
353.8441951
51
0.2287902
0
ARC
8
DEFAULT_255_1_234
10
16.9681931
20
-0.2092194
40
0.7578929
50
344.4934747
51
353.9765454
0
ARC
8
DEFAULT_255_1_234
10
17.2674521
20
-0.2943019
40
0.4467846
50
329.2803592
51
344.7472793
0
ARC
8
DEFAULT_255_1_234
10
17.3667346
20
-0.3487982
40
0.3336173
50
324.9352394
51
328.6160465
0
ARC
8
DEFAULT_255_1_234
10
17.4044455
20
-0.3751573
40
0.2876076
50
280.580143
51
324.9173126
0
ARC
8
DEFAULT_255_1_234
10
17.3643247
20
-0.2080901
40
0.4592847
50
269.5977311
51
281.6734359
0
ARC
8
DEFAULT_255_1_234
10
17.3571153
20
-0.2200827
40
0.4472986
50
256.6228859
51
270.51044
0
ARC
8
DEFAULT_255_1_234
10
17.3169131
20
-0.3749123
40
0.2873874
50
215.8618325
51
257.2788573
0
ARC
8
DEFAULT_255_1_234
10
17.4190162
20
-0.3064023
40
0.4102928
50
197.9693508
51
215.2623606
0
ARC
8
DEFAULT_255_1_234
10
17.6675278
20
-0.2225291
40
0.6725652
50
187.8816417
51
198.2346507
0
ARC
8
DEFAULT_255_1_234
10
18.0633486
20
-0.1653921
40
1.0724845
50
180.8976217
51
188.0055519
0
ARC
8
DEFAULT_255_1_234
10
18.3433674
20
-0.1550223
40
1.3526448
50
180.7449369
51
181.1510016
0
ARC
8
DEFAULT_255_1_234
10
18.1856403
20
0.0306042
40
1.1948131
50
173.7675579
51
180.231553
0
ARC
8
DEFAULT_255_1_234
10
17.733855
20
0.0816666
40
0.7401564
50
164.3058563
51
173.9002247
0
ARC
8
DEFAULT_255_1_234
10
17.4426619
20
0.1655656
40
0.4371288
50
148.7922025
51
164.568378
0
ARC
8
DEFAULT_255_1_234
10
17.3475071
20
0.2186929
40
0.3282386
50
144.5883898
51
148.1176286
0
ARC
8
DEFAULT_255_1_234
10
17.3131969
20
0.2426315
40
0.2864044
50
101.6440918
51
144.514236
0
ARC
8
DEFAULT_255_1_234
10
17.3557036
20
0.0737069
40
0.4604934
50
89.5284041
51
102.5819763
0
ARC
8
DEFAULT_255_1_234
10
17.3636123
20
0.0698018
40
0.464401
50
77.0437873
51
90.5081339
0
ARC
8
DEFAULT_255_1_234
10
17.4038125
20
0.2340615
40
0.2953195
50
48.2778575
51
77.4994676
0
ARC
8
DEFAULT_255_1_234
10
17.4110756
20
0.2469746
40
0.2808655
50
36.3142134
51
47.6305865
0
ARC
8
DEFAULT_255_1_234
10
17.3242063
20
0.1884515
40
0.3855453
50
18.2931786
51
35.6769206
0
ARC
8
DEFAULT_255_1_234
10
17.0698822
20
0.1011593
40
0.654423
50
8.024666
51
18.5605216
0
ARC
8
DEFAULT_255_1_234
10
16.6535742
20
0.0396792
40
1.0752407
50
1.1274072
51
8.1718305
0
ARC
8
DEFAULT_255_1_234
10
16.3299933
20
0.0269885
40
1.3990231
50
0.5424119
51
1.3863029
0
ARC
8
DEFAULT_255_1_234
10
16.5121311
20
0.0542342
40
1.0682415
50
359.8090433
51
4.9407866
0
ARC
8
DEFAULT_255_1_234
10
16.9331325
20
0.0918113
40
0.6455691
50
4.8362157
51
12.2904523
0
ARC
8
DEFAULT_255_1_234
10
17.208644
20
0.1531965
40
0.3633074
50
12.0805627
51
23.8173984
0
ARC
8
DEFAULT_255_1_234
10
17.3260145
20
0.2028919
40
0.2358723
50
24.2871213
51
31.3935614
0
ARC
8
DEFAULT_255_1_234
10
17.3784842
20
0.2372233
40
0.1732111
50
30.7407893
51
82.4657128
0
ARC
8
DEFAULT_255_1_234
10
17.3604976
20
0.1488691
40
0.263235
50
81.1060089
51
90.2184952
0
ARC
8
DEFAULT_255_1_234
10
17.3569275
20
0.1746924
40
0.2374236
50
89.3806855
51
105.6762551
0
ARC
8
DEFAULT_255_1_234
10
17.3385906
20
0.2413567
40
0.1682847
50
105.7981136
51
149.7388061
0
ARC
8
DEFAULT_255_1_234
10
17.4449984
20
0.177395
40
0.2924306
50
149.4208916
51
163.6286378
0
ARC
8
DEFAULT_255_1_234
10
17.6540872
20
0.113625
40
0.5110213
50
163.3763315
51
172.1410975
0
ARC
8
DEFAULT_255_1_234
10
17.9841591
20
0.0663518
40
0.8444586
50
172.0259487
51
178.0703232
0
ARC
8
DEFAULT_255_1_234
10
18.2871681
20
0.0519906
40
1.1477868
50
177.8631668
51
179.5044149
0
ARC
8
DEFAULT_255_1_234
10
18.1799085
20
-0.1794611
40
1.0404907
50
179.7995573
51
185.2460446
0
ARC
8
DEFAULT_255_1_234
10
17.7756125
20
-0.2177487
40
0.6343885
50
185.1411642
51
193.0079639
0
ARC
8
DEFAULT_255_1_234
10
17.5112597
20
-0.2802359
40
0.3627568
50
192.7897626
51
205.2507664
0
ARC
8
DEFAULT_255_1_234
10
17.4066144
20
-0.3269585
40
0.2481908
50
205.8005384
51
211.2537509
0
ARC
8
DEFAULT_255_1_234
10
17.3542584
20
-0.362042
40
0.1852521
50
210.3789793
51
238.4008143
0
ARC
8
DEFAULT_255_1_234
10
17.3523106
20
-0.3573624
40
0.1882621
50
239.6520629
51
265.9793761
0
ARC
8
DEFAULT_255_1_234
10
17.3608307
20
-0.2901573
40
0.2559272
50
265.1315437
51
270.060332
0
ARC
8
DEFAULT_255_1_234
10
17.3637085
20
-0.3225466
40
0.2235528
50
269.3314664
51
287.2178029
0
ARC
8
DEFAULT_255_1_234
10
17.3774937
20
-0.3728721
40
0.1714108
50
287.7958004
51
329.080874
0
ARC
8
DEFAULT_255_1_234
10
17.2817394
20
-0.313107
40
0.2842745
50
328.6634704
51
343.3325132
0
ARC
8
DEFAULT_255_1_234
10
17.0644414
20
-0.2454137
40
0.5118644
50
343.0499468
51
351.9393422
0
ARC
8
DEFAULT_255_1_234
10
16.7177714
20
-0.1943051
40
0.8622784
50
351.8069023
51
357.7959224
0
ARC
8
DEFAULT_255_1_234
10
16.394227
20
-0.1775279
40
1.1862365
50
357.5871873
51
359.2677531
0
LINE
8
DEFAULT_255_1_234
10
18.2437882
20
-0.0938974
11
18.2437882
21
-0.2151766
0
LINE
8
DEFAULT_255_1_234
10
18.2437882
20
-0.2151766
11
17.8518394
21
-0.2151766
0
LINE
8
DEFAULT_255_1_234
10
17.8518394
20
-0.2151766
11
17.8518394
21
-0.0938974
0
LINE
8
DEFAULT_255_1_234
10
17.8518394
20
-0.0938974
11
18.2437882
21
-0.0938974
0
LINE
8
DEFAULT_255_1_234
10
19.1063969
20
0.0402327
11
19.1063969
21
-0.1525291
0
LINE
8
DEFAULT_255_1_234
10
18.3682801
20
-0.1726084
11
18.3682801
21
0.0257755
0
LINE
8
DEFAULT_255_1_234
10
18.9578097
20
-0.1926877
11
18.9578097
21
0.0506739
0
LINE
8
DEFAULT_255_1_234
10
18.5168673
20
0.0619184
11
18.5168673
21
-0.1758211
0
ARC
8
DEFAULT_255_1_234
10
17.8816858
20
-0.1574195
40
1.2247208
50
353.8441951
51
0.2287902
0
ARC
8
DEFAULT_255_1_234
10
18.3456362
20
-0.2092194
40
0.7578929
50
344.4934747
51
353.9765454
0
ARC
8
DEFAULT_255_1_234
10
18.6448952
20
-0.2943019
40
0.4467846
50
329.2803592
51
344.7472793
0
ARC
8
DEFAULT_255_1_234
10
18.7441777
20
-0.3487982
40
0.3336173
50
324.9352394
51
328.6160465
0
ARC
8
DEFAULT_255_1_234
10
18.7818886
20
-0.3751573
40
0.2876076
50
280.580143
51
324.9173126
0
ARC
8
DEFAULT_255_1_234
10
18.7417678
20
-0.2080901
40
0.4592847
50
269.5977311
51
281.6734359
0
ARC
8
DEFAULT_255_1_234
10
18.7345584
20
-0.2200827
40
0.4472986
50
256.6228859
51
270.51044
0
ARC
8
DEFAULT_255_1_234
10
18.6943562
20
-0.3749123
40
0.2873874
50
215.8618325
51
257.2788573
0
ARC
8
DEFAULT_255_1_234
10
18.7964593
20
-0.3064023
40
0.4102928
50
197.9693508
51
215.2623606
0
ARC
8
DEFAULT_255_1_234
10
19.0449709
20
-0.2225291
40
0.6725652
50
187.8816417
51
198.2346507
0
ARC
8
DEFAULT_255_1_234
10
19.4407917
20
-0.1653921
40
1.0724845
50
180.8976217
51
188.0055519
0
ARC
8
DEFAULT_255_1_234
10
19.7208105
20
-0.1550223
40
1.3526448
50
180.7449369
51
181.1510016
0
ARC
8
DEFAULT_255_1_234
10
19.5630834
20
0.0306042
40
1.1948131
50
173.7675579
51
180.231553
0
ARC
8
DEFAULT_255_1_234
10
19.1112981
20
0.0816666
40
0.7401564
50
164.3058563
51
173.9002247
0
ARC
8
DEFAULT_255_1_234
10
18.820105
20
0.1655656
40
0.4371288
50
148.7922025
51
164.568378
0
ARC
8
DEFAULT_255_1_234
10
18.7249502
20
0.2186929
40
0.3282386
50
144.5883898
51
148.1176286
0
ARC
8
DEFAULT_255_1_234
10
18.69064
20
0.2426315
40
0.2864044
50
101.6440918
51
144.514236
0
ARC
8
DEFAULT_255_1_234
10
18.7331467
20
0.0737069
40
0.4604934
50
89.5284041
51
102.5819763
0
ARC
8
DEFAULT_255_1_234
10
18.7410555
20
0.0698018
40
0.464401
50
77.0437873
51
90.5081339
0
ARC
8
DEFAULT_255_1_234
10
18.7812556
20
0.2340615
40
0.2953195
50
48.2778575
51
77.4994676
0
ARC
8
DEFAULT_255_1_234
10
18.7885188
20
0.2469746
40
0.2808655
50
36.3142134
51
47.6305865
0
ARC
8
DEFAULT_255_1_234
10
18.7016495
20
0.1884515
40
0.3855453
50
18.2931786
51
35.6769206
0
ARC
8
DEFAULT_255_1_234
10
18.4473253
20
0.1011593
40
0.654423
50
8.024666
51
18.5605216
0
ARC
8
DEFAULT_255_1_234
10
18.0310173
20
0.0396792
40
1.0752407
50
1.1274072
51
8.1718305
0
ARC
8
DEFAULT_255_1_234
10
17.7074364
20
0.0269885
40
1.3990231
50
0.5424119
51
1.3863029
0
ARC
8
DEFAULT_255_1_234
10
17.8895742
20
0.0542342
40
1.0682415
50
359.8090433
51
4.9407866
0
ARC
8
DEFAULT_255_1_234
10
18.3105756
20
0.0918113
40
0.6455691
50
4.8362157
51
12.2904523
0
ARC
8
DEFAULT_255_1_234
10
18.5860871
20
0.1531965
40
0.3633074
50
12.0805627
51
23.8173984
0
ARC
8
DEFAULT_255_1_234
10
18.7034576
20
0.2028919
40
0.2358723
50
24.2871213
51
31.3935614
0
ARC
8
DEFAULT_255_1_234
10
18.7559273
20
0.2372233
40
0.1732111
50
30.7407893
51
82.4657128
0
ARC
8
DEFAULT_255_1_234
10
18.7379407
20
0.1488691
40
0.263235
50
81.1060089
51
90.2184952
0
ARC
8
DEFAULT_255_1_234
10
18.7343706
20
0.1746924
40
0.2374236
50
89.3806855
51
105.6762551
0
ARC
8
DEFAULT_255_1_234
10
18.7160337
20
0.2413567
40
0.1682847
50
105.7981136
51
149.7388061
0
ARC
8
DEFAULT_255_1_234
10
18.8224415
20
0.177395
40
0.2924306
50
149.4208916
51
163.6286378
0
ARC
8
DEFAULT_255_1_234
10
19.0315303
20
0.113625
40
0.5110213
50
163.3763315
51
172.1410975
0
ARC
8
DEFAULT_255_1_234
10
19.3616022
20
0.0663518
40
0.8444586
50
172.0259487
51
178.0703232
0
ARC
8
DEFAULT_255_1_234
10
19.6646112
20
0.0519906
40
1.1477868
50
177.8631668
51
179.5044149
0
ARC
8
DEFAULT_255_1_234
10
19.5573516
20
-0.1794611
40
1.0404907
50
179.7995573
51
185.2460446
0
ARC
8
DEFAULT_255_1_234
10
19.1530556
20
-0.2177487
40
0.6343885
50
185.1411642
51
193.0079639
0
ARC
8
DEFAULT_255_1_234
10
18.8887028
20
-0.2802359
40
0.3627568
50
192.7897626
51
205.2507664
0
ARC
8
DEFAULT_255_1_234
10
18.7840575
20
-0.3269585
40
0.2481908
50
205.8005384
51
211.2537509
0
ARC
8
DEFAULT_255_1_234
10
18.7317016
20
-0.362042
40
0.1852521
50
210.3789793
51
238.4008143
0
ARC
8
DEFAULT_255_1_234
10
18.7297537
20
-0.3573624
40
0.1882621
50
239.6520629
51
265.9793761
0
ARC
8
DEFAULT_255_1_234
10
18.7382738
20
-0.2901573
40
0.2559272
50
265.1315437
51
270.060332
0
ARC
8
DEFAULT_255_1_234
10
18.7411516
20
-0.3225466
40
0.2235528
50
269.3314664
51
287.2178029
0
ARC
8
DEFAULT_255_1_234
10
18.7549368
20
-0.3728721
40
0.1714108
50
287.7958004
51
329.080874
0
ARC
8
DEFAULT_255_1_234
10
18.6591825
20
-0.313107
40
0.2842745
50
328.6634704
51
343.3325132
0
ARC
8
DEFAULT_255_1_234
10
18.4418845
20
-0.2454137
40
0.5118644
50
343.0499468
51
351.9393422
0
ARC
8
DEFAULT_255_1_234
10
18.0952145
20
-0.1943051
40
0.8622784
50
351.8069023
51
357.7959224
0
ARC
8
DEFAULT_255_1_234
10
17.7716701
20
-0.1775279
40
1.1862365
50
357.5871873
51
359.2677531
0
LINE
8
DEFAULT_255_1_234
10
19.7409042
20
-0.6513
11
19.3353014
21
-0.6513
0
LINE
8
DEFAULT_255_1_234
10
19.3353014
20
-0.6513
11
19.3353014
21
0.5181211
0
LINE
8
DEFAULT_255_1_234
10
19.3353014
20
0.5181211
11
19.7176122
21
0.5181211
0
LINE
8
DEFAULT_255_1_234
10
19.7465264
20
-0.1043386
11
19.4895108
21
-0.1043386
0
LINE
8
DEFAULT_255_1_234
10
19.4895108
20
-0.1043386
11
19.4895108
21
-0.5252017
0
LINE
8
DEFAULT_255_1_234
10
19.4895108
20
-0.5252017
11
19.7441169
21
-0.5252017
0
LINE
8
DEFAULT_255_1_234
10
19.4895108
20
0.3912196
11
19.4895108
21
0.0193501
0
LINE
8
DEFAULT_255_1_234
10
19.4895108
20
0.0193501
11
19.7224312
21
0.0193501
0
LINE
8
DEFAULT_255_1_234
10
19.7176122
20
0.3912196
11
19.4895108
21
0.3912196
0
ARC
8
DEFAULT_255_1_234
10
19.721383
20
-0.2186099
40
0.7367406
50
82.1257326
51
90.2932599
0
ARC
8
DEFAULT_255_1_234
10
19.7602785
20
0.0532013
40
0.4621653
50
69.9044149
51
82.2857423
0
ARC
8
DEFAULT_255_1_234
10
19.8173463
20
0.2074637
40
0.2976871
50
51.1838526
51
70.0181538
0
ARC
8
DEFAULT_255_1_234
10
19.8428429
20
0.244524
40
0.2528517
50
12.1017251
51
50.4214761
0
ARC
8
DEFAULT_255_1_234
10
19.7044303
20
0.2097676
40
0.3955061
50
359.5251267
51
12.8211707
0
ARC
8
DEFAULT_255_1_234
10
19.862423
20
0.2028344
40
0.2375281
50
323.4908128
51
0.8817314
0
ARC
8
DEFAULT_255_1_234
10
19.8205916
20
0.235155
40
0.2903817
50
298.6825083
51
323.2756573
0
ARC
8
DEFAULT_255_1_234
10
19.7844279
20
0.2952649
40
0.3604842
50
293.1999386
51
299.1396394
0
ARC
8
DEFAULT_255_1_234
10
19.8517252
20
-0.3132874
40
0.2871098
50
54.0011765
51
74.9167975
0
ARC
8
DEFAULT_255_1_234
10
19.8633611
20
-0.2935668
40
0.2643248
50
36.3580696
51
53.5291921
0
ARC
8
DEFAULT_255_1_234
10
19.8506854
20
-0.3026002
40
0.2798884
50
4.8189881
51
36.3089977
0
ARC
8
DEFAULT_255_1_234
10
19.7727689
20
-0.313573
40
0.358478
50
359.9370252
51
5.5204067
0
ARC
8
DEFAULT_255_1_234
10
19.740321
20
-0.3176333
40
0.3909429
50
344.7478609
51
0.5373281
0
ARC
8
DEFAULT_255_1_234
10
19.8394181
20
-0.3443456
40
0.2883093
50
311.1786488
51
344.6886812
0
ARC
8
DEFAULT_255_1_234
10
19.8102229
20
-0.3080013
40
0.3348923
50
286.0418249
51
310.8441291
0
ARC
8
DEFAULT_255_1_234
10
19.759506
20
-0.1433193
40
0.5071869
50
274.1042341
51
286.4071509
0
ARC
8
DEFAULT_255_1_234
10
19.7418316
20
0.0450229
40
0.6963234
50
269.9236873
51
274.445647
0
ARC
8
DEFAULT_255_1_234
10
19.7464317
20
-0.1889463
40
0.3362634
50
269.6055768
51
281.3740047
0
ARC
8
DEFAULT_255_1_234
10
19.7694955
20
-0.2982647
40
0.224546
50
281.1055983
51
302.5132223
0
ARC
8
DEFAULT_255_1_234
10
19.7841855
20
-0.3246177
40
0.1944357
50
303.0368945
51
311.8811219
0
ARC
8
DEFAULT_255_1_234
10
19.7913261
20
-0.333111
40
0.1833454
50
311.9916004
51
351.7143462
0
ARC
8
DEFAULT_255_1_234
10
19.7096491
20
-0.316607
40
0.2665871
50
350.7339597
51
0.2221581
0
ARC
8
DEFAULT_255_1_234
10
19.6988937
20
-0.3109533
40
0.2773789
50
359.0456241
51
17.2296242
0
ARC
8
DEFAULT_255_1_234
10
19.8028054
20
-0.2800837
40
0.1689915
50
17.6685481
51
78.9940892
0
ARC
8
DEFAULT_255_1_234
10
19.7511218
20
-0.4655776
40
0.3612658
50
76.5635957
51
90.6980921
0
LINE
8
DEFAULT_255_1_234
10
19.7467203
20
-0.1043387
11
19.7465264
21
-0.1043386
0
ARC
8
DEFAULT_255_1_234
10
19.7246879
20
0.3479036
40
0.3285612
50
269.6064736
51
281.4533503
0
ARC
8
DEFAULT_255_1_234
10
19.7469698
20
0.2427688
40
0.2210975
50
281.2041486
51
302.5148063
0
ARC
8
DEFAULT_255_1_234
10
19.7606548
20
0.2181241
40
0.1929674
50
303.021671
51
309.8369575
0
ARC
8
DEFAULT_255_1_234
10
19.779001
20
0.1975488
40
0.1654181
50
309.5228395
51
356.9509836
0
ARC
8
DEFAULT_255_1_234
10
19.7126592
20
0.2070932
40
0.2322512
50
355.4701227
51
0.0492546
0
ARC
8
DEFAULT_255_1_234
10
19.6847683
20
0.2093094
40
0.2601498
50
359.5558597
51
11.2096359
0
ARC
8
DEFAULT_255_1_234
10
19.7804973
20
0.229123
40
0.1623975
50
10.9182341
51
31.3230275
0
ARC
8
DEFAULT_255_1_234
10
19.8090707
20
0.2450214
40
0.1297302
50
31.8852677
51
52.1412565
0
ARC
8
DEFAULT_255_1_234
10
19.7816439
20
0.206275
40
0.1771663
50
52.8285564
51
71.9850297
0
ARC
8
DEFAULT_255_1_234
10
19.7440616
20
0.0956664
40
0.2939794
50
71.6863486
51
82.8455995
0
ARC
8
DEFAULT_255_1_234
10
19.7201152
20
-0.0852851
40
0.476506
50
82.6984714
51
90.1729175
0
ARC
8
DEFAULT_255_1_234
10
19.7178786
20
0.0370623
40
0.3541573
50
89.8708275
51
90.0431131
0
LINE
8
DEFAULT_255_1_234
10
21.2580996
20
0.5181211
11
21.2580996
21
-0.6513
0
LINE
8
DEFAULT_255_1_234
10
21.2580996
20
-0.6513
11
21.103087
21
-0.6513
0
LINE
8
DEFAULT_255_1_234
10
21.103087
20
-0.6513
11
20.5143606
21
0.249861
0
LINE
8
DEFAULT_255_1_234
10
20.5143606
20
0.249861
11
20.5143606
21
-0.6513
0
LINE
8
DEFAULT_255_1_234
10
20.5143606
20
-0.6513
11
20.359348
21
-0.6513
0
LINE
8
DEFAULT_255_1_234
10
20.359348
20
-0.6513
11
20.359348
21
0.5181211
0
LINE
8
DEFAULT_255_1_234
10
20.359348
20
0.5181211
11
20.5143606
21
0.5181211
0
LINE
8
DEFAULT_255_1_234
10
20.5143606
20
0.5181211
11
21.1046934
21
-0.3870558
0
LINE
8
DEFAULT_255_1_234
10
21.1046934
20
-0.3870558
11
21.1046934
21
0.5181211
0
LINE
8
DEFAULT_255_1_234
10
21.1046934
20
0.5181211
11
21.2580996
21
0.5181211
0
LINE
8
DEFAULT_255_1_234
10
22.2267272
20
0.0402327
11
22.2267272
21
-0.1525291
0
LINE
8
DEFAULT_255_1_234
10
21.4886104
20
-0.1726084
11
21.4886104
21
0.0257755
0
LINE
8
DEFAULT_255_1_234
10
22.07814
20
-0.1926877
11
22.07814
21
0.0506739
0
LINE
8
DEFAULT_255_1_234
10
21.6371976
20
0.0619184
11
21.6371976
21
-0.1758211
0
ARC
8
DEFAULT_255_1_234
10
21.0020162
20
-0.1574195
40
1.2247208
50
353.8441951
51
0.2287902
0
ARC
8
DEFAULT_255_1_234
10
21.4659665
20
-0.2092194
40
0.7578929
50
344.4934747
51
353.9765454
0
ARC
8
DEFAULT_255_1_234
10
21.7652255
20
-0.2943019
40
0.4467846
50
329.2803592
51
344.7472793
0
ARC
8
DEFAULT_255_1_234
10
21.864508
20
-0.3487982
40
0.3336173
50
324.9352394
51
328.6160465
0
ARC
8
DEFAULT_255_1_234
10
21.9022189
20
-0.3751573
40
0.2876076
50
280.580143
51
324.9173126
0
ARC
8
DEFAULT_255_1_234
10
21.8620982
20
-0.2080901
40
0.4592847
50
269.5977311
51
281.6734359
0
ARC
8
DEFAULT_255_1_234
10
21.8548887
20
-0.2200827
40
0.4472986
50
256.6228859
51
270.51044
0
ARC
8
DEFAULT_255_1_234
10
21.8146865
20
-0.3749123
40
0.2873874
50
215.8618325
51
257.2788573
0
ARC
8
DEFAULT_255_1_234
10
21.9167897
20
-0.3064023
40
0.4102928
50
197.9693508
51
215.2623606
0
ARC
8
DEFAULT_255_1_234
10
22.1653012
20
-0.2225291
40
0.6725652
50
187.8816417
51
198.2346507
0
ARC
8
DEFAULT_255_1_234
10
22.561122
20
-0.1653921
40
1.0724845
50
180.8976217
51
188.0055519
0
ARC
8
DEFAULT_255_1_234
10
22.8411409
20
-0.1550223
40
1.3526448
50
180.7449369
51
181.1510016
0
ARC
8
DEFAULT_255_1_234
10
22.6834138
20
0.0306042
40
1.1948131
50
173.7675579
51
180.231553
0
ARC
8
DEFAULT_255_1_234
10
22.2316284
20
0.0816666
40
0.7401564
50
164.3058563
51
173.9002247
0
ARC
8
DEFAULT_255_1_234
10
21.9404353
20
0.1655656
40
0.4371288
50
148.7922025
51
164.568378
0
ARC
8
DEFAULT_255_1_234
10
21.8452805
20
0.2186929
40
0.3282386
50
144.5883898
51
148.1176286
0
ARC
8
DEFAULT_255_1_234
10
21.8109703
20
0.2426315
40
0.2864044
50
101.6440918
51
144.514236
0
ARC
8
DEFAULT_255_1_234
10
21.853477
20
0.0737069
40
0.4604934
50
89.5284041
51
102.5819763
0
ARC
8
DEFAULT_255_1_234
10
21.8613858
20
0.0698018
40
0.464401
50
77.0437873
51
90.5081339
0
ARC
8
DEFAULT_255_1_234
10
21.9015859
20
0.2340615
40
0.2953195
50
48.2778575
51
77.4994676
0
ARC
8
DEFAULT_255_1_234
10
21.9088491
20
0.2469746
40
0.2808655
50
36.3142134
51
47.6305865
0
ARC
8
DEFAULT_255_1_234
10
21.8219798
20
0.1884515
40
0.3855453
50
18.2931786
51
35.6769206
0
ARC
8
DEFAULT_255_1_234
10
21.5676557
20
0.1011593
40
0.654423
50
8.024666
51
18.5605216
0
ARC
8
DEFAULT_255_1_234
10
21.1513477
20
0.0396792
40
1.0752407
50
1.1274072
51
8.1718305
0
ARC
8
DEFAULT_255_1_234
10
20.8277667
20
0.0269885
40
1.3990231
50
0.5424119
51
1.3863029
0
ARC
8
DEFAULT_255_1_234
10
21.0099045
20
0.0542342
40
1.0682415
50
359.8090433
51
4.9407866
0
ARC
8
DEFAULT_255_1_234
10
21.4309059
20
0.0918113
40
0.6455691
50
4.8362157
51
12.2904523
0
ARC
8
DEFAULT_255_1_234
10
21.7064174
20
0.1531965
40
0.3633074
50
12.0805627
51
23.8173984
0
ARC
8
DEFAULT_255_1_234
10
21.8237879
20
0.2028919
40
0.2358723
50
24.2871213
51
31.3935614
0
ARC
8
DEFAULT_255_1_234
10
21.8762576
20
0.2372233
40
0.1732111
50
30.7407893
51
82.4657128
0
ARC
8
DEFAULT_255_1_234
10
21.8582711
20
0.1488691
40
0.263235
50
81.1060089
51
90.2184952
0
ARC
8
DEFAULT_255_1_234
10
21.854701
20
0.1746924
40
0.2374236
50
89.3806855
51
105.6762551
0
ARC
8
DEFAULT_255_1_234
10
21.836364
20
0.2413567
40
0.1682847
50
105.7981136
51
149.7388061
0
ARC
8
DEFAULT_255_1_234
10
21.9427719
20
0.177395
40
0.2924306
50
149.4208916
51
163.6286378
0
ARC
8
DEFAULT_255_1_234
10
22.1518607
20
0.113625
40
0.5110213
50
163.3763315
51
172.1410975
0
ARC
8
DEFAULT_255_1_234
10
22.4819325
20
0.0663518
40
0.8444586
50
172.0259487
51
178.0703232
0
ARC
8
DEFAULT_255_1_234
10
22.7849415
20
0.0519906
40
1.1477868
50
177.8631668
51
179.5044149
0
ARC
8
DEFAULT_255_1_234
10
22.6776819
20
-0.1794611
40
1.0404907
50
179.7995573
51
185.2460446
0
ARC
8
DEFAULT_255_1_234
10
22.2733859
20
-0.2177487
40
0.6343885
50
185.1411642
51
193.0079639
0
ARC
8
DEFAULT_255_1_234
10
22.0090331
20
-0.2802359
40
0.3627568
50
192.7897626
51
205.2507664
0
ARC
8
DEFAULT_255_1_234
10
21.9043878
20
-0.3269585
40
0.2481908
50
205.8005384
51
211.2537509
0
ARC
8
DEFAULT_255_1_234
10
21.8520319
20
-0.362042
40
0.1852521
50
210.3789793
51
238.4008143
0
ARC
8
DEFAULT_255_1_234
10
21.8500841
20
-0.3573624
40
0.1882621
50
239.6520629
51
265.9793761
0
ARC
8
DEFAULT_255_1_234
10
21.8586041
20
-0.2901573
40
0.2559272
50
265.1315437
51
270.060332
0
ARC
8
DEFAULT_255_1_234
10
21.861482
20
-0.3225466
40
0.2235528
50
269.3314664
51
287.2178029
0
ARC
8
DEFAULT_255_1_234
10
21.8752672
20
-0.3728721
40
0.1714108
50
287.7958004
51
329.080874
0
ARC
8
DEFAULT_255_1_234
10
21.7795128
20
-0.313107
40
0.2842745
50
328.6634704
51
343.3325132
0
ARC
8
DEFAULT_255_1_234
10
21.5622148
20
-0.2454137
40
0.5118644
50
343.0499468
51
351.9393422
0
ARC
8
DEFAULT_255_1_234
10
21.2155448
20
-0.1943051
40
0.8622784
50
351.8069023
51
357.7959224
0
ARC
8
DEFAULT_255_1_234
10
20.8920004
20
-0.1775279
40
1.1862365
50
357.5871873
51
359.2677531
0
ARC
8
DEFAULT_255_2_778
10
7.7485909
20
68.38144
40
3.1367904
50
252.3172038
51
259.0807113
0
ARC
8
DEFAULT_255_2_778
10
7.5374166
20
67.2658974
40
2.0014467
50
258.9672958
51
268.7384557
0
ARC
8
DEFAULT_255_2_778
10
7.5171807
20
66.8298713
40
1.5651169
50
269.127651
51
269.9970552
0
ARC
8
DEFAULT_255_2_778
10
7.5282369
20
66.367189
40
1.1024909
50
269.4212235
51
279.304757
0
ARC
8
DEFAULT_255_2_778
10
7.6424456
20
65.7110933
40
0.4366123
50
278.4353852
51
299.11427
0
ARC
8
DEFAULT_255_2_778
10
7.7687045
20
65.4892277
40
0.1813628
50
298.3696866
51
1.556618
0
ARC
8
DEFAULT_255_2_778
10
7.7607731
20
65.4969056
40
0.1892471
50
359.167
51
359.999679
0
ARC
8
DEFAULT_255_2_778
10
7.7621256
20
65.4968928
40
0.1878948
50
0.0035752
51
48.4707938
0
ARC
8
DEFAULT_255_2_778
10
7.6241179
20
65.338326
40
0.3981044
50
48.732028
51
61.7680099
0
ARC
8
DEFAULT_255_2_778
10
7.0282641
20
64.2902023
40
1.6036722
50
60.7260073
51
65.6921054
0
ARC
8
DEFAULT_255_2_778
10
6.1077612
20
62.2967982
40
3.7993142
50
65.4156409
51
67.5847818
0
ARC
8
DEFAULT_255_2_778
10
9.6066473
20
70.859153
40
5.4503761
50
245.128515
51
247.9047275
0
ARC
8
DEFAULT_255_2_778
10
8.5259656
20
68.5361079
40
2.8882696
50
241.1320633
51
245.1962756
0
ARC
8
DEFAULT_255_2_778
10
7.7630454
20
67.1632163
40
1.3176592
50
234.2113748
51
241.3622699
0
ARC
8
DEFAULT_255_2_778
10
7.3438693
20
66.5777113
40
0.5975813
50
226.7214828
51
233.9837466
0
ARC
8
DEFAULT_255_2_778
10
7.3610966
20
66.5845728
40
0.6144367
50
178.3976213
51
225.9905587
0
ARC
8
DEFAULT_255_2_778
10
7.4479133
20
66.6158454
40
0.7011547
50
154.8735925
51
181.1515496
0
ARC
8
DEFAULT_255_2_778
10
7.3604049
20
66.6412792
40
0.6112906
50
123.8165102
51
153.54904
0
ARC
8
DEFAULT_255_2_778
10
7.5901921
20
66.3035388
40
1.0197826
50
100.5304332
51
123.982159
0
ARC
8
DEFAULT_255_2_778
10
7.6990249
20
65.7806706
40
1.5537767
50
89.6287661
51
100.9523483
0
ARC
8
DEFAULT_255_2_778
10
7.7090926
20
65.4135161
40
1.9208984
50
89.5463873
51
90.0000125
0
ARC
8
DEFAULT_255_2_778
10
7.7099768
20
65.335193
40
1.9992127
50
84.1426129
51
89.5894994
0
ARC
8
DEFAULT_255_2_778
10
7.5078054
20
63.2562453
40
4.0879532
50
81.0724968
51
84.2974367
0
ARC
8
DEFAULT_255_2_778
10
7.0237164
20
60.1306832
40
7.250777
50
78.9261702
51
81.1263461
0
ARC
8
DEFAULT_255_2_778
10
7.6683034
20
64.9477967
40
1.9859479
50
67.8708824
51
78.7622215
0
ARC
8
DEFAULT_255_2_778
10
7.7856122
20
65.5204165
40
1.4014502
50
78.9039563
51
89.7592781
0
ARC
8
DEFAULT_255_2_778
10
7.7793524
20
65.9442116
40
0.9777183
50
89.2881014
51
100.1843776
0
ARC
8
DEFAULT_255_2_778
10
7.6658995
20
66.5378799
40
0.3734036
50
99.1570246
51
122.7347563
0
ARC
8
DEFAULT_255_2_778
10
7.5618036
20
66.7043312
40
0.1771147
50
123.5257165
51
182.0309683
0
ARC
8
DEFAULT_255_2_778
10
7.5428899
20
66.6999308
40
0.1581008
50
180.6800447
51
241.1486722
0
ARC
8
DEFAULT_255_2_778
10
7.9232305
20
67.3161089
40
0.8820514
50
238.822493
51
243.6821447
0
ARC
8
DEFAULT_255_2_778
10
9.3821709
20
70.1899759
40
4.1049967
50
243.2133286
51
244.8806059
0
ARC
8
DEFAULT_255_2_778
10
12.2927158
20
76.3622378
40
10.9290718
50
244.8013453
51
245.6369449
0
ARC
8
DEFAULT_255_2_778
10
15.2578722
20
82.8732332
40
18.0834464
50
245.588748
51
245.787665
0
ARC
8
DEFAULT_255_2_778
10
5.8891596
20
61.9514306
40
4.8403276
50
63.1117553
51
66.2123
0
ARC
8
DEFAULT_255_2_778
10
6.9466095
20
64.0255717
40
2.5121927
50
58.2727928
51
63.2279679
0
ARC
8
DEFAULT_255_2_778
10
7.6960396
20
65.2274803
40
1.0958018
50
49.8218374
51
58.5541977
0
ARC
8
DEFAULT_255_2_778
10
8.0252396
20
65.6278219
40
0.5775748
50
45.4118875
51
49.1507981
0
ARC
8
DEFAULT_255_2_778
10
8.0078546
20
65.6208809
40
0.5947698
50
359.8266002
51
44.6885537
0
ARC
8
DEFAULT_255_2_778
10
7.7567553
20
65.5937699
40
0.8462449
50
359.9921763
51
1.7139588
0
ARC
8
DEFAULT_255_2_778
10
7.9236841
20
65.5779488
40
0.6794977
50
328.8434326
51
1.3244197
0
ARC
8
DEFAULT_255_2_778
10
7.9038875
20
65.6140073
40
0.7153916
50
299.9830705
51
327.1921484
0
ARC
8
DEFAULT_255_2_778
10
7.7012555
20
65.9460429
40
1.1042976
50
281.4942083
51
300.4802073
0
ARC
8
DEFAULT_255_2_778
10
7.5665306
20
66.569865
40
1.7424723
50
270.5625225
51
281.7478816
0
ARC
8
DEFAULT_255_2_778
10
7.5455157
20
67.0769548
40
2.2498011
50
269.996365
51
270.9709017
0
LINE
8
DEFAULT_255_2_778
10
7.545373
20
64.8271538
11
7.5438002
21
64.8271543
0
ARC
8
DEFAULT_255_2_778
10
7.5505417
20
68.1192647
40
3.2921172
50
256.7144726
51
269.882672
0
ARC
8
DEFAULT_255_2_778
10
21.7504516
20
68.3060513
40
3.0599176
50
252.185271
51
259.1427573
0
ARC
8
DEFAULT_255_2_778
10
21.5517839
20
67.2478255
40
1.9832175
50
259.0208764
51
269.2247582
0
ARC
8
DEFAULT_255_2_778
10
21.5355123
20
66.849243
40
1.5844885
50
269.6180891
51
269.9995636
0
ARC
8
DEFAULT_255_2_778
10
21.5474133
20
66.370367
40
1.1056768
50
269.3826571
51
279.2415406
0
ARC
8
DEFAULT_255_2_778
10
21.6613199
20
65.7116939
40
0.4373106
50
278.3705839
51
299.0156343
0
ARC
8
DEFAULT_255_2_778
10
21.7879297
20
65.4885004
40
0.1807355
50
298.2360606
51
1.5389494
0
ARC
8
DEFAULT_255_2_778
10
21.7603652
20
65.4975667
40
0.2082776
50
358.8411392
51
0.0020684
0
ARC
8
DEFAULT_255_2_778
10
21.7866933
20
65.5006628
40
0.1819759
50
359.027495
51
48.4049054
0
ARC
8
DEFAULT_255_2_778
10
21.6426988
20
65.332691
40
0.4032051
50
48.948177
51
62.1095173
0
ARC
8
DEFAULT_255_2_778
10
21.0553488
20
64.2863768
40
1.6030099
50
61.0487088
51
66.0223331
0
ARC
8
DEFAULT_255_2_778
10
20.1651728
20
62.3287609
40
3.7534838
50
65.750311
51
67.9399335
0
ARC
8
DEFAULT_255_2_778
10
23.5885642
20
70.7686293
40
5.35426
50
245.0886904
51
247.9085292
0
ARC
8
DEFAULT_255_2_778
10
22.5327748
20
68.5032301
40
2.8549193
50
241.0445351
51
245.1557194
0
ARC
8
DEFAULT_255_2_778
10
21.7833134
20
67.1594017
40
1.3162482
50
234.0878076
51
241.2704023
0
ARC
8
DEFAULT_255_2_778
10
21.3685041
20
66.5824995
40
0.6057061
50
226.6350428
51
233.8590908
0
ARC
8
DEFAULT_255_2_778
10
21.3797041
20
66.5845701
40
0.6149385
50
178.1097058
51
226.0088463
0
ARC
8
DEFAULT_255_2_778
10
21.4585606
20
66.6190802
40
0.6936062
50
154.5307055
51
181.1752148
0
ARC
8
DEFAULT_255_2_778
10
21.3749435
20
66.6429859
40
0.6080053
50
123.6088607
51
153.1759302
0
ARC
8
DEFAULT_255_2_778
10
21.5988489
20
66.3267393
40
0.9953885
50
101.9261307
51
124.2666527
0
ARC
8
DEFAULT_255_2_778
10
21.7271622
20
65.759577
40
1.5768466
50
89.8677607
51
102.2291486
0
ARC
8
DEFAULT_255_2_778
10
21.7427185
20
65.307695
40
2.0287594
50
90.0005168
51
90.3365569
0
ARC
8
DEFAULT_255_2_778
10
21.7283083
20
65.1458185
40
2.1906831
50
83.5560006
51
89.6235862
0
ARC
8
DEFAULT_255_2_778
10
21.5238767
20
63.2590102
40
4.0885236
50
79.7361676
51
83.6768054
0
ARC
8
DEFAULT_255_2_778
10
21.2079482
20
61.4244099
40
5.9500801
50
78.6906041
51
79.8904129
0
ARC
8
DEFAULT_255_2_778
10
21.6896179
20
64.957229
40
1.9779825
50
67.8744446
51
78.9030929
0
ARC
8
DEFAULT_255_2_778
10
21.8016885
20
65.5091175
40
1.4148476
50
79.0551066
51
89.7767944
0
ARC
8
DEFAULT_255_2_778
10
21.7951063
20
65.9529565
40
0.9710732
50
89.2864107
51
100.2116886
0
ARC
8
DEFAULT_255_2_778
10
21.681801
20
66.5434677
40
0.3698916
50
99.1550036
51
123.0119564
0
ARC
8
DEFAULT_255_2_778
10
21.579009
20
66.7068297
40
0.176923
50
123.920376
51
182.0550514
0
ARC
8
DEFAULT_255_2_778
10
21.5390366
20
66.7004025
40
0.1368366
50
179.9653657
51
180.1039286
0
ARC
8
DEFAULT_255_2_778
10
21.5595115
20
66.7016104
40
0.157318
50
180.5303168
51
241.2736447
0
ARC
8
DEFAULT_255_2_778
10
21.9257678
20
67.29739
40
0.8565132
50
238.9429609
51
243.884641
0
ARC
8
DEFAULT_255_2_778
10
23.4342946
20
70.2907722
40
4.2084849
50
243.3823468
51
245.0163422
0
ARC
8
DEFAULT_255_2_778
10
26.5083187
20
76.8498925
40
11.4522123
50
244.9359232
51
245.7429141
0
ARC
8
DEFAULT_255_2_778
10
29.6927214
20
83.8784377
40
19.1684757
50
245.6959642
51
245.8864146
0
ARC
8
DEFAULT_255_2_778
10
19.9154971
20
61.9933834
40
4.8013152
50
62.9050538
51
66.089679
0
ARC
8
DEFAULT_255_2_778
10
20.9733939
20
64.0512652
40
2.4874475
50
58.0771566
51
63.0087022
0
ARC
8
DEFAULT_255_2_778
10
21.7200156
20
65.2386496
40
1.0848613
50
49.460189
51
58.3856987
0
ARC
8
DEFAULT_255_2_778
10
22.0420624
20
65.6264693
40
0.5808595
50
45.5403682
51
48.7368826
0
ARC
8
DEFAULT_255_2_778
10
22.0276279
20
65.6224376
40
0.5938943
50
359.8498367
51
44.8188382
0
ARC
8
DEFAULT_255_2_778
10
21.7783019
20
65.5955631
40
0.8435982
50
359.9926129
51
1.719814
0
ARC
8
DEFAULT_255_2_778
10
21.9395402
20
65.5798337
40
0.6825388
50
329.2212416
51
1.3113892
0
ARC
8
DEFAULT_255_2_778
10
21.9246155
20
65.6126294
40
0.7124399
50
300.0989301
51
327.5692204
0
ARC
8
DEFAULT_255_2_778
10
21.7224438
20
65.9464907
40
1.102697
50
281.4434856
51
300.4876618
0
ARC
8
DEFAULT_255_2_778
10
21.5850721
20
66.5840991
40
1.7549039
50
270.5536601
51
281.7092007
0
ARC
8
DEFAULT_255_2_778
10
21.5637113
20
67.100588
40
2.271634
50
269.9960451
51
270.9665268
0
LINE
8
DEFAULT_255_2_778
10
21.5635545
20
64.8289541
11
21.5625002
21
64.8289543
0
ARC
8
DEFAULT_255_2_778
10
21.5691776
20
68.130398
40
3.3014504
50
256.7485089
51
269.8841161
0
LINE
8
DEFAULT_255_2_778
10
6.7958002
20
64.9160543
11
6.7958002
21
65.3928543
0
LINE
8
DEFAULT_255_2_778
10
8.4164002
20
67.2464543
11
8.4164002
21
66.7874543
0
LINE
8
DEFAULT_255_2_778
10
6.7940002
20
64.9152543
11
6.7958002
21
64.9160543
0
LINE
8
DEFAULT_255_2_778
10
8.9866002
20
67.2935543
11
9.6629002
21
67.2935543
0
LINE
8
DEFAULT_255_2_778
10
9.6629002
20
67.2935543
11
9.6629002
21
64.8771543
0
LINE
8
DEFAULT_255_2_778
10
9.6629002
20
64.8771543
11
8.9866002
21
64.8771543
0
LINE
8
DEFAULT_255_2_778
10
8.9866002
20
64.8771543
11
8.9866002
21
67.2935543
0
LINE
8
DEFAULT_255_2_778
10
10.2809002
20
64.8771543
11
10.2809002
21
67.2938543
0
LINE
8
DEFAULT_255_2_778
10
10.2809002
20
67.2938543
11
12.0132002
21
67.2938543
0
LINE
8
DEFAULT_255_2_778
10
12.0132002
20
67.2938543
11
12.0132002
21
66.8567543
0
LINE
8
DEFAULT_255_2_778
10
12.0132002
20
66.8567543
11
10.9321002
21
66.8567543
0
LINE
8
DEFAULT_255_2_778
10
10.9321002
20
66.8567543
11
10.9321002
21
66.3111543
0
LINE
8
DEFAULT_255_2_778
10
10.9321002
20
66.3111543
11
11.8735002
21
66.3111543
0
LINE
8
DEFAULT_255_2_778
10
11.8735002
20
66.3111543
11
11.8735002
21
65.9127543
0
LINE
8
DEFAULT_255_2_778
10
11.8735002
20
65.9127543
11
10.9321002
21
65.9127543
0
LINE
8
DEFAULT_255_2_778
10
10.9321002
20
65.9127543
11
10.9321002
21
65.3391543
0
LINE
8
DEFAULT_255_2_778
10
10.9321002
20
65.3391543
11
12.0412002
21
65.3391543
0
LINE
8
DEFAULT_255_2_778
10
12.0412002
20
65.3391543
11
12.0412002
21
64.8763543
0
LINE
8
DEFAULT_255_2_778
10
12.0412002
20
64.8763543
11
10.2809002
21
64.8771543
0
LINE
8
DEFAULT_255_2_778
10
12.4817002
20
64.8771543
11
12.4817002
21
67.2938543
0
LINE
8
DEFAULT_255_2_778
10
12.4817002
20
67.2938543
11
13.3575002
21
67.2938543
0
LINE
8
DEFAULT_255_2_778
10
13.3575002
20
67.2938543
11
13.9671002
21
65.7497543
0
LINE
8
DEFAULT_255_2_778
10
13.9671002
20
65.7497543
11
14.5897002
21
67.2938543
0
LINE
8
DEFAULT_255_2_778
10
14.5897002
20
67.2938543
11
15.4215002
21
67.2938543
0
LINE
8
DEFAULT_255_2_778
10
15.4215002
20
67.2938543
11
15.4215002
21
64.8774543
0
LINE
8
DEFAULT_255_2_778
10
15.4215002
20
64.8774543
11
14.7812002
21
64.8774543
0
LINE
8
DEFAULT_255_2_778
10
14.7812002
20
64.8774543
11
14.7812002
21
66.5890543
0
LINE
8
DEFAULT_255_2_778
10
14.7812002
20
66.5890543
11
14.0724002
21
64.8541543
0
LINE
8
DEFAULT_255_2_778
10
14.0724002
20
64.8541543
11
13.6515002
21
64.8541543
0
LINE
8
DEFAULT_255_2_778
10
13.6515002
20
64.8541543
11
12.9559002
21
66.5890543
0
LINE
8
DEFAULT_255_2_778
10
12.9559002
20
66.5890543
11
12.9559002
21
64.8774543
0
LINE
8
DEFAULT_255_2_778
10
12.9559002
20
64.8774543
11
12.4817002
21
64.8771543
0
LINE
8
DEFAULT_255_2_778
10
16.0409002
20
64.8771543
11
16.0409002
21
67.2938543
0
LINE
8
DEFAULT_255_2_778
10
16.0409002
20
67.2938543
11
17.7731002
21
67.2938543
0
LINE
8
DEFAULT_255_2_778
10
17.7731002
20
67.2938543
11
17.7731002
21
66.8567543
0
LINE
8
DEFAULT_255_2_778
10
17.7731002
20
66.8567543
11
16.6921002
21
66.8567543
0
LINE
8
DEFAULT_255_2_778
10
16.6921002
20
66.8567543
11
16.6921002
21
66.3111543
0
LINE
8
DEFAULT_255_2_778
10
16.6921002
20
66.3111543
11
17.6334002
21
66.3111543
0
LINE
8
DEFAULT_255_2_778
10
17.6334002
20
66.3111543
11
17.6334002
21
65.9127543
0
LINE
8
DEFAULT_255_2_778
10
17.6334002
20
65.9127543
11
16.6921002
21
65.9127543
0
LINE
8
DEFAULT_255_2_778
10
16.6921002
20
65.9127543
11
16.6921002
21
65.3391543
0
LINE
8
DEFAULT_255_2_778
10
16.6921002
20
65.3391543
11
17.8030002
21
65.3391543
0
LINE
8
DEFAULT_255_2_778
10
17.8030002
20
65.3391543
11
17.8030002
21
64.8763543
0
LINE
8
DEFAULT_255_2_778
10
17.8030002
20
64.8763543
11
16.0409002
21
64.8771543
0
LINE
8
DEFAULT_255_2_778
10
18.2454002
20
64.8771543
11
18.2454002
21
67.2938543
0
LINE
8
DEFAULT_255_2_778
10
18.2454002
20
67.2938543
11
19.0283002
21
67.2938543
0
LINE
8
DEFAULT_255_2_778
10
19.0283002
20
67.2938543
11
19.8586002
21
65.6759543
0
LINE
8
DEFAULT_255_2_778
10
19.8586002
20
65.6759543
11
19.8586002
21
67.2938543
0
LINE
8
DEFAULT_255_2_778
10
19.8586002
20
67.2938543
11
20.3343002
21
67.2938543
0
LINE
8
DEFAULT_255_2_778
10
20.3343002
20
67.2938543
11
20.3343002
21
64.8774543
0
LINE
8
DEFAULT_255_2_778
10
20.3343002
20
64.8774543
11
19.5739002
21
64.8774543
0
LINE
8
DEFAULT_255_2_778
10
19.5739002
20
64.8774543
11
18.7214002
21
66.5167543
0
LINE
8
DEFAULT_255_2_778
10
18.7214002
20
66.5167543
11
18.7214002
21
64.8774543
0
LINE
8
DEFAULT_255_2_778
10
18.7214002
20
64.8774543
11
18.2454002
21
64.8771543
0
LINE
8
DEFAULT_255_2_778
10
20.8143002
20
64.9160543
11
20.8143002
21
65.3928543
0
LINE
8
DEFAULT_255_2_778
10
22.3748002
20
67.2589543
11
22.4346002
21
67.2486543
0
LINE
8
DEFAULT_255_2_778
10
22.4346002
20
67.2486543
11
22.4346002
21
66.7895543
0
LINE
8
DEFAULT_255_2_778
10
20.8124002
20
64.9168543
11
20.8143002
21
64.9160543
0
LINE
8
DEFAULT_255_1_234
10
8.3365023
20
63.0184849
11
8.1814897
21
63.0184849
0
LINE
8
DEFAULT_255_1_234
10
7.4891539
20
62.5261394
11
7.6441665
21
62.5261394
0
ARC
8
DEFAULT_255_1_234
10
8.247371
20
63.9131768
40
1.252368
50
248.9199003
51
254.1439814
0
ARC
8
DEFAULT_255_1_234
10
8.0793205
20
63.4805234
40
0.788226
50
241.633709
51
249.0064503
0
ARC
8
DEFAULT_255_1_234
10
7.92646
20
63.2004317
40
0.4691427
50
230.498225
51
241.8087113
0
ARC
8
DEFAULT_255_1_234
10
7.8480174
20
63.1004906
40
0.3421437
50
227.4064532
51
229.9881192
0
ARC
8
DEFAULT_255_1_234
10
7.7992694
20
63.0529088
40
0.2741476
50
200.6781896
51
228.1763934
0
ARC
8
DEFAULT_255_1_234
10
7.8065005
20
63.0514077
40
0.2804109
50
179.5061581
51
199.8694617
0
ARC
8
DEFAULT_255_1_234
10
7.8055757
20
63.058821
40
0.2795204
50
132.4834203
51
181.0242172
0
ARC
8
DEFAULT_255_1_234
10
7.8651339
20
63.0025704
40
0.3612768
50
129.2532479
51
133.4242687
0
ARC
8
DEFAULT_255_1_234
10
7.8797789
20
62.9805965
40
0.3875675
50
101.98776
51
128.8742646
0
ARC
8
DEFAULT_255_1_234
10
7.9196399
20
62.8084741
40
0.5642249
50
89.5906553
51
102.3169264
0
ARC
8
DEFAULT_255_1_234
10
7.9266891
20
62.8403148
40
0.5323783
50
77.2360837
51
90.3248275
0
ARC
8
DEFAULT_255_1_234
10
7.9473971
20
62.93704
40
0.4334697
50
63.837784
51
77.0809408
0
ARC
8
DEFAULT_255_1_234
10
7.9751732
20
62.9887911
40
0.3747796
50
45.9864267
51
64.1607727
0
ARC
8
DEFAULT_255_1_234
10
8.0012614
20
63.0185866
40
0.3352302
50
32.2747395
51
45.6547121
0
ARC
8
DEFAULT_255_1_234
10
8.0079054
20
63.020488
40
0.328603
50
359.6507365
51
32.6130309
0
ARC
8
DEFAULT_255_1_234
10
7.913615
20
63.020966
40
0.2678863
50
359.469343
51
14.9832209
0
ARC
8
DEFAULT_255_1_234
10
7.9841212
20
63.0398539
40
0.1948938
50
14.9781179
51
48.2004265
0
ARC
8
DEFAULT_255_1_234
10
7.9676856
20
63.0191983
40
0.2212521
50
48.5927837
51
74.1241538
0
ARC
8
DEFAULT_255_1_234
10
7.9343346
20
62.9091248
40
0.3362561
50
73.7888341
51
86.6652678
0
ARC
8
DEFAULT_255_1_234
10
7.9240911
20
62.7883881
40
0.4573953
50
86.2640471
51
90.0526343
0
ARC
8
DEFAULT_255_1_234
10
7.9212624
20
62.8279192
40
0.4178709
50
89.6697524
51
99.2309573
0
ARC
8
DEFAULT_255_1_234
10
7.8970075
20
62.9723964
40
0.2713749
50
99.069534
51
113.7658566
0
ARC
8
DEFAULT_255_1_234
10
7.8696266
20
63.0369677
40
0.2012469
50
114.0401004
51
127.9850673
0
ARC
8
DEFAULT_255_1_234
10
7.845583
20
63.066573
40
0.1631167
50
127.7287463
51
176.7105154
0
ARC
8
DEFAULT_255_1_234
10
7.9134547
20
63.0564693
40
0.2315392
50
175.1779447
51
180.0581938
0
ARC
8
DEFAULT_255_1_234
10
7.8291394
20
63.0552428
40
0.1472271
50
179.6142195
51
228.1246017
0
ARC
8
DEFAULT_255_1_234
10
7.8733063
20
63.0961308
40
0.2072299
50
226.5779593
51
230.8800004
0
ARC
8
DEFAULT_255_1_234
10
7.9204141
20
63.1586636
40
0.2854818
50
231.4635071
51
241.9260842
0
ARC
8
DEFAULT_255_1_234
10
8.0401319
20
63.37898
40
0.53622
50
241.7178533
51
248.3259551
0
ARC
8
DEFAULT_255_1_234
10
8.1786691
20
63.7222064
40
0.9063478
50
248.2007737
51
252.4528373
0
ARC
8
DEFAULT_255_1_234
10
8.2990416
20
64.0943441
40
1.2974635
50
252.3391078
51
254.3469452
0
ARC
8
DEFAULT_255_1_234
10
7.5448119
20
61.3966148
40
1.5037162
50
71.0197183
51
74.4087047
0
ARC
8
DEFAULT_255_1_234
10
7.7142804
20
61.8858111
40
0.9859993
50
66.1847285
51
71.086374
0
ARC
8
DEFAULT_255_1_234
10
7.8699116
20
62.23622
40
0.6025855
50
59.3536294
51
66.2691831
0
ARC
8
DEFAULT_255_1_234
10
7.9587769
20
62.3865609
40
0.4279449
50
49.1020879
51
59.3293958
0
ARC
8
DEFAULT_255_1_234
10
8.0406509
20
62.4798834
40
0.3038015
50
32.7919921
51
49.2505539
0
ARC
8
DEFAULT_255_1_234
10
8.0727599
20
62.5027191
40
0.264448
50
31.1181161
51
32.4005348
0
ARC
8
DEFAULT_255_1_234
10
8.0639136
20
62.4991779
40
0.2738556
50
8.1116974
51
30.7958831
0
ARC
8
DEFAULT_255_1_234
10
7.9828804
20
62.4853753
40
0.3560327
50
359.8389159
51
8.4706516
0
ARC
8
DEFAULT_255_1_234
10
8.0454596
20
62.4805137
40
0.2934776
50
337.4731098
51
0.7537279
0
ARC
8
DEFAULT_255_1_234
10
8.0633291
20
62.4785387
40
0.2762607
50
307.5917067
51
336.4315538
0
ARC
8
DEFAULT_255_1_234
10
8.0173119
20
62.5298102
40
0.3449979
50
307.6551545
51
308.4529766
0
ARC
8
DEFAULT_255_1_234
10
7.9942838
20
62.565325
40
0.3871988
50
284.3734338
51
307.1424381
0
ARC
8
DEFAULT_255_1_234
10
7.9447668
20
62.7474932
40
0.5759636
50
272.4382747
51
284.646547
0
ARC
8
DEFAULT_255_1_234
10
7.9320876
20
62.9274893
40
0.7563528
50
269.9708387
51
272.8178037
0
ARC
8
DEFAULT_255_1_234
10
7.9277916
20
62.7236716
40
0.5525489
50
248.2707594
51
270.4055579
0
ARC
8
DEFAULT_255_1_234
10
7.9223657
20
62.7046192
40
0.5328452
50
246.1383403
51
248.0542782
0
ARC
8
DEFAULT_255_1_234
10
7.8805036
20
62.6166843
40
0.4355005
50
233.1670131
51
246.4950969
0
ARC
8
DEFAULT_255_1_234
10
7.8250941
20
62.5418812
40
0.3424126
50
215.3403242
51
233.0843104
0
ARC
8
DEFAULT_255_1_234
10
7.7978372
20
62.5220549
40
0.3087104
50
179.2419209
51
215.2648451
0
ARC
8
DEFAULT_255_1_234
10
7.8745966
20
62.5234666
40
0.2304457
50
179.335461
51
199.1045811
0
ARC
8
DEFAULT_255_1_234
10
7.8413643
20
62.5147766
40
0.1962176
50
199.8828939
51
232.7063202
0
ARC
8
DEFAULT_255_1_234
10
7.8885911
20
62.5741788
40
0.2720938
50
232.3738199
51
255.5136649
0
ARC
8
DEFAULT_255_1_234
10
7.9226778
20
62.6985835
40
0.4010747
50
255.2446292
51
267.5320849
0
ARC
8
DEFAULT_255_1_234
10
7.9314401
20
62.8218702
40
0.5246356
50
267.1557994
51
270.0286766
0
ARC
8
DEFAULT_255_1_234
10
7.9342173
20
62.777495
40
0.4802668
50
269.7000017
51
278.1660162
0
ARC
8
DEFAULT_255_1_234
10
7.9598178
20
62.6044515
40
0.3053425
50
278.0231263
51
290.625471
0
ARC
8
DEFAULT_255_1_234
10
7.9945865
20
62.5117025
40
0.206291
50
290.6619762
51
307.0370976
0
ARC
8
DEFAULT_255_1_234
10
8.0246254
20
62.4748504
40
0.1587906
50
306.3943566
51
355.3030547
0
ARC
8
DEFAULT_255_1_234
10
7.9734186
20
62.4825113
40
0.2104809
50
354.3660432
51
0.0698737
0
ARC
8
DEFAULT_255_1_234
10
7.9876531
20
62.4847617
40
0.1962563
50
359.417946
51
16.1971788
0
ARC
8
DEFAULT_255_1_234
10
8.0331841
20
62.4972418
40
0.149053
50
16.4723299
51
52.6262157
0
ARC
8
DEFAULT_255_1_234
10
7.9510895
20
62.3888433
40
0.2850296
50
52.7386432
51
62.4979148
0
ARC
8
DEFAULT_255_1_234
10
7.8125972
20
62.1282283
40
0.5801521
50
62.2515216
51
68.1220564
0
ARC
8
DEFAULT_255_1_234
10
7.6405883
20
61.7054872
40
1.0365451
50
68.0062803
51
71.8053402
0
ARC
8
DEFAULT_255_1_234
10
7.4610255
20
61.1669758
40
1.6042013
50
71.7183119
51
73.9258742
0
LINE
8
DEFAULT_255_1_234
10
8.7019464
20
63.3566211
11
8.7019464
21
62.1872
0
LINE
8
DEFAULT_255_1_234
10
8.7019464
20
62.1872
11
8.547737
21
62.1872
0
LINE
8
DEFAULT_255_1_234
10
8.547737
20
62.1872
11
8.547737
21
63.3566211
0
LINE
8
DEFAULT_255_1_234
10
8.547737
20
63.3566211
11
8.7019464
21
63.3566211
0
LINE
8
DEFAULT_255_1_234
10
8.9838604
20
63.3566211
11
9.1830475
21
63.3566211
0
LINE
8
DEFAULT_255_1_234
10
9.1830475
20
63.3566211
11
9.5653583
21
62.4024506
0
LINE
8
DEFAULT_255_1_234
10
9.5653583
20
62.4024506
11
9.947669
21
63.3566211
0
LINE
8
DEFAULT_255_1_234
10
9.947669
20
63.3566211
11
10.1476593
21
63.3566211
0
LINE
8
DEFAULT_255_1_234
10
10.1476593
20
63.3566211
11
10.1476593
21
62.1872
0
LINE
8
DEFAULT_255_1_234
10
10.1476593
20
62.1872
11
9.9934499
21
62.1872
0
LINE
8
DEFAULT_255_1_234
10
9.9934499
20
62.1872
11
9.9934499
21
62.6425996
0
LINE
8
DEFAULT_255_1_234
10
9.9934499
20
62.6425996
11
10.007907
21
63.1341419
0
LINE
8
DEFAULT_255_1_234
10
10.007907
20
63.1341419
11
9.6239899
21
62.1872
0
LINE
8
DEFAULT_255_1_234
10
9.6239899
20
62.1872
11
9.5059234
21
62.1872
0
LINE
8
DEFAULT_255_1_234
10
9.5059234
20
62.1872
11
9.1228095
21
63.1317324
0
LINE
8
DEFAULT_255_1_234
10
9.1228095
20
63.1317324
11
9.1380698
21
62.6425996
0
LINE
8
DEFAULT_255_1_234
10
9.1380698
20
62.6425996
11
9.1380698
21
62.1872
0
LINE
8
DEFAULT_255_1_234
10
9.1380698
20
62.1872
11
8.9838604
21
62.1872
0
LINE
8
DEFAULT_255_1_234
10
8.9838604
20
62.1872
11
8.9838604
21
63.3566211
0
LINE
8
DEFAULT_255_1_234
10
11.1917853
20
62.1872
11
11.0801441
21
62.4924061
0
LINE
8
DEFAULT_255_1_234
10
11.0801441
20
62.4924061
11
10.5902081
21
62.4924061
0
LINE
8
DEFAULT_255_1_234
10
10.5902081
20
62.4924061
11
10.4801732
21
62.1872
0
LINE
8
DEFAULT_255_1_234
10
10.4801732
20
62.1872
11
10.3211448
21
62.1872
0
LINE
8
DEFAULT_255_1_234
10
10.3211448
20
62.1872
11
10.7677095
21
63.3566211
0
LINE
8
DEFAULT_255_1_234
10
10.7677095
20
63.3566211
11
10.9026427
21
63.3566211
0
LINE
8
DEFAULT_255_1_234
10
10.9026427
20
63.3566211
11
11.3500105
21
62.1872
0
LINE
8
DEFAULT_255_1_234
10
11.3500105
20
62.1872
11
11.1917853
21
62.1872
0
LINE
8
DEFAULT_255_1_234
10
10.8351761
20
63.1662689
11
10.6367921
21
62.6193075
0
LINE
8
DEFAULT_255_1_234
10
10.6367921
20
62.6193075
11
11.0343632
21
62.6193075
0
LINE
8
DEFAULT_255_1_234
10
11.0343632
20
62.6193075
11
10.8351761
21
63.1662689
0
LINE
8
DEFAULT_255_1_234
10
12.211816
20
63.3566211
11
12.211816
21
63.2297196
0
LINE
8
DEFAULT_255_1_234
10
12.211816
20
63.2297196
11
11.8359307
21
63.2297196
0
LINE
8
DEFAULT_255_1_234
10
11.8359307
20
63.2297196
11
11.8359307
21
62.1872
0
LINE
8
DEFAULT_255_1_234
10
11.8359307
20
62.1872
11
11.6825245
21
62.1872
0
LINE
8
DEFAULT_255_1_234
10
11.6825245
20
62.1872
11
11.6825245
21
63.2297196
0
LINE
8
DEFAULT_255_1_234
10
11.6825245
20
63.2297196
11
11.3074423
21
63.2297196
0
LINE
8
DEFAULT_255_1_234
10
11.3074423
20
63.2297196
11
11.3074423
21
63.3566211
0
LINE
8
DEFAULT_255_1_234
10
11.3074423
20
63.3566211
11
12.211816
21
63.3566211
0
LINE
8
DEFAULT_255_1_234
10
12.5507554
20
63.3566211
11
12.5507554
21
62.1872
0
LINE
8
DEFAULT_255_1_234
10
12.5507554
20
62.1872
11
12.396546
21
62.1872
0
LINE
8
DEFAULT_255_1_234
10
12.396546
20
62.1872
11
12.396546
21
63.3566211
0
LINE
8
DEFAULT_255_1_234
10
12.396546
20
63.3566211
11
12.5507554
21
63.3566211
0
LINE
8
DEFAULT_255_1_234
10
13.537856
20
62.5582663
11
13.6928686
21
62.5582663
0
LINE
8
DEFAULT_255_1_234
10
12.7925107
20
62.7172947
11
12.7925107
21
62.8297391
0
LINE
8
DEFAULT_255_1_234
10
13.6928686
20
62.9807357
11
13.537856
21
62.9807357
0
LINE
8
DEFAULT_255_1_234
10
12.9475232
20
62.8257232
11
12.9475232
21
62.7124757
0
ARC
8
DEFAULT_255_1_234
10
13.1448072
20
62.6179846
40
0.5513052
50
340.1774281
51
353.7814284
0
ARC
8
DEFAULT_255_1_234
10
13.3019425
20
62.5594582
40
0.3836379
50
311.4558989
51
340.4421614
0
ARC
8
DEFAULT_255_1_234
10
13.2986093
20
62.5705528
40
0.3941894
50
282.4333181
51
310.7513653
0
ARC
8
DEFAULT_255_1_234
10
13.2546832
20
62.7520679
40
0.5809175
50
269.9358511
51
282.809604
0
ARC
8
DEFAULT_255_1_234
10
13.2494899
20
62.8978212
40
0.7266847
50
270.0021091
51
270.3581957
0
ARC
8
DEFAULT_255_1_234
10
13.2442315
20
62.6377585
40
0.4666519
50
250.7884749
51
270.6489167
0
ARC
8
DEFAULT_255_1_234
10
13.227415
20
62.5740319
40
0.4009729
50
219.3627325
51
250.0611886
0
ARC
8
DEFAULT_255_1_234
10
13.3103361
20
62.6445042
40
0.5097822
50
193.5479632
51
219.5756669
0
ARC
8
DEFAULT_255_1_234
10
13.5474982
20
62.7060919
40
0.7547848
50
181.1218675
51
193.87563
0
ARC
8
DEFAULT_255_1_234
10
13.7545163
20
62.717158
40
0.9620055
50
179.9918545
51
181.5394234
0
ARC
8
DEFAULT_255_1_234
10
13.5694265
20
62.8334788
40
0.7769248
50
169.5837241
51
180.2757934
0
ARC
8
DEFAULT_255_1_234
10
13.3857203
20
62.8674229
40
0.590109
50
155.0365899
51
169.6003176
0
ARC
8
DEFAULT_255_1_234
10
13.2721667
20
62.9221677
40
0.4640625
50
136.783148
51
155.2472683
0
ARC
8
DEFAULT_255_1_234
10
13.2332144
20
62.9552562
40
0.4130255
50
121.7633186
51
136.428115
0
ARC
8
DEFAULT_255_1_234
10
13.2467106
20
62.9303227
40
0.4413323
50
95.6459699
51
121.5490577
0
ARC
8
DEFAULT_255_1_234
10
13.2624388
20
62.8194949
40
0.55319
50
89.924208
51
96.1377933
0
ARC
8
DEFAULT_255_1_234
10
13.2674821
20
62.8313542
40
0.5413475
50
76.6779277
51
90.4563316
0
ARC
8
DEFAULT_255_1_234
10
13.3068444
20
62.9904114
40
0.3775041
50
47.485847
51
76.9287264
0
ARC
8
DEFAULT_255_1_234
10
13.2921417
20
62.9804159
40
0.3948286
50
16.5424086
51
46.8933463
0
ARC
8
DEFAULT_255_1_234
10
13.1313574
20
62.9275861
40
0.564021
50
5.4072051
51
17.0365086
0
ARC
8
DEFAULT_255_1_234
10
12.9874591
20
62.9044679
40
0.5556559
50
7.8891745
51
15.9239216
0
ARC
8
DEFAULT_255_1_234
10
13.1861605
20
62.9621631
40
0.3487515
50
15.7653144
51
27.9410532
0
ARC
8
DEFAULT_255_1_234
10
13.2965822
20
63.021279
40
0.2235026
50
27.8166557
51
46.4008329
0
ARC
8
DEFAULT_255_1_234
10
13.3015465
20
63.0207082
40
0.2205286
50
47.4371857
51
75.0698205
0
ARC
8
DEFAULT_255_1_234
10
13.270686
20
62.9132765
40
0.3322915
50
74.7008593
51
87.8124495
0
ARC
8
DEFAULT_255_1_234
10
13.2633547
20
62.8076844
40
0.4380987
50
87.3814673
51
90.0240855
0
ARC
8
DEFAULT_255_1_234
10
13.2595091
20
62.9254291
40
0.3203749
50
89.3451631
51
108.5745436
0
ARC
8
DEFAULT_255_1_234
10
13.2458196
20
62.9767908
40
0.2673494
50
109.2998449
51
143.3037509
0
ARC
8
DEFAULT_255_1_234
10
13.3220268
20
62.9181881
40
0.3634757
50
143.0753173
51
163.1916937
0
ARC
8
DEFAULT_255_1_234
10
13.5171996
20
62.8565967
40
0.5681262
50
162.9373603
51
174.6208611
0
ARC
8
DEFAULT_255_1_234
10
13.7798038
20
62.827801
40
0.8322832
50
174.3419979
51
180.1430411
0
ARC
8
DEFAULT_255_1_234
10
13.6867194
20
62.7083698
40
0.7392076
50
179.6817502
51
189.150529
0
ARC
8
DEFAULT_255_1_234
10
13.4366443
20
62.666719
40
0.4856932
50
188.9910863
51
203.5773039
0
ARC
8
DEFAULT_255_1_234
10
13.3286775
20
62.6219211
40
0.3688271
50
203.9077269
51
215.1312379
0
ARC
8
DEFAULT_255_1_234
10
13.2363869
20
62.5503941
40
0.2522457
50
213.9071664
51
263.8849284
0
ARC
8
DEFAULT_255_1_234
10
13.2489198
20
62.6288518
40
0.3316174
50
263.1758525
51
270.1031083
0
ARC
8
DEFAULT_255_1_234
10
13.252129
20
62.7535365
40
0.4563091
50
269.6719807
51
279.0609165
0
ARC
8
DEFAULT_255_1_234
10
13.2788058
20
62.5922907
40
0.2928759
50
278.8750225
51
293.6346586
0
ARC
8
DEFAULT_255_1_234
10
13.3108266
20
62.51709
40
0.2111472
50
293.8553404
51
310.0518804
0
ARC
8
DEFAULT_255_1_234
10
13.311312
20
62.5108516
40
0.2060917
50
311.0646779
51
332.0108348
0
ARC
8
DEFAULT_255_1_234
10
13.1920847
20
62.5765978
40
0.3422352
50
331.6588543
51
343.2878891
0
ARC
8
DEFAULT_255_1_234
10
12.9858362
20
62.6399798
40
0.5580003
50
343.1446044
51
351.010618
0
ARC
8
DEFAULT_255_1_234
10
12.8317008
20
62.6680871
40
0.7146438
50
350.7157277
51
351.1602153
0
LINE
8
DEFAULT_255_1_234
10
14.9715213
20
62.8538343
11
14.9715213
21
62.727736
0
LINE
8
DEFAULT_255_1_234
10
14.9715213
20
62.727736
11
14.4647186
21
62.727736
0
LINE
8
DEFAULT_255_1_234
10
14.4647186
20
62.727736
11
14.4647186
21
62.3132983
0
LINE
8
DEFAULT_255_1_234
10
14.4647186
20
62.3132983
11
15.053445
21
62.3132983
0
LINE
8
DEFAULT_255_1_234
10
15.053445
20
62.3132983
11
15.053445
21
62.1872
0
LINE
8
DEFAULT_255_1_234
10
15.053445
20
62.1872
11
14.3105092
21
62.1872
0
LINE
8
DEFAULT_255_1_234
10
14.3105092
20
62.1872
11
14.3105092
21
63.3566211
0
LINE
8
DEFAULT_255_1_234
10
14.3105092
20
63.3566211
11
15.0454133
21
63.3566211
0
LINE
8
DEFAULT_255_1_234
10
15.0454133
20
63.3566211
11
15.0454133
21
63.2297196
0
LINE
8
DEFAULT_255_1_234
10
15.0454133
20
63.2297196
11
14.4647186
21
63.2297196
0
LINE
8
DEFAULT_255_1_234
10
14.4647186
20
63.2297196
11
14.4647186
21
62.8538343
0
LINE
8
DEFAULT_255_1_234
10
14.4647186
20
62.8538343
11
14.9715213
21
62.8538343
0
LINE
8
DEFAULT_255_1_234
10
16.0694599
20
63.3566211
11
16.0694599
21
63.2297196
0
LINE
8
DEFAULT_255_1_234
10
16.0694599
20
63.2297196
11
15.6935746
21
63.2297196
0
LINE
8
DEFAULT_255_1_234
10
15.6935746
20
63.2297196
11
15.6935746
21
62.1872
0
LINE
8
DEFAULT_255_1_234
10
15.6935746
20
62.1872
11
15.5401684
21
62.1872
0
LINE
8
DEFAULT_255_1_234
10
15.5401684
20
62.1872
11
15.5401684
21
63.2297196
0
LINE
8
DEFAULT_255_1_234
10
15.5401684
20
63.2297196
11
15.1650862
21
63.2297196
0
LINE
8
DEFAULT_255_1_234
10
15.1650862
20
63.2297196
11
15.1650862
21
63.3566211
0
LINE
8
DEFAULT_255_1_234
10
15.1650862
20
63.3566211
11
16.0694599
21
63.3566211
0
LINE
8
DEFAULT_255_1_234
10
16.9706209
20
62.3084792
11
16.9706209
21
62.1872
0
LINE
8
DEFAULT_255_1_234
10
16.9706209
20
62.1872
11
16.2043931
21
62.1872
0
LINE
8
DEFAULT_255_1_234
10
16.2043931
20
62.1872
11
16.2043931
21
62.2940221
0
LINE
8
DEFAULT_255_1_234
10
16.2043931
20
62.2940221
11
16.6091927
21
62.7437995
0
LINE
8
DEFAULT_255_1_234
10
16.3304914
20
63.0120595
11
16.1819042
21
63.0120595
0
LINE
8
DEFAULT_255_1_234
10
16.6967387
20
62.6482218
11
16.3835009
21
62.3084792
0
LINE
8
DEFAULT_255_1_234
10
16.3835009
20
62.3084792
11
16.9706209
21
62.3084792
0
ARC
8
DEFAULT_255_1_234
10
15.2601761
20
63.9367527
40
1.8008286
50
318.5132453
51
320.7828378
0
ARC
8
DEFAULT_255_1_234
10
15.7888735
20
63.5064426
40
1.1191493
50
320.7372736
51
323.9737074
0
ARC
8
DEFAULT_255_1_234
10
16.1808591
20
63.2224361
40
0.6350923
50
323.8961724
51
328.6421089
0
ARC
8
DEFAULT_255_1_234
10
16.3855187
20
63.0962031
40
0.3946393
50
328.8299013
51
331.789948
0
ARC
8
DEFAULT_255_1_234
10
16.4852365
20
63.0447509
40
0.2824501
50
331.4255242
51
352.9364833
0
ARC
8
DEFAULT_255_1_234
10
16.4988866
20
63.0416976
40
0.2685315
50
353.2248685
51
0.0169286
0
ARC
8
DEFAULT_255_1_234
10
16.5198743
20
63.043995
40
0.2475536
50
359.4866256
51
15.9339782
0
ARC
8
DEFAULT_255_1_234
10
16.5705728
20
63.0576286
40
0.1950618
50
16.1714718
51
43.5284424
0
ARC
8
DEFAULT_255_1_234
10
16.5783037
20
63.0653573
40
0.184134
50
43.4415429
51
83.1661404
0
ARC
8
DEFAULT_255_1_234
10
16.5648955
20
62.9916771
40
0.258926
50
82.160215
51
90.1505798
0
ARC
8
DEFAULT_255_1_234
10
16.5617382
20
62.9379865
40
0.3126255
50
89.5460705
51
102.5418777
0
ARC
8
DEFAULT_255_1_234
10
16.5374468
20
63.0410665
40
0.2067346
50
102.1739365
51
129.2061916
0
ARC
8
DEFAULT_255_1_234
10
16.529554
20
63.0535094
40
0.1921118
50
129.7279328
51
135.7542026
0
ARC
8
DEFAULT_255_1_234
10
16.5417068
20
63.0438045
40
0.2075944
50
136.175737
51
166.3674722
0
ARC
8
DEFAULT_255_1_234
10
16.6423987
20
63.0168182
40
0.3118201
50
165.9092917
51
178.8683903
0
ARC
8
DEFAULT_255_1_234
10
16.7288848
20
63.0121179
40
0.3983935
50
178.438168
51
180.0083905
0
ARC
8
DEFAULT_255_1_234
10
16.588745
20
63.0160231
40
0.4068601
50
163.2878735
51
180.5581814
0
ARC
8
DEFAULT_255_1_234
10
16.5085712
20
63.038084
40
0.3237344
50
133.454115
51
162.9470031
0
ARC
8
DEFAULT_255_1_234
10
16.5264253
20
63.0191
40
0.349795
50
100.7869394
51
133.4384016
0
ARC
8
DEFAULT_255_1_234
10
16.5612024
20
62.8642319
40
0.5084616
50
89.6605301
51
101.3704185
0
ARC
8
DEFAULT_255_1_234
10
16.5678363
20
62.8703496
40
0.502348
50
78.2171172
51
90.4130393
0
ARC
8
DEFAULT_255_1_234
10
16.6033442
20
63.0327637
40
0.3361092
50
55.9268222
51
78.4888551
0
ARC
8
DEFAULT_255_1_234
10
16.6229882
20
63.0666324
40
0.2970617
50
47.9292255
51
55.4054003
0
ARC
8
DEFAULT_255_1_234
10
16.6331442
20
63.0769502
40
0.2825983
50
4.3347696
51
48.0560701
0
ARC
8
DEFAULT_255_1_234
10
16.5235836
20
63.0599601
40
0.393225
50
359.925209
51
5.5967654
0
ARC
8
DEFAULT_255_1_234
10
16.5664728
20
63.0655816
40
0.3503892
50
337.8914096
51
358.9967724
0
ARC
8
DEFAULT_255_1_234
10
16.295114
20
63.1702706
40
0.6412172
50
326.9135351
51
338.3505194
0
ARC
8
DEFAULT_255_1_234
10
15.8965444
20
63.4257284
40
1.1146189
50
319.6472867
51
327.095818
0
ARC
8
DEFAULT_255_1_234
10
15.5132447
20
63.7419
40
1.6114559
50
317.2586784
51
319.9046139
0
LINE
8
DEFAULT_255_1_234
10
17.8613407
20
62.8787327
11
17.8613407
21
62.6859709
0
LINE
8
DEFAULT_255_1_234
10
17.123224
20
62.6658916
11
17.123224
21
62.8642755
0
LINE
8
DEFAULT_255_1_234
10
17.7127536
20
62.6458123
11
17.7127536
21
62.8891739
0
LINE
8
DEFAULT_255_1_234
10
17.2718111
20
62.9004184
11
17.2718111
21
62.6626789
0
ARC
8
DEFAULT_255_1_234
10
16.6366297
20
62.6810805
40
1.2247208
50
353.8441951
51
0.2287902
0
ARC
8
DEFAULT_255_1_234
10
17.10058
20
62.6292806
40
0.7578929
50
344.4934747
51
353.9765454
0
ARC
8
DEFAULT_255_1_234
10
17.3998391
20
62.5441981
40
0.4467846
50
329.2803592
51
344.7472793
0
ARC
8
DEFAULT_255_1_234
10
17.4991216
20
62.4897018
40
0.3336173
50
324.9352394
51
328.6160465
0
ARC
8
DEFAULT_255_1_234
10
17.5368324
20
62.4633427
40
0.2876076
50
280.580143
51
324.9173126
0
ARC
8
DEFAULT_255_1_234
10
17.4967117
20
62.6304099
40
0.4592847
50
269.5977311
51
281.6734359
0
ARC
8
DEFAULT_255_1_234
10
17.4895022
20
62.6184173
40
0.4472986
50
256.6228859
51
270.51044
0
ARC
8
DEFAULT_255_1_234
10
17.4493
20
62.4635877
40
0.2873874
50
215.8618325
51
257.2788573
0
ARC
8
DEFAULT_255_1_234
10
17.5514032
20
62.5320977
40
0.4102928
50
197.9693508
51
215.2623606
0
ARC
8
DEFAULT_255_1_234
10
17.7999147
20
62.6159709
40
0.6725652
50
187.8816417
51
198.2346507
0
ARC
8
DEFAULT_255_1_234
10
18.1957356
20
62.6731079
40
1.0724845
50
180.8976217
51
188.0055519
0
ARC
8
DEFAULT_255_1_234
10
18.4757544
20
62.6834777
40
1.3526448
50
180.7449369
51
181.1510016
0
ARC
8
DEFAULT_255_1_234
10
18.3180273
20
62.8691042
40
1.1948131
50
173.7675579
51
180.231553
0
ARC
8
DEFAULT_255_1_234
10
17.866242
20
62.9201666
40
0.7401564
50
164.3058563
51
173.9002247
0
ARC
8
DEFAULT_255_1_234
10
17.5750488
20
63.0040656
40
0.4371288
50
148.7922025
51
164.568378
0
ARC
8
DEFAULT_255_1_234
10
17.4798941
20
63.0571929
40
0.3282386
50
144.5883898
51
148.1176286
0
ARC
8
DEFAULT_255_1_234
10
17.4455838
20
63.0811315
40
0.2864044
50
101.6440918
51
144.514236
0
ARC
8
DEFAULT_255_1_234
10
17.4880905
20
62.9122069
40
0.4604934
50
89.5284041
51
102.5819763
0
ARC
8
DEFAULT_255_1_234
10
17.4959993
20
62.9083018
40
0.464401
50
77.0437873
51
90.5081339
0
ARC
8
DEFAULT_255_1_234
10
17.5361995
20
63.0725615
40
0.2953195
50
48.2778575
51
77.4994676
0
ARC
8
DEFAULT_255_1_234
10
17.5434626
20
63.0854746
40
0.2808655
50
36.3142134
51
47.6305865
0
ARC
8
DEFAULT_255_1_234
10
17.4565933
20
63.0269515
40
0.3855453
50
18.2931786
51
35.6769206
0
ARC
8
DEFAULT_255_1_234
10
17.2022692
20
62.9396593
40
0.654423
50
8.024666
51
18.5605216
0
ARC
8
DEFAULT_255_1_234
10
16.7859612
20
62.8781792
40
1.0752407
50
1.1274072
51
8.1718305
0
ARC
8
DEFAULT_255_1_234
10
16.4623802
20
62.8654885
40
1.3990231
50
0.5424119
51
1.3863029
0
ARC
8
DEFAULT_255_1_234
10
16.644518
20
62.8927342
40
1.0682415
50
359.8090433
51
4.9407866
0
ARC
8
DEFAULT_255_1_234
10
17.0655194
20
62.9303113
40
0.6455691
50
4.8362157
51
12.2904523
0
ARC
8
DEFAULT_255_1_234
10
17.3410309
20
62.9916965
40
0.3633074
50
12.0805627
51
23.8173984
0
ARC
8
DEFAULT_255_1_234
10
17.4584014
20
63.0413919
40
0.2358723
50
24.2871213
51
31.3935614
0
ARC
8
DEFAULT_255_1_234
10
17.5108712
20
63.0757233
40
0.1732111
50
30.7407893
51
82.4657128
0
ARC
8
DEFAULT_255_1_234
10
17.4928846
20
62.9873691
40
0.263235
50
81.1060089
51
90.2184952
0
ARC
8
DEFAULT_255_1_234
10
17.4893145
20
63.0131924
40
0.2374236
50
89.3806855
51
105.6762551
0
ARC
8
DEFAULT_255_1_234
10
17.4709775
20
63.0798567
40
0.1682847
50
105.7981136
51
149.7388061
0
ARC
8
DEFAULT_255_1_234
10
17.5773854
20
63.015895
40
0.2924306
50
149.4208916
51
163.6286378
0
ARC
8
DEFAULT_255_1_234
10
17.7864742
20
62.952125
40
0.5110213
50
163.3763315
51
172.1410975
0
ARC
8
DEFAULT_255_1_234
10
18.1165461
20
62.9048518
40
0.8444586
50
172.0259487
51
178.0703232
0
ARC
8
DEFAULT_255_1_234
10
18.419555
20
62.8904906
40
1.1477868
50
177.8631668
51
179.5044149
0
ARC
8
DEFAULT_255_1_234
10
18.3122955
20
62.6590389
40
1.0404907
50
179.7995573
51
185.2460446
0
ARC
8
DEFAULT_255_1_234
10
17.9079994
20
62.6207513
40
0.6343885
50
185.1411642
51
193.0079639
0
ARC
8
DEFAULT_255_1_234
10
17.6436467
20
62.5582641
40
0.3627568
50
192.7897626
51
205.2507664
0
ARC
8
DEFAULT_255_1_234
10
17.5390014
20
62.5115415
40
0.2481908
50
205.8005384
51
211.2537509
0
ARC
8
DEFAULT_255_1_234
10
17.4866454
20
62.476458
40
0.1852521
50
210.3789793
51
238.4008143
0
ARC
8
DEFAULT_255_1_234
10
17.4846976
20
62.4811376
40
0.1882621
50
239.6520629
51
265.9793761
0
ARC
8
DEFAULT_255_1_234
10
17.4932176
20
62.5483427
40
0.2559272
50
265.1315437
51
270.060332
0
ARC
8
DEFAULT_255_1_234
10
17.4960955
20
62.5159534
40
0.2235528
50
269.3314664
51
287.2178029
0
ARC
8
DEFAULT_255_1_234
10
17.5098807
20
62.4656279
40
0.1714108
50
287.7958004
51
329.080874
0
ARC
8
DEFAULT_255_1_234
10
17.4141264
20
62.525393
40
0.2842745
50
328.6634704
51
343.3325132
0
ARC
8
DEFAULT_255_1_234
10
17.1968284
20
62.5930863
40
0.5118644
50
343.0499468
51
351.9393422
0
ARC
8
DEFAULT_255_1_234
10
16.8501584
20
62.6441949
40
0.8622784
50
351.8069023
51
357.7959224
0
ARC
8
DEFAULT_255_1_234
10
16.526614
20
62.6609721
40
1.1862365
50
357.5871873
51
359.2677531
0
LINE
8
DEFAULT_255_1_234
10
18.7849906
20
62.8787327
11
18.7849906
21
62.6859709
0
LINE
8
DEFAULT_255_1_234
10
18.0468739
20
62.6658916
11
18.0468739
21
62.8642755
0
LINE
8
DEFAULT_255_1_234
10
18.6364035
20
62.6458123
11
18.6364035
21
62.8891739
0
LINE
8
DEFAULT_255_1_234
10
18.195461
20
62.9004184
11
18.195461
21
62.6626789
0
ARC
8
DEFAULT_255_1_234
10
17.5602796
20
62.6810805
40
1.2247208
50
353.8441951
51
0.2287902
0
ARC
8
DEFAULT_255_1_234
10
18.0242299
20
62.6292806
40
0.7578929
50
344.4934747
51
353.9765454
0
ARC
8
DEFAULT_255_1_234
10
18.323489
20
62.5441981
40
0.4467846
50
329.2803592
51
344.7472793
0
ARC
8
DEFAULT_255_1_234
10
18.4227715
20
62.4897018
40
0.3336173
50
324.9352394
51
328.6160465
0
ARC
8
DEFAULT_255_1_234
10
18.4604823
20
62.4633427
40
0.2876076
50
280.580143
51
324.9173126
0
ARC
8
DEFAULT_255_1_234
10
18.4203616
20
62.6304099
40
0.4592847
50
269.5977311
51
281.6734359
0
ARC
8
DEFAULT_255_1_234
10
18.4131521
20
62.6184173
40
0.4472986
50
256.6228859
51
270.51044
0
ARC
8
DEFAULT_255_1_234
10
18.3729499
20
62.4635877
40
0.2873874
50
215.8618325
51
257.2788573
0
ARC
8
DEFAULT_255_1_234
10
18.4750531
20
62.5320977
40
0.4102928
50
197.9693508
51
215.2623606
0
ARC
8
DEFAULT_255_1_234
10
18.7235647
20
62.6159709
40
0.6725652
50
187.8816417
51
198.2346507
0
ARC
8
DEFAULT_255_1_234
10
19.1193855
20
62.6731079
40
1.0724845
50
180.8976217
51
188.0055519
0
ARC
8
DEFAULT_255_1_234
10
19.3994043
20
62.6834777
40
1.3526448
50
180.7449369
51
181.1510016
0
ARC
8
DEFAULT_255_1_234
10
19.2416772
20
62.8691042
40
1.1948131
50
173.7675579
51
180.231553
0
ARC
8
DEFAULT_255_1_234
10
18.7898919
20
62.9201666
40
0.7401564
50
164.3058563
51
173.9002247
0
ARC
8
DEFAULT_255_1_234
10
18.4986987
20
63.0040656
40
0.4371288
50
148.7922025
51
164.568378
0
ARC
8
DEFAULT_255_1_234
10
18.403544
20
63.0571929
40
0.3282386
50
144.5883898
51
148.1176286
0
ARC
8
DEFAULT_255_1_234
10
18.3692337
20
63.0811315
40
0.2864044
50
101.6440918
51
144.514236
0
ARC
8
DEFAULT_255_1_234
10
18.4117404
20
62.9122069
40
0.4604934
50
89.5284041
51
102.5819763
0
ARC
8
DEFAULT_255_1_234
10
18.4196492
20
62.9083018
40
0.464401
50
77.0437873
51
90.5081339
0
ARC
8
DEFAULT_255_1_234
10
18.4598494
20
63.0725615
40
0.2953195
50
48.2778575
51
77.4994676
0
ARC
8
DEFAULT_255_1_234
10
18.4671125
20
63.0854746
40
0.2808655
50
36.3142134
51
47.6305865
0
ARC
8
DEFAULT_255_1_234
10
18.3802432
20
63.0269515
40
0.3855453
50
18.2931786
51
35.6769206
0
ARC
8
DEFAULT_255_1_234
10
18.1259191
20
62.9396593
40
0.654423
50
8.024666
51
18.5605216
0
ARC
8
DEFAULT_255_1_234
10
17.7096111
20
62.8781792
40
1.0752407
50
1.1274072
51
8.1718305
0
ARC
8
DEFAULT_255_1_234
10
17.3860301
20
62.8654885
40
1.3990231
50
0.5424119
51
1.3863029
0
ARC
8
DEFAULT_255_1_234
10
17.5681679
20
62.8927342
40
1.0682415
50
359.8090433
51
4.9407866
0
ARC
8
DEFAULT_255_1_234
10
17.9891693
20
62.9303113
40
0.6455691
50
4.8362157
51
12.2904523
0
ARC
8
DEFAULT_255_1_234
10
18.2646808
20
62.9916965
40
0.3633074
50
12.0805627
51
23.8173984
0
ARC
8
DEFAULT_255_1_234
10
18.3820513
20
63.0413919
40
0.2358723
50
24.2871213
51
31.3935614
0
ARC
8
DEFAULT_255_1_234
10
18.4345211
20
63.0757233
40
0.1732111
50
30.7407893
51
82.4657128
0
ARC
8
DEFAULT_255_1_234
10
18.4165345
20
62.9873691
40
0.263235
50
81.1060089
51
90.2184952
0
ARC
8
DEFAULT_255_1_234
10
18.4129644
20
63.0131924
40
0.2374236
50
89.3806855
51
105.6762551
0
ARC
8
DEFAULT_255_1_234
10
18.3946274
20
63.0798567
40
0.1682847
50
105.7981136
51
149.7388061
0
ARC
8
DEFAULT_255_1_234
10
18.5010353
20
63.015895
40
0.2924306
50
149.4208916
51
163.6286378
0
ARC
8
DEFAULT_255_1_234
10
18.7101241
20
62.952125
40
0.5110213
50
163.3763315
51
172.1410975
0
ARC
8
DEFAULT_255_1_234
10
19.040196
20
62.9048518
40
0.8444586
50
172.0259487
51
178.0703232
0
ARC
8
DEFAULT_255_1_234
10
19.3432049
20
62.8904906
40
1.1477868
50
177.8631668
51
179.5044149
0
ARC
8
DEFAULT_255_1_234
10
19.2359454
20
62.6590389
40
1.0404907
50
179.7995573
51
185.2460446
0
ARC
8
DEFAULT_255_1_234
10
18.8316493
20
62.6207513
40
0.6343885
50
185.1411642
51
193.0079639
0
ARC
8
DEFAULT_255_1_234
10
18.5672966
20
62.5582641
40
0.3627568
50
192.7897626
51
205.2507664
0
ARC
8
DEFAULT_255_1_234
10
18.4626513
20
62.5115415
40
0.2481908
50
205.8005384
51
211.2537509
0
ARC
8
DEFAULT_255_1_234
10
18.4102953
20
62.476458
40
0.1852521
50
210.3789793
51
238.4008143
0
ARC
8
DEFAULT_255_1_234
10
18.4083475
20
62.4811376
40
0.1882621
50
239.6520629
51
265.9793761
0
ARC
8
DEFAULT_255_1_234
10
18.4168675
20
62.5483427
40
0.2559272
50
265.1315437
51
270.060332
0
ARC
8
DEFAULT_255_1_234
10
18.4197454
20
62.5159534
40
0.2235528
50
269.3314664
51
287.2178029
0
ARC
8
DEFAULT_255_1_234
10
18.4335306
20
62.4656279
40
0.1714108
50
287.7958004
51
329.080874
0
ARC
8
DEFAULT_255_1_234
10
18.3377763
20
62.525393
40
0.2842745
50
328.6634704
51
343.3325132
0
ARC
8
DEFAULT_255_1_234
10
18.1204783
20
62.5930863
40
0.5118644
50
343.0499468
51
351.9393422
0
ARC
8
DEFAULT_255_1_234
10
17.7738083
20
62.6441949
40
0.8622784
50
351.8069023
51
357.7959224
0
ARC
8
DEFAULT_255_1_234
10
17.4502639
20
62.6609721
40
1.1862365
50
357.5871873
51
359.2677531
0
LINE
8
DEFAULT_255_1_234
10
19.7897611
20
63.0184849
11
19.6347485
21
63.0184849
0
LINE
8
DEFAULT_255_1_234
10
18.9424127
20
62.5261394
11
19.0974252
21
62.5261394
0
ARC
8
DEFAULT_255_1_234
10
19.7006298
20
63.9131768
40
1.252368
50
248.9199003
51
254.1439814
0
ARC
8
DEFAULT_255_1_234
10
19.5325793
20
63.4805234
40
0.788226
50
241.633709
51
249.0064503
0
ARC
8
DEFAULT_255_1_234
10
19.3797187
20
63.2004317
40
0.4691427
50
230.498225
51
241.8087113
0
ARC
8
DEFAULT_255_1_234
10
19.3012762
20
63.1004906
40
0.3421437
50
227.4064532
51
229.9881192
0
ARC
8
DEFAULT_255_1_234
10
19.2525282
20
63.0529088
40
0.2741476
50
200.6781896
51
228.1763934
0
ARC
8
DEFAULT_255_1_234
10
19.2597593
20
63.0514077
40
0.2804109
50
179.5061581
51
199.8694617
0
ARC
8
DEFAULT_255_1_234
10
19.2588345
20
63.058821
40
0.2795204
50
132.4834203
51
181.0242172
0
ARC
8
DEFAULT_255_1_234
10
19.3183927
20
63.0025704
40
0.3612768
50
129.2532479
51
133.4242687
0
ARC
8
DEFAULT_255_1_234
10
19.3330377
20
62.9805965
40
0.3875675
50
101.98776
51
128.8742646
0
ARC
8
DEFAULT_255_1_234
10
19.3728987
20
62.8084741
40
0.5642249
50
89.5906553
51
102.3169264
0
ARC
8
DEFAULT_255_1_234
10
19.3799479
20
62.8403148
40
0.5323783
50
77.2360837
51
90.3248275
0
ARC
8
DEFAULT_255_1_234
10
19.4006558
20
62.93704
40
0.4334697
50
63.837784
51
77.0809408
0
ARC
8
DEFAULT_255_1_234
10
19.428432
20
62.9887911
40
0.3747796
50
45.9864267
51
64.1607727
0
ARC
8
DEFAULT_255_1_234
10
19.4545201
20
63.0185866
40
0.3352302
50
32.2747395
51
45.6547121
0
ARC
8
DEFAULT_255_1_234
10
19.4611642
20
63.020488
40
0.328603
50
359.6507365
51
32.6130309
0
ARC
8
DEFAULT_255_1_234
10
19.3668737
20
63.020966
40
0.2678863
50
359.469343
51
14.9832209
0
ARC
8
DEFAULT_255_1_234
10
19.43738
20
63.0398539
40
0.1948938
50
14.9781179
51
48.2004265
0
ARC
8
DEFAULT_255_1_234
10
19.4209444
20
63.0191983
40
0.2212521
50
48.5927837
51
74.1241538
0
ARC
8
DEFAULT_255_1_234
10
19.3875934
20
62.9091248
40
0.3362561
50
73.7888341
51
86.6652678
0
ARC
8
DEFAULT_255_1_234
10
19.3773499
20
62.7883881
40
0.4573953
50
86.2640471
51
90.0526343
0
ARC
8
DEFAULT_255_1_234
10
19.3745212
20
62.8279192
40
0.4178709
50
89.6697524
51
99.2309573
0
ARC
8
DEFAULT_255_1_234
10
19.3502663
20
62.9723964
40
0.2713749
50
99.069534
51
113.7658566
0
ARC
8
DEFAULT_255_1_234
10
19.3228854
20
63.0369677
40
0.2012469
50
114.0401004
51
127.9850673
0
ARC
8
DEFAULT_255_1_234
10
19.2988418
20
63.066573
40
0.1631167
50
127.7287463
51
176.7105154
0
ARC
8
DEFAULT_255_1_234
10
19.3667135
20
63.0564693
40
0.2315392
50
175.1779447
51
180.0581938
0
ARC
8
DEFAULT_255_1_234
10
19.2823982
20
63.0552428
40
0.1472271
50
179.6142195
51
228.1246017
0
ARC
8
DEFAULT_255_1_234
10
19.3265651
20
63.0961308
40
0.2072299
50
226.5779593
51
230.8800004
0
ARC
8
DEFAULT_255_1_234
10
19.3736729
20
63.1586636
40
0.2854818
50
231.4635071
51
241.9260842
0
ARC
8
DEFAULT_255_1_234
10
19.4933907
20
63.37898
40
0.53622
50
241.7178533
51
248.3259551
0
ARC
8
DEFAULT_255_1_234
10
19.6319279
20
63.7222064
40
0.9063478
50
248.2007737
51
252.4528373
0
ARC
8
DEFAULT_255_1_234
10
19.7523004
20
64.0943441
40
1.2974635
50
252.3391078
51
254.3469452
0
ARC
8
DEFAULT_255_1_234
10
18.9980707
20
61.3966148
40
1.5037162
50
71.0197183
51
74.4087047
0
ARC
8
DEFAULT_255_1_234
10
19.1675392
20
61.8858111
40
0.9859993
50
66.1847285
51
71.086374
0
ARC
8
DEFAULT_255_1_234
10
19.3231704
20
62.23622
40
0.6025855
50
59.3536294
51
66.2691831
0
ARC
8
DEFAULT_255_1_234
10
19.4120357
20
62.3865609
40
0.4279449
50
49.1020879
51
59.3293958
0
ARC
8
DEFAULT_255_1_234
10
19.4939097
20
62.4798834
40
0.3038015
50
32.7919921
51
49.2505539
0
ARC
8
DEFAULT_255_1_234
10
19.5260186
20
62.5027191
40
0.264448
50
31.1181161
51
32.4005348
0
ARC
8
DEFAULT_255_1_234
10
19.5171724
20
62.4991779
40
0.2738556
50
8.1116974
51
30.7958831
0
ARC
8
DEFAULT_255_1_234
10
19.4361392
20
62.4853753
40
0.3560327
50
359.8389159
51
8.4706516
0
ARC
8
DEFAULT_255_1_234
10
19.4987184
20
62.4805137
40
0.2934776
50
337.4731098
51
0.7537279
0
ARC
8
DEFAULT_255_1_234
10
19.5165879
20
62.4785387
40
0.2762607
50
307.5917067
51
336.4315538
0
ARC
8
DEFAULT_255_1_234
10
19.4705707
20
62.5298102
40
0.3449979
50
307.6551545
51
308.4529766
0
ARC
8
DEFAULT_255_1_234
10
19.4475425
20
62.565325
40
0.3871988
50
284.3734338
51
307.1424381
0
ARC
8
DEFAULT_255_1_234
10
19.3980256
20
62.7474932
40
0.5759636
50
272.4382747
51
284.646547
0
ARC
8
DEFAULT_255_1_234
10
19.3853464
20
62.9274893
40
0.7563528
50
269.9708387
51
272.8178037
0
ARC
8
DEFAULT_255_1_234
10
19.3810504
20
62.7236716
40
0.5525489
50
248.2707594
51
270.4055579
0
ARC
8
DEFAULT_255_1_234
10
19.3756245
20
62.7046192
40
0.5328452
50
246.1383403
51
248.0542782
0
ARC
8
DEFAULT_255_1_234
10
19.3337624
20
62.6166843
40
0.4355005
50
233.1670131
51
246.4950969
0
ARC
8
DEFAULT_255_1_234
10
19.2783529
20
62.5418812
40
0.3424126
50
215.3403242
51
233.0843104
0
ARC
8
DEFAULT_255_1_234
10
19.251096
20
62.5220549
40
0.3087104
50
179.2419209
51
215.2648451
0
ARC
8
DEFAULT_255_1_234
10
19.3278554
20
62.5234666
40
0.2304457
50
179.335461
51
199.1045811
0
ARC
8
DEFAULT_255_1_234
10
19.2946231
20
62.5147766
40
0.1962176
50
199.8828939
51
232.7063202
0
ARC
8
DEFAULT_255_1_234
10
19.3418499
20
62.5741788
40
0.2720938
50
232.3738199
51
255.5136649
0
ARC
8
DEFAULT_255_1_234
10
19.3759366
20
62.6985835
40
0.4010747
50
255.2446292
51
267.5320849
0
ARC
8
DEFAULT_255_1_234
10
19.3846989
20
62.8218702
40
0.5246356
50
267.1557994
51
270.0286766
0
ARC
8
DEFAULT_255_1_234
10
19.3874761
20
62.777495
40
0.4802668
50
269.7000017
51
278.1660162
0
ARC
8
DEFAULT_255_1_234
10
19.4130766
20
62.6044515
40
0.3053425
50
278.0231263
51
290.625471
0
ARC
8
DEFAULT_255_1_234
10
19.4478453
20
62.5117025
40
0.206291
50
290.6619762
51
307.0370976
0
ARC
8
DEFAULT_255_1_234
10
19.4778842
20
62.4748504
40
0.1587906
50
306.3943566
51
355.3030547
0
ARC
8
DEFAULT_255_1_234
10
19.4266774
20
62.4825113
40
0.2104809
50
354.3660432
51
0.0698737
0
ARC
8
DEFAULT_255_1_234
10
19.4409119
20
62.4847617
40
0.1962563
50
359.417946
51
16.1971788
0
ARC
8
DEFAULT_255_1_234
10
19.4864429
20
62.4972418
40
0.149053
50
16.4723299
51
52.6262157
0
ARC
8
DEFAULT_255_1_234
10
19.4043483
20
62.3888433
40
0.2850296
50
52.7386432
51
62.4979148
0
ARC
8
DEFAULT_255_1_234
10
19.265856
20
62.1282283
40
0.5801521
50
62.2515216
51
68.1220564
0
ARC
8
DEFAULT_255_1_234
10
19.0938471
20
61.7054872
40
1.0365451
50
68.0062803
51
71.8053402
0
ARC
8
DEFAULT_255_1_234
10
18.9142843
20
61.1669758
40
1.6042013
50
71.7183119
51
73.9258742
0
LINE
8
DEFAULT_255_1_234
10
20.4194494
20
62.6450091
11
20.1439607
21
62.6450091
0
LINE
8
DEFAULT_255_1_234
10
20.1439607
20
62.6450091
11
20.1439607
21
62.1872
0
LINE
8
DEFAULT_255_1_234
10
20.1439607
20
62.1872
11
19.9897514
21
62.1872
0
LINE
8
DEFAULT_255_1_234
10
19.9897514
20
62.1872
11
19.9897514
21
63.3566211
0
LINE
8
DEFAULT_255_1_234
10
19.9897514
20
63.3566211
11
20.4210557
21
63.3566211
0
LINE
8
DEFAULT_255_1_234
10
20.1439607
20
63.2297196
11
20.1439607
21
62.7711074
0
LINE
8
DEFAULT_255_1_234
10
20.1439607
20
62.7711074
11
20.4210557
21
62.7711074
0
LINE
8
DEFAULT_255_1_234
10
20.4298906
20
63.2297196
11
20.1439607
21
63.2297196
0
ARC
8
DEFAULT_255_1_234
10
20.4252684
20
62.7507195
40
0.6059162
50
78.8378113
51
90.3983573
0
ARC
8
DEFAULT_255_1_234
10
20.4668697
20
62.9527879
40
0.3996205
50
58.9632738
51
79.0810598
0
ARC
8
DEFAULT_255_1_234
10
20.497024
20
63.0087721
40
0.3361177
50
48.0197965
51
58.447194
0
ARC
8
DEFAULT_255_1_234
10
20.5059101
20
63.0173225
40
0.3238191
50
3.3375044
51
48.1766626
0
ARC
8
DEFAULT_255_1_234
10
20.382894
20
62.9996171
40
0.4477806
50
359.9477528
51
4.6829065
0
ARC
8
DEFAULT_255_1_234
10
20.3952257
20
62.9953628
40
0.4354656
50
346.1877825
51
0.5060252
0
ARC
8
DEFAULT_255_1_234
10
20.5311125
20
62.9600731
40
0.295089
50
310.8831995
51
346.5426355
0
ARC
8
DEFAULT_255_1_234
10
20.5002545
20
63.0017695
40
0.3468331
50
286.6925341
51
310.2288297
0
ARC
8
DEFAULT_255_1_234
10
20.4433375
20
63.1807882
40
0.5346654
50
274.6850312
51
287.0245141
0
ARC
8
DEFAULT_255_1_234
10
20.4208099
20
63.4016932
40
0.7566852
50
269.8969846
51
275.018904
0
ARC
8
DEFAULT_255_1_234
10
20.423569
20
63.1937707
40
0.4226708
50
269.6593078
51
279.4153575
0
ARC
8
DEFAULT_255_1_234
10
20.4492965
20
63.0447133
40
0.2714146
50
279.2049762
51
294.9900808
0
ARC
8
DEFAULT_255_1_234
10
20.4783291
20
62.9799508
40
0.2004525
50
295.2888114
51
311.2911209
0
ARC
8
DEFAULT_255_1_234
10
20.4854185
20
62.969422
40
0.1878703
50
311.7854996
51
347.2861051
0
ARC
8
DEFAULT_255_1_234
10
20.3870344
20
62.9947092
40
0.2894234
50
346.6893224
51
0.1059443
0
ARC
8
DEFAULT_255_1_234
10
20.3115239
20
62.9975685
40
0.3649409
50
359.6350983
51
0.0053152
0
ARC
8
DEFAULT_255_1_234
10
20.4085567
20
63.0000937
40
0.2679199
50
359.4672059
51
15.5933957
0
ARC
8
DEFAULT_255_1_234
10
20.4710456
20
63.0169779
40
0.2031932
50
15.7442113
51
46.6203375
0
ARC
8
DEFAULT_255_1_234
10
20.4562676
20
62.9999484
40
0.2257226
50
46.8628658
51
75.6676503
0
ARC
8
DEFAULT_255_1_234
10
20.4268497
20
62.8940718
40
0.3355939
50
75.276167
51
88.2915297
0
ARC
8
DEFAULT_255_1_234
10
20.4210204
20
62.8062524
40
0.4235602
50
87.8575022
51
88.8000139
0
LINE
8
DEFAULT_255_2_778
10
10.7156501
20
60.7218499
11
18.6531501
21
60.7218499
0
LINE
8
DEFAULT_255_2_778
10
18.6531501
20
60.7218499
11
18.6531501
21
52.7843499
0
LINE
8
DEFAULT_255_2_778
10
18.6531501
20
52.7843499
11
10.7156501
21
52.7843499
0
LINE
8
DEFAULT_255_2_778
10
10.7156501
20
52.7843499
11
10.7156501
21
60.7218499
0
LINE
8
DEFAULT_255_2_778
10
10.7156501
20
52.7843499
11
18.6531501
21
60.7218499
0
ARC
8
DEFAULT_255_2_778
10
14.1071114
20
57.8379807
40
2.9032284
50
151.5042733
51
153.4806603
0
ARC
8
DEFAULT_255_2_778
10
13.4582806
20
58.1908763
40
2.1646375
50
149.0139962
51
151.519903
0
ARC
8
DEFAULT_255_2_778
10
12.9467115
20
58.4986368
40
1.567629
50
145.9162939
51
149.0311909
0
ARC
8
DEFAULT_255_2_778
10
12.5619818
20
58.7596335
40
1.1027247
50
141.9200062
51
145.9453242
0
ARC
8
DEFAULT_255_2_778
10
12.281474
20
58.9803211
40
0.7458118
50
136.484805
51
141.9744057
0
ARC
8
DEFAULT_255_2_778
10
12.091706
20
59.1614808
40
0.4834572
50
128.8638593
51
136.5691139
0
ARC
8
DEFAULT_255_2_778
10
11.9797184
20
59.3015418
40
0.304132
50
117.7110364
51
128.9931649
0
ARC
8
DEFAULT_255_2_778
10
11.928338
20
59.4011194
40
0.1920847
50
98.9021051
51
117.9549066
0
ARC
8
DEFAULT_255_2_778
10
11.9212758
20
59.436391
40
0.1561525
50
90.0344408
51
98.3447638
0
ARC
8
DEFAULT_255_2_778
10
11.9160634
20
59.4102238
40
0.1823916
50
50.7117937
51
88.3918664
0
ARC
8
DEFAULT_255_2_778
10
11.7831308
20
59.2318057
40
0.4047836
50
38.9451112
51
52.1404787
0
ARC
8
DEFAULT_255_2_778
10
11.430408
20
58.9423907
40
0.8610391
50
31.5376489
51
39.1699631
0
ARC
8
DEFAULT_255_2_778
10
10.4861496
20
58.3586547
40
1.9711589
50
27.5029892
51
31.6426884
0
ARC
8
DEFAULT_255_2_778
10
5.9859457
20
56.0044708
40
7.0499372
50
26.3566909
51
27.5839254
0
ARC
8
DEFAULT_255_2_778
10
16.3878515
20
61.1332746
40
4.5476932
50
206.0760745
51
208.8893742
0
ARC
8
DEFAULT_255_2_778
10
13.5296207
20
59.5606384
40
1.2853914
50
209.0650167
51
214.9193276
0
ARC
8
DEFAULT_255_2_778
10
12.9617008
20
59.1628421
40
0.5920141
50
214.8141771
51
224.5237395
0
ARC
8
DEFAULT_255_2_778
10
12.7405911
20
58.9422149
40
0.279676
50
224.0617241
51
242.8344517
0
ARC
8
DEFAULT_255_2_778
10
12.6861767
20
58.839033
40
0.1630376
50
243.2923391
51
269.5752511
0
ARC
8
DEFAULT_255_2_778
10
12.6832992
20
58.8480104
40
0.1720185
50
270.5559033
51
293.8685481
0
ARC
8
DEFAULT_255_2_778
10
12.6460708
20
58.9352881
40
0.2668991
50
293.5955797
51
306.345121
0
ARC
8
DEFAULT_255_2_778
10
12.553147
20
59.0634986
40
0.4252403
50
306.1919045
51
314.6688826
0
ARC
8
DEFAULT_255_2_778
10
12.3908409
20
59.2293992
40
0.6573295
50
314.5642472
51
320.4128675
0
ARC
8
DEFAULT_255_2_778
10
12.1425104
20
59.4357069
40
0.980177
50
320.3694038
51
324.845255
0
ARC
8
DEFAULT_255_2_778
10
11.7897394
20
59.6853469
40
1.4123423
50
324.8053061
51
328.1530642
0
ARC
8
DEFAULT_255_2_778
10
11.3247883
20
59.9750419
40
1.9601584
50
328.1310763
51
330.7610809
0
ARC
8
DEFAULT_255_2_778
10
10.731881
20
60.3077279
40
2.640025
50
330.7460722
51
332.8554872
0
ARC
8
DEFAULT_255_2_778
10
10.2484419
20
60.558294
40
3.1845357
50
332.812199
51
333.437874
0
LINE
8
DEFAULT_255_2_778
10
16.27185
20
54.6894
11
17.85935
21
54.6894
0
LINE
8
DEFAULT_255_2_778
10
16.27185
20
54.0544
11
16.58935
21
54.0544
0
LINE
8
DEFAULT_255_2_778
10
16.90685
20
54.0544
11
17.22435
21
54.0544
0
LINE
8
DEFAULT_255_2_778
10
17.54185
20
54.0544
11
17.85935
21
54.0544
0
LINE
8
DEFAULT_255_1_234
10
4.2142489
20
61.3723211
11
4.2142489
21
60.3289983
0
LINE
8
DEFAULT_255_1_234
10
4.2142489
20
60.3289983
11
4.7684389
21
60.3289983
0
LINE
8
DEFAULT_255_1_234
10
4.7684389
20
60.3289983
11
4.7684389
21
60.2029
0
LINE
8
DEFAULT_255_1_234
10
4.7684389
20
60.2029
11
4.0592364
21
60.2029
0
LINE
8
DEFAULT_255_1_234
10
4.0592364
20
60.2029
11
4.0592364
21
61.3723211
0
LINE
8
DEFAULT_255_1_234
10
4.0592364
20
61.3723211
11
4.2142489
21
61.3723211
0
LINE
8
DEFAULT_255_1_234
10
4.6346344
20
44.7857091
11
4.3591458
21
44.7857091
0
LINE
8
DEFAULT_255_1_234
10
4.3591458
20
44.7857091
11
4.3591458
21
44.3279
0
LINE
8
DEFAULT_255_1_234
10
4.3591458
20
44.3279
11
4.2049364
21
44.3279
0
LINE
8
DEFAULT_255_1_234
10
4.2049364
20
44.3279
11
4.2049364
21
45.4973211
0
LINE
8
DEFAULT_255_1_234
10
4.2049364
20
45.4973211
11
4.6362407
21
45.4973211
0
LINE
8
DEFAULT_255_1_234
10
4.3591458
20
45.3704196
11
4.3591458
21
44.9118074
0
LINE
8
DEFAULT_255_1_234
10
4.3591458
20
44.9118074
11
4.6362407
21
44.9118074
0
LINE
8
DEFAULT_255_1_234
10
4.6450756
20
45.3704196
11
4.3591458
21
45.3704196
0
ARC
8
DEFAULT_255_1_234
10
4.6404534
20
44.8914195
40
0.6059162
50
78.8378113
51
90.3983573
0
ARC
8
DEFAULT_255_1_234
10
4.6820548
20
45.0934879
40
0.3996205
50
58.9632738
51
79.0810598
0
ARC
8
DEFAULT_255_1_234
10
4.712209
20
45.1494721
40
0.3361177
50
48.0197965
51
58.447194
0
ARC
8
DEFAULT_255_1_234
10
4.7210951
20
45.1580225
40
0.3238191
50
3.3375044
51
48.1766626
0
ARC
8
DEFAULT_255_1_234
10
4.598079
20
45.1403171
40
0.4477806
50
359.9477528
51
4.6829065
0
ARC
8
DEFAULT_255_1_234
10
4.6104107
20
45.1360628
40
0.4354656
50
346.1877825
51
0.5060252
0
ARC
8
DEFAULT_255_1_234
10
4.7462975
20
45.1007731
40
0.295089
50
310.8831995
51
346.5426355
0
ARC
8
DEFAULT_255_1_234
10
4.7154395
20
45.1424695
40
0.3468331
50
286.6925341
51
310.2288297
0
ARC
8
DEFAULT_255_1_234
10
4.6585226
20
45.3214882
40
0.5346654
50
274.6850312
51
287.0245141
0
ARC
8
DEFAULT_255_1_234
10
4.6359949
20
45.5423932
40
0.7566852
50
269.8969846
51
275.018904
0
ARC
8
DEFAULT_255_1_234
10
4.638754
20
45.3344707
40
0.4226708
50
269.6593078
51
279.4153575
0
ARC
8
DEFAULT_255_1_234
10
4.6644815
20
45.1854133
40
0.2714146
50
279.2049762
51
294.9900808
0
ARC
8
DEFAULT_255_1_234
10
4.6935141
20
45.1206508
40
0.2004525
50
295.2888114
51
311.2911209
0
ARC
8
DEFAULT_255_1_234
10
4.7006035
20
45.110122
40
0.1878703
50
311.7854996
51
347.2861051
0
ARC
8
DEFAULT_255_1_234
10
4.6022194
20
45.1354092
40
0.2894234
50
346.6893224
51
0.1059443
0
ARC
8
DEFAULT_255_1_234
10
4.5267089
20
45.1382685
40
0.3649409
50
359.6350983
51
0.0053152
0
ARC
8
DEFAULT_255_1_234
10
4.6237417
20
45.1407937
40
0.2679199
50
359.4672059
51
15.5933957
0
ARC
8
DEFAULT_255_1_234
10
4.6862306
20
45.1576779
40
0.2031932
50
15.7442113
51
46.6203375
0
ARC
8
DEFAULT_255_1_234
10
4.6714527
20
45.1406484
40
0.2257226
50
46.8628658
51
75.6676503
0
ARC
8
DEFAULT_255_1_234
10
4.6420347
20
45.0347718
40
0.3355939
50
75.276167
51
88.2915297
0
ARC
8
DEFAULT_255_1_234
10
4.6362054
20
44.9469524
40
0.4235602
50
87.8575022
51
88.8000139
0
LINE
8
DEFAULT_255_1_234
10
5.903649
20
44.9945343
11
5.903649
21
44.868436
0
LINE
8
DEFAULT_255_1_234
10
5.903649
20
44.868436
11
5.3968463
21
44.868436
0
LINE
8
DEFAULT_255_1_234
10
5.3968463
20
44.868436
11
5.3968463
21
44.4539983
0
LINE
8
DEFAULT_255_1_234
10
5.3968463
20
44.4539983
11
5.9855728
21
44.4539983
0
LINE
8
DEFAULT_255_1_234
10
5.9855728
20
44.4539983
11
5.9855728
21
44.3279
0
LINE
8
DEFAULT_255_1_234
10
5.9855728
20
44.3279
11
5.242637
21
44.3279
0
LINE
8
DEFAULT_255_1_234
10
5.242637
20
44.3279
11
5.242637
21
45.4973211
0
LINE
8
DEFAULT_255_1_234
10
5.242637
20
45.4973211
11
5.977541
21
45.4973211
0
LINE
8
DEFAULT_255_1_234
10
5.977541
20
45.4973211
11
5.977541
21
45.3704196
0
LINE
8
DEFAULT_255_1_234
10
5.977541
20
45.3704196
11
5.3968463
21
45.3704196
0
LINE
8
DEFAULT_255_1_234
10
5.3968463
20
45.3704196
11
5.3968463
21
44.9945343
0
LINE
8
DEFAULT_255_1_234
10
5.3968463
20
44.9945343
11
5.903649
21
44.9945343
0
LINE
8
DEFAULT_255_1_234
10
5.0031879
20
53.4348211
11
5.0031879
21
52.2654
0
LINE
8
DEFAULT_255_1_234
10
5.0031879
20
52.2654
11
4.8481753
21
52.2654
0
LINE
8
DEFAULT_255_1_234
10
4.8481753
20
52.2654
11
4.2594489
21
53.166561
0
LINE
8
DEFAULT_255_1_234
10
4.2594489
20
53.166561
11
4.2594489
21
52.2654
0
LINE
8
DEFAULT_255_1_234
10
4.2594489
20
52.2654
11
4.1044364
21
52.2654
0
LINE
8
DEFAULT_255_1_234
10
4.1044364
20
52.2654
11
4.1044364
21
53.4348211
0
LINE
8
DEFAULT_255_1_234
10
4.1044364
20
53.4348211
11
4.2594489
21
53.4348211
0
LINE
8
DEFAULT_255_1_234
10
4.2594489
20
53.4348211
11
4.8497817
21
52.5296442
0
LINE
8
DEFAULT_255_1_234
10
4.8497817
20
52.5296442
11
4.8497817
21
53.4348211
0
LINE
8
DEFAULT_255_1_234
10
4.8497817
20
53.4348211
11
5.0031879
21
53.4348211
0
LINE
8
DEFAULT_255_1_234
10
5.7268475
20
53.4404433
11
5.7268475
21
52.2654
0
LINE
8
DEFAULT_255_1_234
10
5.7268475
20
52.2654
11
5.5774572
21
52.2654
0
LINE
8
DEFAULT_255_1_234
10
5.5774572
20
52.2654
11
5.5774572
21
53.2557133
0
LINE
8
DEFAULT_255_1_234
10
5.5774572
20
53.2557133
11
5.2778733
21
53.1456785
0
LINE
8
DEFAULT_255_1_234
10
5.2778733
20
53.1456785
11
5.2778733
21
53.2806117
0
LINE
8
DEFAULT_255_1_234
10
5.2778733
20
53.2806117
11
5.7035555
21
53.4404433
0
LINE
8
DEFAULT_255_1_234
10
5.7035555
20
53.4404433
11
5.7268475
21
53.4404433
0
LINE
8
DEFAULT_255_1_234
10
22.8274489
20
61.3723211
11
22.8274489
21
60.3289983
0
LINE
8
DEFAULT_255_1_234
10
22.8274489
20
60.3289983
11
23.3816389
21
60.3289983
0
LINE
8
DEFAULT_255_1_234
10
23.3816389
20
60.3289983
11
23.3816389
21
60.2029
0
LINE
8
DEFAULT_255_1_234
10
23.3816389
20
60.2029
11
22.6724364
21
60.2029
0
LINE
8
DEFAULT_255_1_234
10
22.6724364
20
60.2029
11
22.6724364
21
61.3723211
0
LINE
8
DEFAULT_255_1_234
10
22.6724364
20
61.3723211
11
22.8274489
21
61.3723211
0
LINE
8
DEFAULT_255_1_234
10
23.959924
20
61.1715276
11
23.959924
21
60.8301788
0
LINE
8
DEFAULT_255_1_234
10
23.959924
20
60.8301788
11
24.2860126
21
60.8301788
0
LINE
8
DEFAULT_255_1_234
10
24.2860126
20
60.8301788
11
24.2860126
21
60.6896233
0
LINE
8
DEFAULT_255_1_234
10
24.2860126
20
60.6896233
11
23.959924
21
60.6896233
0
LINE
8
DEFAULT_255_1_234
10
23.959924
20
60.6896233
11
23.959924
21
60.3201634
0
LINE
8
DEFAULT_255_1_234
10
23.959924
20
60.3201634
11
23.8105337
21
60.3201634
0
LINE
8
DEFAULT_255_1_234
10
23.8105337
20
60.3201634
11
23.8105337
21
60.6896233
0
LINE
8
DEFAULT_255_1_234
10
23.8105337
20
60.6896233
11
23.4844451
21
60.6896233
0
LINE
8
DEFAULT_255_1_234
10
23.4844451
20
60.6896233
11
23.4844451
21
60.8301788
0
LINE
8
DEFAULT_255_1_234
10
23.4844451
20
60.8301788
11
23.8105337
21
60.8301788
0
LINE
8
DEFAULT_255_1_234
10
23.8105337
20
60.8301788
11
23.8105337
21
61.1715276
0
LINE
8
DEFAULT_255_1_234
10
23.8105337
20
61.1715276
11
23.959924
21
61.1715276
0
LINE
8
DEFAULT_255_1_234
10
24.2446663
20
5.1978026
11
24.2446663
21
5.0765234
0
LINE
8
DEFAULT_255_1_234
10
24.2446663
20
5.0765234
11
23.8527174
21
5.0765234
0
LINE
8
DEFAULT_255_1_234
10
23.8527174
20
5.0765234
11
23.8527174
21
5.1978026
0
LINE
8
DEFAULT_255_1_234
10
23.8527174
20
5.1978026
11
24.2446663
21
5.1978026
0
LINE
8
DEFAULT_255_1_234
10
24.0155265
20
13.5465276
11
24.0155265
21
13.2051788
0
LINE
8
DEFAULT_255_1_234
10
24.0155265
20
13.2051788
11
24.341615
21
13.2051788
0
LINE
8
DEFAULT_255_1_234
10
24.341615
20
13.2051788
11
24.341615
21
13.0646233
0
LINE
8
DEFAULT_255_1_234
10
24.341615
20
13.0646233
11
24.0155265
21
13.0646233
0
LINE
8
DEFAULT_255_1_234
10
24.0155265
20
13.0646233
11
24.0155265
21
12.6951634
0
LINE
8
DEFAULT_255_1_234
10
24.0155265
20
12.6951634
11
23.8661361
21
12.6951634
0
LINE
8
DEFAULT_255_1_234
10
23.8661361
20
12.6951634
11
23.8661361
21
13.0646233
0
LINE
8
DEFAULT_255_1_234
10
23.8661361
20
13.0646233
11
23.5400476
21
13.0646233
0
LINE
8
DEFAULT_255_1_234
10
23.5400476
20
13.0646233
11
23.5400476
21
13.2051788
0
LINE
8
DEFAULT_255_1_234
10
23.5400476
20
13.2051788
11
23.8661361
21
13.2051788
0
LINE
8
DEFAULT_255_1_234
10
23.8661361
20
13.2051788
11
23.8661361
21
13.5465276
0
LINE
8
DEFAULT_255_1_234
10
23.8661361
20
13.5465276
11
24.0155265
21
13.5465276
0
LINE
8
DEFAULT_255_1_234
10
22.9809137
20
21.6904433
11
22.9809137
21
20.5154
0
LINE
8
DEFAULT_255_1_234
10
22.9809137
20
20.5154
11
22.8315234
21
20.5154
0
LINE
8
DEFAULT_255_1_234
10
22.8315234
20
20.5154
11
22.8315234
21
21.5057133
0
LINE
8
DEFAULT_255_1_234
10
22.8315234
20
21.5057133
11
22.5319396
21
21.3956785
0
LINE
8
DEFAULT_255_1_234
10
22.5319396
20
21.3956785
11
22.5319396
21
21.5306117
0
LINE
8
DEFAULT_255_1_234
10
22.5319396
20
21.5306117
11
22.9576217
21
21.6904433
0
LINE
8
DEFAULT_255_1_234
10
22.9576217
20
21.6904433
11
22.9809137
21
21.6904433
0
LINE
8
DEFAULT_255_1_234
10
24.0435127
20
21.6848211
11
24.0435127
21
20.908152
0
LINE
8
DEFAULT_255_1_234
10
24.0435127
20
20.908152
11
24.2057538
21
20.908152
0
LINE
8
DEFAULT_255_1_234
10
24.2057538
20
20.908152
11
24.2057538
21
20.7868728
0
LINE
8
DEFAULT_255_1_234
10
24.2057538
20
20.7868728
11
24.0435127
21
20.7868728
0
LINE
8
DEFAULT_255_1_234
10
24.0435127
20
20.7868728
11
24.0435127
21
20.5154
0
LINE
8
DEFAULT_255_1_234
10
24.0435127
20
20.5154
11
23.8941224
21
20.5154
0
LINE
8
DEFAULT_255_1_234
10
23.8941224
20
20.5154
11
23.8941224
21
20.7868728
0
LINE
8
DEFAULT_255_1_234
10
23.8941224
20
20.7868728
11
23.3616181
21
20.7868728
0
LINE
8
DEFAULT_255_1_234
10
23.3616181
20
20.7868728
11
23.3616181
21
20.8744187
0
LINE
8
DEFAULT_255_1_234
10
23.3616181
20
20.8744187
11
23.8852875
21
21.6848211
0
LINE
8
DEFAULT_255_1_234
10
23.8852875
20
21.6848211
11
24.0435127
21
21.6848211
0
LINE
8
DEFAULT_255_1_234
10
23.8764525
20
21.4494912
11
23.5302846
21
20.908152
0
LINE
8
DEFAULT_255_1_234
10
23.5302846
20
20.908152
11
23.8941224
21
20.908152
0
LINE
8
DEFAULT_255_1_234
10
23.8941224
20
20.908152
11
23.8941224
21
21.4816181
0
LINE
8
DEFAULT_255_1_234
10
23.8941224
20
21.4816181
11
23.8764525
21
21.4494912
0
LINE
8
DEFAULT_255_1_234
10
23.0867137
20
29.6279433
11
23.0867137
21
28.4529
0
LINE
8
DEFAULT_255_1_234
10
23.0867137
20
28.4529
11
22.9373234
21
28.4529
0
LINE
8
DEFAULT_255_1_234
10
22.9373234
20
28.4529
11
22.9373234
21
29.4432133
0
LINE
8
DEFAULT_255_1_234
10
22.9373234
20
29.4432133
11
22.6377396
21
29.3331785
0
LINE
8
DEFAULT_255_1_234
10
22.6377396
20
29.3331785
11
22.6377396
21
29.4681117
0
LINE
8
DEFAULT_255_1_234
10
22.6377396
20
29.4681117
11
23.0634217
21
29.6279433
0
LINE
8
DEFAULT_255_1_234
10
23.0634217
20
29.6279433
11
23.0867137
21
29.6279433
0
LINE
8
DEFAULT_255_1_234
10
23.7380877
20
28.9886169
11
23.7380877
21
29.1098962
0
LINE
8
DEFAULT_255_1_234
10
23.7380877
20
29.1098962
11
23.8497289
21
29.1098962
0
LINE
8
DEFAULT_255_1_234
10
23.6593767
20
29.3155087
11
23.5107895
21
29.3155087
0
LINE
8
DEFAULT_255_1_234
10
23.5003482
20
28.7613188
11
23.6497386
21
28.7613188
0
LINE
8
DEFAULT_255_1_234
10
23.8497289
20
28.9886169
11
23.7380877
21
28.9886169
0
ARC
8
DEFAULT_255_1_234
10
23.8468155
20
29.4491713
40
0.3392876
50
270.4919872
51
281.8951556
0
ARC
8
DEFAULT_255_1_234
10
23.8709417
20
29.3389702
40
0.2264817
50
281.6691735
51
301.2943132
0
ARC
8
DEFAULT_255_1_234
10
23.8879627
20
29.3078304
40
0.1910381
50
301.7833094
51
311.7545298
0
ARC
8
DEFAULT_255_1_234
10
23.8971203
20
29.2976748
40
0.1773635
50
311.7323931
51
354.2802411
0
ARC
8
DEFAULT_255_1_234
10
23.8244828
20
29.3101722
40
0.2509385
50
353.0937916
51
0.1181479
0
ARC
8
DEFAULT_255_1_234
10
23.7783613
20
29.3149386
40
0.2970898
50
359.1805295
51
15.0453146
0
ARC
8
DEFAULT_255_1_234
10
23.912945
20
29.3541992
40
0.1569564
50
13.9577229
51
77.6713066
0
ARC
8
DEFAULT_255_1_234
10
23.8742979
20
29.2156949
40
0.3006298
50
76.1116566
51
90.7026153
0
ARC
8
DEFAULT_255_1_234
10
23.8683817
20
29.2430545
40
0.2732568
50
89.5324876
51
103.531937
0
ARC
8
DEFAULT_255_1_234
10
23.8483261
20
29.3229884
40
0.1908508
50
103.2931773
51
133.5619022
0
ARC
8
DEFAULT_255_1_234
10
23.843875
20
29.3289375
40
0.1834746
50
133.8349307
51
173.5344437
0
ARC
8
DEFAULT_255_1_234
10
23.9161793
20
29.3161213
40
0.2568033
50
172.5096846
51
180.1366907
0
ARC
8
DEFAULT_255_1_234
10
23.8210687
20
29.3195622
40
0.3103056
50
155.3484492
51
180.7484736
0
ARC
8
DEFAULT_255_1_234
10
23.8161776
20
29.3166846
40
0.3070957
50
131.5744599
51
154.4798489
0
ARC
8
DEFAULT_255_1_234
10
23.8474923
20
29.285031
40
0.3515643
50
96.9875458
51
131.9690667
0
ARC
8
DEFAULT_255_1_234
10
23.8694403
20
29.1604636
40
0.4779224
50
89.8596053
51
97.7825159
0
ARC
8
DEFAULT_255_1_234
10
23.8742466
20
29.1342616
40
0.5041361
50
78.3655447
51
90.4131539
0
ARC
8
DEFAULT_255_1_234
10
23.9100384
20
29.3001887
40
0.3344039
50
56.6229102
51
78.638727
0
ARC
8
DEFAULT_255_1_234
10
23.9315328
20
29.3377805
40
0.2912001
50
47.0253525
51
56.0854072
0
ARC
8
DEFAULT_255_1_234
10
23.9335108
20
29.3417223
40
0.2869704
50
10.9208013
51
46.7778124
0
ARC
8
DEFAULT_255_1_234
10
23.7971174
20
29.3101857
40
0.426899
50
359.6364486
51
11.6087304
0
ARC
8
DEFAULT_255_1_234
10
23.9806018
20
29.3086752
40
0.243409
50
332.3549906
51
359.7179418
0
ARC
8
DEFAULT_255_1_234
10
23.915562
20
29.3395142
40
0.3153459
50
325.2333722
51
332.8745602
0
ARC
8
DEFAULT_255_1_234
10
23.9308244
20
29.3288828
40
0.2967456
50
292.9802137
51
325.2392345
0
ARC
8
DEFAULT_255_1_234
10
23.9033617
20
29.3822863
40
0.3566604
50
292.5402179
51
293.6924929
0
ARC
8
DEFAULT_255_1_234
10
23.9426213
20
28.7368091
40
0.3307468
50
57.6435486
51
72.8625112
0
ARC
8
DEFAULT_255_1_234
10
23.9780713
20
28.7942549
40
0.2632492
50
36.7248896
51
57.4697979
0
ARC
8
DEFAULT_255_1_234
10
23.9769346
20
28.795522
40
0.2634081
50
8.0545065
51
36.356114
0
ARC
8
DEFAULT_255_1_234
10
23.8906531
20
28.7800174
40
0.3510261
50
359.8320645
51
8.5869982
0
ARC
8
DEFAULT_255_1_234
10
23.8531307
20
28.7752101
40
0.3885653
50
343.9829931
51
0.5571613
0
ARC
8
DEFAULT_255_1_234
10
23.9417504
20
28.7509438
40
0.2966924
50
311.6359546
51
343.7651759
0
ARC
8
DEFAULT_255_1_234
10
23.9039074
20
28.7936102
40
0.3537231
50
279.7829875
51
311.6255694
0
ARC
8
DEFAULT_255_1_234
10
23.873785
20
28.937328
40
0.5004971
50
269.7286406
51
280.3856417
0
ARC
8
DEFAULT_255_1_234
10
23.8675922
20
28.9331996
40
0.4963778
50
256.6828919
51
270.4412052
0
ARC
8
DEFAULT_255_1_234
10
23.8337218
20
28.7947394
40
0.3538406
50
229.4223008
51
256.8556159
0
ARC
8
DEFAULT_255_1_234
10
23.7922611
20
28.7480736
40
0.2914296
50
181.818294
51
229.6455059
0
ARC
8
DEFAULT_255_1_234
10
23.8962567
20
28.7611496
40
0.3959084
50
179.9755256
51
183.2323064
0
ARC
8
DEFAULT_255_1_234
10
23.8790313
20
28.7591037
40
0.2293034
50
179.4465117
51
196.2869258
0
ARC
8
DEFAULT_255_1_234
10
23.8302721
20
28.7457651
40
0.1787621
50
196.5661473
51
227.705904
0
ARC
8
DEFAULT_255_1_234
10
23.8466816
20
28.7641155
40
0.2033784
50
227.7652068
51
257.8762805
0
ARC
8
DEFAULT_255_1_234
10
23.8691786
20
28.8584156
40
0.3003081
50
257.4584385
51
270.426602
0
ARC
8
DEFAULT_255_1_234
10
23.8737352
20
28.8873996
40
0.329292
50
269.5962073
51
280.8789248
0
ARC
8
DEFAULT_255_1_234
10
23.8966881
20
28.7727685
40
0.2123908
50
280.6346389
51
299.8595945
0
ARC
8
DEFAULT_255_1_234
10
23.9157788
20
28.7365212
40
0.171457
50
300.3576302
51
314.5517981
0
ARC
8
DEFAULT_255_1_234
10
23.9074848
20
28.7425919
40
0.1816095
50
315.0728369
51
345.0431014
0
ARC
8
DEFAULT_255_1_234
10
23.8151662
20
28.7694841
40
0.2777492
50
344.5986631
51
357.9269593
0
ARC
8
DEFAULT_255_1_234
10
23.7255989
20
28.7756276
40
0.3674917
50
357.4748886
51
0.0231117
0
ARC
8
DEFAULT_255_1_234
10
23.8279098
20
28.7780679
40
0.2651907
50
359.5047933
51
13.4239635
0
ARC
8
DEFAULT_255_1_234
10
23.9145741
20
28.8002478
40
0.1757509
50
12.9498199
51
48.7551375
0
ARC
8
DEFAULT_255_1_234
10
23.8963475
20
28.77534
40
0.2065134
50
49.5088623
51
72.1836453
0
ARC
8
DEFAULT_255_1_234
10
23.8605628
20
28.6691291
40
0.3185836
50
71.9010081
51
84.3554254
0
ARC
8
DEFAULT_255_1_234
10
23.844426
20
28.5330326
40
0.4556151
50
84.0193428
51
89.333121
0
LINE
8
DEFAULT_255_1_234
10
23.0448364
20
37.5598211
11
23.2440235
21
37.5598211
0
LINE
8
DEFAULT_255_1_234
10
23.2440235
20
37.5598211
11
23.6263342
21
36.6056506
0
LINE
8
DEFAULT_255_1_234
10
23.6263342
20
36.6056506
11
24.008645
21
37.5598211
0
LINE
8
DEFAULT_255_1_234
10
24.008645
20
37.5598211
11
24.2086353
21
37.5598211
0
LINE
8
DEFAULT_255_1_234
10
24.2086353
20
37.5598211
11
24.2086353
21
36.3904
0
LINE
8
DEFAULT_255_1_234
10
24.2086353
20
36.3904
11
24.0544259
21
36.3904
0
LINE
8
DEFAULT_255_1_234
10
24.0544259
20
36.3904
11
24.0544259
21
36.8457996
0
LINE
8
DEFAULT_255_1_234
10
24.0544259
20
36.8457996
11
24.068883
21
37.3373419
0
LINE
8
DEFAULT_255_1_234
10
24.068883
20
37.3373419
11
23.6849659
21
36.3904
0
LINE
8
DEFAULT_255_1_234
10
23.6849659
20
36.3904
11
23.5668994
21
36.3904
0
LINE
8
DEFAULT_255_1_234
10
23.5668994
20
36.3904
11
23.1837854
21
37.3349324
0
LINE
8
DEFAULT_255_1_234
10
23.1837854
20
37.3349324
11
23.1990458
21
36.8457996
0
LINE
8
DEFAULT_255_1_234
10
23.1990458
20
36.8457996
11
23.1990458
21
36.3904
0
LINE
8
DEFAULT_255_1_234
10
23.1990458
20
36.3904
11
23.0448364
21
36.3904
0
LINE
8
DEFAULT_255_1_234
10
23.0448364
20
36.3904
11
23.0448364
21
37.5598211
0
LINE
8
DEFAULT_255_1_234
10
22.8274489
20
45.4973211
11
22.8274489
21
44.4539983
0
LINE
8
DEFAULT_255_1_234
10
22.8274489
20
44.4539983
11
23.3816389
21
44.4539983
0
LINE
8
DEFAULT_255_1_234
10
23.3816389
20
44.4539983
11
23.3816389
21
44.3279
0
LINE
8
DEFAULT_255_1_234
10
23.3816389
20
44.3279
11
22.6724364
21
44.3279
0
LINE
8
DEFAULT_255_1_234
10
22.6724364
20
44.3279
11
22.6724364
21
45.4973211
0
LINE
8
DEFAULT_255_1_234
10
22.6724364
20
45.4973211
11
22.8274489
21
45.4973211
0
LINE
8
DEFAULT_255_1_234
10
23.959924
20
45.2965276
11
23.959924
21
44.9551788
0
LINE
8
DEFAULT_255_1_234
10
23.959924
20
44.9551788
11
24.2860126
21
44.9551788
0
LINE
8
DEFAULT_255_1_234
10
24.2860126
20
44.9551788
11
24.2860126
21
44.8146233
0
LINE
8
DEFAULT_255_1_234
10
24.2860126
20
44.8146233
11
23.959924
21
44.8146233
0
LINE
8
DEFAULT_255_1_234
10
23.959924
20
44.8146233
11
23.959924
21
44.4451634
0
LINE
8
DEFAULT_255_1_234
10
23.959924
20
44.4451634
11
23.8105337
21
44.4451634
0
LINE
8
DEFAULT_255_1_234
10
23.8105337
20
44.4451634
11
23.8105337
21
44.8146233
0
LINE
8
DEFAULT_255_1_234
10
23.8105337
20
44.8146233
11
23.4844451
21
44.8146233
0
LINE
8
DEFAULT_255_1_234
10
23.4844451
20
44.8146233
11
23.4844451
21
44.9551788
0
LINE
8
DEFAULT_255_1_234
10
23.4844451
20
44.9551788
11
23.8105337
21
44.9551788
0
LINE
8
DEFAULT_255_1_234
10
23.8105337
20
44.9551788
11
23.8105337
21
45.2965276
0
LINE
8
DEFAULT_255_1_234
10
23.8105337
20
45.2965276
11
23.959924
21
45.2965276
0
LINE
8
DEFAULT_255_1_234
10
23.0448364
20
53.4348211
11
23.2440235
21
53.4348211
0
LINE
8
DEFAULT_255_1_234
10
23.2440235
20
53.4348211
11
23.6263342
21
52.4806506
0
LINE
8
DEFAULT_255_1_234
10
23.6263342
20
52.4806506
11
24.008645
21
53.4348211
0
LINE
8
DEFAULT_255_1_234
10
24.008645
20
53.4348211
11
24.2086353
21
53.4348211
0
LINE
8
DEFAULT_255_1_234
10
24.2086353
20
53.4348211
11
24.2086353
21
52.2654
0
LINE
8
DEFAULT_255_1_234
10
24.2086353
20
52.2654
11
24.0544259
21
52.2654
0
LINE
8
DEFAULT_255_1_234
10
24.0544259
20
52.2654
11
24.0544259
21
52.7207996
0
LINE
8
DEFAULT_255_1_234
10
24.0544259
20
52.7207996
11
24.068883
21
53.2123419
0
LINE
8
DEFAULT_255_1_234
10
24.068883
20
53.2123419
11
23.6849659
21
52.2654
0
LINE
8
DEFAULT_255_1_234
10
23.6849659
20
52.2654
11
23.5668994
21
52.2654
0
LINE
8
DEFAULT_255_1_234
10
23.5668994
20
52.2654
11
23.1837854
21
53.2099324
0
LINE
8
DEFAULT_255_1_234
10
23.1837854
20
53.2099324
11
23.1990458
21
52.7207996
0
LINE
8
DEFAULT_255_1_234
10
23.1990458
20
52.7207996
11
23.1990458
21
52.2654
0
LINE
8
DEFAULT_255_1_234
10
23.1990458
20
52.2654
11
23.0448364
21
52.2654
0
LINE
8
DEFAULT_255_1_234
10
23.0448364
20
52.2654
11
23.0448364
21
53.4348211
0
ENDSEC
0
EOF