0
SECTION
2
HEADER
9
$MEASUREMENT
70
1
0
ENDSEC
0
SECTION
2
TABLES
0
TABLE
2
LTYPE
0
LTYPE
72
65
70
64
2
CONTINUOUS
3
______
73
0
40
0
0
ENDTAB
0
TABLE
2
LAYER
0
LAYER
2
DEFAULT_255_2_778
70
0
62
255
6
CONTINUOUS
0
ENDTAB
0
ENDSEC
0
SECTION
2
ENTITIES
0
ARC
8
DEFAULT_255_2_778
10
41.0271638
20
46.085399
40
9.3600904
50
184.1880386
51
186.0244448
0
ARC
8
DEFAULT_255_2_778
10
31.6945212
20
45.402128
40
0.299854
50
94.5628142
51
180.0184096
0
ARC
8
DEFAULT_255_2_778
10
-626.4754223
20
45.6820705
40
657.8701384
50
356.0450626
51
359.977936
0
ARC
8
DEFAULT_255_2_778
10
29.5151725
20
0.1281353
40
0.2998036
50
269.979888
51
356.0593021
0
ARC
8
DEFAULT_255_2_778
10
37.0937189
20
416.0201731
40
391.5919414
50
270.0001973
51
274.9562862
0
LINE
8
DEFAULT_255_2_778
10
31.6973672
20
45.4020317
11
31.7187672
21
45.1030317
0
LINE
8
DEFAULT_255_2_778
10
31.6920672
20
45.4018317
11
31.6706672
21
45.7010317
0
LINE
8
DEFAULT_255_2_778
10
31.3946672
20
45.4020317
11
31.3946672
21
45.4287317
0
LINE
8
DEFAULT_255_2_778
10
29.8280672
20
0.3075317
11
29.8142672
21
0.1075317
0
LINE
8
DEFAULT_255_2_778
10
42.7645672
20
24.4692317
11
42.6939672
21
24.4682317
0
LINE
8
DEFAULT_255_2_778
10
42.6939672
20
24.4682317
11
37.0950672
21
24.4282317
0
LINE
8
DEFAULT_255_2_778
10
70.9255672
20
25.8924317
11
70.9165672
21
26.3933317
0
ARC
8
DEFAULT_255_2_778
10
18.1962834
20
5.3245817
40
0.996477
50
269.9169422
51
311.6424919
0
ARC
8
DEFAULT_255_2_778
10
18.1974189
20
5.3270843
40
0.9975959
50
311.4982452
51
358.2672879
0
ARC
8
DEFAULT_255_2_778
10
18.1762797
20
5.328196
40
1.0187592
50
358.2407388
51
0.0005446
0
ARC
8
DEFAULT_255_2_778
10
32.929277
20
43.9725319
40
2.5508734
50
119.948179
51
124.4947548
0
ARC
8
DEFAULT_255_2_778
10
32.0710279
20
45.206419
40
1.0479128
50
124.0266244
51
141.984237
0
ARC
8
DEFAULT_255_2_778
10
31.8510896
20
45.3916615
40
0.7606218
50
142.7741791
51
159.9120953
0
ARC
8
DEFAULT_255_2_778
10
31.7662273
20
45.4261098
40
0.669098
50
160.1866118
51
176.1810264
0
ARC
8
DEFAULT_255_2_778
10
31.7329485
20
45.4288642
40
0.6357098
50
176.228958
51
179.9872452
0
ARC
8
DEFAULT_255_2_778
10
-626.3630697
20
45.6771937
40
657.4603554
50
356.0448431
51
359.9783711
0
ARC
8
DEFAULT_255_2_778
10
14.8913148
20
3.3299502
40
0.996477
50
138.3575081
51
180.0830578
0
ARC
8
DEFAULT_255_2_778
10
14.8938174
20
3.3310858
40
0.9975959
50
91.7327121
51
138.5017548
0
ARC
8
DEFAULT_255_2_778
10
14.8949292
20
3.3099465
40
1.0187592
50
89.9994554
51
91.7592612
0
ARC
8
DEFAULT_255_2_778
10
36.094908
20
113.4281748
40
0.3001309
50
0.0249951
51
89.9941098
0
ARC
8
DEFAULT_255_2_778
10
36.0984077
20
46.3824733
40
0.2966314
50
338.4684774
51
0.0642073
0
LINE
8
DEFAULT_255_2_778
10
29.8280389
20
0.3075057
11
29.5314389
21
0.3282057
0
LINE
8
DEFAULT_255_2_778
10
29.5314389
20
0.3282057
11
29.5150389
21
-0.1718943
0
LINE
8
DEFAULT_255_2_778
10
29.5150389
20
-0.1718943
11
13.8948389
21
-0.1718943
0
LINE
8
DEFAULT_255_2_778
10
13.8948389
20
-0.1718943
11
13.8948389
21
0.3282057
0
LINE
8
DEFAULT_255_2_778
10
19.1950389
20
5.3282057
11
19.1950389
21
113.2282057
0
LINE
8
DEFAULT_255_2_778
10
19.1950389
20
113.2282057
11
36.0976389
21
113.2282057
0
LINE
8
DEFAULT_255_2_778
10
36.0976389
20
113.2282057
11
36.0976389
21
46.5834057
0
LINE
8
DEFAULT_255_2_778
10
36.0976389
20
46.5834057
11
31.6920389
21
46.2040057
0
LINE
8
DEFAULT_255_2_778
10
31.6920389
20
46.2040057
11
31.6878389
21
46.2016057
0
LINE
8
DEFAULT_255_2_778
10
31.6878389
20
46.2016057
11
31.6558389
21
46.1828057
0
LINE
8
DEFAULT_255_2_778
10
29.5314389
20
0.3284057
11
13.8948389
21
0.3284057
0
LINE
8
DEFAULT_255_2_778
10
13.8948389
20
0.3284057
11
13.8948389
21
3.3285057
0
LINE
8
DEFAULT_255_2_778
10
14.8949389
20
4.3287057
11
18.1948389
21
4.3287057
0
LINE
8
DEFAULT_255_2_778
10
36.4196389
20
113.4711057
11
36.4453389
21
113.5002057
0
LINE
8
DEFAULT_255_2_778
10
36.4453389
20
113.5002057
11
36.4873389
21
113.5476057
0
LINE
8
DEFAULT_255_2_778
10
36.4873389
20
113.5476057
11
36.5357389
21
113.6034057
0
LINE
8
DEFAULT_255_2_778
10
36.5357389
20
113.6034057
11
36.5439389
21
113.6135057
0
LINE
8
DEFAULT_255_2_778
10
36.5439389
20
113.6135057
11
36.5545389
21
113.6270057
0
LINE
8
DEFAULT_255_2_778
10
36.5545389
20
113.6270057
11
36.5675389
21
113.6431057
0
LINE
8
DEFAULT_255_2_778
10
36.5675389
20
113.6431057
11
36.5828389
21
113.6608057
0
LINE
8
DEFAULT_255_2_778
10
36.5828389
20
113.6608057
11
36.6008389
21
113.6794057
0
LINE
8
DEFAULT_255_2_778
10
36.6008389
20
113.6794057
11
36.6212389
21
113.6971057
0
LINE
8
DEFAULT_255_2_778
10
36.6212389
20
113.6971057
11
36.6440389
21
113.7124057
0
LINE
8
DEFAULT_255_2_778
10
36.6440389
20
113.7124057
11
36.6686389
21
113.7235057
0
LINE
8
DEFAULT_255_2_778
10
36.6686389
20
113.7235057
11
36.6950389
21
113.7280057
0
LINE
8
DEFAULT_255_2_778
10
36.6950389
20
113.7280057
11
36.6945389
21
113.5817057
0
LINE
8
DEFAULT_255_2_778
10
36.6945389
20
113.5817057
11
36.6924389
21
113.2282057
0
LINE
8
DEFAULT_255_2_778
10
36.6924389
20
113.2282057
11
36.3950389
21
113.2282057
0
LINE
8
DEFAULT_255_2_778
10
36.3950389
20
113.2282057
11
36.0976389
21
113.2282057
0
LINE
8
DEFAULT_255_2_778
10
36.0976389
20
113.2282057
11
36.0949389
21
113.7283057
0
LINE
8
DEFAULT_255_2_778
10
36.3950389
20
113.4283057
11
36.3950389
21
46.3828057
0
LINE
8
DEFAULT_255_2_778
10
13.8948389
20
0.9653057
11
13.5289389
21
0.9153057
0
LINE
8
DEFAULT_255_2_778
10
13.5289389
20
0.9153057
11
13.8948389
21
0.9153057
0
ARC
8
DEFAULT_255_2_778
10
0.5287556
20
0.4808577
40
0.2998865
50
179.9995913
51
220.8368265
0
ARC
8
DEFAULT_255_2_778
10
7.5002998
20
76.3902581
40
0.2199344
50
134.2935406
51
141.1698868
0
ARC
8
DEFAULT_255_2_778
10
11.2523814
20
72.8039855
40
5.41013
50
135.5653801
51
136.2130477
0
ARC
8
DEFAULT_255_2_778
10
23.597009
20
60.7176783
40
22.6863742
50
135.2451539
51
135.5961565
0
ARC
8
DEFAULT_255_2_778
10
43.7329202
20
40.7755556
40
51.026153
50
135.0449771
51
135.2628628
0
ARC
8
DEFAULT_255_2_778
10
6.5926573
20
116.582661
40
0.3011262
50
141.5380676
51
170.9629508
0
ARC
8
DEFAULT_255_2_778
10
0.5284736
20
0.4799326
40
0.2989083
50
239.4338661
51
269.1173418
0
LINE
8
DEFAULT_255_2_778
10
19.194769
20
20.7730598
11
18.828769
21
20.7539598
0
LINE
8
DEFAULT_255_2_778
10
0.228869
20
0.4808598
11
0.228869
21
35.6174598
0
LINE
8
DEFAULT_255_2_778
10
0.228869
20
35.6174598
11
1.578769
21
38.5125598
0
LINE
8
DEFAULT_255_2_778
10
1.578769
20
38.5125598
11
1.578769
21
38.5125598
0
LINE
8
DEFAULT_255_2_778
10
1.578769
20
38.5125598
11
5.028669
21
40.9281598
0
LINE
8
DEFAULT_255_2_778
10
5.028669
20
40.9281598
11
5.028669
21
40.9281598
0
LINE
8
DEFAULT_255_2_778
10
5.028669
20
40.9281598
11
7.328669
21
40.9281598
0
LINE
8
DEFAULT_255_2_778
10
7.623669
20
40.6281598
11
7.328969
21
40.9281598
0
LINE
8
DEFAULT_255_2_778
10
7.328969
20
40.9281598
11
7.328969
21
76.5281598
0
LINE
8
DEFAULT_255_2_778
10
13.528969
20
0.4538598
11
13.528969
21
-0.0459402
0
LINE
8
DEFAULT_255_2_778
10
13.528969
20
-0.0459402
11
0.523569
21
0.1810598
0
LINE
8
DEFAULT_255_2_778
10
0.523569
20
0.1810598
11
0.523569
21
0.6808598
0
LINE
8
DEFAULT_255_2_778
10
0.523569
20
0.6808598
11
0.228869
21
0.6808598
0
LINE
8
DEFAULT_255_2_778
10
6.328869
20
76.5281598
11
5.200669
21
73.4280598
0
LINE
8
DEFAULT_255_2_778
10
5.200669
20
73.4280598
11
4.200569
21
73.4280598
0
LINE
8
DEFAULT_255_2_778
10
4.200569
20
73.4280598
11
0.528869
21
74.0757598
0
LINE
8
DEFAULT_255_2_778
10
0.528869
20
74.0757598
11
0.528869
21
80.2225598
0
LINE
8
DEFAULT_255_2_778
10
0.528869
20
80.2225598
11
6.295269
21
116.6299598
0
LINE
8
DEFAULT_255_2_778
10
18.828769
20
19.5538598
11
19.194769
21
19.5347598
0
LINE
8
DEFAULT_255_2_778
10
18.590169
20
5.2671598
11
19.095769
21
4.8945598
0
LINE
8
DEFAULT_255_2_778
10
18.952669
20
4.6755598
11
18.391769
21
5.0887598
0
LINE
8
DEFAULT_255_2_778
10
13.899369
20
4.6924598
11
14.561569
21
4.2709598
0
LINE
8
DEFAULT_255_2_778
10
13.528969
20
1.4108598
11
13.894869
21
1.4608598
0
ARC
8
DEFAULT_255_2_778
10
0.5109106
20
0.4707615
40
0.2796008
50
200.7713714
51
270.0333875
0
ARC
8
DEFAULT_255_2_778
10
0.5110734
20
0.4731723
40
0.2820116
50
270.0000087
51
272.3796842
0
ARC
8
DEFAULT_255_2_778
10
21.8523564
20
94.7429695
40
1.6553032
50
359.3878849
51
15.4056919
0
ARC
8
DEFAULT_255_2_778
10
15.7437776
20
94.5166366
40
7.7665906
50
1.420017
51
1.5394319
0
ARC
8
DEFAULT_255_2_778
10
22.2197882
20
94.77835
40
1.2942808
50
356.9065199
51
0.0006258
0
ARC
8
DEFAULT_255_2_778
10
22.2103352
20
94.777838
40
1.3037341
50
0.0231207
51
22.7451197
0
ARC
8
DEFAULT_255_2_778
10
27.9887662
20
94.3303725
40
3.2931248
50
163.2669864
51
174.5035074
0
ARC
8
DEFAULT_255_2_778
10
27.9831522
20
94.3316234
40
4.2368326
50
167.0860277
51
175.0717236
0
ARC
8
DEFAULT_255_2_778
10
46.1291141
20
14.3371728
40
0.2010312
50
45.1536133
51
89.951863
0
ARC
8
DEFAULT_255_2_778
10
46.1298715
20
14.3387043
40
0.199412
50
359.8562318
51
44.997595
0
ARC
8
DEFAULT_255_2_778
10
47.3293402
20
11.7550404
40
0.2998428
50
0.012134
51
70.0019292
0
ARC
8
DEFAULT_255_2_778
10
47.3295018
20
9.9213541
40
0.2996811
50
289.9764301
51
0.0286331
0
ARC
8
DEFAULT_255_2_778
10
46.0291524
20
3.9385345
40
0.3001306
50
270.0249299
51
359.994156
0
ARC
8
DEFAULT_255_2_778
10
45.0391521
20
0.8482348
40
0.3001309
50
270.0058902
51
359.9750049
0
ARC
8
DEFAULT_255_2_778
10
29.4991918
20
0.156569
40
0.3185294
50
273.0937857
51
354.3670847
0
ARC
8
DEFAULT_255_2_778
10
46.5411413
20
6.1492629
40
0.2996417
50
289.9508034
51
0.0078392
0
ARC
8
DEFAULT_255_2_778
10
47.360674
20
12.8933129
40
0.200009
50
270.0025728
51
359.9974129
0
ARC
8
DEFAULT_255_2_778
10
47.3108216
20
13.0081612
40
0.2498614
50
359.9868665
51
77.5043423
0
ARC
8
DEFAULT_255_2_778
10
47.3606104
20
14.4920217
40
0.2012823
50
45.1830791
51
89.9224115
0
ARC
8
DEFAULT_255_2_778
10
47.3616629
20
14.493742
40
0.1993207
50
359.8453157
51
45.0491572
0
ARC
8
DEFAULT_255_2_778
10
47.3113155
20
14.3782909
40
0.2496675
50
282.4599452
51
0.0259385
0
ARC
8
DEFAULT_255_2_778
10
45.1410855
20
22.4478291
40
0.2003748
50
45.0762938
51
90.0007292
0
ARC
8
DEFAULT_255_2_778
10
45.1419942
20
22.4487379
40
0.1990894
50
359.846312
51
45.0767633
0
ARC
8
DEFAULT_255_2_778
10
45.6409515
20
15.3531218
40
0.2998686
50
180.0034233
51
250.0188072
0
ARC
8
DEFAULT_255_2_778
10
46.5410103
20
14.3873493
40
0.2999728
50
0.0104176
51
69.9845623
0
ARC
8
DEFAULT_255_2_778
10
47.3102765
20
7.528442
40
0.2496065
50
282.448682
51
0.0371586
0
ARC
8
DEFAULT_255_2_778
10
47.3598528
20
7.6434737
40
0.2000302
50
359.9800103
51
89.9913489
0
ARC
8
DEFAULT_255_2_778
10
47.3601266
20
6.044264
40
0.2007601
50
269.9875444
51
314.8377944
0
ARC
8
DEFAULT_255_2_778
10
47.3606905
20
6.0430371
40
0.199493
50
314.9714167
51
0.1340596
0
ARC
8
DEFAULT_255_2_778
10
47.3103212
20
6.1583609
40
0.2498617
50
359.9869352
51
77.5042887
0
ARC
8
DEFAULT_255_2_778
10
44.6292845
20
17.4593023
40
0.2109985
50
270.0267347
51
359.9732653
0
ARC
8
DEFAULT_255_2_778
10
44.6292845
20
20.0375054
40
0.2109985
50
0.0267347
51
89.9732653
0
ARC
8
DEFAULT_255_2_778
10
42.0510814
20
20.0375054
40
0.2109985
50
90.0267347
51
179.9732653
0
ARC
8
DEFAULT_255_2_778
10
42.0510814
20
17.4593023
40
0.2109985
50
180.0267347
51
269.9732653
0
ARC
8
DEFAULT_255_2_778
10
43.2847306
20
18.9722072
40
0.2280477
50
119.9489031
51
180.0259589
0
ARC
8
DEFAULT_255_2_778
10
43.2849765
20
18.9724021
40
0.2280018
50
89.9858225
51
120.0268973
0
ARC
8
DEFAULT_255_2_778
10
43.2850894
20
18.9724021
40
0.2280018
50
59.9731027
51
90.0141775
0
ARC
8
DEFAULT_255_2_778
10
43.2851254
20
18.9720859
40
0.2282576
50
0.0045195
51
60.0206453
0
ARC
8
DEFAULT_255_2_778
10
43.2851257
20
18.9721217
40
0.2282572
50
299.9793079
51
359.9955273
0
ARC
8
DEFAULT_255_2_778
10
43.2850894
20
18.9718057
40
0.2280018
50
269.9858225
51
300.0268973
0
ARC
8
DEFAULT_255_2_778
10
43.2849765
20
18.9718057
40
0.2280018
50
239.9731027
51
270.0141775
0
ARC
8
DEFAULT_255_2_778
10
43.2847305
20
18.9720006
40
0.2280476
50
179.9740444
51
240.0511175
0
ARC
8
DEFAULT_255_2_778
10
43.2853497
20
18.97229
40
0.4569668
50
180.0233301
51
244.1051794
0
ARC
8
DEFAULT_255_2_778
10
43.2853497
20
18.9719178
40
0.4569668
50
115.8948206
51
179.9766699
0
ARC
8
DEFAULT_255_2_778
10
43.016217
20
19.5257181
40
0.1587664
50
295.9868826
51
359.8505213
0
ARC
8
DEFAULT_255_2_778
10
43.0162848
20
19.7648053
40
0.158699
50
0.1800031
51
89.8562467
0
ARC
8
DEFAULT_255_2_778
10
42.3405957
20
19.764891
40
0.1586134
50
90.1490901
51
179.8508661
0
ARC
8
DEFAULT_255_2_778
10
42.3407461
20
17.7319667
40
0.1587638
50
180.167011
51
269.7967832
0
ARC
8
DEFAULT_255_2_778
10
43.0161344
20
17.7320525
40
0.1588495
50
270.1978663
51
359.8021337
0
ARC
8
DEFAULT_255_2_778
10
43.0160688
20
18.418697
40
0.1589147
50
0.1466972
51
63.9797087
0
ARC
8
DEFAULT_255_2_778
10
43.2851003
20
18.9719219
40
0.4568828
50
0.0228276
51
64.1257303
0
ARC
8
DEFAULT_255_2_778
10
43.2851006
20
18.9722857
40
0.4568824
50
295.8742473
51
359.9771988
0
ARC
8
DEFAULT_255_2_778
10
43.5541672
20
18.4185271
40
0.1587847
50
116.0311878
51
179.8640373
0
ARC
8
DEFAULT_255_2_778
10
43.5539959
20
18.1793168
40
0.1586135
50
180.1491466
51
269.850817
0
ARC
8
DEFAULT_255_2_778
10
43.5674812
20
18.9688243
40
0.9481212
50
269.9275878
51
314.2162686
0
ARC
8
DEFAULT_255_2_778
10
43.5692782
20
18.970667
40
0.9481922
50
314.060793
51
359.3114948
0
ARC
8
DEFAULT_255_2_778
10
43.5472406
20
18.9717945
40
0.9702423
50
359.2605559
51
0.0005543
0
ARC
8
DEFAULT_255_2_778
10
43.5694113
20
18.9729749
40
0.9480724
50
359.9292324
51
44.3077626
0
ARC
8
DEFAULT_255_2_778
10
43.5674067
20
18.9746545
40
0.9483372
50
44.1505473
51
89.3122529
0
ARC
8
DEFAULT_255_2_778
10
43.5662768
20
18.9516688
40
0.971335
50
89.2618852
51
89.9996383
0
ARC
8
DEFAULT_255_2_778
10
43.5540603
20
19.7643266
40
0.158678
50
90.1723477
51
179.8276523
0
ARC
8
DEFAULT_255_2_778
10
43.5540558
20
19.5251109
40
0.1586731
50
180.1108733
51
243.9939289
0
ARC
8
DEFAULT_255_2_778
10
45.6293332
20
11.1387329
40
0.2004498
50
315.0041861
51
359.9631143
0
ARC
8
DEFAULT_255_2_778
10
45.6293539
20
11.1387536
40
0.2004498
50
270.0368857
51
314.9958139
0
ARC
8
DEFAULT_255_2_778
10
43.180112
20
11.1387536
40
0.2004498
50
225.0041861
51
269.9631143
0
ARC
8
DEFAULT_255_2_778
10
43.1801334
20
11.1387331
40
0.2004503
50
180.0369222
51
224.9957098
0
ARC
8
DEFAULT_255_2_778
10
43.1797265
20
13.5880433
40
0.2000436
50
134.9560502
51
179.9826443
0
ARC
8
DEFAULT_255_2_778
10
43.180078
20
13.5882771
40
0.2001268
50
90.0272057
51
135.0745452
0
ARC
8
DEFAULT_255_2_778
10
45.6293879
20
13.5882771
40
0.2001268
50
44.9254548
51
89.9727943
0
ARC
8
DEFAULT_255_2_778
10
45.6297399
20
13.5880434
40
0.200043
50
0.0173231
51
45.0440425
0
ARC
8
DEFAULT_255_2_778
10
47.8391304
20
11.5982605
40
0.2001525
50
282.567916
51
359.9837887
0
ARC
8
DEFAULT_255_2_778
10
47.838157
20
11.6881963
40
0.2011261
50
0.0591334
51
44.7948569
0
ARC
8
DEFAULT_255_2_778
10
47.8398211
20
11.6890841
40
0.1993205
50
44.9507963
51
90.1547006
0
ARC
8
DEFAULT_255_2_778
10
47.8389378
20
9.9898616
40
0.201458
50
270.0981653
51
314.7963684
0
ARC
8
DEFAULT_255_2_778
10
47.8396997
20
9.9879744
40
0.1995836
50
315.0228732
51
0.1232839
0
ARC
8
DEFAULT_255_2_778
10
47.8392414
20
10.0786363
40
0.2000415
50
0.0193694
51
77.457571
0
ARC
8
DEFAULT_255_2_778
10
44.607908
20
13.3290788
40
0.150826
50
90.1994719
51
179.8005281
0
ARC
8
DEFAULT_255_2_778
10
44.6203395
20
12.5788166
40
0.9010879
50
43.2112453
51
90.0671804
0
ARC
8
DEFAULT_255_2_778
10
44.6224141
20
12.5775155
40
0.9004698
50
359.9229043
51
43.3619619
0
ARC
8
DEFAULT_255_2_778
10
44.622021
20
12.5752135
40
0.9008626
50
313.5493017
51
0.0693494
0
ARC
8
DEFAULT_255_2_778
10
44.6205043
20
12.5733974
40
0.9005944
50
269.9222978
51
313.6988397
0
ARC
8
DEFAULT_255_2_778
10
44.607908
20
11.823629
40
0.150826
50
180.1994719
51
269.8005281
0
ARC
8
DEFAULT_255_2_778
10
44.6080473
20
12.0506591
40
0.150965
50
116.0361413
51
179.8312102
0
ARC
8
DEFAULT_255_2_778
10
44.3522061
20
12.576795
40
0.4340768
50
295.8957901
51
359.9879736
0
ARC
8
DEFAULT_255_2_778
10
44.3523171
20
12.5766822
40
0.4339659
50
0.0028601
51
64.1133856
0
ARC
8
DEFAULT_255_2_778
10
44.6081593
20
13.1028187
40
0.1510772
50
180.1952486
51
243.9373516
0
ARC
8
DEFAULT_255_2_778
10
44.3522921
20
12.5760948
40
0.2169092
50
89.9760068
51
179.9975968
0
ARC
8
DEFAULT_255_2_778
10
44.352395
20
12.576116
40
0.2168879
50
359.9968081
51
90.0031919
0
ARC
8
DEFAULT_255_2_778
10
44.3523738
20
12.5760132
40
0.2169092
50
270.0024164
51
0.0239614
0
ARC
8
DEFAULT_255_2_778
10
44.3523134
20
12.5760344
40
0.2169306
50
179.9816569
51
270.0183695
0
ARC
8
DEFAULT_255_2_778
10
43.4551226
20
13.3291646
40
0.1507403
50
90.2051079
51
179.8330257
0
ARC
8
DEFAULT_255_2_778
10
44.0967579
20
13.3290788
40
0.150826
50
0.1994719
51
89.8005281
0
ARC
8
DEFAULT_255_2_778
10
44.0966855
20
13.1019066
40
0.150898
50
296.0203423
51
359.8470745
0
ARC
8
DEFAULT_255_2_778
10
44.3523488
20
12.5758822
40
0.4339659
50
115.8866144
51
179.9971399
0
ARC
8
DEFAULT_255_2_778
10
44.3524603
20
12.5759954
40
0.4340774
50
180.0120765
51
244.1041674
0
ARC
8
DEFAULT_255_2_778
10
44.0969083
20
12.0500407
40
0.1506749
50
0.1000613
51
64.0325219
0
ARC
8
DEFAULT_255_2_778
10
44.0967579
20
11.397629
40
0.150826
50
270.1994719
51
359.8005281
0
ARC
8
DEFAULT_255_2_778
10
43.4551226
20
11.3975432
40
0.1507403
50
180.1669743
51
269.7948921
0
ARC
8
DEFAULT_255_2_778
10
31.3419
20
24.1287307
40
0.2998732
50
89.9841575
51
178.1514568
0
LINE
8
DEFAULT_255_2_778
10
6.003883
20
40.9283039
11
6.003883
21
42.1784039
0
LINE
8
DEFAULT_255_2_778
10
6.003883
20
42.1784039
11
6.303983
21
41.0587039
0
LINE
8
DEFAULT_255_2_778
10
6.303983
20
41.0587039
11
7.304083
21
41.0587039
0
LINE
8
DEFAULT_255_2_778
10
7.304083
20
41.0587039
11
7.304083
21
69.8179039
0
LINE
8
DEFAULT_255_2_778
10
25.898183
20
85.3812039
11
25.994983
21
85.4029039
0
LINE
8
DEFAULT_255_2_778
10
25.994983
20
94.5548039
11
25.898183
21
94.5765039
0
LINE
8
DEFAULT_255_2_778
10
23.528883
20
94.7075039
11
23.528883
21
85.2502039
0
LINE
8
DEFAULT_255_2_778
10
24.428983
20
85.2973039
11
24.428983
21
94.6604039
0
LINE
8
DEFAULT_255_2_778
10
23.394983
20
94.7146039
11
25.781283
21
94.5895039
0
LINE
8
DEFAULT_255_2_778
10
25.781283
20
94.5895039
11
25.898183
21
94.5765039
0
LINE
8
DEFAULT_255_2_778
10
25.898183
20
94.5765039
11
25.898183
21
85.3815039
0
LINE
8
DEFAULT_255_2_778
10
25.898183
20
85.3815039
11
25.781283
21
85.3685039
0
LINE
8
DEFAULT_255_2_778
10
25.781283
20
85.3685039
11
23.394983
21
85.2433039
0
LINE
8
DEFAULT_255_2_778
10
23.411883
20
95.2814039
11
23.448183
21
95.1827039
0
LINE
8
DEFAULT_255_2_778
10
23.777583
20
95.2745039
11
23.773883
21
95.2660039
0
LINE
8
DEFAULT_255_2_778
10
23.773883
20
95.2660039
11
23.729683
21
95.1660039
0
LINE
8
DEFAULT_255_2_778
10
23.729683
20
95.1660039
11
23.688383
21
95.0718039
0
LINE
8
DEFAULT_255_2_778
10
23.688383
20
95.0718039
11
23.650283
21
94.9837039
0
LINE
8
DEFAULT_255_2_778
10
23.650283
20
94.9837039
11
23.593683
21
94.8514039
0
LINE
8
DEFAULT_255_2_778
10
23.593683
20
94.8514039
11
23.551883
21
94.7554039
0
LINE
8
DEFAULT_255_2_778
10
23.551883
20
94.7554039
11
23.524083
21
94.6972039
0
LINE
8
DEFAULT_255_2_778
10
23.524083
20
94.6972039
11
23.519883
21
94.6898039
0
LINE
8
DEFAULT_255_2_778
10
25.995583
20
95.2785039
11
25.995583
21
84.3784039
0
LINE
8
DEFAULT_255_2_778
10
25.995583
20
84.3784039
11
23.395483
21
84.3784039
0
LINE
8
DEFAULT_255_2_778
10
23.395483
20
84.3784039
11
23.395483
21
95.2782039
0
LINE
8
DEFAULT_255_2_778
10
23.395483
20
95.2782039
11
25.995583
21
95.2785039
0
LINE
8
DEFAULT_255_2_778
10
25.898183
20
21.1311039
11
25.994983
21
21.1528039
0
LINE
8
DEFAULT_255_2_778
10
25.994983
20
30.3047039
11
25.898183
21
30.3264039
0
LINE
8
DEFAULT_255_2_778
10
23.394983
20
20.9933039
11
25.781283
21
21.1184039
0
LINE
8
DEFAULT_255_2_778
10
25.781283
20
21.1184039
11
25.898183
21
21.1314039
0
LINE
8
DEFAULT_255_2_778
10
25.898183
20
21.1314039
11
25.898183
21
30.3264039
0
LINE
8
DEFAULT_255_2_778
10
25.898183
20
30.3264039
11
25.781283
21
30.3394039
0
LINE
8
DEFAULT_255_2_778
10
25.781283
20
30.3394039
11
23.394983
21
30.4645039
0
LINE
8
DEFAULT_255_2_778
10
23.528883
20
30.4574039
11
23.528883
21
21.0001039
0
LINE
8
DEFAULT_255_2_778
10
24.428983
20
21.0472039
11
24.428983
21
30.4103039
0
LINE
8
DEFAULT_255_2_778
10
25.994983
20
20.3781039
11
25.994983
21
31.2781039
0
LINE
8
DEFAULT_255_2_778
10
25.994983
20
31.2781039
11
23.394983
21
31.2781039
0
LINE
8
DEFAULT_255_2_778
10
23.394983
20
31.2781039
11
23.394983
21
20.3781039
0
LINE
8
DEFAULT_255_2_778
10
23.394983
20
20.3781039
11
25.994983
21
20.3781039
0
LINE
8
DEFAULT_255_2_778
10
30.638483
20
14.5382039
11
35.329283
21
14.5382039
0
LINE
8
DEFAULT_255_2_778
10
35.329283
20
14.5382039
11
35.579283
21
14.2882039
0
LINE
8
DEFAULT_255_2_778
10
35.579283
20
14.2882039
11
45.329183
21
14.2882039
0
LINE
8
DEFAULT_255_2_778
10
45.329183
20
14.2882039
11
45.579183
21
14.5382039
0
LINE
8
DEFAULT_255_2_778
10
45.579183
20
14.5382039
11
46.129283
21
14.5382039
0
LINE
8
DEFAULT_255_2_778
10
46.329283
20
14.3382039
11
46.329283
21
12.4382039
0
LINE
8
DEFAULT_255_2_778
10
46.329283
20
12.4382039
11
47.431883
21
12.0368039
0
LINE
8
DEFAULT_255_2_778
10
47.629183
20
11.7551039
11
47.629183
21
9.9215039
0
LINE
8
DEFAULT_255_2_778
10
47.431883
20
9.6397039
11
46.329283
21
9.2383039
0
LINE
8
DEFAULT_255_2_778
10
46.329283
20
9.2383039
11
46.329283
21
3.9385039
0
LINE
8
DEFAULT_255_2_778
10
46.029283
20
3.6384039
11
43.529183
21
3.6384039
0
LINE
8
DEFAULT_255_2_778
10
43.529183
20
3.6384039
11
43.329183
21
3.8385039
0
LINE
8
DEFAULT_255_2_778
10
43.329183
20
3.8385039
11
35.579283
21
3.8385039
0
LINE
8
DEFAULT_255_2_778
10
35.579283
20
3.8385039
11
35.379283
21
3.6384039
0
LINE
8
DEFAULT_255_2_778
10
35.379283
20
3.6384039
11
30.189683
21
3.6384039
0
LINE
8
DEFAULT_255_2_778
10
30.189683
20
3.6384039
11
30.189683
21
7.1484039
0
LINE
8
DEFAULT_255_2_778
10
30.189683
20
7.1484039
11
33.439583
21
7.1484039
0
LINE
8
DEFAULT_255_2_778
10
33.439583
20
7.1484039
11
33.439583
21
5.9485039
0
LINE
8
DEFAULT_255_2_778
10
33.439583
20
5.9485039
11
30.189683
21
5.9485039
0
LINE
8
DEFAULT_255_2_778
10
30.063483
20
3.8538039
11
30.058483
21
3.7789039
0
LINE
8
DEFAULT_255_2_778
10
30.058483
20
3.7789039
11
30.052983
21
3.6869039
0
LINE
8
DEFAULT_255_2_778
10
30.012183
20
3.0548039
11
30.011383
21
3.0447039
0
LINE
8
DEFAULT_255_2_778
10
30.050283
20
3.6453039
11
30.043183
21
3.5395039
0
LINE
8
DEFAULT_255_2_778
10
30.043183
20
3.5395039
11
30.041283
21
3.5096039
0
LINE
8
DEFAULT_255_2_778
10
30.062983
20
3.8416039
11
30.052983
21
3.7001039
0
LINE
8
DEFAULT_255_2_778
10
30.052983
20
3.7001039
11
30.042883
21
3.5289039
0
LINE
8
DEFAULT_255_2_778
10
30.042883
20
3.5289039
11
30.032883
21
3.3596039
0
LINE
8
DEFAULT_255_2_778
10
30.032883
20
3.3596039
11
30.022783
21
3.2225039
0
LINE
8
DEFAULT_255_2_778
10
30.022783
20
3.2225039
11
30.020683
21
3.1897039
0
LINE
8
DEFAULT_255_2_778
10
45.339283
20
3.6382039
11
45.339283
21
0.8481039
0
LINE
8
DEFAULT_255_2_778
10
45.039183
20
0.5481039
11
30.139983
21
0.5481039
0
LINE
8
DEFAULT_255_2_778
10
30.139983
20
0.5481039
11
30.139983
21
2.1406039
0
LINE
8
DEFAULT_255_2_778
10
30.080983
20
4.4830039
11
30.189983
21
4.4830039
0
LINE
8
DEFAULT_255_2_778
10
30.402683
20
9.7979039
11
33.440183
21
9.7979039
0
LINE
8
DEFAULT_255_2_778
10
33.440183
20
9.7979039
11
33.440183
21
8.5981039
0
LINE
8
DEFAULT_255_2_778
10
33.440183
20
8.5981039
11
30.330183
21
8.5981039
0
LINE
8
DEFAULT_255_2_778
10
30.190283
20
5.3765039
11
30.135483
21
5.3765039
0
LINE
8
DEFAULT_255_2_778
10
30.040483
20
3.5281039
11
30.040483
21
3.8051039
0
LINE
8
DEFAULT_255_2_778
10
29.825883
20
0.2676039
11
29.823783
21
0.3079039
0
LINE
8
DEFAULT_255_2_778
10
32.733983
20
3.6382039
11
29.945483
21
2.0282039
0
LINE
8
DEFAULT_255_2_778
10
29.984383
20
2.6161039
11
31.754783
21
3.6382039
0
LINE
8
DEFAULT_255_2_778
10
46.840783
20
9.4241039
11
46.840783
21
6.1493039
0
LINE
8
DEFAULT_255_2_778
10
46.643383
20
5.8676039
11
46.330383
21
5.7535039
0
LINE
8
DEFAULT_255_2_778
10
46.840783
20
12.6933039
11
47.360683
21
12.6933039
0
LINE
8
DEFAULT_255_2_778
10
47.560683
20
12.8933039
11
47.560683
21
13.0081039
0
LINE
8
DEFAULT_255_2_778
10
47.364883
20
13.2521039
11
46.840783
21
13.3682039
0
LINE
8
DEFAULT_255_2_778
10
46.577183
20
14.6933039
11
47.360883
21
14.6933039
0
LINE
8
DEFAULT_255_2_778
10
47.560983
20
14.4932039
11
47.560983
21
14.3784039
0
LINE
8
DEFAULT_255_2_778
10
47.365183
20
14.1345039
11
46.840983
21
14.0183039
0
LINE
8
DEFAULT_255_2_778
10
37.141083
20
22.6482039
11
45.141083
21
22.6482039
0
LINE
8
DEFAULT_255_2_778
10
45.341083
20
22.4482039
11
45.341083
21
15.3531039
0
LINE
8
DEFAULT_255_2_778
10
45.538483
20
15.0713039
11
46.643683
21
14.6692039
0
LINE
8
DEFAULT_255_2_778
10
46.840983
20
14.3874039
11
46.840983
21
12.2525039
0
LINE
8
DEFAULT_255_2_778
10
37.141083
20
22.3947039
11
36.987683
21
22.3947039
0
LINE
8
DEFAULT_255_2_778
10
36.983683
20
22.2791039
11
37.141383
21
22.2791039
0
LINE
8
DEFAULT_255_2_778
10
37.141383
20
22.2791039
11
37.141383
21
22.6485039
0
LINE
8
DEFAULT_255_2_778
10
37.141383
20
22.6485039
11
44.541483
21
22.6485039
0
LINE
8
DEFAULT_255_2_778
10
44.541483
20
22.6485039
11
44.541483
21
20.7485039
0
LINE
8
DEFAULT_255_2_778
10
44.541483
20
20.7485039
11
36.926583
21
20.7485039
0
LINE
8
DEFAULT_255_2_778
10
46.839983
20
7.1685039
11
47.364083
21
7.2847039
0
LINE
8
DEFAULT_255_2_778
10
47.559883
20
7.5286039
11
47.559883
21
7.6434039
0
LINE
8
DEFAULT_255_2_778
10
47.359883
20
7.8435039
11
46.839983
21
7.8435039
0
LINE
8
DEFAULT_255_2_778
10
46.576483
20
5.8435039
11
47.360083
21
5.8435039
0
LINE
8
DEFAULT_255_2_778
10
47.560183
20
6.0435039
11
47.560183
21
6.1583039
0
LINE
8
DEFAULT_255_2_778
10
47.364383
20
6.4023039
11
46.840183
21
6.5184039
0
LINE
8
DEFAULT_255_2_778
10
42.050983
20
17.2483039
11
44.629383
21
17.2483039
0
LINE
8
DEFAULT_255_2_778
10
44.840283
20
17.4592039
11
44.840283
21
20.0376039
0
LINE
8
DEFAULT_255_2_778
10
44.629383
20
20.2485039
11
42.050983
21
20.2485039
0
LINE
8
DEFAULT_255_2_778
10
41.840083
20
20.0376039
11
41.840083
21
17.4592039
0
LINE
8
DEFAULT_255_2_778
10
42.050983
20
17.2483039
11
42.050983
21
17.2483039
0
LINE
8
DEFAULT_255_2_778
10
43.056683
20
18.9721039
11
43.056683
21
18.9721039
0
LINE
8
DEFAULT_255_2_778
10
43.174983
20
19.5253039
11
43.174983
21
19.7653039
0
LINE
8
DEFAULT_255_2_778
10
43.016683
20
19.9235039
11
42.340183
21
19.9235039
0
LINE
8
DEFAULT_255_2_778
10
42.181983
20
19.7653039
11
42.181983
21
17.7315039
0
LINE
8
DEFAULT_255_2_778
10
42.340183
20
17.5732039
11
43.016683
21
17.5732039
0
LINE
8
DEFAULT_255_2_778
10
43.174983
20
17.7315039
11
43.174983
21
18.4191039
0
LINE
8
DEFAULT_255_2_778
10
43.085783
20
18.5615039
11
43.085783
21
18.5612039
0
LINE
8
DEFAULT_255_2_778
10
43.395383
20
18.4189039
11
43.395383
21
18.1789039
0
LINE
8
DEFAULT_255_2_778
10
43.553583
20
18.0207039
11
43.566283
21
18.0207039
0
LINE
8
DEFAULT_255_2_778
10
43.566283
20
19.9230039
11
43.553583
21
19.9230039
0
LINE
8
DEFAULT_255_2_778
10
43.395383
20
19.7648039
11
43.395383
21
19.5248039
0
LINE
8
DEFAULT_255_2_778
10
43.484483
20
19.3825039
11
43.484483
21
19.3830039
0
LINE
8
DEFAULT_255_2_778
10
45.629483
20
10.9383039
11
43.179983
21
10.9383039
0
LINE
8
DEFAULT_255_2_778
10
42.979683
20
11.1386039
11
42.979683
21
13.5881039
0
LINE
8
DEFAULT_255_2_778
10
43.179983
20
13.7884039
11
45.629483
21
13.7884039
0
LINE
8
DEFAULT_255_2_778
10
45.829783
20
13.5881039
11
45.829783
21
11.1386039
0
LINE
8
DEFAULT_255_2_778
10
30.539283
20
12.2385039
11
33.440183
21
12.2385039
0
LINE
8
DEFAULT_255_2_778
10
33.440183
20
12.2385039
11
33.440183
21
11.2383039
0
LINE
8
DEFAULT_255_2_778
10
33.440183
20
11.2383039
11
30.490083
21
11.2383039
0
LINE
8
DEFAULT_255_2_778
10
47.629783
20
11.3468039
11
47.882683
21
11.4029039
0
LINE
8
DEFAULT_255_2_778
10
48.039283
20
11.5982039
11
48.039283
21
11.6884039
0
LINE
8
DEFAULT_255_2_778
10
47.839283
20
11.8884039
11
47.598283
21
11.8884039
0
LINE
8
DEFAULT_255_2_778
10
47.598283
20
9.7884039
11
47.839283
21
9.7884039
0
LINE
8
DEFAULT_255_2_778
10
48.039283
20
9.9884039
11
48.039283
21
10.0787039
0
LINE
8
DEFAULT_255_2_778
10
47.882683
20
10.2739039
11
47.629783
21
10.3300039
0
LINE
8
DEFAULT_255_2_778
10
44.607383
20
13.4799039
11
44.619283
21
13.4799039
0
LINE
8
DEFAULT_255_2_778
10
44.619283
20
11.6728039
11
44.607383
21
11.6728039
0
LINE
8
DEFAULT_255_2_778
10
44.457083
20
11.8231039
11
44.457083
21
12.0511039
0
LINE
8
DEFAULT_255_2_778
10
44.457083
20
13.1023039
11
44.457083
21
13.3296039
0
LINE
8
DEFAULT_255_2_778
10
44.135383
20
12.5761039
11
44.135383
21
12.5761039
0
LINE
8
DEFAULT_255_2_778
10
43.454583
20
13.4799039
11
44.097283
21
13.4799039
0
LINE
8
DEFAULT_255_2_778
10
44.247583
20
13.3296039
11
44.247583
21
13.1015039
0
LINE
8
DEFAULT_255_2_778
10
44.247583
20
12.0503039
11
44.247583
21
11.3971039
0
LINE
8
DEFAULT_255_2_778
10
44.097283
20
11.2468039
11
43.454583
21
11.2468039
0
LINE
8
DEFAULT_255_2_778
10
43.304383
20
11.3971039
11
43.304383
21
13.3296039
0
LINE
8
DEFAULT_255_2_778
10
36.945583
20
24.4167039
11
36.520683
21
14.2718039
0
LINE
8
DEFAULT_255_2_778
10
37.432983
20
24.4167039
11
37.008083
21
14.2718039
0
LINE
8
DEFAULT_255_2_778
10
31.370283
20
24.9284039
11
31.667383
21
24.9189039
0
LINE
8
DEFAULT_255_2_778
10
31.667383
20
24.9189039
11
31.367683
21
24.9281039
0
LINE
8
DEFAULT_255_2_778
10
31.367683
20
24.9281039
11
31.067883
21
24.9377039
0
LINE
8
DEFAULT_255_2_778
10
31.051783
20
24.8723039
11
31.051783
21
24.4283039
0
LINE
8
DEFAULT_255_2_778
10
37.099583
20
24.9284039
11
37.095383
21
24.4283039
0
LINE
8
DEFAULT_255_2_778
10
37.095383
20
24.4283039
11
31.342283
21
24.4283039
0
LINE
8
DEFAULT_255_2_778
10
31.342283
20
24.4283039
11
31.365283
21
24.9284039
0
ARC
8
DEFAULT_255_2_778
10
17.2025822
20
115.0524866
40
0.5026972
50
57.3341604
51
72.1457742
0
ARC
8
DEFAULT_255_2_778
10
6.3904505
20
114.2751195
40
0.4984607
50
171.0142418
51
179.575012
0
ARC
8
DEFAULT_255_2_778
10
6.3963553
20
114.2750321
40
0.504366
50
179.5700567
51
179.9969479
0
ARC
8
DEFAULT_255_2_778
10
6.3947371
20
114.2751388
40
0.5027477
50
180.0091029
51
192.914825
0
ARC
8
DEFAULT_255_2_778
10
8.209186
20
86.9472823
40
30.0119888
50
90.9830886
51
93.6445908
0
ARC
8
DEFAULT_255_2_778
10
8.2091304
20
86.9505028
40
30.008768
50
90.0000097
51
90.983088
0
ARC
8
DEFAULT_255_2_778
10
8.2092819
20
86.9562701
40
30.0030005
50
80.4570093
51
90.0002989
0
ARC
8
DEFAULT_255_2_778
10
4.6739642
20
103.4400644
40
0.4983046
50
180.0279603
51
192.9878029
0
ARC
8
DEFAULT_255_2_778
10
4.6745921
20
103.4401466
40
0.4989323
50
179.1577534
51
180.0373649
0
ARC
8
DEFAULT_255_2_778
10
4.6771654
20
103.4400867
40
0.5015062
50
171.0192017
51
179.1552397
0
ARC
8
DEFAULT_255_2_778
10
17.4585214
20
115.1819861
40
0.2671325
50
16.4592232
51
77.0013003
0
ARC
8
DEFAULT_255_2_778
10
6.5691185
20
116.5968289
40
0.2752812
50
89.06568
51
89.99687
0
ARC
8
DEFAULT_255_2_778
10
6.5690981
20
116.5995842
40
0.2725259
50
89.9925443
51
153.0317827
0
ARC
8
DEFAULT_255_2_778
10
17.4219053
20
115.1529382
40
0.3159457
50
59.5741732
51
71.566734
0
ARC
8
DEFAULT_255_2_778
10
6.589838
20
116.5956449
40
0.2874013
50
92.9180086
51
107.4806539
0
ARC
8
DEFAULT_255_2_778
10
8.2279589
20
86.9277097
40
30.0005345
50
71.9534591
51
89.9997606
0
ARC
8
DEFAULT_255_2_778
10
8.2280887
20
86.9299637
40
29.9982805
50
90.0000085
51
92.5043609
0
ARC
8
DEFAULT_255_2_778
10
8.2281926
20
86.9277801
40
30.0004666
50
92.504377
51
93.1585198
0
ARC
8
DEFAULT_255_2_778
10
11.6422695
20
116.4233387
40
5.0878392
50
174.8202309
51
179.9965297
0
ARC
8
DEFAULT_255_2_778
10
11.6211592
20
116.4236245
40
5.0667291
50
179.9997465
51
180.4789195
0
ARC
8
DEFAULT_255_2_778
10
17.431615
20
115.1679671
40
0.2973924
50
359.9434538
51
23.75688
0
ARC
8
DEFAULT_255_2_778
10
17.5423055
20
113.7104927
40
0.1879493
50
327.0324987
51
353.3948678
0
ARC
8
DEFAULT_255_2_778
10
16.537638
20
114.2866898
40
1.3458785
50
323.5340464
51
329.7276416
0
ARC
8
DEFAULT_255_2_778
10
11.5342289
20
117.9194243
40
7.5289502
50
321.8426655
51
323.9318213
0
LINE
8
DEFAULT_255_2_778
10
17.4543718
20
113.2678655
11
17.4524814
21
113.2654285
0
ARC
8
DEFAULT_255_2_778
10
67.326677
20
74.5677586
40
63.1264211
50
142.1919115
51
142.2342386
0
ARC
8
DEFAULT_255_2_778
10
5.3474084
20
73.5619027
40
0.1985736
50
214.0804662
51
222.3728442
0
ARC
8
DEFAULT_255_2_778
10
8.6556662
20
76.0138899
40
4.316263
50
215.7047952
51
216.4314589
0
ARC
8
DEFAULT_255_2_778
10
18.0576667
20
82.7794059
40
15.8994321
50
215.283072
51
215.7290835
0
ARC
8
DEFAULT_255_2_778
10
31.9135296
20
92.5994393
40
32.8823034
50
215.0281926
51
215.3053754
0
ARC
8
DEFAULT_255_2_778
10
4.2064015
20
73.4307172
40
0.0063688
50
172.2348399
51
204.5249577
0
ARC
8
DEFAULT_255_2_778
10
4.2894357
20
73.4340334
40
0.0893783
50
179.8974999
51
181.5744283
0
ARC
8
DEFAULT_255_2_778
10
4.9601121
20
73.420457
40
0.7601788
50
176.1520385
51
178.9646176
0
ARC
8
DEFAULT_255_2_778
10
9.8947403
20
73.1211152
40
5.7038636
50
175.5624104
51
176.4784213
0
ARC
8
DEFAULT_255_2_778
10
20.9980291
20
72.2741218
40
16.8394078
50
175.0467882
51
175.6122298
0
ARC
8
DEFAULT_255_2_778
10
7.5286659
20
71.4281261
40
0.9996086
50
179.9886821
51
210.0031916
0
ARC
8
DEFAULT_255_2_778
10
7.5286674
20
71.4285208
40
0.9996102
50
149.9968419
51
180.0113066
0
ARC
8
DEFAULT_255_2_778
10
6.4756236
20
76.6624254
40
0.1986675
50
214.1048863
51
222.3960557
0
ARC
8
DEFAULT_255_2_778
10
9.7666252
20
79.1037139
40
4.2961235
50
215.724139
51
216.4544059
0
ARC
8
DEFAULT_255_2_778
10
18.9571997
20
85.7217788
40
15.6215563
50
215.2942089
51
215.7482399
0
ARC
8
DEFAULT_255_2_778
10
32.0067948
20
94.9745907
40
31.6186307
50
215.0283551
51
215.3166362
0
ARC
8
DEFAULT_255_2_778
10
4.5537102
20
41.0349989
40
0.2000971
50
0.0500208
51
58.3162596
0
ARC
8
DEFAULT_255_2_778
10
4.553853
20
41.035746
40
0.1993866
50
58.238404
51
90.0088715
0
ARC
8
DEFAULT_255_2_778
10
4.5538367
20
41.0345748
40
0.2005579
50
90.0041905
51
90.7886806
0
ARC
8
DEFAULT_255_2_778
10
4.5538526
20
41.0350784
40
0.2000546
50
90.7952032
51
116.59009
0
ARC
8
DEFAULT_255_2_778
10
3.1539076
20
40.3349048
40
0.2001003
50
116.5691214
51
179.951662
0
ARC
8
DEFAULT_255_2_778
10
16.3992545
20
37.9336264
40
0.0298529
50
269.9094369
51
0.0904673
0
ARC
8
DEFAULT_255_2_778
10
15.8091602
20
37.9336266
40
0.029853
50
179.909793
51
270.0903987
0
ARC
8
DEFAULT_255_2_778
10
15.8090965
20
37.2738843
40
0.0297895
50
89.7870088
51
180.2130304
0
ARC
8
DEFAULT_255_2_778
10
16.3992544
20
37.2738207
40
0.029853
50
359.909533
51
90.0903712
0
ARC
8
DEFAULT_255_2_778
10
9.629082
20
37.6875386
40
0.3000747
50
180.0315082
51
267.0057318
0
ARC
8
DEFAULT_255_2_778
10
9.6288022
20
37.8223743
40
0.2997949
50
92.9435154
51
180.0192446
0
ARC
8
DEFAULT_255_2_778
10
9.6292185
20
77.8865682
40
0.3002113
50
180.0562309
51
266.9810091
0
ARC
8
DEFAULT_255_2_778
10
9.6288701
20
78.0213097
40
0.2998628
50
92.9558391
51
180.0069108
0
ARC
8
DEFAULT_255_2_778
10
9.6292185
20
84.0862682
40
0.3002113
50
180.0562309
51
266.9810091
0
ARC
8
DEFAULT_255_2_778
10
9.6288703
20
84.2210096
40
0.2998631
50
92.9558859
51
180.0068781
0
ARC
8
DEFAULT_255_2_778
10
8.2206629
20
86.9293648
40
29.4988016
50
71.8209792
51
90.0002205
0
ARC
8
DEFAULT_255_2_778
10
8.2205532
20
86.9269664
40
29.5012
50
90.0000074
51
92.5074954
0
ARC
8
DEFAULT_255_2_778
10
8.2207001
20
86.9235938
40
29.5045757
50
92.5074938
51
93.2377387
0
ARC
8
DEFAULT_255_2_778
10
14.5250289
20
3.9170926
40
0.9963226
50
138.3541388
51
180.0816049
0
ARC
8
DEFAULT_255_2_778
10
14.5276909
20
3.9181121
40
0.9976376
50
91.732932
51
138.4994886
0
ARC
8
DEFAULT_255_2_778
10
14.5287976
20
3.8970144
40
1.0187592
50
89.9994554
51
91.7592612
0
ARC
8
DEFAULT_255_2_778
10
17.8304308
20
5.9120543
40
0.9962817
50
269.9181321
51
311.647603
0
ARC
8
DEFAULT_255_2_778
10
17.8313266
20
5.9148192
40
0.9977557
50
311.5036522
51
358.2691355
0
ARC
8
DEFAULT_255_2_778
10
17.8099835
20
5.9159639
40
1.0191238
50
358.2410549
51
0.0005447
0
ARC
8
DEFAULT_255_2_778
10
9.6292185
20
31.4868682
40
0.3002113
50
180.0562309
51
266.9810091
0
ARC
8
DEFAULT_255_2_778
10
9.628893
20
31.621588
40
0.2998857
50
92.9599946
51
180.021867
0
ARC
8
DEFAULT_255_2_778
10
36.4000438
20
45.5278704
40
0.2265508
50
184.5610277
51
190.5285968
0
ARC
8
DEFAULT_255_2_778
10
42.9733898
20
46.2543366
40
6.8398168
50
185.6238544
51
186.2487553
0
ARC
8
DEFAULT_255_2_778
10
58.9361323
20
47.8447855
40
22.8815927
50
185.3072457
51
185.6701506
0
ARC
8
DEFAULT_255_2_778
10
66.1302906
20
48.5218703
40
30.1075389
50
185.2156177
51
185.3238929
0
ARC
8
DEFAULT_255_2_778
10
31.8373932
20
45.4206103
40
0.4428284
50
165.0735355
51
171.9694906
0
ARC
8
DEFAULT_255_2_778
10
32.0323086
20
45.3643817
40
0.6456631
50
155.5156243
51
164.707473
0
ARC
8
DEFAULT_255_2_778
10
36.0944859
20
46.3852528
40
0.3032048
50
275.359621
51
300.7488647
0
ARC
8
DEFAULT_255_2_778
10
31.7591398
20
46.1166707
40
4.3637212
50
359.981421
51
6.130321
0
ARC
8
DEFAULT_255_2_778
10
31.6633003
20
46.1152975
40
4.4595603
50
359.7196085
51
359.9994626
0
ARC
8
DEFAULT_255_2_778
10
36.1150457
20
46.3710259
40
0.2776608
50
271.6018303
51
340.3319642
0
ARC
8
DEFAULT_255_2_778
10
70.9055396
20
26.1976151
40
0.2956147
50
274.145083
51
355.4129297
0
ARC
8
DEFAULT_255_2_778
10
73.1020179
20
111.7605992
40
0.2962151
50
3.0719885
51
85.4323505
0
ARC
8
DEFAULT_255_2_778
10
70.9008403
20
26.1913729
40
0.300233
50
274.9808303
51
333.1506069
0
ARC
8
DEFAULT_255_2_778
10
73.0981805
20
111.7674155
40
0.3001324
50
22.0260508
51
84.7185231
0
ARC
8
DEFAULT_255_2_778
10
71.5567316
20
105.3274974
40
2.2993323
50
338.37365
51
359.4004744
0
ARC
8
DEFAULT_255_2_778
10
71.5543403
20
105.3276173
40
2.3017249
50
359.3981112
51
359.9995141
0
ARC
8
DEFAULT_255_2_778
10
71.5551241
20
105.3276286
40
2.3009409
50
359.999233
51
25.5873316
0
ARC
8
DEFAULT_255_2_778
10
73.8111722
20
106.4081432
40
0.2005117
50
182.1921171
51
205.6416377
0
ARC
8
DEFAULT_255_2_778
10
73.0552117
20
111.763435
40
0.343019
50
2.8471915
51
8.2192645
0
ARC
8
DEFAULT_255_2_778
10
70.8965524
20
26.1919827
40
0.3041668
50
339.7436005
51
355.8127399
0
ARC
8
DEFAULT_255_2_778
10
72.8299514
20
45.5589934
40
0.4999498
50
95.2152361
51
177.4228381
0
ARC
8
DEFAULT_255_2_778
10
64.1653045
20
45.4898914
40
8.7746583
50
3.7865933
51
5.7438713
0
ARC
8
DEFAULT_255_2_778
10
72.8750665
20
46.567194
40
0.4999173
50
275.2497106
51
357.4983603
0
ARC
8
DEFAULT_255_2_778
10
-675.8589049
20
79.4286169
40
749.9546744
50
357.4869477
51
359.9999913
0
ARC
8
DEFAULT_255_2_778
10
-675.9503107
20
79.4283886
40
750.0460802
50
0.0000087
51
0.1008288
0
ARC
8
DEFAULT_255_2_778
10
-675.823666
20
79.4286239
40
749.9194353
50
0.1008279
51
1.9082054
0
ARC
8
DEFAULT_255_2_778
10
73.8787292
20
104.4061912
40
0.1989288
50
179.9973697
51
181.8775643
0
ARC
8
DEFAULT_255_2_778
10
73.8809551
20
104.4060714
40
0.2011547
50
158.4146532
51
179.9632696
0
ARC
8
DEFAULT_255_2_778
10
36.9511079
20
113.7080088
40
0.1461152
50
358.8823908
51
7.69501
0
ARC
8
DEFAULT_255_2_778
10
32.2413819
20
113.5858098
40
4.8572799
50
0.5865213
51
1.4079656
0
ARC
8
DEFAULT_255_2_778
10
16.4068683
20
113.3985832
40
20.6928958
50
0.3117251
51
0.6560918
0
ARC
8
DEFAULT_255_2_778
10
-8.7882389
20
113.2525035
40
45.8884257
50
0.0655279
51
0.3229636
0
ARC
8
DEFAULT_255_2_778
10
-22.1490124
20
113.227704
40
59.2492196
50
359.9997771
51
0.0747331
0
LINE
8
DEFAULT_255_2_778
10
4.4543073
20
105.0079736
11
4.4191073
21
105.0140736
0
LINE
8
DEFAULT_255_2_778
10
5.7756073
20
113.3496736
11
5.7404073
21
113.3557736
0
LINE
8
DEFAULT_255_2_778
10
17.3567073
20
115.5309736
11
15.5094073
21
116.0577736
0
LINE
8
DEFAULT_255_2_778
10
6.2662073
20
116.6765736
11
6.3014073
21
116.8985736
0
LINE
8
DEFAULT_255_2_778
10
4.1818073
20
103.5183736
11
6.2209073
21
116.3924736
0
LINE
8
DEFAULT_255_2_778
10
6.2209073
20
116.3924736
11
6.2754073
21
116.3961736
0
LINE
8
DEFAULT_255_2_778
10
19.1948073
20
112.1768736
11
18.8288073
21
112.2344736
0
LINE
8
DEFAULT_255_2_778
10
6.5649073
20
116.3810736
11
6.8559073
21
116.3341736
0
LINE
8
DEFAULT_255_2_778
10
6.8559073
20
116.3341736
11
6.5596073
21
116.3802736
0
LINE
8
DEFAULT_255_2_778
10
6.5596073
20
116.3802736
11
6.2635073
21
116.4278736
0
LINE
8
DEFAULT_255_2_778
10
19.1950073
20
96.1729736
11
18.8291073
21
96.1538736
0
LINE
8
DEFAULT_255_2_778
10
17.7290073
20
114.9557736
11
17.4236073
21
114.9557736
0
LINE
8
DEFAULT_255_2_778
10
17.4236073
20
114.9557736
11
17.4374073
21
115.0274736
0
LINE
8
DEFAULT_255_2_778
10
17.4374073
20
115.0274736
11
17.4520073
21
115.1009736
0
LINE
8
DEFAULT_255_2_778
10
17.4520073
20
115.1009736
11
17.4662073
21
115.1740736
0
LINE
8
DEFAULT_255_2_778
10
17.4662073
20
115.1740736
11
17.4795073
21
115.2433736
0
LINE
8
DEFAULT_255_2_778
10
17.4795073
20
115.2433736
11
17.4908073
21
115.3062736
0
LINE
8
DEFAULT_255_2_778
10
17.4908073
20
115.3062736
11
17.5051073
21
115.3816736
0
LINE
8
DEFAULT_255_2_778
10
17.5051073
20
115.3816736
11
17.5168073
21
115.4340736
0
LINE
8
DEFAULT_255_2_778
10
17.5168073
20
115.4340736
11
17.5218073
21
115.4523736
0
LINE
8
DEFAULT_255_2_778
10
18.8291073
20
94.9540736
11
19.1950073
21
94.9349736
0
LINE
8
DEFAULT_255_2_778
10
17.7290073
20
113.7285736
11
18.8288073
21
113.7285736
0
LINE
8
DEFAULT_255_2_778
10
18.8288073
20
113.7285736
11
18.8288073
21
113.2285736
0
LINE
8
DEFAULT_255_2_778
10
17.7290073
20
115.1676736
11
17.7290073
21
113.6888736
0
LINE
8
DEFAULT_255_2_778
10
19.1950073
20
112.7908736
11
18.8291073
21
112.8210736
0
LINE
8
DEFAULT_255_2_778
10
19.1950073
20
112.6705736
11
18.8291073
21
112.7281736
0
LINE
8
DEFAULT_255_2_778
10
18.8291073
20
112.7281736
11
19.1950073
21
112.7281736
0
LINE
8
DEFAULT_255_2_778
10
19.1950073
20
96.0282736
11
18.8291073
21
96.0282736
0
LINE
8
DEFAULT_255_2_778
10
18.8291073
20
95.4281736
11
19.1950073
21
95.4281736
0
LINE
8
DEFAULT_255_2_778
10
4.9872073
20
73.7256736
11
4.9853073
21
73.7280736
0
LINE
8
DEFAULT_255_2_778
10
0.5289073
20
74.0757736
11
0.8237073
21
74.3273736
0
LINE
8
DEFAULT_255_2_778
10
0.8237073
20
80.1987736
11
0.5289073
21
80.2222736
0
LINE
8
DEFAULT_255_2_778
10
7.3290073
20
69.7746736
11
6.6630073
21
70.9282736
0
LINE
8
DEFAULT_255_2_778
10
6.6630073
20
71.9283736
11
7.3290073
21
73.0819736
0
LINE
8
DEFAULT_255_2_778
10
7.3290073
20
76.5284736
11
6.3289073
21
76.5284736
0
LINE
8
DEFAULT_255_2_778
10
6.1153073
20
76.8260736
11
6.1135073
21
76.8284736
0
LINE
8
DEFAULT_255_2_778
10
4.7538073
20
40.7355736
11
4.7538073
21
41.0351736
0
LINE
8
DEFAULT_255_2_778
10
4.4643073
20
41.2139736
11
3.0644073
21
40.5138736
0
LINE
8
DEFAULT_255_2_778
10
2.9538073
20
40.3350736
11
2.9538073
21
39.4751736
0
LINE
8
DEFAULT_255_2_778
10
0.9039073
20
40.9292736
11
0.9039073
21
37.0647736
0
LINE
8
DEFAULT_255_2_778
10
0.3038073
20
35.7781736
11
0.3038073
21
39.9585736
0
LINE
8
DEFAULT_255_2_778
10
0.3038073
20
39.9585736
11
1.6455073
21
42.1294736
0
LINE
8
DEFAULT_255_2_778
10
1.6455073
20
42.1294736
11
4.3037073
21
43.4586736
0
LINE
8
DEFAULT_255_2_778
10
4.3037073
20
43.4586736
11
5.6608073
21
43.4586736
0
LINE
8
DEFAULT_255_2_778
10
5.6608073
20
43.4586736
11
6.0040073
21
42.1783736
0
LINE
8
DEFAULT_255_2_778
10
0.5236073
20
35.5508736
11
0.2289073
21
35.6174736
0
LINE
8
DEFAULT_255_2_778
10
1.8116073
20
38.3130736
11
1.5791073
21
38.5128736
0
LINE
8
DEFAULT_255_2_778
10
5.1184073
20
40.6284736
11
5.0290073
21
40.9284736
0
LINE
8
DEFAULT_255_2_778
10
19.1950073
20
38.6234736
11
18.8291073
21
38.6043736
0
LINE
8
DEFAULT_255_2_778
10
11.8378073
20
37.2708736
11
11.8378073
21
38.2381736
0
LINE
8
DEFAULT_255_2_778
10
11.8378073
20
31.0708736
11
11.8378073
21
32.0382736
0
LINE
8
DEFAULT_255_2_778
10
12.3291073
20
32.0638736
11
12.3291073
21
31.0452736
0
LINE
8
DEFAULT_255_2_778
10
12.3291073
20
38.2638736
11
12.3291073
21
37.2452736
0
LINE
8
DEFAULT_255_2_778
10
19.1950073
20
36.8853736
11
18.8291073
21
36.9044736
0
LINE
8
DEFAULT_255_2_778
10
19.1950073
20
30.6851736
11
18.8291073
21
30.7041736
0
LINE
8
DEFAULT_255_2_778
10
15.3292073
20
30.8875736
11
15.3292073
21
32.2207736
0
LINE
8
DEFAULT_255_2_778
10
13.9952073
20
30.9576736
11
13.9952073
21
31.3286736
0
LINE
8
DEFAULT_255_2_778
10
13.9952073
20
31.3286736
11
15.0292073
21
31.3286736
0
LINE
8
DEFAULT_255_2_778
10
16.4291073
20
37.3285736
11
16.2290073
21
37.3285736
0
LINE
8
DEFAULT_255_2_778
10
16.2290073
20
37.3285736
11
16.2290073
21
37.3036736
0
LINE
8
DEFAULT_255_2_778
10
15.8092073
20
37.9037736
11
15.8092073
21
37.9336736
0
LINE
8
DEFAULT_255_2_778
10
15.8092073
20
37.9336736
11
15.7793073
21
37.9336736
0
LINE
8
DEFAULT_255_2_778
10
15.8092073
20
38.4461736
11
15.8092073
21
37.9336736
0
LINE
8
DEFAULT_255_2_778
10
15.8092073
20
37.9336736
11
16.4291073
21
37.9336736
0
LINE
8
DEFAULT_255_2_778
10
16.3992073
20
37.9037736
11
15.8092073
21
37.9037736
0
LINE
8
DEFAULT_255_2_778
10
15.7793073
20
37.9336736
11
15.7793073
21
38.4445736
0
LINE
8
DEFAULT_255_2_778
10
15.8092073
20
37.3036736
11
15.8092073
21
37.2737736
0
LINE
8
DEFAULT_255_2_778
10
15.8092073
20
37.2737736
11
15.7793073
21
37.2737736
0
LINE
8
DEFAULT_255_2_778
10
15.7793073
20
37.0642736
11
15.7793073
21
37.2737736
0
LINE
8
DEFAULT_255_2_778
10
15.8092073
20
37.3036736
11
16.3992073
21
37.3036736
0
LINE
8
DEFAULT_255_2_778
10
16.3992073
20
37.3036736
11
16.3992073
21
37.2737736
0
LINE
8
DEFAULT_255_2_778
10
16.3992073
20
37.2737736
11
16.4291073
21
37.2737736
0
LINE
8
DEFAULT_255_2_778
10
16.3992073
20
37.0316736
11
16.3992073
21
37.2737736
0
LINE
8
DEFAULT_255_2_778
10
16.3992073
20
37.2737736
11
15.8092073
21
37.2737736
0
LINE
8
DEFAULT_255_2_778
10
15.8092073
20
37.2737736
11
15.8092073
21
37.0626736
0
LINE
8
DEFAULT_255_2_778
10
15.0292073
20
37.1033736
11
15.0292073
21
37.8286736
0
LINE
8
DEFAULT_255_2_778
10
15.0292073
20
32.1292736
11
13.9952073
21
32.1292736
0
LINE
8
DEFAULT_255_2_778
10
13.9952073
20
32.1292736
11
13.9952073
21
32.1511736
0
LINE
8
DEFAULT_255_2_778
10
15.0292073
20
30.9036736
11
15.0292073
21
32.2054736
0
LINE
8
DEFAULT_255_2_778
10
15.1591073
20
30.8968736
11
15.1591073
21
31.8286736
0
LINE
8
DEFAULT_255_2_778
10
15.1591073
20
31.8286736
11
15.3292073
21
31.8286736
0
LINE
8
DEFAULT_255_2_778
10
17.9951073
20
32.3607736
11
17.9951073
21
30.7481736
0
LINE
8
DEFAULT_255_2_778
10
17.9951073
20
38.5607736
11
17.9951073
21
36.9480736
0
LINE
8
DEFAULT_255_2_778
10
16.4291073
20
32.2787736
11
16.4291073
21
30.8303736
0
LINE
8
DEFAULT_255_2_778
10
16.4291073
20
38.4789736
11
16.4291073
21
37.0306736
0
LINE
8
DEFAULT_255_2_778
10
14.6291073
20
38.3847736
11
14.6291073
21
37.8291736
0
LINE
8
DEFAULT_255_2_778
10
14.6291073
20
37.8291736
11
16.4291073
21
37.8291736
0
LINE
8
DEFAULT_255_2_778
10
19.1950073
20
32.4239736
11
18.8291073
21
32.4049736
0
LINE
8
DEFAULT_255_2_778
10
18.8291073
20
32.4049736
11
18.8291073
21
36.9049736
0
LINE
8
DEFAULT_255_2_778
10
18.8291073
20
36.9049736
11
9.6134073
21
37.3878736
0
LINE
8
DEFAULT_255_2_778
10
9.3290073
20
37.6873736
11
9.3290073
21
37.8222736
0
LINE
8
DEFAULT_255_2_778
10
9.6134073
20
38.1217736
11
18.8291073
21
38.6046736
0
LINE
8
DEFAULT_255_2_778
10
18.8291073
20
38.6046736
11
18.8291073
21
77.1038736
0
LINE
8
DEFAULT_255_2_778
10
18.8291073
20
77.1038736
11
9.6134073
21
77.5867736
0
LINE
8
DEFAULT_255_2_778
10
9.3290073
20
77.8862736
11
9.3290073
21
78.0212736
0
LINE
8
DEFAULT_255_2_778
10
9.6134073
20
78.3207736
11
18.8291073
21
78.8035736
0
LINE
8
DEFAULT_255_2_778
10
18.8291073
20
78.8035736
11
18.8291073
21
83.3036736
0
LINE
8
DEFAULT_255_2_778
10
18.8291073
20
83.3036736
11
9.6134073
21
83.7864736
0
LINE
8
DEFAULT_255_2_778
10
9.3290073
20
84.0859736
11
9.3290073
21
84.2209736
0
LINE
8
DEFAULT_255_2_778
10
9.6134073
20
84.5204736
11
18.8291073
21
85.0032736
0
LINE
8
DEFAULT_255_2_778
10
18.8291073
20
85.0032736
11
18.8291073
21
113.2282736
0
LINE
8
DEFAULT_255_2_778
10
18.8291073
20
113.2282736
11
17.4239073
21
113.2282736
0
LINE
8
DEFAULT_255_2_778
10
17.4239073
20
113.2282736
11
17.4239073
21
114.9557736
0
LINE
8
DEFAULT_255_2_778
10
6.5543073
20
116.3810736
11
0.8237073
21
80.1987736
0
LINE
8
DEFAULT_255_2_778
10
0.8237073
20
80.1987736
11
0.8237073
21
74.3273736
0
LINE
8
DEFAULT_255_2_778
10
0.8237073
20
74.3273736
11
4.2217073
21
73.7283736
0
LINE
8
DEFAULT_255_2_778
10
4.2217073
20
73.7283736
11
4.9853073
21
73.7283736
0
LINE
8
DEFAULT_255_2_778
10
4.9853073
20
73.7283736
11
6.1135073
21
76.8284736
0
LINE
8
DEFAULT_255_2_778
10
6.1135073
20
76.8284736
11
7.6235073
21
76.8284736
0
LINE
8
DEFAULT_255_2_778
10
7.6235073
20
76.8284736
11
7.6235073
21
40.6284736
0
LINE
8
DEFAULT_255_2_778
10
7.6235073
20
40.6284736
11
5.1181073
21
40.6284736
0
LINE
8
DEFAULT_255_2_778
10
5.1181073
20
40.6284736
11
1.8114073
21
38.3130736
0
LINE
8
DEFAULT_255_2_778
10
1.8114073
20
38.3130736
11
0.5234073
21
35.5510736
0
LINE
8
DEFAULT_255_2_778
10
0.5234073
20
35.5510736
11
0.5234073
21
0.6811736
0
LINE
8
DEFAULT_255_2_778
10
0.5234073
20
0.6811736
11
13.5287073
21
0.4541736
0
LINE
8
DEFAULT_255_2_778
10
13.5287073
20
0.4541736
11
13.5287073
21
3.9156736
0
LINE
8
DEFAULT_255_2_778
10
14.5288073
20
4.9157736
11
17.8290073
21
4.9157736
0
LINE
8
DEFAULT_255_2_778
10
18.8291073
20
5.9159736
11
18.8291073
21
30.7041736
0
LINE
8
DEFAULT_255_2_778
10
18.8291073
20
30.7041736
11
9.6134073
21
31.1870736
0
LINE
8
DEFAULT_255_2_778
10
9.3290073
20
31.4865736
11
9.3290073
21
31.6214736
0
LINE
8
DEFAULT_255_2_778
10
9.6134073
20
31.9210736
11
18.8291073
21
32.4038736
0
LINE
8
DEFAULT_255_2_778
10
15.4948073
20
84.5781736
11
15.4948073
21
84.8289736
0
LINE
8
DEFAULT_255_2_778
10
7.3039073
20
73.0385736
11
7.3039073
21
73.0586736
0
LINE
8
DEFAULT_255_2_778
10
7.3039073
20
73.0586736
11
7.3155073
21
73.0586736
0
LINE
8
DEFAULT_255_2_778
10
9.8200073
20
77.5759736
11
9.8200073
21
77.9579736
0
LINE
8
DEFAULT_255_2_778
10
18.8288073
20
77.1036736
11
19.1948073
21
77.0845736
0
LINE
8
DEFAULT_255_2_778
10
11.8375073
20
83.6700736
11
11.8375073
21
84.6373736
0
LINE
8
DEFAULT_255_2_778
10
11.8375073
20
77.4700736
11
11.8375073
21
78.4373736
0
LINE
8
DEFAULT_255_2_778
10
9.8200073
20
78.3315736
11
9.8200073
21
77.9579736
0
LINE
8
DEFAULT_255_2_778
10
9.8200073
20
77.9579736
11
9.3287073
21
77.9323736
0
LINE
8
DEFAULT_255_2_778
10
12.3288073
20
78.4630736
11
12.3288073
21
77.4444736
0
LINE
8
DEFAULT_255_2_778
10
12.3288073
20
84.6630736
11
12.3288073
21
83.6443736
0
LINE
8
DEFAULT_255_2_778
10
18.8288073
20
78.8038736
11
19.1948073
21
78.8228736
0
LINE
8
DEFAULT_255_2_778
10
18.8288073
20
83.3036736
11
19.1948073
21
83.2845736
0
LINE
8
DEFAULT_255_2_778
10
19.1948073
20
85.0228736
11
18.8288073
21
85.0038736
0
LINE
8
DEFAULT_255_2_778
10
14.6288073
20
84.5781736
11
14.6288073
21
84.7836736
0
LINE
8
DEFAULT_255_2_778
10
13.5290073
20
84.1537736
11
13.5290073
21
84.5537736
0
LINE
8
DEFAULT_255_2_778
10
13.5290073
20
83.5816736
11
13.5290073
21
84.7262736
0
LINE
8
DEFAULT_255_2_778
10
15.0289073
20
84.5783736
11
15.0289073
21
84.8048736
0
LINE
8
DEFAULT_255_2_778
10
13.8290073
20
77.3661736
11
13.8290073
21
78.5419736
0
LINE
8
DEFAULT_255_2_778
10
13.8290073
20
83.5660736
11
13.8290073
21
84.5783736
0
LINE
8
DEFAULT_255_2_778
10
13.8290073
20
84.5783736
11
16.4291073
21
84.5783736
0
LINE
8
DEFAULT_255_2_778
10
17.9951073
20
78.7604736
11
17.9951073
21
77.1478736
0
LINE
8
DEFAULT_255_2_778
10
17.9951073
20
84.9604736
11
17.9951073
21
83.3478736
0
LINE
8
DEFAULT_255_2_778
10
16.4291073
20
78.6784736
11
16.4291073
21
77.2301736
0
LINE
8
DEFAULT_255_2_778
10
16.4291073
20
84.8786736
11
16.4291073
21
83.4303736
0
LINE
8
DEFAULT_255_2_778
10
36.1495073
20
113.7232736
11
36.0956073
21
113.7179736
0
LINE
8
DEFAULT_255_2_778
10
31.6924073
20
45.4020736
11
31.3950073
21
45.4020736
0
LINE
8
DEFAULT_255_2_778
10
36.1524073
20
45.7851736
11
36.1773073
21
45.4864736
0
LINE
8
DEFAULT_255_2_778
10
36.1474073
20
45.7849736
11
36.1225073
21
46.0838736
0
LINE
8
DEFAULT_255_2_778
10
36.6925073
20
46.3826736
11
36.3951073
21
46.3826736
0
LINE
8
DEFAULT_255_2_778
10
31.0976073
20
45.4287736
11
31.3950073
21
45.4287736
0
LINE
8
DEFAULT_255_2_778
10
31.3950073
20
45.4287736
11
31.3952073
21
45.4422736
0
LINE
8
DEFAULT_255_2_778
10
31.3952073
20
45.4422736
11
31.3960073
21
45.4557736
0
LINE
8
DEFAULT_255_2_778
10
31.3960073
20
45.4557736
11
31.3989073
21
45.4824736
0
LINE
8
DEFAULT_255_2_778
10
31.4447073
20
45.6319736
11
31.4862073
21
45.7174736
0
LINE
8
DEFAULT_255_2_778
10
31.4862073
20
45.7174736
11
31.5339073
21
45.8103736
0
LINE
8
DEFAULT_255_2_778
10
31.5339073
20
45.8103736
11
31.5468073
21
45.8372736
0
LINE
8
DEFAULT_255_2_778
10
31.5468073
20
45.8372736
11
31.5617073
21
45.8698736
0
LINE
8
DEFAULT_255_2_778
10
31.5617073
20
45.8698736
11
31.5786073
21
45.9084736
0
LINE
8
DEFAULT_255_2_778
10
31.5786073
20
45.9084736
11
31.5974073
21
45.9531736
0
LINE
8
DEFAULT_255_2_778
10
31.5974073
20
45.9531736
11
31.6183073
21
46.0045736
0
LINE
8
DEFAULT_255_2_778
10
31.6183073
20
46.0045736
11
31.6410073
21
46.0629736
0
LINE
8
DEFAULT_255_2_778
10
31.6410073
20
46.0629736
11
31.6659073
21
46.1291736
0
LINE
8
DEFAULT_255_2_778
10
31.6659073
20
46.1291736
11
31.6924073
21
46.2034736
0
LINE
8
DEFAULT_255_2_778
10
31.6924073
20
46.2034736
11
31.6712073
21
45.7005736
0
LINE
8
DEFAULT_255_2_778
10
31.6712073
20
45.7005736
11
36.1228073
21
46.0833736
0
LINE
8
DEFAULT_255_2_778
10
36.3953073
20
46.5826736
11
36.0979073
21
46.5826736
0
LINE
8
DEFAULT_255_2_778
10
73.9500073
20
64.6576736
11
74.0500073
21
64.6576736
0
LINE
8
DEFAULT_255_2_778
10
74.1191073
20
67.5042736
11
73.9736073
21
67.5042736
0
LINE
8
DEFAULT_255_2_778
10
71.4703073
20
30.1131736
11
71.4703073
21
30.1131736
0
LINE
8
DEFAULT_255_2_778
10
71.5177073
20
29.3209736
11
71.5177073
21
29.3209736
0
LINE
8
DEFAULT_255_2_778
10
73.8728073
20
61.1500736
11
73.9728073
21
61.1500736
0
LINE
8
DEFAULT_255_2_778
10
73.5460073
20
50.7214736
11
73.6460073
21
50.7214736
0
LINE
8
DEFAULT_255_2_778
10
71.4508073
20
29.8178736
11
71.4508073
21
29.8178736
0
LINE
8
DEFAULT_255_2_778
10
71.6619073
20
31.5196736
11
71.6619073
21
31.5196736
0
LINE
8
DEFAULT_255_2_778
10
71.4788073
20
28.3300736
11
71.4508073
21
28.3300736
0
LINE
8
DEFAULT_255_2_778
10
71.2415073
20
26.7560736
11
71.3415073
21
26.7560736
0
LINE
8
DEFAULT_255_2_778
10
73.8730073
20
61.1537736
11
73.9730073
21
61.1537736
0
LINE
8
DEFAULT_255_2_778
10
73.9617073
20
65.2516736
11
73.9606073
21
65.1976736
0
LINE
8
DEFAULT_255_2_778
10
73.9606073
20
65.1976736
11
73.9564073
21
64.8981736
0
LINE
8
DEFAULT_255_2_778
10
73.9564073
20
64.8981736
11
73.9553073
21
64.6843736
0
LINE
8
DEFAULT_255_2_778
10
73.9553073
20
64.6843736
11
73.9556073
21
64.6536736
0
LINE
8
DEFAULT_255_2_778
10
74.0500073
20
64.6536736
11
74.0606073
21
65.1973736
0
LINE
8
DEFAULT_255_2_778
10
74.0617073
20
65.2513736
11
74.0606073
21
65.1973736
0
LINE
8
DEFAULT_255_2_778
10
74.0606073
20
65.1973736
11
73.9606073
21
65.1973736
0
LINE
8
DEFAULT_255_2_778
10
74.0696073
20
65.6770736
11
74.0678073
21
65.5752736
0
LINE
8
DEFAULT_255_2_778
10
74.0678073
20
65.5752736
11
74.0654073
21
65.4503736
0
LINE
8
DEFAULT_255_2_778
10
74.0654073
20
65.4503736
11
74.0611073
21
65.2246736
0
LINE
8
DEFAULT_255_2_778
10
74.0937073
20
67.0616736
11
74.1008073
21
67.5042736
0
LINE
8
DEFAULT_255_2_778
10
73.9841073
20
66.5025736
11
74.0842073
21
66.5025736
0
LINE
8
DEFAULT_255_2_778
10
74.0842073
20
66.5025736
11
74.0937073
21
67.0619736
0
LINE
8
DEFAULT_255_2_778
10
74.0937073
20
67.0619736
11
73.9937073
21
67.0619736
0
LINE
8
DEFAULT_255_2_778
10
73.9937073
20
67.0619736
11
73.9953073
21
67.1542736
0
LINE
8
DEFAULT_255_2_778
10
73.9953073
20
67.1542736
11
73.9966073
21
67.2359736
0
LINE
8
DEFAULT_255_2_778
10
73.9966073
20
67.2359736
11
73.9976073
21
67.3069736
0
LINE
8
DEFAULT_255_2_778
10
73.9976073
20
67.3069736
11
73.9987073
21
67.3669736
0
LINE
8
DEFAULT_255_2_778
10
73.9987073
20
67.3669736
11
73.9995073
21
67.4161736
0
LINE
8
DEFAULT_255_2_778
10
73.9995073
20
67.4161736
11
74.0000073
21
67.4545736
0
LINE
8
DEFAULT_255_2_778
10
74.0000073
20
67.4545736
11
74.0003073
21
67.4820736
0
LINE
8
DEFAULT_255_2_778
10
74.0003073
20
67.4820736
11
74.0006073
21
67.4984736
0
LINE
8
DEFAULT_255_2_778
10
74.0006073
20
67.4984736
11
74.0006073
21
67.5042736
0
LINE
8
DEFAULT_255_2_778
10
74.0006073
20
67.5042736
11
74.0006073
21
67.5042736
0
LINE
8
DEFAULT_255_2_778
10
73.9696073
20
65.6770736
11
74.0696073
21
65.6770736
0
LINE
8
DEFAULT_255_2_778
10
74.0696073
20
65.6770736
11
74.0842073
21
66.5025736
0
LINE
8
DEFAULT_255_2_778
10
73.9937073
20
67.0619736
11
73.9841073
21
66.5025736
0
LINE
8
DEFAULT_255_2_778
10
73.9841073
20
66.5025736
11
73.9696073
21
65.6770736
0
LINE
8
DEFAULT_255_2_778
10
73.9696073
20
65.6770736
11
73.9677073
21
65.5741736
0
LINE
8
DEFAULT_255_2_778
10
73.9677073
20
65.5741736
11
73.9648073
21
65.4249736
0
LINE
8
DEFAULT_255_2_778
10
73.9648073
20
65.4249736
11
73.9611073
21
65.2217736
0
LINE
8
DEFAULT_255_2_778
10
73.9611073
20
65.2217736
11
73.9601073
21
65.1648736
0
LINE
8
DEFAULT_255_2_778
10
73.5465073
20
50.7315736
11
73.5455073
21
50.7066736
0
LINE
8
DEFAULT_255_2_778
10
73.5455073
20
50.7066736
11
73.6455073
21
50.7066736
0
LINE
8
DEFAULT_255_2_778
10
73.6455073
20
50.7066736
11
73.6465073
21
50.7315736
0
LINE
8
DEFAULT_255_2_778
10
73.6923073
20
51.9531736
11
73.5923073
21
51.9531736
0
LINE
8
DEFAULT_255_2_778
10
71.4090073
20
27.7244736
11
71.4090073
21
27.7244736
0
LINE
8
DEFAULT_255_2_778
10
71.4285073
20
28.0075736
11
71.4148073
21
27.8062736
0
LINE
8
DEFAULT_255_2_778
10
71.3148073
20
27.8062736
11
71.3285073
21
28.0075736
0
LINE
8
DEFAULT_255_2_778
10
71.5164073
20
30.8206736
11
71.5032073
21
30.6113736
0
LINE
8
DEFAULT_255_2_778
10
74.0302073
20
63.6707736
11
73.9736073
21
61.1778736
0
LINE
8
DEFAULT_255_2_778
10
73.9736073
20
61.1778736
11
73.8736073
21
61.1778736
0
LINE
8
DEFAULT_255_2_778
10
73.8736073
20
61.1778736
11
73.9302073
21
63.6707736
0
LINE
8
DEFAULT_255_2_778
10
73.9302073
20
63.6707736
11
74.0302073
21
63.6707736
0
LINE
8
DEFAULT_255_2_778
10
71.2465073
20
26.8275736
11
71.3465073
21
26.8275736
0
LINE
8
DEFAULT_255_2_778
10
71.3465073
20
26.8275736
11
71.7103073
21
32.2773736
0
LINE
8
DEFAULT_255_2_778
10
74.0508073
20
64.6806736
11
74.0606073
21
65.1891736
0
LINE
8
DEFAULT_255_2_778
10
73.9913073
20
66.9134736
11
73.9617073
21
65.2513736
0
LINE
8
DEFAULT_255_2_778
10
73.9617073
20
65.2513736
11
74.0617073
21
65.2513736
0
LINE
8
DEFAULT_255_2_778
10
74.0617073
20
65.2513736
11
74.0913073
21
66.9134736
0
LINE
8
DEFAULT_255_2_778
10
74.0940073
20
67.0722736
11
74.1006073
21
67.4733736
0
LINE
8
DEFAULT_255_2_778
10
73.9508073
20
64.6806736
11
73.9606073
21
65.1891736
0
LINE
8
DEFAULT_255_2_778
10
73.9939073
20
67.0722736
11
74.0006073
21
67.4733736
0
LINE
8
DEFAULT_255_2_778
10
71.5780073
20
30.2242736
11
71.5780073
21
30.2242736
0
LINE
8
DEFAULT_255_2_778
10
73.6920073
20
51.9380736
11
73.6849073
21
51.7446736
0
LINE
8
DEFAULT_255_2_778
10
73.6849073
20
51.7446736
11
73.5849073
21
51.7446736
0
LINE
8
DEFAULT_255_2_778
10
73.5849073
20
51.7446736
11
73.5862073
21
51.7830736
0
LINE
8
DEFAULT_255_2_778
10
73.5862073
20
51.7830736
11
73.6862073
21
51.7830736
0
LINE
8
DEFAULT_255_2_778
10
73.6526073
20
50.8844736
11
73.6468073
21
50.7312736
0
LINE
8
DEFAULT_255_2_778
10
73.6468073
20
50.7312736
11
73.5468073
21
50.7312736
0
LINE
8
DEFAULT_255_2_778
10
73.5468073
20
50.7312736
11
73.5526073
21
50.8844736
0
LINE
8
DEFAULT_255_2_778
10
73.5531073
20
50.8961736
11
73.5526073
21
50.8844736
0
LINE
8
DEFAULT_255_2_778
10
73.5526073
20
50.8844736
11
73.6526073
21
50.8844736
0
LINE
8
DEFAULT_255_2_778
10
73.6526073
20
50.8844736
11
73.6532073
21
50.8961736
0
LINE
8
DEFAULT_255_2_778
10
73.5920073
20
51.9380736
11
73.5862073
21
51.7830736
0
LINE
8
DEFAULT_255_2_778
10
73.5862073
20
51.7830736
11
73.5762073
21
51.5149736
0
LINE
8
DEFAULT_255_2_778
10
71.7196073
20
32.4242736
11
71.7196073
21
32.4242736
0
LINE
8
DEFAULT_255_2_778
10
71.7275073
20
32.5507736
11
71.7251073
21
32.5144736
0
LINE
8
DEFAULT_255_2_778
10
71.6204073
20
32.4395736
11
71.6124073
21
32.3115736
0
LINE
8
DEFAULT_255_2_778
10
71.6272073
20
32.5512736
11
71.6249073
21
32.5144736
0
LINE
8
DEFAULT_255_2_778
10
73.8736073
20
61.1709736
11
73.9736073
21
61.1709736
0
LINE
8
DEFAULT_255_2_778
10
73.5635073
20
51.1726736
11
73.5841073
21
51.7274736
0
LINE
8
DEFAULT_255_2_778
10
73.6534073
20
50.9064736
11
73.6590073
21
51.0495736
0
LINE
8
DEFAULT_255_2_778
10
73.6637073
20
51.1726736
11
73.6844073
21
51.7274736
0
LINE
8
DEFAULT_255_2_778
10
73.6844073
20
51.7274736
11
73.6764073
21
51.5152736
0
LINE
8
DEFAULT_255_2_778
10
73.6764073
20
51.5152736
11
73.5764073
21
51.5152736
0
LINE
8
DEFAULT_255_2_778
10
73.5764073
20
51.5152736
11
73.5706073
21
51.3737736
0
LINE
8
DEFAULT_255_2_778
10
73.5706073
20
51.3737736
11
73.5648073
21
51.2025736
0
LINE
8
DEFAULT_255_2_778
10
73.5648073
20
51.2025736
11
73.5590073
21
51.0331736
0
LINE
8
DEFAULT_255_2_778
10
73.5590073
20
51.0331736
11
73.5531073
21
50.8961736
0
LINE
8
DEFAULT_255_2_778
10
73.5531073
20
50.8961736
11
73.6532073
21
50.8961736
0
LINE
8
DEFAULT_255_2_778
10
73.6532073
20
50.8961736
11
73.6764073
21
51.5152736
0
LINE
8
DEFAULT_255_2_778
10
73.5534073
20
50.9061736
11
73.5590073
21
51.0493736
0
LINE
8
DEFAULT_255_2_778
10
74.0225073
20
63.2989736
11
74.0117073
21
62.8039736
0
LINE
8
DEFAULT_255_2_778
10
73.9238073
20
63.3622736
11
73.9177073
21
63.0849736
0
LINE
8
DEFAULT_255_2_778
10
73.9177073
20
63.0849736
11
73.9117073
21
62.8039736
0
LINE
8
DEFAULT_255_2_778
10
73.9117073
20
62.8039736
11
73.9079073
21
62.6698736
0
LINE
8
DEFAULT_255_2_778
10
73.9079073
20
62.6698736
11
73.9042073
21
62.5092736
0
LINE
8
DEFAULT_255_2_778
10
73.9042073
20
62.5092736
11
73.8968073
21
62.1528736
0
LINE
8
DEFAULT_255_2_778
10
73.8968073
20
62.1528736
11
73.8894073
21
61.8003736
0
LINE
8
DEFAULT_255_2_778
10
73.8894073
20
61.8003736
11
73.8857073
21
61.6435736
0
LINE
8
DEFAULT_255_2_778
10
73.8857073
20
61.6435736
11
73.8820073
21
61.5146736
0
LINE
8
DEFAULT_255_2_778
10
71.6373073
20
32.7049736
11
71.7373073
21
32.7049736
0
LINE
8
DEFAULT_255_2_778
10
71.6399073
20
32.7465736
11
71.7400073
21
32.7465736
0
LINE
8
DEFAULT_255_2_778
10
71.7400073
20
32.7465736
11
71.7373073
21
32.7049736
0
LINE
8
DEFAULT_255_2_778
10
71.7373073
20
32.7049736
11
71.7106073
21
32.2781736
0
LINE
8
DEFAULT_255_2_778
10
71.7106073
20
32.2781736
11
71.6106073
21
32.2781736
0
LINE
8
DEFAULT_255_2_778
10
71.5865073
20
31.8977736
11
71.5751073
21
31.7185736
0
LINE
8
DEFAULT_255_2_778
10
71.5751073
20
31.7185736
11
71.5709073
21
31.6543736
0
LINE
8
DEFAULT_255_2_778
10
71.2417073
20
26.7560736
11
71.2457073
21
26.8121736
0
LINE
8
DEFAULT_255_2_778
10
71.2457073
20
26.8121736
11
71.2468073
21
26.8256736
0
LINE
8
DEFAULT_255_2_778
10
71.3312073
20
28.0400736
11
71.3357073
21
28.1054736
0
LINE
8
DEFAULT_255_2_778
10
71.3357073
20
28.1054736
11
71.3441073
21
28.2303736
0
LINE
8
DEFAULT_255_2_778
10
71.3441073
20
28.2303736
11
71.3492073
21
28.3052736
0
LINE
8
DEFAULT_255_2_778
10
71.3492073
20
28.3052736
11
71.3508073
21
28.3303736
0
LINE
8
DEFAULT_255_2_778
10
71.4301073
20
28.0292736
11
71.4354073
21
28.1054736
0
LINE
8
DEFAULT_255_2_778
10
71.4354073
20
28.1054736
11
71.4508073
21
28.3306736
0
LINE
8
DEFAULT_255_2_778
10
71.3415073
20
26.7558736
11
71.3423073
21
26.7653736
0
LINE
8
DEFAULT_255_2_778
10
71.3423073
20
26.7653736
11
71.3465073
21
26.8259736
0
LINE
8
DEFAULT_255_2_778
10
71.4386073
20
29.6556736
11
71.4309073
21
29.5146736
0
LINE
8
DEFAULT_255_2_778
10
73.5960073
20
109.9598736
11
73.5960073
21
110.1270736
0
LINE
8
DEFAULT_255_2_778
10
73.5960073
20
110.1270736
11
73.4640073
21
110.1268736
0
LINE
8
DEFAULT_255_2_778
10
73.5960073
20
109.4177736
11
73.5960073
21
109.9598736
0
LINE
8
DEFAULT_255_2_778
10
73.5960073
20
109.9598736
11
73.4743073
21
109.9598736
0
LINE
8
DEFAULT_255_2_778
10
73.4918073
20
109.4177736
11
73.5960073
21
109.4177736
0
LINE
8
DEFAULT_255_2_778
10
73.5960073
20
109.4177736
11
73.5960073
21
108.9533736
0
LINE
8
DEFAULT_255_2_778
10
73.5960073
20
108.9533736
11
73.5100073
21
108.9533736
0
LINE
8
DEFAULT_255_2_778
10
73.5960073
20
108.6676736
11
73.5960073
21
108.9533736
0
LINE
8
DEFAULT_255_2_778
10
73.5960073
20
108.5054736
11
73.5960073
21
108.6676736
0
LINE
8
DEFAULT_255_2_778
10
73.5960073
20
108.6676736
11
73.5259073
21
108.6676736
0
LINE
8
DEFAULT_255_2_778
10
73.5960073
20
108.3755736
11
73.5960073
21
108.5054736
0
LINE
8
DEFAULT_255_2_778
10
73.5960073
20
108.5054736
11
73.5322073
21
108.5054736
0
LINE
8
DEFAULT_255_2_778
10
73.5960073
20
108.3170736
11
73.5960073
21
108.3755736
0
LINE
8
DEFAULT_255_2_778
10
73.5960073
20
108.3755736
11
73.5373073
21
108.3755736
0
LINE
8
DEFAULT_255_2_778
10
73.5960073
20
107.8251736
11
73.5960073
21
108.2895736
0
LINE
8
DEFAULT_255_2_778
10
73.5960073
20
108.2895736
11
73.5404073
21
108.2895736
0
LINE
8
DEFAULT_255_2_778
10
73.5613073
20
107.7410736
11
73.5960073
21
107.7410736
0
LINE
8
DEFAULT_255_2_778
10
73.5960073
20
107.7410736
11
73.5960073
21
107.8251736
0
LINE
8
DEFAULT_255_2_778
10
73.5960073
20
107.8251736
11
73.5582073
21
107.8251736
0
LINE
8
DEFAULT_255_2_778
10
71.2116073
20
26.3316736
11
71.2095073
21
26.3721736
0
LINE
8
DEFAULT_255_2_778
10
73.4013073
20
111.5788736
11
73.4044073
21
111.6190736
0
LINE
8
DEFAULT_255_2_778
10
72.7845073
20
46.0571736
11
72.7599073
21
46.3558736
0
LINE
8
DEFAULT_255_2_778
10
72.0283073
20
45.5954736
11
71.7312073
21
45.6089736
0
LINE
8
DEFAULT_255_2_778
10
71.7312073
20
45.6089736
11
72.0310073
21
45.5954736
0
LINE
8
DEFAULT_255_2_778
10
72.0310073
20
45.5954736
11
72.3308073
21
45.5817736
0
LINE
8
DEFAULT_255_2_778
10
70.9126073
20
26.3930736
11
70.6160073
21
26.4142736
0
LINE
8
DEFAULT_255_2_778
10
70.6160073
20
26.4142736
11
70.9152073
21
26.3930736
0
LINE
8
DEFAULT_255_2_778
10
70.9152073
20
26.3930736
11
71.2145073
21
26.3716736
0
LINE
8
DEFAULT_255_2_778
10
73.0777073
20
46.5585736
11
73.3748073
21
46.5453736
0
LINE
8
DEFAULT_255_2_778
10
73.6801073
20
104.3999736
11
73.6801073
21
104.3999736
0
LINE
8
DEFAULT_255_2_778
10
73.6801073
20
104.3999736
11
73.3830073
21
104.3898736
0
LINE
8
DEFAULT_255_2_778
10
73.6304073
20
106.3213736
11
73.6304073
21
106.3213736
0
LINE
8
DEFAULT_255_2_778
10
73.6304073
20
106.3213736
11
73.3624073
21
106.1916736
0
LINE
8
DEFAULT_255_2_778
10
73.6108073
20
106.4004736
11
73.6108073
21
106.4004736
0
LINE
8
DEFAULT_255_2_778
10
73.6108073
20
106.4004736
11
73.3137073
21
106.3895736
0
LINE
8
DEFAULT_255_2_778
10
73.4179073
20
104.5906736
11
73.6942073
21
104.4800736
0
LINE
8
DEFAULT_255_2_778
10
73.6108073
20
106.4004736
11
73.4066073
21
111.5788736
0
LINE
8
DEFAULT_255_2_778
10
73.4066073
20
111.5788736
11
73.3978073
21
111.7804736
0
LINE
8
DEFAULT_255_2_778
10
71.1999073
20
26.1697736
11
71.2142073
21
26.3716736
0
LINE
8
DEFAULT_255_2_778
10
71.2142073
20
26.3716736
11
72.3305073
21
45.5814736
0
LINE
8
DEFAULT_255_2_778
10
72.7845073
20
46.0568736
11
72.9208073
21
46.0693736
0
LINE
8
DEFAULT_255_2_778
10
42.6958073
20
113.6875736
11
37.0959073
21
113.7275736
0
LINE
8
DEFAULT_255_2_778
10
37.0959073
20
113.7275736
11
37.0959073
21
113.7275736
0
ARC
8
DEFAULT_255_2_778
10
37.0959105
20
-277.7834946
40
391.5118548
50
84.7198909
51
90.0001257
0
ARC
8
DEFAULT_255_2_778
10
36.0916071
20
46.3832397
40
0.6005443
50
275.2972748
51
359.9447147
0
ARC
8
DEFAULT_255_2_778
10
37.097727
20
-277.8352492
40
391.0635094
50
84.7165447
51
89.999806
0
ARC
8
DEFAULT_255_2_778
10
73.8135344
20
106.4087758
40
0.5016212
50
182.1039225
51
205.5458308
0
ARC
8
DEFAULT_255_2_778
10
71.5579956
20
105.3285507
40
1.9992471
50
359.9959573
51
25.6020138
0
ARC
8
DEFAULT_255_2_778
10
71.5575144
20
105.3284101
40
1.9997284
50
359.3681394
51
359.9999867
0
ARC
8
DEFAULT_255_2_778
10
71.5569658
20
105.3283786
40
2.0002767
50
338.3825189
51
359.3692138
0
ARC
8
DEFAULT_255_2_778
10
73.8805958
20
104.4073743
40
0.4992243
50
158.3618301
51
179.9993959
0
ARC
8
DEFAULT_255_2_778
10
73.881119
20
104.4073869
40
0.4997475
50
180.0008439
51
181.9180656
0
ARC
8
DEFAULT_255_2_778
10
-675.9648211
20
79.4300976
40
749.7620726
50
0.0965862
51
1.9078042
0
ARC
8
DEFAULT_255_2_778
10
-675.9889392
20
79.4303293
40
749.7861902
50
359.9737833
51
0.0965654
0
ARC
8
DEFAULT_255_2_778
10
-675.8513456
20
79.4299049
40
749.6485964
50
357.4868925
51
359.9738109
0
ARC
8
DEFAULT_255_2_778
10
72.8761233
20
46.5683208
40
0.2003285
50
275.3354892
51
357.4363309
0
ARC
8
DEFAULT_255_2_778
10
72.8313893
20
45.5598242
40
0.7999589
50
95.2241367
51
177.4037653
0
ARC
8
DEFAULT_255_2_778
10
37.0978754
20
415.9433733
40
391.0147129
50
270.0001283
51
274.9616396
0
ARC
8
DEFAULT_255_2_778
10
-625.9666232
20
45.676474
40
657.6589319
50
358.1921337
51
359.976119
0
LINE
8
DEFAULT_255_2_778
10
73.4054513
20
111.5796602
11
73.4054513
21
111.5796602
0
LINE
8
DEFAULT_255_2_778
10
73.4054513
20
111.5796602
11
73.1083513
21
111.5667602
0
LINE
8
DEFAULT_255_2_778
10
73.1083513
20
111.5667602
11
73.1247513
21
112.0670602
0
LINE
8
DEFAULT_255_2_778
10
37.0950513
20
113.7283602
11
19.1949513
21
113.7283602
0
LINE
8
DEFAULT_255_2_778
10
19.1949513
20
113.7283602
11
19.1949513
21
113.2282602
0
LINE
8
DEFAULT_255_2_778
10
36.6921513
20
46.3826602
11
36.6921513
21
113.2282602
0
LINE
8
DEFAULT_255_2_778
10
36.6921513
20
113.2282602
11
37.0990513
21
113.2282602
0
LINE
8
DEFAULT_255_2_778
10
73.1080513
20
111.5667602
11
73.3122513
21
106.3903602
0
LINE
8
DEFAULT_255_2_778
10
72.8947513
20
46.3688602
11
72.7585513
21
46.3564602
0
LINE
8
DEFAULT_255_2_778
10
72.0322513
20
45.5960602
11
70.9162513
21
26.3938602
0
LINE
8
DEFAULT_255_2_778
10
37.0987513
20
24.9286602
11
31.3649513
21
24.9286602
0
LINE
8
DEFAULT_255_2_778
10
31.6922513
20
45.4023602
11
36.1470513
21
45.7857602
0
LINE
8
DEFAULT_255_2_778
10
36.1470513
20
45.7857602
11
36.1470513
21
45.7852602
0
ENDSEC
0
EOF