0
SECTION
2
HEADER
9
$MEASUREMENT
70
1
0
ENDSEC
0
SECTION
2
TABLES
0
TABLE
2
LTYPE
0
LTYPE
72
65
70
64
2
CONTINUOUS
3
______
73
0
40
0
0
ENDTAB
0
TABLE
2
LAYER
0
LAYER
2
DEFAULT_255_2_778
70
0
62
255
6
CONTINUOUS
0
LAYER
2
DEFAULT_255_1_388
70
0
62
255
6
CONTINUOUS
0
ENDTAB
0
ENDSEC
0
SECTION
2
ENTITIES
0
ARC
8
DEFAULT_255_2_778
10
3.5695693
20
67.8676531
40
0.7914215
50
129.1312896
51
180.1450914
0
ARC
8
DEFAULT_255_2_778
10
3.5698345
20
67.8681402
40
0.7912112
50
89.854026
51
129.1684493
0
ARC
8
DEFAULT_255_2_778
10
25.7988937
20
67.8678268
40
0.7915249
50
39.4792447
51
90.147911
0
ARC
8
DEFAULT_255_2_778
10
25.7994935
20
67.8676734
40
0.7911595
50
359.8533901
51
39.5154338
0
ARC
8
DEFAULT_255_2_778
10
25.7991693
20
-1.9863991
40
0.7914836
50
309.4761667
51
0.1482649
0
ARC
8
DEFAULT_255_2_778
10
25.798898
20
-1.9868302
40
0.7913235
50
269.8517415
51
309.511178
0
ARC
8
DEFAULT_255_2_778
10
3.569842
20
-1.986772
40
0.7913815
50
219.1282118
51
270.1454017
0
ARC
8
DEFAULT_255_2_778
10
3.5695247
20
-1.9863896
40
0.7913769
50
179.8524075
51
219.1641908
0
LINE
8
DEFAULT_255_2_778
10
3.5718503
20
68.659349
11
25.7968503
21
68.659349
0
LINE
8
DEFAULT_255_2_778
10
26.5906503
20
67.865649
11
26.5906503
21
-1.984351
0
LINE
8
DEFAULT_255_2_778
10
25.7968503
20
-2.778151
11
3.5718503
21
-2.778151
0
LINE
8
DEFAULT_255_2_778
10
2.7781503
20
-1.984351
11
2.7781503
21
67.865649
0
LINE
8
DEFAULT_255_1_388
10
5.7767015
20
0.6766934
11
5.8065191
21
0.6766934
0
LINE
8
DEFAULT_255_1_388
10
5.8065191
20
0.6766934
11
5.8065191
21
0.5348338
0
LINE
8
DEFAULT_255_1_388
10
5.8065191
20
0.5348338
11
5.7757979
21
0.5348338
0
LINE
8
DEFAULT_255_1_388
10
5.1604705
20
-0.1392253
11
5.1604705
21
-0.0750722
0
LINE
8
DEFAULT_255_1_388
10
5.3285335
20
-0.0967578
11
5.3285335
21
-0.1582001
0
ARC
8
DEFAULT_255_1_388
10
5.7816871
20
-0.0274174
40
0.562282
50
90.6001079
51
104.5146616
0
ARC
8
DEFAULT_255_1_388
10
5.737983
20
0.13511
40
0.3939917
50
104.2855758
51
133.8630124
0
ARC
8
DEFAULT_255_1_388
10
5.7564083
20
0.1229243
40
0.4155734
50
134.5304124
51
161.6210222
0
ARC
8
DEFAULT_255_1_388
10
5.9424015
20
0.0573421
40
0.6127682
50
161.2850533
51
174.2074364
0
ARC
8
DEFAULT_255_1_388
10
6.1013582
20
0.0354437
40
0.7731446
50
173.7817938
51
174.9251711
0
ARC
8
DEFAULT_255_1_388
10
5.5887775
20
-0.120073
40
0.3412588
50
95.8332067
51
138.995412
0
ARC
8
DEFAULT_255_1_388
10
5.6139056
20
-0.2639305
40
0.4870358
50
89.8755506
51
97.0540979
0
ARC
8
DEFAULT_255_1_388
10
5.6192445
20
-0.1699159
40
0.3930432
50
71.6407016
51
90.6240821
0
ARC
8
DEFAULT_255_1_388
10
5.6361838
20
-0.1075567
40
0.3285421
50
39.6368051
51
71.0190743
0
ARC
8
DEFAULT_255_1_388
10
5.5645746
20
-0.1694414
40
0.4231706
50
10.6588054
51
39.9044509
0
ARC
8
DEFAULT_255_1_388
10
5.3904291
20
-0.2072777
40
0.60133
50
359.6827842
51
11.1326896
0
ARC
8
DEFAULT_255_1_388
10
5.3859627
20
-0.2152285
40
0.6058047
50
347.2485908
51
0.4371098
0
ARC
8
DEFAULT_255_1_388
10
5.5735413
20
-0.2603621
40
0.4128987
50
318.1408565
51
347.6118497
0
ARC
8
DEFAULT_255_1_388
10
5.6101009
20
-0.2904097
40
0.3656244
50
275.6342406
51
317.824739
0
ARC
8
DEFAULT_255_1_388
10
5.585253
20
-0.1442173
40
0.513655
50
269.8872513
51
276.7916069
0
ARC
8
DEFAULT_255_1_388
10
5.5790723
20
-0.2595819
40
0.398323
50
246.9139443
51
270.7436787
0
ARC
8
DEFAULT_255_1_388
10
5.5797919
20
-0.2755956
40
0.3839368
50
218.1665534
51
245.8780431
0
ARC
8
DEFAULT_255_1_388
10
5.6787291
20
-0.1928097
40
0.5128958
50
191.4115343
51
218.6077624
0
ARC
8
DEFAULT_255_1_388
10
5.8967607
20
-0.1439223
40
0.7363054
50
179.6344971
51
191.7836758
0
ARC
8
DEFAULT_255_1_388
10
6.5247482
20
-0.0675505
40
1.3642984
50
171.4523743
51
180.3158856
0
ARC
8
DEFAULT_255_1_388
10
6.0303209
20
0.0093895
40
0.8639311
50
157.9802296
51
171.6246761
0
ARC
8
DEFAULT_255_1_388
10
5.7812559
20
0.1087038
40
0.5958004
50
141.4299236
51
157.8541251
0
ARC
8
DEFAULT_255_1_388
10
5.7090643
20
0.1597746
40
0.5075416
50
102.871586
51
140.8564533
0
ARC
8
DEFAULT_255_1_388
10
5.7819195
20
-0.1147057
40
0.7914163
50
90.377773
51
103.5868422
0
ARC
8
DEFAULT_255_1_388
10
5.5863717
20
-0.1827457
40
0.2667015
50
89.8751238
51
126.2072139
0
ARC
8
DEFAULT_255_1_388
10
5.5915188
20
-0.2001153
40
0.2838229
50
124.9742447
51
144.8960197
0
ARC
8
DEFAULT_255_1_388
10
5.5717433
20
-0.1840019
40
0.2583845
50
145.2974778
51
160.2660922
0
ARC
8
DEFAULT_255_1_388
10
5.9173921
20
-0.1617849
40
0.5888695
50
179.6512124
51
190.285571
0
ARC
8
DEFAULT_255_1_388
10
5.7268401
20
-0.1977032
40
0.3949683
50
190.0944895
51
207.5099647
0
ARC
8
DEFAULT_255_1_388
10
5.6631982
20
-0.2279823
40
0.3245464
50
207.9585471
51
216.325377
0
ARC
8
DEFAULT_255_1_388
10
5.6249619
20
-0.2594288
40
0.2751259
50
215.7661336
51
232.5457193
0
ARC
8
DEFAULT_255_1_388
10
5.5818735
20
-0.3141727
40
0.2054668
50
232.8005815
51
270.6605497
0
ARC
8
DEFAULT_255_1_388
10
5.587016
20
-0.2732147
40
0.2464268
50
269.3550767
51
288.474612
0
ARC
8
DEFAULT_255_1_388
10
5.5974667
20
-0.3125279
40
0.2058436
50
289.1831976
51
322.9685307
0
ARC
8
DEFAULT_255_1_388
10
5.5286768
20
-0.2582721
40
0.2934408
50
322.6007085
51
346.5183319
0
ARC
8
DEFAULT_255_1_388
10
5.3984524
20
-0.2250566
40
0.4278249
50
346.2584622
51
358.7739592
0
ARC
8
DEFAULT_255_1_388
10
5.28331
20
-0.2188171
40
0.5430876
50
358.3757628
51
0.0082477
0
ARC
8
DEFAULT_255_1_388
10
5.3689918
20
-0.2157144
40
0.4574157
50
359.6211417
51
11.28403
0
ARC
8
DEFAULT_255_1_388
10
5.5126524
20
-0.1857465
40
0.3106708
50
11.0483152
51
31.8145585
0
ARC
8
DEFAULT_255_1_388
10
5.5474229
20
-0.1668955
40
0.2711963
50
32.3028554
51
38.0820598
0
ARC
8
DEFAULT_255_1_388
10
5.5947462
20
-0.1240283
40
0.2075566
50
36.8249851
51
85.741667
0
ARC
8
DEFAULT_255_1_388
10
5.5871875
20
-0.1803935
40
0.2643487
50
85.0150021
51
90.050843
0
LINE
8
DEFAULT_255_1_388
10
6.9766351
20
0.1101585
11
6.9766351
21
-0.0317011
0
LINE
8
DEFAULT_255_1_388
10
6.9766351
20
-0.0317011
11
6.4064859
21
-0.0317011
0
LINE
8
DEFAULT_255_1_388
10
6.4064859
20
-0.0317011
11
6.4064859
21
-0.4979404
0
LINE
8
DEFAULT_255_1_388
10
6.4064859
20
-0.4979404
11
7.0687986
21
-0.4979404
0
LINE
8
DEFAULT_255_1_388
10
7.0687986
20
-0.4979404
11
7.0687986
21
-0.6398
0
LINE
8
DEFAULT_255_1_388
10
7.0687986
20
-0.6398
11
6.2330015
21
-0.6398
0
LINE
8
DEFAULT_255_1_388
10
6.2330015
20
-0.6398
11
6.2330015
21
0.6757898
0
LINE
8
DEFAULT_255_1_388
10
6.2330015
20
0.6757898
11
7.059763
21
0.6757898
0
LINE
8
DEFAULT_255_1_388
10
7.059763
20
0.6757898
11
7.059763
21
0.5330267
0
LINE
8
DEFAULT_255_1_388
10
7.059763
20
0.5330267
11
6.4064859
21
0.5330267
0
LINE
8
DEFAULT_255_1_388
10
6.4064859
20
0.5330267
11
6.4064859
21
0.1101585
0
LINE
8
DEFAULT_255_1_388
10
6.4064859
20
0.1101585
11
6.9766351
21
0.1101585
0
LINE
8
DEFAULT_255_1_388
10
8.1575938
20
0.2953892
11
7.9832059
21
0.2953892
0
LINE
8
DEFAULT_255_1_388
10
7.2043333
20
-0.2584958
11
7.3787212
21
-0.2584958
0
ARC
8
DEFAULT_255_1_388
10
8.0572786
20
1.3017821
40
1.4087688
50
248.9196578
51
254.1442424
0
ARC
8
DEFAULT_255_1_388
10
7.8682666
20
0.8151805
40
0.8867498
50
241.6337352
51
249.0064643
0
ARC
8
DEFAULT_255_1_388
10
7.6962979
20
0.5000764
40
0.5277799
50
230.4982261
51
241.8087583
0
ARC
8
DEFAULT_255_1_388
10
7.608075
20
0.3876686
40
0.3849419
50
227.4062979
51
229.9877433
0
ARC
8
DEFAULT_255_1_388
10
7.5532097
20
0.3341155
40
0.3084129
50
200.6782127
51
228.1765252
0
ARC
8
DEFAULT_255_1_388
10
7.5613466
20
0.3324277
40
0.315461
50
179.506278
51
199.8695278
0
ARC
8
DEFAULT_255_1_388
10
7.5603054
20
0.3407671
40
0.3144584
50
132.4834401
51
181.0242352
0
ARC
8
DEFAULT_255_1_388
10
7.6272259
20
0.2775788
40
0.4063094
50
129.2526113
51
133.4249077
0
ARC
8
DEFAULT_255_1_388
10
7.6437851
20
0.2527619
40
0.436014
50
101.9878945
51
128.8741833
0
ARC
8
DEFAULT_255_1_388
10
7.6886267
20
0.059136
40
0.6347415
50
89.5906376
51
102.3170567
0
ARC
8
DEFAULT_255_1_388
10
7.6965578
20
0.0949586
40
0.5989122
50
77.2359491
51
90.3248968
0
ARC
8
DEFAULT_255_1_388
10
7.7198509
20
0.2037554
40
0.4876594
50
63.8379856
51
77.0808925
0
ARC
8
DEFAULT_255_1_388
10
7.7511043
20
0.2619882
40
0.4216191
50
45.9863127
51
64.1608798
0
ARC
8
DEFAULT_255_1_388
10
7.7804436
20
0.295499
40
0.3771394
50
32.2747934
51
45.6544796
0
ARC
8
DEFAULT_255_1_388
10
7.7879243
20
0.2976426
40
0.3696765
50
359.6507495
51
32.6129943
0
ARC
8
DEFAULT_255_1_388
10
7.6818425
20
0.2981788
40
0.3013762
50
359.469654
51
14.983205
0
ARC
8
DEFAULT_255_1_388
10
7.7611678
20
0.3194288
40
0.2192542
50
14.9781954
51
48.2004799
0
ARC
8
DEFAULT_255_1_388
10
7.7426788
20
0.2961937
40
0.2489048
50
48.5926661
51
74.1242559
0
ARC
8
DEFAULT_255_1_388
10
7.7051591
20
0.1723607
40
0.3782845
50
73.7889321
51
86.6653996
0
ARC
8
DEFAULT_255_1_388
10
7.6936405
20
0.0365955
40
0.5145025
50
86.2642725
51
90.0533288
0
ARC
8
DEFAULT_255_1_388
10
7.6904498
20
0.0810376
40
0.4700681
50
89.669455
51
99.2313411
0
ARC
8
DEFAULT_255_1_388
10
7.6631658
20
0.2435401
40
0.3052945
50
99.0695987
51
113.7659242
0
ARC
8
DEFAULT_255_1_388
10
7.6323652
20
0.3161772
40
0.226407
50
114.0402885
51
127.9848946
0
ARC
8
DEFAULT_255_1_388
10
7.6053129
20
0.3494884
40
0.1835045
50
127.7287217
51
176.7106493
0
ARC
8
DEFAULT_255_1_388
10
7.6816794
20
0.338121
40
0.2604907
50
175.1780759
51
180.0581213
0
ARC
8
DEFAULT_255_1_388
10
7.5868137
20
0.3367411
40
0.1656287
50
179.6140658
51
228.124674
0
ARC
8
DEFAULT_255_1_388
10
7.6365495
20
0.382794
40
0.2332038
50
226.5785315
51
230.8792476
0
ARC
8
DEFAULT_255_1_388
10
7.6894981
20
0.4530908
40
0.3211664
50
231.4636401
51
241.9261664
0
ARC
8
DEFAULT_255_1_388
10
7.8241765
20
0.7009349
40
0.6032345
50
241.7177136
51
248.3259138
0
ARC
8
DEFAULT_255_1_388
10
7.9800359
20
1.0870771
40
1.0196417
50
248.2007377
51
252.4527713
0
ARC
8
DEFAULT_255_1_388
10
8.1153886
20
1.5055092
40
1.4594143
50
252.3388938
51
254.347037
0
ARC
8
DEFAULT_255_1_388
10
7.2669187
20
-1.5292905
40
1.6917621
50
71.0197462
51
74.4085467
0
ARC
8
DEFAULT_255_1_388
10
7.4576275
20
-0.9787856
40
1.1091618
50
66.1845203
51
71.086519
0
ARC
8
DEFAULT_255_1_388
10
7.6326823
20
-0.5846561
40
0.6779073
50
59.3537334
51
66.269255
0
ARC
8
DEFAULT_255_1_388
10
7.7326549
20
-0.4155223
40
0.4814366
50
49.1021732
51
59.3294421
0
ARC
8
DEFAULT_255_1_388
10
7.8247538
20
-0.3105425
40
0.3417875
50
32.7924183
51
49.2503526
0
ARC
8
DEFAULT_255_1_388
10
7.8597152
20
-0.2855689
40
0.2988789
50
31.121225
51
32.3977355
0
ARC
8
DEFAULT_255_1_388
10
7.850933
20
-0.2888272
40
0.3080861
50
8.1116803
51
30.7958224
0
ARC
8
DEFAULT_255_1_388
10
7.7597675
20
-0.3043563
40
0.4005385
50
359.8390945
51
8.4707348
0
ARC
8
DEFAULT_255_1_388
10
7.8301723
20
-0.3098249
40
0.3301608
50
337.4732479
51
0.7538283
0
ARC
8
DEFAULT_255_1_388
10
7.8502748
20
-0.3120446
40
0.3107929
50
307.5917028
51
336.4313755
0
ARC
8
DEFAULT_255_1_388
10
7.7991806
20
-0.2552491
40
0.3870096
50
307.6560665
51
308.4561779
0
ARC
8
DEFAULT_255_1_388
10
7.7726022
20
-0.2144168
40
0.435591
50
284.3733666
51
307.1426212
0
ARC
8
DEFAULT_255_1_388
10
7.7168917
20
-0.0094609
40
0.6479685
50
272.4384566
51
284.6464689
0
ARC
8
DEFAULT_255_1_388
10
7.7026302
20
0.1929434
40
0.8508149
50
269.9708517
51
272.8180721
0
ARC
8
DEFAULT_255_1_388
10
7.6977984
20
-0.0362717
40
0.6216151
50
248.2707343
51
270.4054609
0
ARC
8
DEFAULT_255_1_388
10
7.6916856
20
-0.0577327
40
0.5994203
50
246.1380358
51
248.054058
0
ARC
8
DEFAULT_255_1_388
10
7.6445998
20
-0.1566295
40
0.4899388
50
233.1671897
51
246.4951656
0
ARC
8
DEFAULT_255_1_388
10
7.5822633
20
-0.2407863
40
0.3852115
50
215.3403381
51
233.084328
0
ARC
8
DEFAULT_255_1_388
10
7.5515997
20
-0.2630907
40
0.3472969
50
179.2419235
51
215.2648426
0
ARC
8
DEFAULT_255_1_388
10
7.6379548
20
-0.2615021
40
0.259251
50
179.3355796
51
199.1045873
0
ARC
8
DEFAULT_255_1_388
10
7.600569
20
-0.2712777
40
0.2207454
50
199.8830064
51
232.7061328
0
ARC
8
DEFAULT_255_1_388
10
7.6536965
20
-0.2044544
40
0.306101
50
232.3736206
51
255.5136621
0
ARC
8
DEFAULT_255_1_388
10
7.692047
20
-0.0644823
40
0.4512213
50
255.2447928
51
267.5318292
0
ARC
8
DEFAULT_255_1_388
10
7.7018937
20
0.0741709
40
0.5901825
50
267.1564563
51
270.0294721
0
ARC
8
DEFAULT_255_1_388
10
7.7050263
20
0.0242623
40
0.5402814
50
269.6999944
51
278.1662446
0
ARC
8
DEFAULT_255_1_388
10
7.733829
20
-0.1704026
40
0.3435003
50
278.0229022
51
290.6255326
0
ARC
8
DEFAULT_255_1_388
10
7.7729457
20
-0.2747453
40
0.2320666
50
290.6616368
51
307.0374127
0
ARC
8
DEFAULT_255_1_388
10
7.8067357
20
-0.316196
40
0.1786372
50
306.3942078
51
355.303191
0
ARC
8
DEFAULT_255_1_388
10
7.749165
20
-0.3075814
40
0.2367516
50
354.3662092
51
0.0709489
0
ARC
8
DEFAULT_255_1_388
10
7.7651518
20
-0.3050439
40
0.2207761
50
359.4175379
51
16.1975911
0
ARC
8
DEFAULT_255_1_388
10
7.8163636
20
-0.2910046
40
0.1676828
50
16.4721294
51
52.6261798
0
ARC
8
DEFAULT_255_1_388
10
7.7240144
20
-0.4129394
40
0.3206412
50
52.7381828
51
62.4979144
0
ARC
8
DEFAULT_255_1_388
10
7.5681896
20
-0.7061764
40
0.6527035
50
62.2517425
51
68.1219454
0
ARC
8
DEFAULT_255_1_388
10
7.3747384
20
-1.1816049
40
1.1659797
50
68.006043
51
71.8055127
0
ARC
8
DEFAULT_255_1_388
10
7.1727292
20
-1.7874277
40
1.8045908
50
71.718361
51
73.9260743
0
LINE
8
DEFAULT_255_1_388
10
9.1885608
20
0.6757898
11
9.1885608
21
0.5818191
0
LINE
8
DEFAULT_255_1_388
10
9.1885608
20
0.5818191
11
8.6437115
21
-0.6398
0
LINE
8
DEFAULT_255_1_388
10
8.6437115
20
-0.6398
11
8.46842
21
-0.6398
0
LINE
8
DEFAULT_255_1_388
10
8.46842
20
-0.6398
11
9.0114622
21
0.538448
0
LINE
8
DEFAULT_255_1_388
10
9.0114622
20
0.538448
11
8.2994534
21
0.538448
0
LINE
8
DEFAULT_255_1_388
10
8.2994534
20
0.538448
11
8.2994534
21
0.6757898
0
LINE
8
DEFAULT_255_1_388
10
8.2994534
20
0.6757898
11
9.1885608
21
0.6757898
0
LINE
8
DEFAULT_255_1_388
10
9.9276766
20
0.6821148
11
9.9276766
21
-0.6398
0
LINE
8
DEFAULT_255_1_388
10
9.9276766
20
-0.6398
11
9.7596136
21
-0.6398
0
LINE
8
DEFAULT_255_1_388
10
9.7596136
20
-0.6398
11
9.7596136
21
0.474295
0
LINE
8
DEFAULT_255_1_388
10
9.7596136
20
0.474295
11
9.422584
21
0.3505066
0
LINE
8
DEFAULT_255_1_388
10
9.422584
20
0.3505066
11
9.422584
21
0.5023055
0
LINE
8
DEFAULT_255_1_388
10
9.422584
20
0.5023055
11
9.9014732
21
0.6821148
0
LINE
8
DEFAULT_255_1_388
10
9.9014732
20
0.6821148
11
9.9276766
21
0.6821148
0
LINE
8
DEFAULT_255_1_388
10
10.6604673
20
-0.0371225
11
10.6604673
21
0.0993157
0
LINE
8
DEFAULT_255_1_388
10
10.6604673
20
0.0993157
11
10.7860628
21
0.0993157
0
LINE
8
DEFAULT_255_1_388
10
10.571918
20
0.3306282
11
10.4047586
21
0.3306282
0
LINE
8
DEFAULT_255_1_388
10
10.3930123
20
-0.2928312
11
10.5610752
21
-0.2928312
0
LINE
8
DEFAULT_255_1_388
10
10.7860628
20
-0.0371225
11
10.6604673
21
-0.0371225
0
ARC
8
DEFAULT_255_1_388
10
10.7827854
20
0.4809922
40
0.3816905
50
270.491971
51
281.8953028
0
ARC
8
DEFAULT_255_1_388
10
10.8099281
20
0.3570199
40
0.2547877
50
281.6690378
51
301.2943765
0
ARC
8
DEFAULT_255_1_388
10
10.8290733
20
0.3219926
40
0.2149197
50
301.7834992
51
311.754567
0
ARC
8
DEFAULT_255_1_388
10
10.8393774
20
0.310565
40
0.1995326
50
311.7325027
51
354.2803031
0
ARC
8
DEFAULT_255_1_388
10
10.757619
20
0.324628
40
0.2823461
50
353.0941646
51
0.1174696
0
ARC
8
DEFAULT_255_1_388
10
10.7057748
20
0.3299874
40
0.3342238
50
359.1804452
51
15.0452323
0
ARC
8
DEFAULT_255_1_388
10
10.8571806
20
0.3741546
40
0.1765747
50
13.957816
51
77.6713812
0
ARC
8
DEFAULT_255_1_388
10
10.8137042
20
0.2183464
40
0.3381982
50
76.111571
51
90.7028736
0
ARC
8
DEFAULT_255_1_388
10
10.8070454
20
0.249125
40
0.3074046
50
89.5321574
51
103.5319393
0
ARC
8
DEFAULT_255_1_388
10
10.7844838
20
0.3390443
40
0.2147041
50
103.2930114
51
133.5619756
0
ARC
8
DEFAULT_255_1_388
10
10.7794779
20
0.3457351
40
0.2064084
50
133.8349761
51
173.5343225
0
ARC
8
DEFAULT_255_1_388
10
10.8608437
20
0.3313144
40
0.2889266
50
172.5097183
51
180.1360699
0
ARC
8
DEFAULT_255_1_388
10
10.7538201
20
0.335188
40
0.3490913
50
155.3483706
51
180.7484035
0
ARC
8
DEFAULT_255_1_388
10
10.7483176
20
0.3319519
40
0.3454798
50
131.5745177
51
154.4799474
0
ARC
8
DEFAULT_255_1_388
10
10.7835459
20
0.2963422
40
0.3955058
50
96.9874487
51
131.9690874
0
ARC
8
DEFAULT_255_1_388
10
10.8082352
20
0.1562407
40
0.537622
50
89.8592909
51
97.7827481
0
ARC
8
DEFAULT_255_1_388
10
10.8136461
20
0.126736
40
0.5671399
50
78.3654493
51
90.4132586
0
ARC
8
DEFAULT_255_1_388
10
10.8539102
20
0.3133918
40
0.3762034
50
56.6229818
51
78.6387103
0
ARC
8
DEFAULT_255_1_388
10
10.8780931
20
0.3556846
40
0.3275964
50
47.0254604
51
56.085558
0
ARC
8
DEFAULT_255_1_388
10
10.8803182
20
0.3601189
40
0.3228382
50
10.9207523
51
46.777927
0
ARC
8
DEFAULT_255_1_388
10
10.7268776
20
0.3246401
40
0.4802559
50
359.6364235
51
11.6087615
0
ARC
8
DEFAULT_255_1_388
10
10.9332942
20
0.3229404
40
0.273833
50
332.3549969
51
359.7179765
0
ARC
8
DEFAULT_255_1_388
10
10.8601342
20
0.3576285
40
0.3547505
50
325.2332381
51
332.8746682
0
ARC
8
DEFAULT_255_1_388
10
10.8772925
20
0.3456763
40
0.3338396
50
292.9803892
51
325.2391113
0
ARC
8
DEFAULT_255_1_388
10
10.8462121
20
0.4061679
40
0.4016959
50
292.542178
51
293.6931461
0
ARC
8
DEFAULT_255_1_388
10
10.8905693
20
-0.3203964
40
0.372079
50
57.643292
51
72.8626085
0
ARC
8
DEFAULT_255_1_388
10
10.9304527
20
-0.2557727
40
0.2961455
50
36.7246661
51
57.4701329
0
ARC
8
DEFAULT_255_1_388
10
10.9291684
20
-0.254353
40
0.2963321
50
8.054535
51
36.3561529
0
ARC
8
DEFAULT_255_1_388
10
10.8321357
20
-0.2717927
40
0.3948682
50
359.8316595
51
8.5873361
0
ARC
8
DEFAULT_255_1_388
10
10.7898831
20
-0.277203
40
0.4371398
50
343.9831631
51
0.557075
0
ARC
8
DEFAULT_255_1_388
10
10.889588
20
-0.3045037
40
0.3337749
50
311.6358204
51
343.7652116
0
ARC
8
DEFAULT_255_1_388
10
10.8470134
20
-0.2565045
40
0.3979351
50
279.7829743
51
311.625622
0
ARC
8
DEFAULT_255_1_388
10
10.8131269
20
-0.0948358
40
0.5630417
50
269.7285092
51
280.3857694
0
ARC
8
DEFAULT_255_1_388
10
10.8061582
20
-0.0994759
40
0.5584119
50
256.6827433
51
270.4412869
0
ARC
8
DEFAULT_255_1_388
10
10.7680569
20
-0.2552302
40
0.3980715
50
229.4223821
51
256.8554507
0
ARC
8
DEFAULT_255_1_388
10
10.7214122
20
-0.3077317
40
0.3278564
50
181.8183354
51
229.6455015
0
ARC
8
DEFAULT_255_1_388
10
10.8383732
20
-0.2930175
40
0.4453611
50
179.9760419
51
183.2330638
0
ARC
8
DEFAULT_255_1_388
10
10.8190284
20
-0.2953219
40
0.2579652
50
179.4467996
51
196.2871626
0
ARC
8
DEFAULT_255_1_388
10
10.7641738
20
-0.3103291
40
0.2011057
50
196.5661293
51
227.7059371
0
ARC
8
DEFAULT_255_1_388
10
10.7826345
20
-0.2896845
40
0.2287994
50
227.7653015
51
257.8763321
0
ARC
8
DEFAULT_255_1_388
10
10.8079428
20
-0.1836039
40
0.3378385
50
257.4583525
51
270.4267406
0
ARC
8
DEFAULT_255_1_388
10
10.8130678
20
-0.150977
40
0.3704652
50
269.5965319
51
280.8788143
0
ARC
8
DEFAULT_255_1_388
10
10.8388906
20
-0.2799471
40
0.2389415
50
280.6347277
51
299.8594068
0
ARC
8
DEFAULT_255_1_388
10
10.8603675
20
-0.3207264
40
0.19289
50
300.3575552
51
314.5515667
0
ARC
8
DEFAULT_255_1_388
10
10.8510351
20
-0.3138975
40
0.204312
50
315.0730962
51
345.0429362
0
ARC
8
DEFAULT_255_1_388
10
10.7471858
20
-0.2836461
40
0.31246
50
344.598526
51
357.9270698
0
ARC
8
DEFAULT_255_1_388
10
10.6462163
20
-0.2767295
40
0.4136265
50
357.4755098
51
0.0224936
0
ARC
8
DEFAULT_255_1_388
10
10.7615041
20
-0.2739901
40
0.2983498
50
359.5051035
51
13.4236939
0
ARC
8
DEFAULT_255_1_388
10
10.8590131
20
-0.2490363
40
0.1977186
50
12.9497905
51
48.7550905
0
ARC
8
DEFAULT_255_1_388
10
10.8385053
20
-0.2770627
40
0.2323321
50
49.509109
51
72.1832965
0
ARC
8
DEFAULT_255_1_388
10
10.7982521
20
-0.3965368
40
0.358397
50
71.9008458
51
84.3555134
0
ARC
8
DEFAULT_255_1_388
10
10.7800916
20
-0.5497288
40
0.512641
50
84.019632
51
89.3326067
0
ARC
8
DEFAULT_255_1_388
10
11.9368581
20
0.329572
40
0.3175098
50
338.8762533
51
0.5167111
0
ARC
8
DEFAULT_255_1_388
10
11.9558175
20
0.32446
40
0.2979894
50
325.8415285
51
338.4793574
0
ARC
8
DEFAULT_255_1_388
10
11.9118809
20
0.3549242
40
0.351452
50
296.7587686
51
325.7536481
0
ARC
8
DEFAULT_255_1_388
10
11.8790437
20
0.4103363
40
0.4157374
50
296.0927901
51
297.3613472
0
ARC
8
DEFAULT_255_1_388
10
11.9084632
20
-0.3279407
40
0.395855
50
47.9007294
51
67.1948823
0
ARC
8
DEFAULT_255_1_388
10
11.9305274
20
-0.3002401
40
0.360516
50
35.2363914
51
47.551141
0
ARC
8
DEFAULT_255_1_388
10
11.9599678
20
-0.2805907
40
0.3251343
50
359.2759765
51
35.4014143
0
ARC
8
DEFAULT_255_1_388
10
11.8761604
20
-0.2888213
40
0.4089365
50
343.1293083
51
0.5775513
0
ARC
8
DEFAULT_255_1_388
10
11.9576718
20
-0.3112664
40
0.3244269
50
310.8496669
51
342.7449331
0
ARC
8
DEFAULT_255_1_388
10
11.9106593
20
-0.2576087
40
0.3957651
50
281.5472888
51
310.9170406
0
ARC
8
DEFAULT_255_1_388
10
11.8705467
20
-0.0829186
40
0.5749654
50
269.619248
51
281.9789564
0
ARC
8
DEFAULT_255_1_388
10
11.8624245
20
-0.0828224
40
0.5750649
50
257.4585678
51
270.4285689
0
ARC
8
DEFAULT_255_1_388
10
11.8195765
20
-0.2632259
40
0.389671
50
228.7554326
51
257.8484789
0
ARC
8
DEFAULT_255_1_388
10
11.784725
20
-0.3051772
40
0.335154
50
184.0104975
51
228.5071184
0
ARC
8
DEFAULT_255_1_388
10
11.9155643
20
-0.285257
40
0.4671891
50
179.9315832
51
185.3253753
0
ARC
8
DEFAULT_255_1_388
10
11.7832156
20
-0.2810408
40
0.33486
50
145.6796023
51
180.6259786
0
ARC
8
DEFAULT_255_1_388
10
11.8015921
20
-0.2938729
40
0.3572723
50
115.5537685
51
145.6415986
0
ARC
8
DEFAULT_255_1_388
10
11.8398965
20
-0.3624913
40
0.4357296
50
113.243307
51
116.2057839
0
ARC
8
DEFAULT_255_1_388
10
11.8227617
20
0.3572379
40
0.3549126
50
222.9549744
51
244.1370481
0
ARC
8
DEFAULT_255_1_388
10
11.809026
20
0.3418378
40
0.3343711
50
213.3436887
51
222.6274467
0
ARC
8
DEFAULT_255_1_388
10
11.787433
20
0.3271653
40
0.3082678
50
180.431584
51
213.271499
0
ARC
8
DEFAULT_255_1_388
10
11.8509328
20
0.3324296
40
0.3718363
50
179.9991191
51
181.1690594
0
ARC
8
DEFAULT_255_1_388
10
11.8981785
20
0.3363072
40
0.4190996
50
164.6186169
51
180.529336
0
ARC
8
DEFAULT_255_1_388
10
11.7971433
20
0.363478
40
0.3144772
50
132.2455553
51
164.5090724
0
ARC
8
DEFAULT_255_1_388
10
11.8294412
20
0.326907
40
0.3632644
50
100.7053914
51
132.1386381
0
ARC
8
DEFAULT_255_1_388
10
11.8637473
20
0.1719118
40
0.5219578
50
89.6730358
51
101.2451698
0
ARC
8
DEFAULT_255_1_388
10
11.8707464
20
0.1915648
40
0.5023124
50
76.287748
51
90.4586006
0
ARC
8
DEFAULT_255_1_388
10
11.9051966
20
0.3290671
40
0.3605639
50
47.8240511
51
76.4266241
0
ARC
8
DEFAULT_255_1_388
10
11.930235
20
0.3583599
40
0.3220463
50
6.9168387
51
47.6262497
0
ARC
8
DEFAULT_255_1_388
10
11.7967803
20
0.3337004
40
0.4575765
50
359.8415968
51
7.9697453
0
ARC
8
DEFAULT_255_1_388
10
11.8352073
20
-0.2783481
40
0.2827228
50
359.445363
51
16.9256873
0
ARC
8
DEFAULT_255_1_388
10
11.8879507
20
-0.2638219
40
0.2280396
50
17.2920767
51
45.4630727
0
ARC
8
DEFAULT_255_1_388
10
11.8818642
20
-0.2690676
40
0.2360485
50
45.30305
51
83.1920945
0
ARC
8
DEFAULT_255_1_388
10
11.8657387
20
-0.3592527
40
0.3275527
50
82.2612665
51
90.1434275
0
ARC
8
DEFAULT_255_1_388
10
11.8622663
20
-0.3330131
40
0.3013237
50
89.4956434
51
104.8580688
0
ARC
8
DEFAULT_255_1_388
10
11.8423853
20
-0.2576545
40
0.2233867
50
104.8856641
51
135.244616
0
ARC
8
DEFAULT_255_1_388
10
11.8479842
20
-0.2626648
40
0.2308906
50
135.3399546
51
172.1044062
0
ARC
8
DEFAULT_255_1_388
10
11.9387367
20
-0.2800333
40
0.3232034
50
171.2645637
51
180.186429
0
ARC
8
DEFAULT_255_1_388
10
11.9197371
20
-0.2836574
40
0.304213
50
179.5154935
51
193.6464289
0
ARC
8
DEFAULT_255_1_388
10
11.8279047
20
-0.3070527
40
0.209456
50
193.3540274
51
225.8258581
0
ARC
8
DEFAULT_255_1_388
10
11.8324919
20
-0.2990924
40
0.2183738
50
226.4180634
51
255.8552336
0
ARC
8
DEFAULT_255_1_388
10
11.8613386
20
-0.1937479
40
0.3275812
50
255.4654104
51
268.7987425
0
ARC
8
DEFAULT_255_1_388
10
11.8666562
20
-0.0995455
40
0.4218877
50
268.3449238
51
270.0094605
0
ARC
8
DEFAULT_255_1_388
10
11.8692796
20
-0.1763906
40
0.3450519
50
269.5759586
51
282.0820163
0
ARC
8
DEFAULT_255_1_388
10
11.8945832
20
-0.2882637
40
0.2303642
50
281.752014
51
306.6056188
0
ARC
8
DEFAULT_255_1_388
10
11.905664
20
-0.3064198
40
0.2091906
50
307.1346085
51
314.027845
0
ARC
8
DEFAULT_255_1_388
10
11.9016152
20
-0.3034541
40
0.2141385
50
314.2552483
51
350.1694025
0
ARC
8
DEFAULT_255_1_388
10
11.8058389
20
-0.2826825
40
0.312082
50
349.4140529
51
0.2933014
0
ARC
8
DEFAULT_255_1_388
10
11.8643666
20
0.2976924
40
0.2588377
50
89.477747
51
105.729729
0
ARC
8
DEFAULT_255_1_388
10
11.8490586
20
0.3545367
40
0.1999733
50
105.9233417
51
135.1660906
0
ARC
8
DEFAULT_255_1_388
10
11.8513617
20
0.3529412
40
0.2027322
50
135.3052302
51
168.9883645
0
ARC
8
DEFAULT_255_1_388
10
11.9444633
20
0.3315996
40
0.2982129
50
168.3801673
51
180.3602268
0
ARC
8
DEFAULT_255_1_388
10
11.918775
20
0.3273622
40
0.2725291
50
179.5033122
51
194.9125571
0
ARC
8
DEFAULT_255_1_388
10
11.8529157
20
0.3100427
40
0.204431
50
194.9720816
51
224.194444
0
ARC
8
DEFAULT_255_1_388
10
11.8497522
20
0.3074635
40
0.2003651
50
224.2962453
51
262.015664
0
ARC
8
DEFAULT_255_1_388
10
11.8657526
20
0.3897315
40
0.2840925
50
261.1245923
51
270.1962896
0
ARC
8
DEFAULT_255_1_388
10
11.8691007
20
0.3686859
40
0.2630559
50
269.4827276
51
285.0987215
0
ARC
8
DEFAULT_255_1_388
10
11.8864444
20
0.3036175
40
0.1957162
50
285.1585357
51
315.9484501
0
ARC
8
DEFAULT_255_1_388
10
11.8764317
20
0.3128315
40
0.2093195
50
316.0413965
51
351.916092
0
ARC
8
DEFAULT_255_1_388
10
11.7939692
20
0.3287323
40
0.2932279
50
351.105835
51
0.1939062
0
ARC
8
DEFAULT_255_1_388
10
11.8235326
20
0.3321224
40
0.2636739
50
359.4789618
51
16.0678224
0
ARC
8
DEFAULT_255_1_388
10
11.8770797
20
0.3465721
40
0.2082215
50
16.3252067
51
44.7913869
0
ARC
8
DEFAULT_255_1_388
10
11.875086
20
0.346632
40
0.2095992
50
44.3957814
51
88.2499162
0
ARC
8
DEFAULT_255_1_388
10
11.8668194
20
0.2778006
40
0.2787189
50
86.9833854
51
90.0192215
0
LINE
8
DEFAULT_255_1_388
10
12.8606468
20
-0.0127263
11
12.8606468
21
-0.1491645
0
LINE
8
DEFAULT_255_1_388
10
12.8606468
20
-0.1491645
11
12.4197073
21
-0.1491645
0
LINE
8
DEFAULT_255_1_388
10
12.4197073
20
-0.1491645
11
12.4197073
21
-0.0127263
0
LINE
8
DEFAULT_255_1_388
10
12.4197073
20
-0.0127263
11
12.8606468
21
-0.0127263
0
LINE
8
DEFAULT_255_1_388
10
13.6322908
20
0.6766934
11
13.6621084
21
0.6766934
0
LINE
8
DEFAULT_255_1_388
10
13.6621084
20
0.6766934
11
13.6621084
21
0.5348338
0
LINE
8
DEFAULT_255_1_388
10
13.6621084
20
0.5348338
11
13.6313873
21
0.5348338
0
LINE
8
DEFAULT_255_1_388
10
13.0160599
20
-0.1392253
11
13.0160599
21
-0.0750722
0
LINE
8
DEFAULT_255_1_388
10
13.1841229
20
-0.0967578
11
13.1841229
21
-0.1582001
0
ARC
8
DEFAULT_255_1_388
10
13.6372764
20
-0.0274174
40
0.562282
50
90.6001079
51
104.5146616
0
ARC
8
DEFAULT_255_1_388
10
13.5935724
20
0.13511
40
0.3939917
50
104.2855758
51
133.8630124
0
ARC
8
DEFAULT_255_1_388
10
13.6119976
20
0.1229243
40
0.4155734
50
134.5304124
51
161.6210222
0
ARC
8
DEFAULT_255_1_388
10
13.7979908
20
0.0573421
40
0.6127682
50
161.2850533
51
174.2074364
0
ARC
8
DEFAULT_255_1_388
10
13.9569475
20
0.0354437
40
0.7731446
50
173.7817938
51
174.9251711
0
ARC
8
DEFAULT_255_1_388
10
13.4443669
20
-0.120073
40
0.3412588
50
95.8332067
51
138.995412
0
ARC
8
DEFAULT_255_1_388
10
13.4694949
20
-0.2639305
40
0.4870358
50
89.8755506
51
97.0540979
0
ARC
8
DEFAULT_255_1_388
10
13.4748338
20
-0.1699159
40
0.3930432
50
71.6407016
51
90.6240821
0
ARC
8
DEFAULT_255_1_388
10
13.4917732
20
-0.1075567
40
0.3285421
50
39.6368051
51
71.0190743
0
ARC
8
DEFAULT_255_1_388
10
13.4201639
20
-0.1694414
40
0.4231706
50
10.6588054
51
39.9044509
0
ARC
8
DEFAULT_255_1_388
10
13.2460185
20
-0.2072777
40
0.60133
50
359.6827842
51
11.1326896
0
ARC
8
DEFAULT_255_1_388
10
13.2415521
20
-0.2152285
40
0.6058047
50
347.2485908
51
0.4371098
0
ARC
8
DEFAULT_255_1_388
10
13.4291306
20
-0.2603621
40
0.4128987
50
318.1408565
51
347.6118497
0
ARC
8
DEFAULT_255_1_388
10
13.4656903
20
-0.2904097
40
0.3656244
50
275.6342406
51
317.824739
0
ARC
8
DEFAULT_255_1_388
10
13.4408424
20
-0.1442173
40
0.513655
50
269.8872513
51
276.7916069
0
ARC
8
DEFAULT_255_1_388
10
13.4346616
20
-0.2595819
40
0.398323
50
246.9139443
51
270.7436787
0
ARC
8
DEFAULT_255_1_388
10
13.4353812
20
-0.2755956
40
0.3839368
50
218.1665534
51
245.8780431
0
ARC
8
DEFAULT_255_1_388
10
13.5343185
20
-0.1928097
40
0.5128958
50
191.4115343
51
218.6077624
0
ARC
8
DEFAULT_255_1_388
10
13.7523501
20
-0.1439223
40
0.7363054
50
179.6344971
51
191.7836758
0
ARC
8
DEFAULT_255_1_388
10
14.3803375
20
-0.0675505
40
1.3642984
50
171.4523743
51
180.3158856
0
ARC
8
DEFAULT_255_1_388
10
13.8859102
20
0.0093895
40
0.8639311
50
157.9802296
51
171.6246761
0
ARC
8
DEFAULT_255_1_388
10
13.6368453
20
0.1087038
40
0.5958004
50
141.4299236
51
157.8541251
0
ARC
8
DEFAULT_255_1_388
10
13.5646536
20
0.1597746
40
0.5075416
50
102.871586
51
140.8564533
0
ARC
8
DEFAULT_255_1_388
10
13.6375089
20
-0.1147057
40
0.7914163
50
90.377773
51
103.5868422
0
ARC
8
DEFAULT_255_1_388
10
13.441961
20
-0.1827457
40
0.2667015
50
89.8751238
51
126.2072139
0
ARC
8
DEFAULT_255_1_388
10
13.4471081
20
-0.2001153
40
0.2838229
50
124.9742447
51
144.8960197
0
ARC
8
DEFAULT_255_1_388
10
13.4273326
20
-0.1840019
40
0.2583845
50
145.2974778
51
160.2660922
0
ARC
8
DEFAULT_255_1_388
10
13.7729815
20
-0.1617849
40
0.5888695
50
179.6512124
51
190.285571
0
ARC
8
DEFAULT_255_1_388
10
13.5824294
20
-0.1977032
40
0.3949683
50
190.0944895
51
207.5099647
0
ARC
8
DEFAULT_255_1_388
10
13.5187876
20
-0.2279823
40
0.3245464
50
207.9585471
51
216.325377
0
ARC
8
DEFAULT_255_1_388
10
13.4805513
20
-0.2594288
40
0.2751259
50
215.7661336
51
232.5457193
0
ARC
8
DEFAULT_255_1_388
10
13.4374629
20
-0.3141727
40
0.2054668
50
232.8005815
51
270.6605497
0
ARC
8
DEFAULT_255_1_388
10
13.4426053
20
-0.2732147
40
0.2464268
50
269.3550767
51
288.474612
0
ARC
8
DEFAULT_255_1_388
10
13.453056
20
-0.3125279
40
0.2058436
50
289.1831976
51
322.9685307
0
ARC
8
DEFAULT_255_1_388
10
13.3842662
20
-0.2582721
40
0.2934408
50
322.6007085
51
346.5183319
0
ARC
8
DEFAULT_255_1_388
10
13.2540418
20
-0.2250566
40
0.4278249
50
346.2584622
51
358.7739592
0
ARC
8
DEFAULT_255_1_388
10
13.1388993
20
-0.2188171
40
0.5430876
50
358.3757628
51
0.0082477
0
ARC
8
DEFAULT_255_1_388
10
13.2245812
20
-0.2157144
40
0.4574157
50
359.6211417
51
11.28403
0
ARC
8
DEFAULT_255_1_388
10
13.3682418
20
-0.1857465
40
0.3106708
50
11.0483152
51
31.8145585
0
ARC
8
DEFAULT_255_1_388
10
13.4030123
20
-0.1668955
40
0.2711963
50
32.3028554
51
38.0820598
0
ARC
8
DEFAULT_255_1_388
10
13.4503356
20
-0.1240283
40
0.2075566
50
36.8249851
51
85.741667
0
ARC
8
DEFAULT_255_1_388
10
13.4427769
20
-0.1803935
40
0.2643487
50
85.0150021
51
90.050843
0
LINE
8
DEFAULT_255_1_388
10
14.4527273
20
-0.6398
11
14.0885909
21
-0.6398
0
LINE
8
DEFAULT_255_1_388
10
14.0885909
20
-0.6398
11
14.0885909
21
0.6757898
0
LINE
8
DEFAULT_255_1_388
10
14.0885909
20
0.6757898
11
14.4599559
21
0.6757898
0
LINE
8
DEFAULT_255_1_388
10
15.0400442
20
0.0622696
11
15.0400442
21
-0.0217619
0
LINE
8
DEFAULT_255_1_388
10
14.4644737
20
0.5330267
11
14.2620752
21
0.5330267
0
LINE
8
DEFAULT_255_1_388
10
14.2620752
20
0.5330267
11
14.2620752
21
-0.4979404
0
LINE
8
DEFAULT_255_1_388
10
14.2620752
20
-0.4979404
11
14.4445953
21
-0.4979404
0
LINE
8
DEFAULT_255_1_388
10
14.868367
20
-0.0181477
11
14.868367
21
0.0586553
0
ARC
8
DEFAULT_255_1_388
10
14.4643353
20
0.0159436
40
0.6598608
50
75.4100343
51
90.3802731
0
ARC
8
DEFAULT_255_1_388
10
14.4901599
20
0.1235691
40
0.5492049
50
60.1455157
51
75.1889627
0
ARC
8
DEFAULT_255_1_388
10
14.508019
20
0.1546914
40
0.5133226
50
26.525419
51
60.1451222
0
ARC
8
DEFAULT_255_1_388
10
14.3819977
20
0.0878642
40
0.6559324
50
7.4029944
51
26.832209
0
ARC
8
DEFAULT_255_1_388
10
14.2026374
20
0.0599229
40
0.8374103
50
0.1605597
51
7.7176135
0
ARC
8
DEFAULT_255_1_388
10
14.2210774
20
-0.0260679
40
0.8189782
50
348.7289744
51
0.30125
0
ARC
8
DEFAULT_255_1_388
10
14.4074238
20
-0.0630844
40
0.628991
50
333.0706936
51
348.7181455
0
ARC
8
DEFAULT_255_1_388
10
14.5161866
20
-0.1221551
40
0.5052808
50
299.2531435
51
333.4571133
0
ARC
8
DEFAULT_255_1_388
10
14.4755897
20
-0.0450371
40
0.5924066
50
278.1072193
51
299.0340218
0
ARC
8
DEFAULT_255_1_388
10
14.4467946
20
0.1245979
40
0.7644209
50
270.4446841
51
278.4508355
0
ARC
8
DEFAULT_255_1_388
10
14.4491429
20
0.02003
40
0.5179903
50
269.4969684
51
284.0204874
0
ARC
8
DEFAULT_255_1_388
10
14.4891148
20
-0.1335585
40
0.3592968
50
283.7699076
51
318.1557121
0
ARC
8
DEFAULT_255_1_388
10
14.4511693
20
-0.1051601
40
0.4065308
50
318.7417595
51
343.687252
0
ARC
8
DEFAULT_255_1_388
10
14.2482272
20
-0.0417725
40
0.6191194
50
343.3324891
51
355.8548594
0
ARC
8
DEFAULT_255_1_388
10
14.0121309
20
-0.0193281
40
0.856237
50
355.4988754
51
0.0789913
0
ARC
8
DEFAULT_255_1_388
10
14.1002108
20
0.063408
40
0.7681709
50
359.6455047
51
9.8607559
0
ARC
8
DEFAULT_255_1_388
10
14.3657832
20
0.1113664
40
0.498312
50
9.6573037
51
26.1931522
0
ARC
8
DEFAULT_255_1_388
10
14.4701907
20
0.1598587
40
0.3832303
50
26.5777895
51
40.1533752
0
ARC
8
DEFAULT_255_1_388
10
14.4989572
20
0.182302
40
0.3467742
50
40.3839958
51
80.1430923
0
ARC
8
DEFAULT_255_1_388
10
14.4621827
20
0.0192486
40
0.5137832
50
79.2153636
51
89.7445174
0
LINE
8
DEFAULT_255_1_388
10
15.758378
20
-0.6398
11
15.3020779
21
-0.6398
0
LINE
8
DEFAULT_255_1_388
10
15.3020779
20
-0.6398
11
15.3020779
21
0.6757898
0
LINE
8
DEFAULT_255_1_388
10
15.3020779
20
0.6757898
11
15.7321746
21
0.6757898
0
LINE
8
DEFAULT_255_1_388
10
15.7647029
20
-0.0244726
11
15.4755623
21
-0.0244726
0
LINE
8
DEFAULT_255_1_388
10
15.4755623
20
-0.0244726
11
15.4755623
21
-0.4979404
0
LINE
8
DEFAULT_255_1_388
10
15.4755623
20
-0.4979404
11
15.7619922
21
-0.4979404
0
LINE
8
DEFAULT_255_1_388
10
15.4755623
20
0.5330267
11
15.4755623
21
0.1146763
0
LINE
8
DEFAULT_255_1_388
10
15.4755623
20
0.1146763
11
15.737596
21
0.1146763
0
LINE
8
DEFAULT_255_1_388
10
15.7321746
20
0.5330267
11
15.4755623
21
0.5330267
0
ARC
8
DEFAULT_255_1_388
10
15.7364166
20
-0.1530176
40
0.8288183
50
82.1256322
51
90.2932506
0
ARC
8
DEFAULT_255_1_388
10
15.7801741
20
0.152759
40
0.5199321
50
69.9044202
51
82.2857574
0
ARC
8
DEFAULT_255_1_388
10
15.8443734
20
0.3262993
40
0.3348993
50
51.1840204
51
70.018125
0
ARC
8
DEFAULT_255_1_388
10
15.8730566
20
0.3679945
40
0.2844579
50
12.1018086
51
50.421322
0
ARC
8
DEFAULT_255_1_388
10
15.7173438
20
0.3288937
40
0.4449429
50
359.5252354
51
12.8212369
0
ARC
8
DEFAULT_255_1_388
10
15.8950868
20
0.3210943
40
0.2672162
50
323.4907456
51
0.8818258
0
ARC
8
DEFAULT_255_1_388
10
15.848028
20
0.3574523
40
0.3266736
50
298.6824053
51
323.2758285
0
ARC
8
DEFAULT_255_1_388
10
15.8073572
20
0.4250509
40
0.4055105
50
293.1994739
51
299.139634
0
ARC
8
DEFAULT_255_1_388
10
15.8830521
20
-0.2595349
40
0.3229926
50
54.0009997
51
74.9168635
0
ARC
8
DEFAULT_255_1_388
10
15.8961448
20
-0.2373489
40
0.2973581
50
36.3578854
51
53.5293172
0
ARC
8
DEFAULT_255_1_388
10
15.8818816
20
-0.247515
40
0.3148715
50
4.8189348
51
36.3090187
0
ARC
8
DEFAULT_255_1_388
10
15.794184
20
-0.2598617
40
0.4033265
50
359.9373213
51
5.5201284
0
ARC
8
DEFAULT_255_1_388
10
15.7577171
20
-0.2644267
40
0.4398126
50
344.7479357
51
0.5372278
0
ARC
8
DEFAULT_255_1_388
10
15.8692069
20
-0.2944795
40
0.3243441
50
311.1785587
51
344.6887681
0
ARC
8
DEFAULT_255_1_388
10
15.8363613
20
-0.2535916
40
0.3767511
50
286.0417804
51
310.8440924
0
ARC
8
DEFAULT_255_1_388
10
15.7793022
20
-0.0683115
40
0.5705957
50
274.1044074
51
286.4070149
0
ARC
8
DEFAULT_255_1_388
10
15.7594237
20
0.1434901
40
0.7832907
50
269.9235077
51
274.4458593
0
ARC
8
DEFAULT_255_1_388
10
15.7645955
20
-0.1196538
40
0.3782955
50
269.6057074
51
281.3740795
0
ARC
8
DEFAULT_255_1_388
10
15.7905454
20
-0.2426431
40
0.2526069
50
281.105298
51
302.5134029
0
ARC
8
DEFAULT_255_1_388
10
15.8070841
20
-0.2723056
40
0.2187131
50
303.0365425
51
311.8818034
0
ARC
8
DEFAULT_255_1_388
10
15.8151018
20
-0.2818398
40
0.2062624
50
311.9916937
51
351.7143773
0
ARC
8
DEFAULT_255_1_388
10
15.7232043
20
-0.2632729
40
0.2999202
50
350.7343295
51
0.2221526
0
ARC
8
DEFAULT_255_1_388
10
15.7111131
20
-0.256913
40
0.3120525
50
359.045729
51
17.2295312
0
ARC
8
DEFAULT_255_1_388
10
15.8280162
20
-0.2221845
40
0.1901144
50
17.6685208
51
78.9940245
0
ARC
8
DEFAULT_255_1_388
10
15.7698522
20
-0.4309989
40
0.4065575
50
76.565218
51
90.7103392
0
LINE
8
DEFAULT_255_1_388
10
15.764812
20
-0.0244726
11
15.7647029
21
-0.0244726
0
ARC
8
DEFAULT_255_1_388
10
15.7401348
20
0.4842949
40
0.3696273
50
269.6064514
51
281.4533785
0
ARC
8
DEFAULT_255_1_388
10
15.7651989
20
0.3660283
40
0.2487412
50
281.2044438
51
302.5143998
0
ARC
8
DEFAULT_255_1_388
10
15.7806243
20
0.3382576
40
0.2170405
50
303.0211308
51
309.8378766
0
ARC
8
DEFAULT_255_1_388
10
15.801236
20
0.3151486
40
0.1860946
50
309.5229446
51
356.9509628
0
ARC
8
DEFAULT_255_1_388
10
15.7266486
20
0.3258831
40
0.2612347
50
355.4699226
51
0.0498632
0
ARC
8
DEFAULT_255_1_388
10
15.695216
20
0.3283789
40
0.2926762
50
359.5558955
51
11.2092924
0
ARC
8
DEFAULT_255_1_388
10
15.8029127
20
0.3506667
40
0.1827036
50
10.9185717
51
31.322519
0
ARC
8
DEFAULT_255_1_388
10
15.8350675
20
0.3685571
40
0.1459418
50
31.8850633
51
52.1415586
0
ARC
8
DEFAULT_255_1_388
10
15.8042105
20
0.3249674
40
0.1993088
50
52.8283418
51
71.9850132
0
ARC
8
DEFAULT_255_1_388
10
15.7619265
20
0.2005158
40
0.3307407
50
71.686634
51
82.8453416
0
ARC
8
DEFAULT_255_1_388
10
15.7349913
20
-0.0030108
40
0.536039
50
82.6981895
51
90.1730083
0
ARC
8
DEFAULT_255_1_388
10
15.7324744
20
0.0848836
40
0.4481429
50
89.8851568
51
90.0383283
0
LINE
8
DEFAULT_255_1_388
10
17.2357059
20
0.138169
11
17.2357059
21
-0.0786865
0
LINE
8
DEFAULT_255_1_388
10
16.4053301
20
-0.1012756
11
16.4053301
21
0.1219048
0
LINE
8
DEFAULT_255_1_388
10
17.0685464
20
-0.1238647
11
17.0685464
21
0.1499153
0
LINE
8
DEFAULT_255_1_388
10
16.5724896
20
0.1625652
11
16.5724896
21
-0.1048898
0
ARC
8
DEFAULT_255_1_388
10
15.8579393
20
-0.0841882
40
1.3777776
50
353.8440855
51
0.2287917
0
ARC
8
DEFAULT_255_1_388
10
16.379841
20
-0.1424586
40
0.852639
50
344.4934746
51
353.9763743
0
ARC
8
DEFAULT_255_1_388
10
16.7165217
20
-0.2381809
40
0.5026273
50
329.2803599
51
344.7473406
0
ARC
8
DEFAULT_255_1_388
10
16.8280713
20
-0.2993962
40
0.3754848
50
324.9361395
51
328.6153007
0
ARC
8
DEFAULT_255_1_388
10
16.8706363
20
-0.3291414
40
0.3235566
50
280.5801797
51
324.9173226
0
ARC
8
DEFAULT_255_1_388
10
16.8254991
20
-0.1411764
40
0.5167077
50
269.5979457
51
281.6732777
0
ARC
8
DEFAULT_255_1_388
10
16.8173895
20
-0.1546887
40
0.5032026
50
256.6228565
51
270.5105488
0
ARC
8
DEFAULT_255_1_388
10
16.7721638
20
-0.3288655
40
0.3233092
50
215.8618351
51
257.2787793
0
ARC
8
DEFAULT_255_1_388
10
16.8870345
20
-0.2517894
40
0.4615831
50
197.9695203
51
215.2622745
0
ARC
8
DEFAULT_255_1_388
10
17.166602
20
-0.1574359
40
0.7566307
50
187.8816486
51
198.2346584
0
ARC
8
DEFAULT_255_1_388
10
17.6119258
20
-0.0931547
40
1.2065653
50
180.8977266
51
188.0054894
0
ARC
8
DEFAULT_255_1_388
10
17.9169472
20
-0.08166
40
1.5117443
50
180.7434591
51
181.152202
0
ARC
8
DEFAULT_255_1_388
10
17.7494468
20
0.1273371
40
1.3441277
50
173.7674302
51
180.2315596
0
ARC
8
DEFAULT_255_1_388
10
17.2412337
20
0.1847779
40
0.8326847
50
164.3058537
51
173.9000553
0
ARC
8
DEFAULT_255_1_388
10
16.9136337
20
0.2791652
40
0.4917711
50
148.7922028
51
164.5682288
0
ARC
8
DEFAULT_255_1_388
10
16.8067074
20
0.3388457
40
0.3694204
50
144.5883979
51
148.1161588
0
ARC
8
DEFAULT_255_1_388
10
16.767982
20
0.3658667
40
0.322202
50
101.6440149
51
144.5142619
0
ARC
8
DEFAULT_255_1_388
10
16.8158012
20
0.1758337
40
0.5180451
50
89.528284
51
102.5820197
0
ARC
8
DEFAULT_255_1_388
10
16.8247004
20
0.1714376
40
0.5224441
50
77.0437914
51
90.508231
0
ARC
8
DEFAULT_255_1_388
10
16.8699258
20
0.3562272
40
0.3322297
50
48.2777708
51
77.4996087
0
ARC
8
DEFAULT_255_1_388
10
16.8780998
20
0.3707557
40
0.315966
50
36.3141586
51
47.6307332
0
ARC
8
DEFAULT_255_1_388
10
16.780372
20
0.3049159
40
0.4337313
50
18.2931065
51
35.6770203
0
ARC
8
DEFAULT_255_1_388
10
16.4942561
20
0.2067107
40
0.7362203
50
8.0246996
51
18.5605636
0
ARC
8
DEFAULT_255_1_388
10
16.0258916
20
0.1375432
40
1.2096583
50
1.127539
51
8.1718423
0
ARC
8
DEFAULT_255_1_388
10
15.661005
20
0.1232374
40
1.5747719
50
0.5432713
51
1.38669
0
ARC
8
DEFAULT_255_1_388
10
15.8667428
20
0.1539163
40
1.2018103
50
359.8092569
51
4.9408001
0
ARC
8
DEFAULT_255_1_388
10
16.340401
20
0.19619
40
0.7262727
50
4.8364937
51
12.2906017
0
ARC
8
DEFAULT_255_1_388
10
16.6503474
20
0.2652485
40
0.4087324
50
12.0806994
51
23.8171225
0
ARC
8
DEFAULT_255_1_388
10
16.782387
20
0.3211508
40
0.2653719
50
24.2874621
51
31.3934353
0
ARC
8
DEFAULT_255_1_388
10
16.8414306
20
0.3597822
40
0.1948607
50
30.7407708
51
82.4658033
0
ARC
8
DEFAULT_255_1_388
10
16.8211967
20
0.2604017
40
0.2961198
50
81.1057101
51
90.2187368
0
ARC
8
DEFAULT_255_1_388
10
16.8171779
20
0.2894421
40
0.2670929
50
89.380395
51
105.6763916
0
ARC
8
DEFAULT_255_1_388
10
16.7965501
20
0.364432
40
0.1893189
50
105.7980655
51
149.7387869
0
ARC
8
DEFAULT_255_1_388
10
16.9162641
20
0.2924719
40
0.3289892
50
149.4208441
51
163.628295
0
ARC
8
DEFAULT_255_1_388
10
17.1514871
20
0.2207345
40
0.5749004
50
163.3764549
51
172.141138
0
ARC
8
DEFAULT_255_1_388
10
17.5227592
20
0.1675582
40
0.9499585
50
172.0258462
51
178.0705453
0
ARC
8
DEFAULT_255_1_388
10
17.8649145
20
0.1513682
40
1.2924734
50
177.8639301
51
179.5036263
0
ARC
8
DEFAULT_255_1_388
10
17.7430163
20
-0.1089849
40
1.170534
50
179.7995545
51
185.246089
0
ARC
8
DEFAULT_255_1_388
10
17.2881757
20
-0.1520596
40
0.7136613
50
185.1411911
51
193.0082205
0
ARC
8
DEFAULT_255_1_388
10
16.9908017
20
-0.2223559
40
0.4080987
50
192.7897338
51
205.2507384
0
ARC
8
DEFAULT_255_1_388
10
16.8730227
20
-0.2749462
40
0.2791522
50
205.8001921
51
211.2545876
0
ARC
8
DEFAULT_255_1_388
10
16.8141766
20
-0.3143868
40
0.2084074
50
210.3789935
51
238.4007996
0
ARC
8
DEFAULT_255_1_388
10
16.8119852
20
-0.3091214
40
0.2117943
50
239.6521916
51
265.9793852
0
ARC
8
DEFAULT_255_1_388
10
16.8215701
20
-0.2334642
40
0.2879689
50
265.1324455
51
270.0603288
0
ARC
8
DEFAULT_255_1_388
10
16.8248078
20
-0.2699582
40
0.2514919
50
269.3314378
51
287.2180039
0
ARC
8
DEFAULT_255_1_388
10
16.8403161
20
-0.3265709
40
0.1928357
50
287.7957942
51
329.0808983
0
ARC
8
DEFAULT_255_1_388
10
16.7325918
20
-0.2593349
40
0.319808
50
328.6635261
51
343.3325043
0
ARC
8
DEFAULT_255_1_388
10
16.4881376
20
-0.1831805
40
0.5758408
50
343.0498092
51
351.9392499
0
ARC
8
DEFAULT_255_1_388
10
16.0980698
20
-0.1256795
40
0.9701202
50
351.8071632
51
357.7957897
0
ARC
8
DEFAULT_255_1_388
10
15.7346175
20
-0.1068276
40
1.3340376
50
357.5870923
51
359.2682493
0
LINE
8
DEFAULT_255_1_388
10
18.274805
20
0.138169
11
18.274805
21
-0.0786865
0
LINE
8
DEFAULT_255_1_388
10
17.4444292
20
-0.1012756
11
17.4444292
21
0.1219048
0
LINE
8
DEFAULT_255_1_388
10
18.1076456
20
-0.1238647
11
18.1076456
21
0.1499153
0
LINE
8
DEFAULT_255_1_388
10
17.6115887
20
0.1625652
11
17.6115887
21
-0.1048898
0
ARC
8
DEFAULT_255_1_388
10
16.8970384
20
-0.0841882
40
1.3777776
50
353.8440855
51
0.2287917
0
ARC
8
DEFAULT_255_1_388
10
17.4189401
20
-0.1424586
40
0.852639
50
344.4934746
51
353.9763743
0
ARC
8
DEFAULT_255_1_388
10
17.7556208
20
-0.2381809
40
0.5026273
50
329.2803599
51
344.7473406
0
ARC
8
DEFAULT_255_1_388
10
17.8671704
20
-0.2993962
40
0.3754848
50
324.9361395
51
328.6153007
0
ARC
8
DEFAULT_255_1_388
10
17.9097354
20
-0.3291414
40
0.3235566
50
280.5801797
51
324.9173226
0
ARC
8
DEFAULT_255_1_388
10
17.8645983
20
-0.1411764
40
0.5167077
50
269.5979457
51
281.6732777
0
ARC
8
DEFAULT_255_1_388
10
17.8564886
20
-0.1546887
40
0.5032026
50
256.6228565
51
270.5105488
0
ARC
8
DEFAULT_255_1_388
10
17.8112629
20
-0.3288655
40
0.3233092
50
215.8618351
51
257.2787793
0
ARC
8
DEFAULT_255_1_388
10
17.9261336
20
-0.2517894
40
0.4615831
50
197.9695203
51
215.2622745
0
ARC
8
DEFAULT_255_1_388
10
18.2057011
20
-0.1574359
40
0.7566307
50
187.8816486
51
198.2346584
0
ARC
8
DEFAULT_255_1_388
10
18.651025
20
-0.0931547
40
1.2065653
50
180.8977266
51
188.0054894
0
ARC
8
DEFAULT_255_1_388
10
18.9560463
20
-0.08166
40
1.5117443
50
180.7434591
51
181.152202
0
ARC
8
DEFAULT_255_1_388
10
18.7885459
20
0.1273371
40
1.3441277
50
173.7674302
51
180.2315596
0
ARC
8
DEFAULT_255_1_388
10
18.2803328
20
0.1847779
40
0.8326847
50
164.3058537
51
173.9000553
0
ARC
8
DEFAULT_255_1_388
10
17.9527328
20
0.2791652
40
0.4917711
50
148.7922028
51
164.5682288
0
ARC
8
DEFAULT_255_1_388
10
17.8458066
20
0.3388457
40
0.3694204
50
144.5883979
51
148.1161588
0
ARC
8
DEFAULT_255_1_388
10
17.8070811
20
0.3658667
40
0.322202
50
101.6440149
51
144.5142619
0
ARC
8
DEFAULT_255_1_388
10
17.8549003
20
0.1758337
40
0.5180451
50
89.528284
51
102.5820197
0
ARC
8
DEFAULT_255_1_388
10
17.8637995
20
0.1714376
40
0.5224441
50
77.0437914
51
90.508231
0
ARC
8
DEFAULT_255_1_388
10
17.9090249
20
0.3562272
40
0.3322297
50
48.2777708
51
77.4996087
0
ARC
8
DEFAULT_255_1_388
10
17.9171989
20
0.3707557
40
0.315966
50
36.3141586
51
47.6307332
0
ARC
8
DEFAULT_255_1_388
10
17.8194711
20
0.3049159
40
0.4337313
50
18.2931065
51
35.6770203
0
ARC
8
DEFAULT_255_1_388
10
17.5333552
20
0.2067107
40
0.7362203
50
8.0246996
51
18.5605636
0
ARC
8
DEFAULT_255_1_388
10
17.0649907
20
0.1375432
40
1.2096583
50
1.127539
51
8.1718423
0
ARC
8
DEFAULT_255_1_388
10
16.7001041
20
0.1232374
40
1.5747719
50
0.5432713
51
1.38669
0
ARC
8
DEFAULT_255_1_388
10
16.9058419
20
0.1539163
40
1.2018103
50
359.8092569
51
4.9408001
0
ARC
8
DEFAULT_255_1_388
10
17.3795001
20
0.19619
40
0.7262727
50
4.8364937
51
12.2906017
0
ARC
8
DEFAULT_255_1_388
10
17.6894466
20
0.2652485
40
0.4087324
50
12.0806994
51
23.8171225
0
ARC
8
DEFAULT_255_1_388
10
17.8214861
20
0.3211508
40
0.2653719
50
24.2874621
51
31.3934353
0
ARC
8
DEFAULT_255_1_388
10
17.8805297
20
0.3597822
40
0.1948607
50
30.7407708
51
82.4658033
0
ARC
8
DEFAULT_255_1_388
10
17.8602958
20
0.2604017
40
0.2961198
50
81.1057101
51
90.2187368
0
ARC
8
DEFAULT_255_1_388
10
17.856277
20
0.2894421
40
0.2670929
50
89.380395
51
105.6763916
0
ARC
8
DEFAULT_255_1_388
10
17.8356492
20
0.364432
40
0.1893189
50
105.7980655
51
149.7387869
0
ARC
8
DEFAULT_255_1_388
10
17.9553632
20
0.2924719
40
0.3289892
50
149.4208441
51
163.628295
0
ARC
8
DEFAULT_255_1_388
10
18.1905862
20
0.2207345
40
0.5749004
50
163.3764549
51
172.141138
0
ARC
8
DEFAULT_255_1_388
10
18.5618583
20
0.1675582
40
0.9499585
50
172.0258462
51
178.0705453
0
ARC
8
DEFAULT_255_1_388
10
18.9040136
20
0.1513682
40
1.2924734
50
177.8639301
51
179.5036263
0
ARC
8
DEFAULT_255_1_388
10
18.7821155
20
-0.1089849
40
1.170534
50
179.7995545
51
185.246089
0
ARC
8
DEFAULT_255_1_388
10
18.3272748
20
-0.1520596
40
0.7136613
50
185.1411911
51
193.0082205
0
ARC
8
DEFAULT_255_1_388
10
18.0299008
20
-0.2223559
40
0.4080987
50
192.7897338
51
205.2507384
0
ARC
8
DEFAULT_255_1_388
10
17.9121218
20
-0.2749462
40
0.2791522
50
205.8001921
51
211.2545876
0
ARC
8
DEFAULT_255_1_388
10
17.8532758
20
-0.3143868
40
0.2084074
50
210.3789935
51
238.4007996
0
ARC
8
DEFAULT_255_1_388
10
17.8510844
20
-0.3091214
40
0.2117943
50
239.6521916
51
265.9793852
0
ARC
8
DEFAULT_255_1_388
10
17.8606692
20
-0.2334642
40
0.2879689
50
265.1324455
51
270.0603288
0
ARC
8
DEFAULT_255_1_388
10
17.863907
20
-0.2699582
40
0.2514919
50
269.3314378
51
287.2180039
0
ARC
8
DEFAULT_255_1_388
10
17.8794152
20
-0.3265709
40
0.1928357
50
287.7957942
51
329.0808983
0
ARC
8
DEFAULT_255_1_388
10
17.7716909
20
-0.2593349
40
0.319808
50
328.6635261
51
343.3325043
0
ARC
8
DEFAULT_255_1_388
10
17.5272367
20
-0.1831805
40
0.5758408
50
343.0498092
51
351.9392499
0
ARC
8
DEFAULT_255_1_388
10
17.1371689
20
-0.1256795
40
0.9701202
50
351.8071632
51
357.7957897
0
ARC
8
DEFAULT_255_1_388
10
16.7737166
20
-0.1068276
40
1.3340376
50
357.5870923
51
359.2682493
0
LINE
8
DEFAULT_255_1_388
10
18.8539898
20
-0.0127263
11
18.8539898
21
-0.1491645
0
LINE
8
DEFAULT_255_1_388
10
18.8539898
20
-0.1491645
11
18.4130503
21
-0.1491645
0
LINE
8
DEFAULT_255_1_388
10
18.4130503
20
-0.1491645
11
18.4130503
21
-0.0127263
0
LINE
8
DEFAULT_255_1_388
10
18.4130503
20
-0.0127263
11
18.8539898
21
-0.0127263
0
LINE
8
DEFAULT_255_1_388
10
19.824418
20
0.138169
11
19.824418
21
-0.0786865
0
LINE
8
DEFAULT_255_1_388
10
18.9940423
20
-0.1012756
11
18.9940423
21
0.1219048
0
LINE
8
DEFAULT_255_1_388
10
19.6572586
20
-0.1238647
11
19.6572586
21
0.1499153
0
LINE
8
DEFAULT_255_1_388
10
19.1612017
20
0.1625652
11
19.1612017
21
-0.1048898
0
ARC
8
DEFAULT_255_1_388
10
18.4466514
20
-0.0841882
40
1.3777776
50
353.8440855
51
0.2287917
0
ARC
8
DEFAULT_255_1_388
10
18.9685532
20
-0.1424586
40
0.852639
50
344.4934746
51
353.9763743
0
ARC
8
DEFAULT_255_1_388
10
19.3052339
20
-0.2381809
40
0.5026273
50
329.2803599
51
344.7473406
0
ARC
8
DEFAULT_255_1_388
10
19.4167834
20
-0.2993962
40
0.3754848
50
324.9361395
51
328.6153007
0
ARC
8
DEFAULT_255_1_388
10
19.4593484
20
-0.3291414
40
0.3235566
50
280.5801797
51
324.9173226
0
ARC
8
DEFAULT_255_1_388
10
19.4142113
20
-0.1411764
40
0.5167077
50
269.5979457
51
281.6732777
0
ARC
8
DEFAULT_255_1_388
10
19.4061016
20
-0.1546887
40
0.5032026
50
256.6228565
51
270.5105488
0
ARC
8
DEFAULT_255_1_388
10
19.3608759
20
-0.3288655
40
0.3233092
50
215.8618351
51
257.2787793
0
ARC
8
DEFAULT_255_1_388
10
19.4757466
20
-0.2517894
40
0.4615831
50
197.9695203
51
215.2622745
0
ARC
8
DEFAULT_255_1_388
10
19.7553142
20
-0.1574359
40
0.7566307
50
187.8816486
51
198.2346584
0
ARC
8
DEFAULT_255_1_388
10
20.200638
20
-0.0931547
40
1.2065653
50
180.8977266
51
188.0054894
0
ARC
8
DEFAULT_255_1_388
10
20.5056594
20
-0.08166
40
1.5117443
50
180.7434591
51
181.152202
0
ARC
8
DEFAULT_255_1_388
10
20.338159
20
0.1273371
40
1.3441277
50
173.7674302
51
180.2315596
0
ARC
8
DEFAULT_255_1_388
10
19.8299459
20
0.1847779
40
0.8326847
50
164.3058537
51
173.9000553
0
ARC
8
DEFAULT_255_1_388
10
19.5023459
20
0.2791652
40
0.4917711
50
148.7922028
51
164.5682288
0
ARC
8
DEFAULT_255_1_388
10
19.3954196
20
0.3388457
40
0.3694204
50
144.5883979
51
148.1161588
0
ARC
8
DEFAULT_255_1_388
10
19.3566941
20
0.3658667
40
0.322202
50
101.6440149
51
144.5142619
0
ARC
8
DEFAULT_255_1_388
10
19.4045134
20
0.1758337
40
0.5180451
50
89.528284
51
102.5820197
0
ARC
8
DEFAULT_255_1_388
10
19.4134125
20
0.1714376
40
0.5224441
50
77.0437914
51
90.508231
0
ARC
8
DEFAULT_255_1_388
10
19.4586379
20
0.3562272
40
0.3322297
50
48.2777708
51
77.4996087
0
ARC
8
DEFAULT_255_1_388
10
19.4668119
20
0.3707557
40
0.315966
50
36.3141586
51
47.6307332
0
ARC
8
DEFAULT_255_1_388
10
19.3690841
20
0.3049159
40
0.4337313
50
18.2931065
51
35.6770203
0
ARC
8
DEFAULT_255_1_388
10
19.0829682
20
0.2067107
40
0.7362203
50
8.0246996
51
18.5605636
0
ARC
8
DEFAULT_255_1_388
10
18.6146038
20
0.1375432
40
1.2096583
50
1.127539
51
8.1718423
0
ARC
8
DEFAULT_255_1_388
10
18.2497171
20
0.1232374
40
1.5747719
50
0.5432713
51
1.38669
0
ARC
8
DEFAULT_255_1_388
10
18.455455
20
0.1539163
40
1.2018103
50
359.8092569
51
4.9408001
0
ARC
8
DEFAULT_255_1_388
10
18.9291131
20
0.19619
40
0.7262727
50
4.8364937
51
12.2906017
0
ARC
8
DEFAULT_255_1_388
10
19.2390596
20
0.2652485
40
0.4087324
50
12.0806994
51
23.8171225
0
ARC
8
DEFAULT_255_1_388
10
19.3710992
20
0.3211508
40
0.2653719
50
24.2874621
51
31.3934353
0
ARC
8
DEFAULT_255_1_388
10
19.4301428
20
0.3597822
40
0.1948607
50
30.7407708
51
82.4658033
0
ARC
8
DEFAULT_255_1_388
10
19.4099089
20
0.2604017
40
0.2961198
50
81.1057101
51
90.2187368
0
ARC
8
DEFAULT_255_1_388
10
19.40589
20
0.2894421
40
0.2670929
50
89.380395
51
105.6763916
0
ARC
8
DEFAULT_255_1_388
10
19.3852622
20
0.364432
40
0.1893189
50
105.7980655
51
149.7387869
0
ARC
8
DEFAULT_255_1_388
10
19.5049762
20
0.2924719
40
0.3289892
50
149.4208441
51
163.628295
0
ARC
8
DEFAULT_255_1_388
10
19.7401992
20
0.2207345
40
0.5749004
50
163.3764549
51
172.141138
0
ARC
8
DEFAULT_255_1_388
10
20.1114714
20
0.1675582
40
0.9499585
50
172.0258462
51
178.0705453
0
ARC
8
DEFAULT_255_1_388
10
20.4536266
20
0.1513682
40
1.2924734
50
177.8639301
51
179.5036263
0
ARC
8
DEFAULT_255_1_388
10
20.3317285
20
-0.1089849
40
1.170534
50
179.7995545
51
185.246089
0
ARC
8
DEFAULT_255_1_388
10
19.8768878
20
-0.1520596
40
0.7136613
50
185.1411911
51
193.0082205
0
ARC
8
DEFAULT_255_1_388
10
19.5795139
20
-0.2223559
40
0.4080987
50
192.7897338
51
205.2507384
0
ARC
8
DEFAULT_255_1_388
10
19.4617349
20
-0.2749462
40
0.2791522
50
205.8001921
51
211.2545876
0
ARC
8
DEFAULT_255_1_388
10
19.4028888
20
-0.3143868
40
0.2084074
50
210.3789935
51
238.4007996
0
ARC
8
DEFAULT_255_1_388
10
19.4006974
20
-0.3091214
40
0.2117943
50
239.6521916
51
265.9793852
0
ARC
8
DEFAULT_255_1_388
10
19.4102823
20
-0.2334642
40
0.2879689
50
265.1324455
51
270.0603288
0
ARC
8
DEFAULT_255_1_388
10
19.41352
20
-0.2699582
40
0.2514919
50
269.3314378
51
287.2180039
0
ARC
8
DEFAULT_255_1_388
10
19.4290282
20
-0.3265709
40
0.1928357
50
287.7957942
51
329.0808983
0
ARC
8
DEFAULT_255_1_388
10
19.3213039
20
-0.2593349
40
0.319808
50
328.6635261
51
343.3325043
0
ARC
8
DEFAULT_255_1_388
10
19.0768498
20
-0.1831805
40
0.5758408
50
343.0498092
51
351.9392499
0
ARC
8
DEFAULT_255_1_388
10
18.6867819
20
-0.1256795
40
0.9701202
50
351.8071632
51
357.7957897
0
ARC
8
DEFAULT_255_1_388
10
18.3233296
20
-0.1068276
40
1.3340376
50
357.5870923
51
359.2682493
0
LINE
8
DEFAULT_255_1_388
10
20.5382339
20
-0.6398
11
20.0819339
21
-0.6398
0
LINE
8
DEFAULT_255_1_388
10
20.0819339
20
-0.6398
11
20.0819339
21
0.6757898
0
LINE
8
DEFAULT_255_1_388
10
20.0819339
20
0.6757898
11
20.5120306
21
0.6757898
0
LINE
8
DEFAULT_255_1_388
10
20.5445589
20
-0.0244726
11
20.2554183
21
-0.0244726
0
LINE
8
DEFAULT_255_1_388
10
20.2554183
20
-0.0244726
11
20.2554183
21
-0.4979404
0
LINE
8
DEFAULT_255_1_388
10
20.2554183
20
-0.4979404
11
20.5418482
21
-0.4979404
0
LINE
8
DEFAULT_255_1_388
10
20.2554183
20
0.5330267
11
20.2554183
21
0.1146763
0
LINE
8
DEFAULT_255_1_388
10
20.2554183
20
0.1146763
11
20.517452
21
0.1146763
0
LINE
8
DEFAULT_255_1_388
10
20.5120306
20
0.5330267
11
20.2554183
21
0.5330267
0
ARC
8
DEFAULT_255_1_388
10
20.5162726
20
-0.1530176
40
0.8288183
50
82.1256322
51
90.2932506
0
ARC
8
DEFAULT_255_1_388
10
20.5600301
20
0.152759
40
0.5199321
50
69.9044202
51
82.2857574
0
ARC
8
DEFAULT_255_1_388
10
20.6242293
20
0.3262993
40
0.3348993
50
51.1840204
51
70.018125
0
ARC
8
DEFAULT_255_1_388
10
20.6529126
20
0.3679945
40
0.2844579
50
12.1018086
51
50.421322
0
ARC
8
DEFAULT_255_1_388
10
20.4971997
20
0.3288937
40
0.4449429
50
359.5252354
51
12.8212369
0
ARC
8
DEFAULT_255_1_388
10
20.6749427
20
0.3210943
40
0.2672162
50
323.4907456
51
0.8818258
0
ARC
8
DEFAULT_255_1_388
10
20.627884
20
0.3574523
40
0.3266736
50
298.6824053
51
323.2758285
0
ARC
8
DEFAULT_255_1_388
10
20.5872131
20
0.4250509
40
0.4055105
50
293.1994739
51
299.139634
0
ARC
8
DEFAULT_255_1_388
10
20.6629081
20
-0.2595349
40
0.3229926
50
54.0009997
51
74.9168635
0
ARC
8
DEFAULT_255_1_388
10
20.6760008
20
-0.2373489
40
0.2973581
50
36.3578854
51
53.5293172
0
ARC
8
DEFAULT_255_1_388
10
20.6617376
20
-0.247515
40
0.3148715
50
4.8189348
51
36.3090187
0
ARC
8
DEFAULT_255_1_388
10
20.57404
20
-0.2598617
40
0.4033265
50
359.9373213
51
5.5201284
0
ARC
8
DEFAULT_255_1_388
10
20.537573
20
-0.2644267
40
0.4398126
50
344.7479357
51
0.5372278
0
ARC
8
DEFAULT_255_1_388
10
20.6490629
20
-0.2944795
40
0.3243441
50
311.1785587
51
344.6887681
0
ARC
8
DEFAULT_255_1_388
10
20.6162172
20
-0.2535916
40
0.3767511
50
286.0417804
51
310.8440924
0
ARC
8
DEFAULT_255_1_388
10
20.5591581
20
-0.0683115
40
0.5705957
50
274.1044074
51
286.4070149
0
ARC
8
DEFAULT_255_1_388
10
20.5392797
20
0.1434901
40
0.7832907
50
269.9235077
51
274.4458593
0
ARC
8
DEFAULT_255_1_388
10
20.5444515
20
-0.1196538
40
0.3782955
50
269.6057074
51
281.3740795
0
ARC
8
DEFAULT_255_1_388
10
20.5704013
20
-0.2426431
40
0.2526069
50
281.105298
51
302.5134029
0
ARC
8
DEFAULT_255_1_388
10
20.5869401
20
-0.2723056
40
0.2187131
50
303.0365425
51
311.8818034
0
ARC
8
DEFAULT_255_1_388
10
20.5949578
20
-0.2818398
40
0.2062624
50
311.9916937
51
351.7143773
0
ARC
8
DEFAULT_255_1_388
10
20.5030603
20
-0.2632729
40
0.2999202
50
350.7343295
51
0.2221526
0
ARC
8
DEFAULT_255_1_388
10
20.4909691
20
-0.256913
40
0.3120525
50
359.045729
51
17.2295312
0
ARC
8
DEFAULT_255_1_388
10
20.6078721
20
-0.2221845
40
0.1901144
50
17.6685208
51
78.9940245
0
ARC
8
DEFAULT_255_1_388
10
20.5497082
20
-0.4309989
40
0.4065575
50
76.565218
51
90.7103392
0
LINE
8
DEFAULT_255_1_388
10
20.5446679
20
-0.0244726
11
20.5445589
21
-0.0244726
0
ARC
8
DEFAULT_255_1_388
10
20.5199908
20
0.4842949
40
0.3696273
50
269.6064514
51
281.4533785
0
ARC
8
DEFAULT_255_1_388
10
20.5450549
20
0.3660283
40
0.2487412
50
281.2044438
51
302.5143998
0
ARC
8
DEFAULT_255_1_388
10
20.5604803
20
0.3382576
40
0.2170405
50
303.0211308
51
309.8378766
0
ARC
8
DEFAULT_255_1_388
10
20.581092
20
0.3151486
40
0.1860946
50
309.5229446
51
356.9509628
0
ARC
8
DEFAULT_255_1_388
10
20.5065046
20
0.3258831
40
0.2612347
50
355.4699226
51
0.0498632
0
ARC
8
DEFAULT_255_1_388
10
20.4750719
20
0.3283789
40
0.2926762
50
359.5558955
51
11.2092924
0
ARC
8
DEFAULT_255_1_388
10
20.5827687
20
0.3506667
40
0.1827036
50
10.9185717
51
31.322519
0
ARC
8
DEFAULT_255_1_388
10
20.6149235
20
0.3685571
40
0.1459418
50
31.8850633
51
52.1415586
0
ARC
8
DEFAULT_255_1_388
10
20.5840664
20
0.3249674
40
0.1993088
50
52.8283418
51
71.9850132
0
ARC
8
DEFAULT_255_1_388
10
20.5417825
20
0.2005158
40
0.3307407
50
71.686634
51
82.8453416
0
ARC
8
DEFAULT_255_1_388
10
20.5148472
20
-0.0030108
40
0.536039
50
82.6981895
51
90.1730083
0
ARC
8
DEFAULT_255_1_388
10
20.5123304
20
0.0848836
40
0.4481429
50
89.8851568
51
90.0383283
0
LINE
8
DEFAULT_255_1_388
10
21.6902786
20
-0.6398
11
21.2339786
21
-0.6398
0
LINE
8
DEFAULT_255_1_388
10
21.2339786
20
-0.6398
11
21.2339786
21
0.6757898
0
LINE
8
DEFAULT_255_1_388
10
21.2339786
20
0.6757898
11
21.6640752
21
0.6757898
0
LINE
8
DEFAULT_255_1_388
10
21.6966036
20
-0.0244726
11
21.4074629
21
-0.0244726
0
LINE
8
DEFAULT_255_1_388
10
21.4074629
20
-0.0244726
11
21.4074629
21
-0.4979404
0
LINE
8
DEFAULT_255_1_388
10
21.4074629
20
-0.4979404
11
21.6938929
21
-0.4979404
0
LINE
8
DEFAULT_255_1_388
10
21.4074629
20
0.5330267
11
21.4074629
21
0.1146763
0
LINE
8
DEFAULT_255_1_388
10
21.4074629
20
0.1146763
11
21.6694966
21
0.1146763
0
LINE
8
DEFAULT_255_1_388
10
21.6640752
20
0.5330267
11
21.4074629
21
0.5330267
0
ARC
8
DEFAULT_255_1_388
10
21.6683173
20
-0.1530176
40
0.8288183
50
82.1256322
51
90.2932506
0
ARC
8
DEFAULT_255_1_388
10
21.7120747
20
0.152759
40
0.5199321
50
69.9044202
51
82.2857574
0
ARC
8
DEFAULT_255_1_388
10
21.776274
20
0.3262993
40
0.3348993
50
51.1840204
51
70.018125
0
ARC
8
DEFAULT_255_1_388
10
21.8049572
20
0.3679945
40
0.2844579
50
12.1018086
51
50.421322
0
ARC
8
DEFAULT_255_1_388
10
21.6492444
20
0.3288937
40
0.4449429
50
359.5252354
51
12.8212369
0
ARC
8
DEFAULT_255_1_388
10
21.8269874
20
0.3210943
40
0.2672162
50
323.4907456
51
0.8818258
0
ARC
8
DEFAULT_255_1_388
10
21.7799286
20
0.3574523
40
0.3266736
50
298.6824053
51
323.2758285
0
ARC
8
DEFAULT_255_1_388
10
21.7392578
20
0.4250509
40
0.4055105
50
293.1994739
51
299.139634
0
ARC
8
DEFAULT_255_1_388
10
21.8149528
20
-0.2595349
40
0.3229926
50
54.0009997
51
74.9168635
0
ARC
8
DEFAULT_255_1_388
10
21.8280454
20
-0.2373489
40
0.2973581
50
36.3578854
51
53.5293172
0
ARC
8
DEFAULT_255_1_388
10
21.8137822
20
-0.247515
40
0.3148715
50
4.8189348
51
36.3090187
0
ARC
8
DEFAULT_255_1_388
10
21.7260847
20
-0.2598617
40
0.4033265
50
359.9373213
51
5.5201284
0
ARC
8
DEFAULT_255_1_388
10
21.6896177
20
-0.2644267
40
0.4398126
50
344.7479357
51
0.5372278
0
ARC
8
DEFAULT_255_1_388
10
21.8011075
20
-0.2944795
40
0.3243441
50
311.1785587
51
344.6887681
0
ARC
8
DEFAULT_255_1_388
10
21.7682619
20
-0.2535916
40
0.3767511
50
286.0417804
51
310.8440924
0
ARC
8
DEFAULT_255_1_388
10
21.7112028
20
-0.0683115
40
0.5705957
50
274.1044074
51
286.4070149
0
ARC
8
DEFAULT_255_1_388
10
21.6913243
20
0.1434901
40
0.7832907
50
269.9235077
51
274.4458593
0
ARC
8
DEFAULT_255_1_388
10
21.6964962
20
-0.1196538
40
0.3782955
50
269.6057074
51
281.3740795
0
ARC
8
DEFAULT_255_1_388
10
21.722446
20
-0.2426431
40
0.2526069
50
281.105298
51
302.5134029
0
ARC
8
DEFAULT_255_1_388
10
21.7389848
20
-0.2723056
40
0.2187131
50
303.0365425
51
311.8818034
0
ARC
8
DEFAULT_255_1_388
10
21.7470025
20
-0.2818398
40
0.2062624
50
311.9916937
51
351.7143773
0
ARC
8
DEFAULT_255_1_388
10
21.655105
20
-0.2632729
40
0.2999202
50
350.7343295
51
0.2221526
0
ARC
8
DEFAULT_255_1_388
10
21.6430138
20
-0.256913
40
0.3120525
50
359.045729
51
17.2295312
0
ARC
8
DEFAULT_255_1_388
10
21.7599168
20
-0.2221845
40
0.1901144
50
17.6685208
51
78.9940245
0
ARC
8
DEFAULT_255_1_388
10
21.7017529
20
-0.4309989
40
0.4065575
50
76.565218
51
90.7103392
0
LINE
8
DEFAULT_255_1_388
10
21.6967126
20
-0.0244726
11
21.6966036
21
-0.0244726
0
ARC
8
DEFAULT_255_1_388
10
21.6720355
20
0.4842949
40
0.3696273
50
269.6064514
51
281.4533785
0
ARC
8
DEFAULT_255_1_388
10
21.6970996
20
0.3660283
40
0.2487412
50
281.2044438
51
302.5143998
0
ARC
8
DEFAULT_255_1_388
10
21.7125249
20
0.3382576
40
0.2170405
50
303.0211308
51
309.8378766
0
ARC
8
DEFAULT_255_1_388
10
21.7331367
20
0.3151486
40
0.1860946
50
309.5229446
51
356.9509628
0
ARC
8
DEFAULT_255_1_388
10
21.6585493
20
0.3258831
40
0.2612347
50
355.4699226
51
0.0498632
0
ARC
8
DEFAULT_255_1_388
10
21.6271166
20
0.3283789
40
0.2926762
50
359.5558955
51
11.2092924
0
ARC
8
DEFAULT_255_1_388
10
21.7348134
20
0.3506667
40
0.1827036
50
10.9185717
51
31.322519
0
ARC
8
DEFAULT_255_1_388
10
21.7669682
20
0.3685571
40
0.1459418
50
31.8850633
51
52.1415586
0
ARC
8
DEFAULT_255_1_388
10
21.7361111
20
0.3249674
40
0.1993088
50
52.8283418
51
71.9850132
0
ARC
8
DEFAULT_255_1_388
10
21.6938272
20
0.2005158
40
0.3307407
50
71.686634
51
82.8453416
0
ARC
8
DEFAULT_255_1_388
10
21.6668919
20
-0.0030108
40
0.536039
50
82.6981895
51
90.1730083
0
ARC
8
DEFAULT_255_1_388
10
21.664375
20
0.0848836
40
0.4481429
50
89.8851568
51
90.0383283
0
LINE
8
DEFAULT_255_1_388
10
22.8920193
20
0.6821148
11
22.8920193
21
-0.6398
0
LINE
8
DEFAULT_255_1_388
10
22.8920193
20
-0.6398
11
22.7239563
21
-0.6398
0
LINE
8
DEFAULT_255_1_388
10
22.7239563
20
-0.6398
11
22.7239563
21
0.474295
0
LINE
8
DEFAULT_255_1_388
10
22.7239563
20
0.474295
11
22.3869268
21
0.3505066
0
LINE
8
DEFAULT_255_1_388
10
22.3869268
20
0.3505066
11
22.3869268
21
0.5023055
0
LINE
8
DEFAULT_255_1_388
10
22.3869268
20
0.5023055
11
22.865816
21
0.6821148
0
LINE
8
DEFAULT_255_1_388
10
22.865816
20
0.6821148
11
22.8920193
21
0.6821148
0
ARC
8
DEFAULT_255_2_778
10
7.7537338
20
68.2137992
40
3.0484709
50
251.6854144
51
258.6071955
0
ARC
8
DEFAULT_255_2_778
10
7.539521
20
67.1321738
40
1.9458471
50
258.4992492
51
268.3986479
0
ARC
8
DEFAULT_255_2_778
10
7.5172314
20
66.7019206
40
1.5151737
50
268.7865272
51
269.9950384
0
ARC
8
DEFAULT_255_2_778
10
7.5277432
20
66.2507355
40
1.0640417
50
269.426895
51
279.6711067
0
ARC
8
DEFAULT_255_2_778
10
7.6417753
20
65.6211746
40
0.4243233
50
278.7731084
51
300.3324923
0
ARC
8
DEFAULT_255_2_778
10
7.760746
20
65.4185552
40
0.1893587
50
300.2240287
51
1.9041213
0
ARC
8
DEFAULT_255_2_778
10
7.7452705
20
65.4277089
40
0.2047497
50
359.1991369
51
359.99965
0
ARC
8
DEFAULT_255_2_778
10
7.7523233
20
65.4285378
40
0.1976988
50
359.7594145
51
47.1793976
0
ARC
8
DEFAULT_255_2_778
10
7.6187277
20
65.279931
40
0.3975169
50
47.6144502
51
60.8366176
0
ARC
8
DEFAULT_255_2_778
10
7.0190958
20
64.2639865
40
1.5771337
50
59.799464
51
64.8885807
0
ARC
8
DEFAULT_255_2_778
10
6.0948833
20
62.3349682
40
3.7160912
50
64.6076081
51
66.8386974
0
ARC
8
DEFAULT_255_2_778
10
9.6419609
20
70.6980052
40
5.368109
50
244.3032309
51
247.1393781
0
ARC
8
DEFAULT_255_2_778
10
8.5507088
20
68.438018
40
2.8584574
50
240.2323579
51
244.3709759
0
ARC
8
DEFAULT_255_2_778
10
7.7800475
20
67.1011591
40
1.315392
50
233.2209971
51
240.4606284
0
ARC
8
DEFAULT_255_2_778
10
7.3561477
20
66.5300187
40
0.6041399
50
225.6990744
51
232.9899679
0
ARC
8
DEFAULT_255_2_778
10
7.3965073
20
66.5544214
40
0.6499005
50
178.2783416
51
224.6550883
0
ARC
8
DEFAULT_255_2_778
10
7.5059624
20
66.5877974
40
0.7591885
50
157.033673
51
181.0453383
0
ARC
8
DEFAULT_255_2_778
10
7.378439
20
66.6286396
40
0.6259551
50
124.9113017
51
155.9211516
0
ARC
8
DEFAULT_255_2_778
10
7.5960466
20
66.3200681
40
1.0035357
50
100.4079723
51
125.0168617
0
ARC
8
DEFAULT_255_2_778
10
7.6991199
20
65.8260046
40
1.5081396
50
89.6483922
51
100.8684975
0
ARC
8
DEFAULT_255_2_778
10
7.7083242
20
65.4737988
40
1.8603169
50
89.5079487
51
89.9984402
0
ARC
8
DEFAULT_255_2_778
10
7.7099573
20
65.4085694
40
1.9255311
50
83.9170631
51
89.5732113
0
ARC
8
DEFAULT_255_2_778
10
7.5071517
20
63.4009957
40
3.9433074
50
80.7325723
51
84.0779772
0
ARC
8
DEFAULT_255_2_778
10
7.0208457
20
60.378082
40
7.0050837
50
78.5086351
51
80.7886813
0
ARC
8
DEFAULT_255_2_778
10
7.6620177
20
64.9775544
40
1.9415426
50
67.135818
51
78.0934208
0
ARC
8
DEFAULT_255_2_778
10
7.7851814
20
65.5479809
40
1.3579807
50
78.2126325
51
89.7333975
0
ARC
8
DEFAULT_255_2_778
10
7.7793853
20
65.9631211
40
0.9429038
50
89.2638155
51
100.5666868
0
ARC
8
DEFAULT_255_2_778
10
7.6660949
20
66.5329419
40
0.362036
50
99.4784875
51
124.329414
0
ARC
8
DEFAULT_255_2_778
10
7.5705593
20
66.681051
40
0.1859067
50
125.7571195
51
182.2824883
0
ARC
8
DEFAULT_255_2_778
10
7.5493239
20
66.6743629
40
0.1645253
50
180.2492993
51
239.8144161
0
ARC
8
DEFAULT_255_2_778
10
7.932718
20
67.2744128
40
0.876484
50
237.8725734
51
242.8068846
0
ARC
8
DEFAULT_255_2_778
10
9.4175857
20
70.0909958
40
4.0604642
50
242.3328458
51
244.031083
0
ARC
8
DEFAULT_255_2_778
10
12.3804066
20
76.1394314
40
10.7955807
50
243.950624
51
244.8024316
0
ARC
8
DEFAULT_255_2_778
10
15.4009918
20
82.5234175
40
17.8580926
50
244.7535425
51
244.9563234
0
ARC
8
DEFAULT_255_2_778
10
5.8652927
20
62.0218264
40
4.7527588
50
62.2505456
51
65.4301556
0
ARC
8
DEFAULT_255_2_778
10
6.9275435
20
64.0299172
40
2.4810291
50
57.2951304
51
62.3684211
0
ARC
8
DEFAULT_255_2_778
10
7.6807233
20
65.1932235
40
1.0952081
50
48.7345704
51
57.5685367
0
ARC
8
DEFAULT_255_2_778
10
8.0117486
20
65.5807722
40
0.5856147
50
44.3236031
51
48.0704418
0
ARC
8
DEFAULT_255_2_778
10
7.9783002
20
65.5607468
40
0.6236013
50
1.3523843
51
43.4925744
0
ARC
8
DEFAULT_255_2_778
10
7.7103531
20
65.5278151
40
0.8926473
50
359.9763756
51
3.0599076
0
ARC
8
DEFAULT_255_2_778
10
7.8645343
20
65.5127407
40
0.7386124
50
333.0361889
51
1.1408766
0
ARC
8
DEFAULT_255_2_778
10
7.8947908
20
65.5196919
40
0.7150741
50
300.8430083
51
331.4403095
0
ARC
8
DEFAULT_255_2_778
10
7.694568
20
65.8332162
40
1.0869673
50
281.4258583
51
301.4316118
0
ARC
8
DEFAULT_255_2_778
10
7.5632666
20
66.4414414
40
1.7091691
50
270.2273513
51
281.7010805
0
ARC
8
DEFAULT_255_2_778
10
7.5453797
20
66.9181043
40
2.1859577
50
269.9983113
51
270.6466065
0
LINE
8
DEFAULT_255_2_778
10
7.5453153
20
64.7321465
11
7.5438002
21
64.732147
0
ARC
8
DEFAULT_255_2_778
10
7.5509161
20
67.9150969
40
3.1829579
50
256.2431122
51
269.871909
0
ARC
8
DEFAULT_255_2_778
10
21.7538511
20
68.1396629
40
2.9720345
50
251.5709223
51
258.7508181
0
ARC
8
DEFAULT_255_2_778
10
21.5538128
20
67.1164385
40
1.9294488
50
258.6495077
51
268.8281511
0
ARC
8
DEFAULT_255_2_778
10
21.5355488
20
66.7216193
40
1.5343723
50
269.2085037
51
269.9981866
0
ARC
8
DEFAULT_255_2_778
10
21.5473849
20
66.2532184
40
1.0660376
50
269.3612297
51
279.5899087
0
ARC
8
DEFAULT_255_2_778
10
21.6608439
20
65.6217324
40
0.424527
50
278.6895227
51
300.2363944
0
ARC
8
DEFAULT_255_2_778
10
21.7799083
20
65.4182793
40
0.188796
50
300.1108484
51
1.9024905
0
ARC
8
DEFAULT_255_2_778
10
21.7439577
20
65.4289221
40
0.2246851
50
358.8842611
51
0.0019649
0
ARC
8
DEFAULT_255_2_778
10
21.7769791
20
65.4328385
40
0.1917038
50
358.831716
51
47.0900458
0
ARC
8
DEFAULT_255_2_778
10
21.6364654
20
65.273484
40
0.4041259
50
47.8812665
51
61.174665
0
ARC
8
DEFAULT_255_2_778
10
21.0418848
20
64.2535117
40
1.5846568
50
60.1210877
51
65.1917015
0
ARC
8
DEFAULT_255_2_778
10
20.1415278
20
62.3479122
40
3.6922188
50
64.9168629
51
67.1565628
0
ARC
8
DEFAULT_255_2_778
10
23.6275467
20
70.6194888
40
5.2839333
50
244.2656926
51
247.1407051
0
ARC
8
DEFAULT_255_2_778
10
22.5594997
20
68.411265
40
2.8309849
50
240.1545061
51
244.3326325
0
ARC
8
DEFAULT_255_2_778
10
21.7856548
20
67.0752346
40
1.2870531
50
232.697515
51
240.4357497
0
ARC
8
DEFAULT_255_2_778
10
21.3705506
20
66.5242218
40
0.5972006
50
225.5850892
51
232.3393736
0
ARC
8
DEFAULT_255_2_778
10
21.4133941
20
66.5537933
40
0.6483829
50
178.7795739
51
224.7095916
0
ARC
8
DEFAULT_255_2_778
10
21.6669319
20
66.5778135
40
0.9018316
50
179.997867
51
180.6487041
0
ARC
8
DEFAULT_255_2_778
10
21.5167738
20
66.5916249
40
0.7517998
50
156.9195758
51
181.050088
0
ARC
8
DEFAULT_255_2_778
10
21.3928482
20
66.6310712
40
0.6224513
50
124.7111133
51
155.7879672
0
ARC
8
DEFAULT_255_2_778
10
21.6055459
20
66.3391942
40
0.9835402
50
101.7934503
51
125.2143527
0
ARC
8
DEFAULT_255_2_778
10
21.729848
20
65.7866326
40
1.5498677
50
89.5248728
51
102.1166783
0
ARC
8
DEFAULT_255_2_778
10
21.7283109
20
65.2330834
40
2.1034129
50
83.2889725
51
89.6080411
0
ARC
8
DEFAULT_255_2_778
10
21.529975
20
63.4652668
40
3.8823067
50
79.4764054
51
83.4308492
0
ARC
8
DEFAULT_255_2_778
10
21.2186357
20
61.7120673
40
5.6628977
50
78.2224868
51
79.6190915
0
ARC
8
DEFAULT_255_2_778
10
21.6838473
20
64.9895715
40
1.9311543
50
67.1323814
51
78.3148813
0
ARC
8
DEFAULT_255_2_778
10
21.801359
20
65.5410614
40
1.3672981
50
78.4565774
51
89.7552271
0
ARC
8
DEFAULT_255_2_778
10
21.7951366
20
65.971947
40
0.9364778
50
89.2619009
51
100.5950934
0
ARC
8
DEFAULT_255_2_778
10
21.6824182
20
66.5374169
40
0.3599879
50
99.5087086
51
124.406715
0
ARC
8
DEFAULT_255_2_778
10
21.5878565
20
66.683843
40
0.1858061
50
125.8630185
51
182.2986975
0
ARC
8
DEFAULT_255_2_778
10
21.5497296
20
66.6763047
40
0.1475296
50
179.9666559
51
180.100057
0
ARC
8
DEFAULT_255_2_778
10
21.566185
20
66.676293
40
0.163985
50
180.0859454
51
239.8819968
0
ARC
8
DEFAULT_255_2_778
10
21.9379018
20
67.2630619
40
0.8584853
50
238.072871
51
243.0442008
0
ARC
8
DEFAULT_255_2_778
10
23.4872034
20
70.2280845
40
4.2038426
50
242.5409111
51
244.1884903
0
ARC
8
DEFAULT_255_2_778
10
26.6463384
20
76.722696
40
11.4260319
50
244.1076525
51
244.9219574
0
ARC
8
DEFAULT_255_2_778
10
29.9038827
20
83.646355
40
19.0777309
50
244.8743531
51
245.066969
0
ARC
8
DEFAULT_255_2_778
10
19.8865272
20
62.0541274
40
4.7250654
50
62.0340028
51
65.293009
0
ARC
8
DEFAULT_255_2_778
10
20.9507744
20
64.0490758
40
2.464003
50
57.1127289
51
62.13736
0
ARC
8
DEFAULT_255_2_778
10
21.7037139
20
65.2027906
40
1.0863604
50
48.3695509
51
57.4197129
0
ARC
8
DEFAULT_255_2_778
10
22.0286268
20
65.5795419
40
0.5889589
50
44.472493
51
47.6467012
0
ARC
8
DEFAULT_255_2_778
10
21.9979457
20
65.5624032
40
0.6229283
50
1.2061613
51
43.6203607
0
ARC
8
DEFAULT_255_2_778
10
21.7312413
20
65.5299903
40
0.890659
50
359.9779196
51
2.9299178
0
ARC
8
DEFAULT_255_2_778
10
21.8802547
20
65.5148837
40
0.7417924
50
333.172934
51
1.140392
0
ARC
8
DEFAULT_255_2_778
10
21.9146167
20
65.5195736
40
0.7135172
50
300.9808035
51
331.5913995
0
ARC
8
DEFAULT_255_2_778
10
21.7182603
20
65.8294862
40
1.0803281
50
281.9040909
51
301.4483918
0
ARC
8
DEFAULT_255_2_778
10
21.5848425
20
66.4280518
40
1.6935565
50
270.5796874
51
282.1436175
0
ARC
8
DEFAULT_255_2_778
10
21.5636722
20
66.9229735
40
2.1887267
50
269.9959074
51
271.0027751
0
LINE
8
DEFAULT_255_2_778
10
21.5635158
20
64.7342468
11
21.5625002
21
64.734247
0
ARC
8
DEFAULT_255_2_778
10
21.5700221
20
67.9230174
40
3.1887792
50
256.2556596
51
269.8648469
0
LINE
8
DEFAULT_255_2_778
10
6.7958002
20
64.825047
11
6.7958002
21
65.319747
0
LINE
8
DEFAULT_255_2_778
10
8.4164002
20
67.242747
11
8.4164002
21
66.766547
0
LINE
8
DEFAULT_255_2_778
10
6.7940002
20
64.823447
11
6.7958002
21
64.825047
0
LINE
8
DEFAULT_255_2_778
10
8.9866002
20
67.292247
11
9.6629002
21
67.292247
0
LINE
8
DEFAULT_255_2_778
10
9.6629002
20
67.292247
11
9.6629002
21
64.784847
0
LINE
8
DEFAULT_255_2_778
10
9.6629002
20
64.784847
11
8.9866002
21
64.784847
0
LINE
8
DEFAULT_255_2_778
10
8.9866002
20
64.784847
11
8.9866002
21
67.292247
0
LINE
8
DEFAULT_255_2_778
10
10.2809002
20
64.784847
11
10.2809002
21
67.292247
0
LINE
8
DEFAULT_255_2_778
10
10.2809002
20
67.292247
11
12.0132002
21
67.292247
0
LINE
8
DEFAULT_255_2_778
10
12.0132002
20
67.292247
11
12.0132002
21
66.838547
0
LINE
8
DEFAULT_255_2_778
10
12.0132002
20
66.838547
11
10.9321002
21
66.838547
0
LINE
8
DEFAULT_255_2_778
10
10.9321002
20
66.838547
11
10.9321002
21
66.272247
0
LINE
8
DEFAULT_255_2_778
10
10.9321002
20
66.272247
11
11.8735002
21
66.272247
0
LINE
8
DEFAULT_255_2_778
10
11.8735002
20
66.272247
11
11.8735002
21
65.858747
0
LINE
8
DEFAULT_255_2_778
10
11.8735002
20
65.858747
11
10.9321002
21
65.858747
0
LINE
8
DEFAULT_255_2_778
10
10.9321002
20
65.858747
11
10.9321002
21
65.263447
0
LINE
8
DEFAULT_255_2_778
10
10.9321002
20
65.263447
11
12.0412002
21
65.263447
0
LINE
8
DEFAULT_255_2_778
10
12.0412002
20
65.263447
11
12.0412002
21
64.783247
0
LINE
8
DEFAULT_255_2_778
10
12.0412002
20
64.783247
11
10.2809002
21
64.784847
0
LINE
8
DEFAULT_255_2_778
10
12.4817002
20
64.784847
11
12.4817002
21
67.292247
0
LINE
8
DEFAULT_255_2_778
10
12.4817002
20
67.292247
11
13.3575002
21
67.292247
0
LINE
8
DEFAULT_255_2_778
10
13.3575002
20
67.292247
11
13.9671002
21
65.689947
0
LINE
8
DEFAULT_255_2_778
10
13.9671002
20
65.689947
11
14.5897002
21
67.292247
0
LINE
8
DEFAULT_255_2_778
10
14.5897002
20
67.292247
11
15.4215002
21
67.292247
0
LINE
8
DEFAULT_255_2_778
10
15.4215002
20
67.292247
11
15.4215002
21
64.784847
0
LINE
8
DEFAULT_255_2_778
10
15.4215002
20
64.784847
11
14.7812002
21
64.784847
0
LINE
8
DEFAULT_255_2_778
10
14.7812002
20
64.784847
11
14.7812002
21
66.560647
0
LINE
8
DEFAULT_255_2_778
10
14.7812002
20
66.560647
11
14.0724002
21
64.760447
0
LINE
8
DEFAULT_255_2_778
10
14.0724002
20
64.760447
11
13.6515002
21
64.760447
0
LINE
8
DEFAULT_255_2_778
10
13.6515002
20
64.760447
11
12.9559002
21
66.560647
0
LINE
8
DEFAULT_255_2_778
10
12.9559002
20
66.560647
11
12.9559002
21
64.784547
0
LINE
8
DEFAULT_255_2_778
10
12.9559002
20
64.784547
11
12.4817002
21
64.784847
0
LINE
8
DEFAULT_255_2_778
10
16.0409002
20
64.784847
11
16.0409002
21
67.292247
0
LINE
8
DEFAULT_255_2_778
10
16.0409002
20
67.292247
11
17.7731002
21
67.292247
0
LINE
8
DEFAULT_255_2_778
10
17.7731002
20
67.292247
11
17.7731002
21
66.838547
0
LINE
8
DEFAULT_255_2_778
10
17.7731002
20
66.838547
11
16.6921002
21
66.838547
0
LINE
8
DEFAULT_255_2_778
10
16.6921002
20
66.838547
11
16.6921002
21
66.272247
0
LINE
8
DEFAULT_255_2_778
10
16.6921002
20
66.272247
11
17.6334002
21
66.272247
0
LINE
8
DEFAULT_255_2_778
10
17.6334002
20
66.272247
11
17.6334002
21
65.858747
0
LINE
8
DEFAULT_255_2_778
10
17.6334002
20
65.858747
11
16.6921002
21
65.858747
0
LINE
8
DEFAULT_255_2_778
10
16.6921002
20
65.858747
11
16.6921002
21
65.263447
0
LINE
8
DEFAULT_255_2_778
10
16.6921002
20
65.263447
11
17.8030002
21
65.263447
0
LINE
8
DEFAULT_255_2_778
10
17.8030002
20
65.263447
11
17.8030002
21
64.783247
0
LINE
8
DEFAULT_255_2_778
10
17.8030002
20
64.783247
11
16.0409002
21
64.784847
0
LINE
8
DEFAULT_255_2_778
10
18.2454002
20
64.784847
11
18.2454002
21
67.292247
0
LINE
8
DEFAULT_255_2_778
10
18.2454002
20
67.292247
11
19.0283002
21
67.292247
0
LINE
8
DEFAULT_255_2_778
10
19.0283002
20
67.292247
11
19.8586002
21
65.613447
0
LINE
8
DEFAULT_255_2_778
10
19.8586002
20
65.613447
11
19.8586002
21
67.292247
0
LINE
8
DEFAULT_255_2_778
10
19.8586002
20
67.292247
11
20.3343002
21
67.292247
0
LINE
8
DEFAULT_255_2_778
10
20.3343002
20
67.292247
11
20.3343002
21
64.784847
0
LINE
8
DEFAULT_255_2_778
10
20.3343002
20
64.784847
11
19.5739002
21
64.784847
0
LINE
8
DEFAULT_255_2_778
10
19.5739002
20
64.784847
11
18.7214002
21
66.486047
0
LINE
8
DEFAULT_255_2_778
10
18.7214002
20
66.486047
11
18.7214002
21
64.784847
0
LINE
8
DEFAULT_255_2_778
10
18.7214002
20
64.784847
11
18.2454002
21
64.784847
0
LINE
8
DEFAULT_255_2_778
10
20.8143002
20
64.825247
11
20.8143002
21
65.320047
0
LINE
8
DEFAULT_255_2_778
10
22.3745002
20
67.255747
11
22.4343002
21
67.245147
0
LINE
8
DEFAULT_255_2_778
10
22.4343002
20
67.245147
11
22.4343002
21
66.768947
0
LINE
8
DEFAULT_255_2_778
10
20.8124002
20
64.825547
11
20.8143002
21
64.825247
0
LINE
8
DEFAULT_255_1_388
10
7.6067457
20
63.1339892
11
7.4323577
21
63.1339892
0
LINE
8
DEFAULT_255_1_388
10
6.6534852
20
62.5801042
11
6.8278731
21
62.5801042
0
ARC
8
DEFAULT_255_1_388
10
7.5064304
20
64.1403821
40
1.4087688
50
248.9196578
51
254.1442424
0
ARC
8
DEFAULT_255_1_388
10
7.3174184
20
63.6537805
40
0.8867498
50
241.6337352
51
249.0064643
0
ARC
8
DEFAULT_255_1_388
10
7.1454498
20
63.3386764
40
0.5277799
50
230.4982261
51
241.8087583
0
ARC
8
DEFAULT_255_1_388
10
7.0572269
20
63.2262686
40
0.3849419
50
227.4062979
51
229.9877433
0
ARC
8
DEFAULT_255_1_388
10
7.0023615
20
63.1727155
40
0.3084129
50
200.6782127
51
228.1765252
0
ARC
8
DEFAULT_255_1_388
10
7.0104984
20
63.1710277
40
0.315461
50
179.506278
51
199.8695278
0
ARC
8
DEFAULT_255_1_388
10
7.0094573
20
63.1793671
40
0.3144584
50
132.4834401
51
181.0242352
0
ARC
8
DEFAULT_255_1_388
10
7.0763777
20
63.1161788
40
0.4063094
50
129.2526113
51
133.4249077
0
ARC
8
DEFAULT_255_1_388
10
7.092937
20
63.0913619
40
0.436014
50
101.9878945
51
128.8741833
0
ARC
8
DEFAULT_255_1_388
10
7.1377785
20
62.897736
40
0.6347415
50
89.5906376
51
102.3170567
0
ARC
8
DEFAULT_255_1_388
10
7.1457097
20
62.9335586
40
0.5989122
50
77.2359491
51
90.3248968
0
ARC
8
DEFAULT_255_1_388
10
7.1690028
20
63.0423554
40
0.4876594
50
63.8379856
51
77.0808925
0
ARC
8
DEFAULT_255_1_388
10
7.2002561
20
63.1005882
40
0.4216191
50
45.9863127
51
64.1608798
0
ARC
8
DEFAULT_255_1_388
10
7.2295955
20
63.134099
40
0.3771394
50
32.2747934
51
45.6544796
0
ARC
8
DEFAULT_255_1_388
10
7.2370761
20
63.1362426
40
0.3696765
50
359.6507495
51
32.6129943
0
ARC
8
DEFAULT_255_1_388
10
7.1309944
20
63.1367788
40
0.3013762
50
359.469654
51
14.983205
0
ARC
8
DEFAULT_255_1_388
10
7.2103196
20
63.1580288
40
0.2192542
50
14.9781954
51
48.2004799
0
ARC
8
DEFAULT_255_1_388
10
7.1918307
20
63.1347937
40
0.2489048
50
48.5926661
51
74.1242559
0
ARC
8
DEFAULT_255_1_388
10
7.1543109
20
63.0109607
40
0.3782845
50
73.7889321
51
86.6653996
0
ARC
8
DEFAULT_255_1_388
10
7.1427924
20
62.8751955
40
0.5145025
50
86.2642725
51
90.0533288
0
ARC
8
DEFAULT_255_1_388
10
7.1396017
20
62.9196376
40
0.4700681
50
89.669455
51
99.2313411
0
ARC
8
DEFAULT_255_1_388
10
7.1123176
20
63.0821401
40
0.3052945
50
99.0695987
51
113.7659242
0
ARC
8
DEFAULT_255_1_388
10
7.0815171
20
63.1547772
40
0.226407
50
114.0402885
51
127.9848946
0
ARC
8
DEFAULT_255_1_388
10
7.0544647
20
63.1880884
40
0.1835045
50
127.7287217
51
176.7106493
0
ARC
8
DEFAULT_255_1_388
10
7.1308312
20
63.176721
40
0.2604907
50
175.1780759
51
180.0581213
0
ARC
8
DEFAULT_255_1_388
10
7.0359656
20
63.1753411
40
0.1656287
50
179.6140658
51
228.124674
0
ARC
8
DEFAULT_255_1_388
10
7.0857013
20
63.221394
40
0.2332038
50
226.5785315
51
230.8792476
0
ARC
8
DEFAULT_255_1_388
10
7.13865
20
63.2916908
40
0.3211664
50
231.4636401
51
241.9261664
0
ARC
8
DEFAULT_255_1_388
10
7.2733283
20
63.5395349
40
0.6032345
50
241.7177136
51
248.3259138
0
ARC
8
DEFAULT_255_1_388
10
7.4291878
20
63.9256771
40
1.0196417
50
248.2007377
51
252.4527713
0
ARC
8
DEFAULT_255_1_388
10
7.5645405
20
64.3441092
40
1.4594143
50
252.3388938
51
254.347037
0
ARC
8
DEFAULT_255_1_388
10
6.7160705
20
61.3093095
40
1.6917621
50
71.0197462
51
74.4085467
0
ARC
8
DEFAULT_255_1_388
10
6.9067793
20
61.8598144
40
1.1091618
50
66.1845203
51
71.086519
0
ARC
8
DEFAULT_255_1_388
10
7.0818342
20
62.2539439
40
0.6779073
50
59.3537334
51
66.269255
0
ARC
8
DEFAULT_255_1_388
10
7.1818068
20
62.4230777
40
0.4814366
50
49.1021732
51
59.3294421
0
ARC
8
DEFAULT_255_1_388
10
7.2739056
20
62.5280575
40
0.3417875
50
32.7924183
51
49.2503526
0
ARC
8
DEFAULT_255_1_388
10
7.308867
20
62.5530311
40
0.2988789
50
31.121225
51
32.3977355
0
ARC
8
DEFAULT_255_1_388
10
7.3000848
20
62.5497728
40
0.3080861
50
8.1116803
51
30.7958224
0
ARC
8
DEFAULT_255_1_388
10
7.2089194
20
62.5342437
40
0.4005385
50
359.8390945
51
8.4707348
0
ARC
8
DEFAULT_255_1_388
10
7.2793242
20
62.5287751
40
0.3301608
50
337.4732479
51
0.7538283
0
ARC
8
DEFAULT_255_1_388
10
7.2994267
20
62.5265554
40
0.3107929
50
307.5917028
51
336.4313755
0
ARC
8
DEFAULT_255_1_388
10
7.2483324
20
62.5833509
40
0.3870096
50
307.6560665
51
308.4561779
0
ARC
8
DEFAULT_255_1_388
10
7.2217541
20
62.6241832
40
0.435591
50
284.3733666
51
307.1426212
0
ARC
8
DEFAULT_255_1_388
10
7.1660435
20
62.8291391
40
0.6479685
50
272.4384566
51
284.6464689
0
ARC
8
DEFAULT_255_1_388
10
7.151782
20
63.0315434
40
0.8508149
50
269.9708517
51
272.8180721
0
ARC
8
DEFAULT_255_1_388
10
7.1469503
20
62.8023283
40
0.6216151
50
248.2707343
51
270.4054609
0
ARC
8
DEFAULT_255_1_388
10
7.1408374
20
62.7808673
40
0.5994203
50
246.1380358
51
248.054058
0
ARC
8
DEFAULT_255_1_388
10
7.0937517
20
62.6819705
40
0.4899388
50
233.1671897
51
246.4951656
0
ARC
8
DEFAULT_255_1_388
10
7.0314152
20
62.5978137
40
0.3852115
50
215.3403381
51
233.084328
0
ARC
8
DEFAULT_255_1_388
10
7.0007516
20
62.5755093
40
0.3472969
50
179.2419235
51
215.2648426
0
ARC
8
DEFAULT_255_1_388
10
7.0871067
20
62.5770979
40
0.259251
50
179.3355796
51
199.1045873
0
ARC
8
DEFAULT_255_1_388
10
7.0497209
20
62.5673223
40
0.2207454
50
199.8830064
51
232.7061328
0
ARC
8
DEFAULT_255_1_388
10
7.1028483
20
62.6341456
40
0.306101
50
232.3736206
51
255.5136621
0
ARC
8
DEFAULT_255_1_388
10
7.1411989
20
62.7741177
40
0.4512213
50
255.2447928
51
267.5318292
0
ARC
8
DEFAULT_255_1_388
10
7.1510456
20
62.9127709
40
0.5901825
50
267.1564563
51
270.0294721
0
ARC
8
DEFAULT_255_1_388
10
7.1541781
20
62.8628623
40
0.5402814
50
269.6999944
51
278.1662446
0
ARC
8
DEFAULT_255_1_388
10
7.1829809
20
62.6681974
40
0.3435003
50
278.0229022
51
290.6255326
0
ARC
8
DEFAULT_255_1_388
10
7.2220975
20
62.5638547
40
0.2320666
50
290.6616368
51
307.0374127
0
ARC
8
DEFAULT_255_1_388
10
7.2558875
20
62.522404
40
0.1786372
50
306.3942078
51
355.303191
0
ARC
8
DEFAULT_255_1_388
10
7.1983168
20
62.5310186
40
0.2367516
50
354.3662092
51
0.0709489
0
ARC
8
DEFAULT_255_1_388
10
7.2143037
20
62.5335561
40
0.2207761
50
359.4175379
51
16.1975911
0
ARC
8
DEFAULT_255_1_388
10
7.2655155
20
62.5475954
40
0.1676828
50
16.4721294
51
52.6261798
0
ARC
8
DEFAULT_255_1_388
10
7.1731662
20
62.4256606
40
0.3206412
50
52.7381828
51
62.4979144
0
ARC
8
DEFAULT_255_1_388
10
7.0173415
20
62.1324236
40
0.6527035
50
62.2517425
51
68.1219454
0
ARC
8
DEFAULT_255_1_388
10
6.8238903
20
61.6569951
40
1.1659797
50
68.006043
51
71.8055127
0
ARC
8
DEFAULT_255_1_388
10
6.6218811
20
61.0511723
40
1.8045908
50
71.718361
51
73.9260743
0
LINE
8
DEFAULT_255_1_388
10
8.0178675
20
63.5143898
11
8.0178675
21
62.1988
0
LINE
8
DEFAULT_255_1_388
10
8.0178675
20
62.1988
11
7.8443831
21
62.1988
0
LINE
8
DEFAULT_255_1_388
10
7.8443831
20
62.1988
11
7.8443831
21
63.5143898
0
LINE
8
DEFAULT_255_1_388
10
7.8443831
20
63.5143898
11
8.0178675
21
63.5143898
0
LINE
8
DEFAULT_255_1_388
10
8.3350186
20
63.5143898
11
8.5591026
21
63.5143898
0
LINE
8
DEFAULT_255_1_388
10
8.5591026
20
63.5143898
11
8.9891993
21
62.4409553
0
LINE
8
DEFAULT_255_1_388
10
8.9891993
20
62.4409553
11
9.4192959
21
63.5143898
0
LINE
8
DEFAULT_255_1_388
10
9.4192959
20
63.5143898
11
9.6442835
21
63.5143898
0
LINE
8
DEFAULT_255_1_388
10
9.6442835
20
63.5143898
11
9.6442835
21
62.1988
0
LINE
8
DEFAULT_255_1_388
10
9.6442835
20
62.1988
11
9.4707991
21
62.1988
0
LINE
8
DEFAULT_255_1_388
10
9.4707991
20
62.1988
11
9.4707991
21
62.711121
0
LINE
8
DEFAULT_255_1_388
10
9.4707991
20
62.711121
11
9.4870633
21
63.2641025
0
LINE
8
DEFAULT_255_1_388
10
9.4870633
20
63.2641025
11
9.0551595
21
62.1988
0
LINE
8
DEFAULT_255_1_388
10
9.0551595
20
62.1988
11
8.9223355
21
62.1988
0
LINE
8
DEFAULT_255_1_388
10
8.9223355
20
62.1988
11
8.4913353
21
63.2613918
0
LINE
8
DEFAULT_255_1_388
10
8.4913353
20
63.2613918
11
8.508503
21
62.711121
0
LINE
8
DEFAULT_255_1_388
10
8.508503
20
62.711121
11
8.508503
21
62.1988
0
LINE
8
DEFAULT_255_1_388
10
8.508503
20
62.1988
11
8.3350186
21
62.1988
0
LINE
8
DEFAULT_255_1_388
10
8.3350186
20
62.1988
11
8.3350186
21
63.5143898
0
LINE
8
DEFAULT_255_1_388
10
10.8189173
20
62.1988
11
10.6933218
21
62.5421545
0
LINE
8
DEFAULT_255_1_388
10
10.6933218
20
62.5421545
11
10.1421475
21
62.5421545
0
LINE
8
DEFAULT_255_1_388
10
10.1421475
20
62.5421545
11
10.0183592
21
62.1988
0
LINE
8
DEFAULT_255_1_388
10
10.0183592
20
62.1988
11
9.8394534
21
62.1988
0
LINE
8
DEFAULT_255_1_388
10
9.8394534
20
62.1988
11
10.3418353
21
63.5143898
0
LINE
8
DEFAULT_255_1_388
10
10.3418353
20
63.5143898
11
10.4936341
21
63.5143898
0
LINE
8
DEFAULT_255_1_388
10
10.4936341
20
63.5143898
11
10.9969195
21
62.1988
0
LINE
8
DEFAULT_255_1_388
10
10.9969195
20
62.1988
11
10.8189173
21
62.1988
0
LINE
8
DEFAULT_255_1_388
10
10.4177347
20
63.3002451
11
10.1945542
21
62.6849177
0
LINE
8
DEFAULT_255_1_388
10
10.1945542
20
62.6849177
11
10.6418187
21
62.6849177
0
LINE
8
DEFAULT_255_1_388
10
10.6418187
20
62.6849177
11
10.4177347
21
63.3002451
0
LINE
8
DEFAULT_255_1_388
10
11.9664441
20
63.5143898
11
11.9664441
21
63.3716267
0
LINE
8
DEFAULT_255_1_388
10
11.9664441
20
63.3716267
11
11.543576
21
63.3716267
0
LINE
8
DEFAULT_255_1_388
10
11.543576
20
63.3716267
11
11.543576
21
62.1988
0
LINE
8
DEFAULT_255_1_388
10
11.543576
20
62.1988
11
11.3709952
21
62.1988
0
LINE
8
DEFAULT_255_1_388
10
11.3709952
20
62.1988
11
11.3709952
21
63.3716267
0
LINE
8
DEFAULT_255_1_388
10
11.3709952
20
63.3716267
11
10.9490306
21
63.3716267
0
LINE
8
DEFAULT_255_1_388
10
10.9490306
20
63.3716267
11
10.9490306
21
63.5143898
0
LINE
8
DEFAULT_255_1_388
10
10.9490306
20
63.5143898
11
11.9664441
21
63.5143898
0
LINE
8
DEFAULT_255_1_388
10
12.3477483
20
63.5143898
11
12.3477483
21
62.1988
0
LINE
8
DEFAULT_255_1_388
10
12.3477483
20
62.1988
11
12.174264
21
62.1988
0
LINE
8
DEFAULT_255_1_388
10
12.174264
20
62.1988
11
12.174264
21
63.5143898
0
LINE
8
DEFAULT_255_1_388
10
12.174264
20
63.5143898
11
12.3477483
21
63.5143898
0
LINE
8
DEFAULT_255_1_388
10
13.4582291
20
62.6162468
11
13.632617
21
62.6162468
0
LINE
8
DEFAULT_255_1_388
10
12.6197212
20
62.7951525
11
12.6197212
21
62.9216516
0
LINE
8
DEFAULT_255_1_388
10
13.632617
20
63.0915217
11
13.4582291
21
63.0915217
0
LINE
8
DEFAULT_255_1_388
10
12.7941092
20
62.9171337
11
12.7941092
21
62.7897312
0
ARC
8
DEFAULT_255_1_388
10
13.0160404
20
62.6834329
40
0.6202263
50
340.1774904
51
353.7812217
0
ARC
8
DEFAULT_255_1_388
10
13.1928257
20
62.6175893
40
0.4315926
50
311.4560052
51
340.4420756
0
ARC
8
DEFAULT_255_1_388
10
13.1890796
20
62.6300665
40
0.4434573
50
282.4332229
51
310.7514507
0
ARC
8
DEFAULT_255_1_388
10
13.1396614
20
62.8342703
40
0.6535262
50
269.9358869
51
282.8096729
0
ARC
8
DEFAULT_255_1_388
10
13.1338554
20
62.9855329
40
0.8048043
50
269.9995752
51
270.3612856
0
ARC
8
DEFAULT_255_1_388
10
13.1279044
20
62.7056781
40
0.5249831
50
250.7885263
51
270.6488451
0
ARC
8
DEFAULT_255_1_388
10
13.1089868
20
62.6339853
40
0.4510942
50
219.3628377
51
250.0611024
0
ARC
8
DEFAULT_255_1_388
10
13.2022743
20
62.7132653
40
0.5735046
50
193.5480293
51
219.5755675
0
ARC
8
DEFAULT_255_1_388
10
13.4690952
20
62.782552
40
0.849146
50
181.1220183
51
193.8754971
0
ARC
8
DEFAULT_255_1_388
10
13.7014185
20
62.7949914
40
1.0816971
50
179.9914644
51
181.5398227
0
ARC
8
DEFAULT_255_1_388
10
13.4937495
20
62.9258586
40
0.8740384
50
169.5837606
51
180.275782
0
ARC
8
DEFAULT_255_1_388
10
13.2870844
20
62.9640439
40
0.6638751
50
155.0367033
51
169.6002779
0
ARC
8
DEFAULT_255_1_388
10
13.1593302
20
63.0256336
40
0.5220662
50
136.7831557
51
155.2472983
0
ARC
8
DEFAULT_255_1_388
10
13.1155092
20
63.0628577
40
0.4646502
50
121.7633063
51
136.4281161
0
ARC
8
DEFAULT_255_1_388
10
13.1306932
20
63.0348049
40
0.4964979
50
95.6460018
51
121.5489589
0
ARC
8
DEFAULT_255_1_388
10
13.1483907
20
62.9100704
40
0.6223912
50
89.9245727
51
96.1375919
0
ARC
8
DEFAULT_255_1_388
10
13.1540612
20
62.9234721
40
0.6090084
50
76.6779212
51
90.456405
0
ARC
8
DEFAULT_255_1_388
10
13.1983425
20
63.102406
40
0.42469
50
47.4858803
51
76.9287069
0
ARC
8
DEFAULT_255_1_388
10
13.1818038
20
63.0911623
40
0.4441778
50
16.5424081
51
46.8934505
0
ARC
8
DEFAULT_255_1_388
10
13.0009088
20
63.0317265
40
0.6345318
50
5.4072971
51
17.0363711
0
ARC
8
DEFAULT_255_1_388
10
12.8390813
20
63.0057304
40
0.6250632
50
7.8888693
51
15.9242022
0
ARC
8
DEFAULT_255_1_388
10
13.0625799
20
63.0706309
40
0.3923364
50
15.7650676
51
27.9410069
0
ARC
8
DEFAULT_255_1_388
10
13.1867968
20
63.1371317
40
0.2514401
50
27.8167196
51
46.4007942
0
ARC
8
DEFAULT_255_1_388
10
13.1923809
20
63.1364882
40
0.2480958
50
47.4372362
51
75.0695672
0
ARC
8
DEFAULT_255_1_388
10
13.1576646
20
63.0156277
40
0.3738281
50
74.7009379
51
87.8124314
0
ARC
8
DEFAULT_255_1_388
10
13.1494262
20
62.8972659
40
0.4924321
50
87.3802571
51
90.0251599
0
ARC
8
DEFAULT_255_1_388
10
13.145091
20
63.0292997
40
0.3604218
50
89.3451886
51
108.5744412
0
ARC
8
DEFAULT_255_1_388
10
13.1296902
20
63.0870836
40
0.3007661
50
109.2998307
51
143.3037387
0
ARC
8
DEFAULT_255_1_388
10
13.2154192
20
63.0211584
40
0.4089031
50
143.075267
51
163.1918576
0
ARC
8
DEFAULT_255_1_388
10
13.4350026
20
62.9518652
40
0.6391492
50
162.9375929
51
174.6208776
0
ARC
8
DEFAULT_255_1_388
10
13.7304408
20
62.9194711
40
0.9363344
50
174.342123
51
180.1430283
0
ARC
8
DEFAULT_255_1_388
10
13.6256949
20
62.7851117
40
0.8315986
50
179.6817261
51
189.150555
0
ARC
8
DEFAULT_255_1_388
10
13.3443698
20
62.7382559
40
0.5464044
50
188.9911061
51
203.5772363
0
ARC
8
DEFAULT_255_1_388
10
13.222899
20
62.6878539
40
0.4149206
50
203.9075402
51
215.1312435
0
ARC
8
DEFAULT_255_1_388
10
13.1190788
20
62.6073907
40
0.2837747
50
213.9071511
51
263.8848919
0
ARC
8
DEFAULT_255_1_388
10
13.1331781
20
62.6956519
40
0.3730641
50
263.1757928
51
270.1031044
0
ARC
8
DEFAULT_255_1_388
10
13.136786
20
62.8359511
40
0.5133712
50
269.6722503
51
279.0606936
0
ARC
8
DEFAULT_255_1_388
10
13.1668016
20
62.654515
40
0.3294739
50
278.8749101
51
293.6349581
0
ARC
8
DEFAULT_255_1_388
10
13.2028219
20
62.5699251
40
0.2375405
50
293.8553806
51
310.0518171
0
ARC
8
DEFAULT_255_1_388
10
13.2033728
20
62.5629021
40
0.2318463
50
311.0644687
51
332.0111037
0
ARC
8
DEFAULT_255_1_388
10
13.0692402
20
62.6368702
40
0.3850112
50
331.6586806
51
343.2877423
0
ARC
8
DEFAULT_255_1_388
10
12.8371867
20
62.7081806
40
0.6277712
50
343.1446576
51
351.0103568
0
ARC
8
DEFAULT_255_1_388
10
12.673919
20
62.7381873
40
0.7937327
50
350.71248
51
351.1626997
0
LINE
8
DEFAULT_255_1_388
10
15.0710916
20
62.9487585
11
15.0710916
21
62.8068989
0
LINE
8
DEFAULT_255_1_388
10
15.0710916
20
62.8068989
11
14.5009424
21
62.8068989
0
LINE
8
DEFAULT_255_1_388
10
14.5009424
20
62.8068989
11
14.5009424
21
62.3406596
0
LINE
8
DEFAULT_255_1_388
10
14.5009424
20
62.3406596
11
15.1632552
21
62.3406596
0
LINE
8
DEFAULT_255_1_388
10
15.1632552
20
62.3406596
11
15.1632552
21
62.1988
0
LINE
8
DEFAULT_255_1_388
10
15.1632552
20
62.1988
11
14.3274581
21
62.1988
0
LINE
8
DEFAULT_255_1_388
10
14.3274581
20
62.1988
11
14.3274581
21
63.5143898
0
LINE
8
DEFAULT_255_1_388
10
14.3274581
20
63.5143898
11
15.1542195
21
63.5143898
0
LINE
8
DEFAULT_255_1_388
10
15.1542195
20
63.5143898
11
15.1542195
21
63.3716267
0
LINE
8
DEFAULT_255_1_388
10
15.1542195
20
63.3716267
11
14.5009424
21
63.3716267
0
LINE
8
DEFAULT_255_1_388
10
14.5009424
20
63.3716267
11
14.5009424
21
62.9487585
0
LINE
8
DEFAULT_255_1_388
10
14.5009424
20
62.9487585
11
15.0710916
21
62.9487585
0
LINE
8
DEFAULT_255_1_388
10
16.3062642
20
63.5143898
11
16.3062642
21
63.3716267
0
LINE
8
DEFAULT_255_1_388
10
16.3062642
20
63.3716267
11
15.883396
21
63.3716267
0
LINE
8
DEFAULT_255_1_388
10
15.883396
20
63.3716267
11
15.883396
21
62.1988
0
LINE
8
DEFAULT_255_1_388
10
15.883396
20
62.1988
11
15.7108152
21
62.1988
0
LINE
8
DEFAULT_255_1_388
10
15.7108152
20
62.1988
11
15.7108152
21
63.3716267
0
LINE
8
DEFAULT_255_1_388
10
15.7108152
20
63.3716267
11
15.2888506
21
63.3716267
0
LINE
8
DEFAULT_255_1_388
10
15.2888506
20
63.3716267
11
15.2888506
21
63.5143898
0
LINE
8
DEFAULT_255_1_388
10
15.2888506
20
63.5143898
11
16.3062642
21
63.5143898
0
LINE
8
DEFAULT_255_1_388
10
17.3200635
20
62.3352382
11
17.3200635
21
62.1988
0
LINE
8
DEFAULT_255_1_388
10
17.3200635
20
62.1988
11
16.458063
21
62.1988
0
LINE
8
DEFAULT_255_1_388
10
16.458063
20
62.1988
11
16.458063
21
62.3189741
0
LINE
8
DEFAULT_255_1_388
10
16.458063
20
62.3189741
11
16.9134595
21
62.8249702
0
LINE
8
DEFAULT_255_1_388
10
16.5999227
20
63.1267607
11
16.4327632
21
63.1267607
0
LINE
8
DEFAULT_255_1_388
10
17.011948
20
62.717446
11
16.6595579
21
62.3352382
0
LINE
8
DEFAULT_255_1_388
10
16.6595579
20
62.3352382
11
17.3200635
21
62.3352382
0
ARC
8
DEFAULT_255_1_388
10
15.3958655
20
64.1669983
40
2.0258655
50
318.5132526
51
320.7829045
0
ARC
8
DEFAULT_255_1_388
10
15.9906612
20
63.6828929
40
1.2589638
50
320.7372878
51
323.9739031
0
ARC
8
DEFAULT_255_1_388
10
16.4315543
20
63.3634554
40
0.7145141
50
323.8962701
51
328.64194
0
ARC
8
DEFAULT_255_1_388
10
16.6617801
20
63.2214545
40
0.4440242
50
328.8294576
51
331.7891185
0
ARC
8
DEFAULT_255_1_388
10
16.7740121
20
63.1635374
40
0.3177517
50
331.4254512
51
352.9365785
0
ARC
8
DEFAULT_255_1_388
10
16.7893121
20
63.160105
40
0.3021496
50
353.2257659
51
0.0166158
0
ARC
8
DEFAULT_255_1_388
10
16.8129882
20
63.1626894
40
0.2784847
50
359.486299
51
15.9343185
0
ARC
8
DEFAULT_255_1_388
10
16.8700148
20
63.1780269
40
0.2194403
50
16.1712913
51
43.5286088
0
ARC
8
DEFAULT_255_1_388
10
16.8787093
20
63.1867191
40
0.2071504
50
43.4417391
51
83.1661095
0
ARC
8
DEFAULT_255_1_388
10
16.8636254
20
63.1038316
40
0.2912888
50
82.160179
51
90.1505708
0
ARC
8
DEFAULT_255_1_388
10
16.8600736
20
63.0434279
40
0.3517025
50
89.5460741
51
102.5418361
0
ARC
8
DEFAULT_255_1_388
10
16.8327456
20
63.1593933
40
0.2325748
50
102.1738499
51
129.206123
0
ARC
8
DEFAULT_255_1_388
10
16.8238909
20
63.1733664
40
0.2161591
50
129.72865
51
135.753947
0
ARC
8
DEFAULT_255_1_388
10
16.8375391
20
63.1624728
40
0.2335433
50
136.1757367
51
166.3673339
0
ARC
8
DEFAULT_255_1_388
10
16.950808
20
63.1321148
40
0.3507873
50
165.9090694
51
178.8684636
0
ARC
8
DEFAULT_255_1_388
10
17.0483851
20
63.1268263
40
0.4484624
50
178.4391136
51
180.0083808
0
ARC
8
DEFAULT_255_1_388
10
16.8904553
20
63.1312197
40
0.4577138
50
163.2878482
51
180.5581842
0
ARC
8
DEFAULT_255_1_388
10
16.8002594
20
63.1560393
40
0.3641968
50
133.4540601
51
162.947111
0
ARC
8
DEFAULT_255_1_388
10
16.8203476
20
63.1346789
40
0.3935189
50
100.7869829
51
133.4382499
0
ARC
8
DEFAULT_255_1_388
10
16.8594721
20
62.9604399
40
0.5720313
50
89.660664
51
101.3702276
0
ARC
8
DEFAULT_255_1_388
10
16.866933
20
62.9673263
40
0.5651495
50
78.2172678
51
90.412935
0
ARC
8
DEFAULT_255_1_388
10
16.9068795
20
63.1500511
40
0.378122
50
55.9269121
51
78.4888449
0
ARC
8
DEFAULT_255_1_388
10
16.928951
20
63.1881187
40
0.3342379
50
47.929771
51
55.4049217
0
ARC
8
DEFAULT_255_1_388
10
16.9404041
20
63.1997618
40
0.3179217
50
4.334829
51
48.0560205
0
ARC
8
DEFAULT_255_1_388
10
16.8171842
20
63.1806487
40
0.442341
50
359.9251713
51
5.5971671
0
ARC
8
DEFAULT_255_1_388
10
16.8653997
20
63.1869728
40
0.3941854
50
337.8914027
51
358.9967534
0
ARC
8
DEFAULT_255_1_388
10
16.5601567
20
63.3047295
40
0.7213271
50
326.9132501
51
338.3508308
0
ARC
8
DEFAULT_255_1_388
10
16.1117679
20
63.5921105
40
1.2538973
50
319.6471833
51
327.0959558
0
ARC
8
DEFAULT_255_1_388
10
15.6804337
20
63.947905
40
1.8129975
50
317.2588228
51
319.9045804
0
LINE
8
DEFAULT_255_1_388
10
18.3221165
20
62.976769
11
18.3221165
21
62.7599135
0
LINE
8
DEFAULT_255_1_388
10
17.4917408
20
62.7373244
11
17.4917408
21
62.9605048
0
LINE
8
DEFAULT_255_1_388
10
18.1549571
20
62.7147353
11
18.1549571
21
62.9885153
0
LINE
8
DEFAULT_255_1_388
10
17.6589002
20
63.0011652
11
17.6589002
21
62.7337102
0
ARC
8
DEFAULT_255_1_388
10
16.9443499
20
62.7544118
40
1.3777776
50
353.8440855
51
0.2287917
0
ARC
8
DEFAULT_255_1_388
10
17.4662516
20
62.6961414
40
0.852639
50
344.4934746
51
353.9763743
0
ARC
8
DEFAULT_255_1_388
10
17.8029324
20
62.6004191
40
0.5026273
50
329.2803599
51
344.7473406
0
ARC
8
DEFAULT_255_1_388
10
17.9144819
20
62.5392038
40
0.3754848
50
324.9361395
51
328.6153007
0
ARC
8
DEFAULT_255_1_388
10
17.9570469
20
62.5094586
40
0.3235566
50
280.5801797
51
324.9173226
0
ARC
8
DEFAULT_255_1_388
10
17.9119098
20
62.6974236
40
0.5167077
50
269.5979457
51
281.6732777
0
ARC
8
DEFAULT_255_1_388
10
17.9038001
20
62.6839113
40
0.5032026
50
256.6228565
51
270.5105488
0
ARC
8
DEFAULT_255_1_388
10
17.8585744
20
62.5097345
40
0.3233092
50
215.8618351
51
257.2787793
0
ARC
8
DEFAULT_255_1_388
10
17.9734451
20
62.5868106
40
0.4615831
50
197.9695203
51
215.2622745
0
ARC
8
DEFAULT_255_1_388
10
18.2530127
20
62.6811641
40
0.7566307
50
187.8816486
51
198.2346584
0
ARC
8
DEFAULT_255_1_388
10
18.6983365
20
62.7454453
40
1.2065653
50
180.8977266
51
188.0054894
0
ARC
8
DEFAULT_255_1_388
10
19.0033579
20
62.75694
40
1.5117443
50
180.7434591
51
181.152202
0
ARC
8
DEFAULT_255_1_388
10
18.8358575
20
62.9659371
40
1.3441277
50
173.7674302
51
180.2315596
0
ARC
8
DEFAULT_255_1_388
10
18.3276443
20
63.0233779
40
0.8326847
50
164.3058537
51
173.9000553
0
ARC
8
DEFAULT_255_1_388
10
18.0000443
20
63.1177652
40
0.4917711
50
148.7922028
51
164.5682288
0
ARC
8
DEFAULT_255_1_388
10
17.8931181
20
63.1774457
40
0.3694204
50
144.5883979
51
148.1161588
0
ARC
8
DEFAULT_255_1_388
10
17.8543926
20
63.2044667
40
0.322202
50
101.6440149
51
144.5142619
0
ARC
8
DEFAULT_255_1_388
10
17.9022118
20
63.0144337
40
0.5180451
50
89.528284
51
102.5820197
0
ARC
8
DEFAULT_255_1_388
10
17.911111
20
63.0100376
40
0.5224441
50
77.0437914
51
90.508231
0
ARC
8
DEFAULT_255_1_388
10
17.9563364
20
63.1948272
40
0.3322297
50
48.2777708
51
77.4996087
0
ARC
8
DEFAULT_255_1_388
10
17.9645104
20
63.2093557
40
0.315966
50
36.3141586
51
47.6307332
0
ARC
8
DEFAULT_255_1_388
10
17.8667826
20
63.1435159
40
0.4337313
50
18.2931065
51
35.6770203
0
ARC
8
DEFAULT_255_1_388
10
17.5806667
20
63.0453107
40
0.7362203
50
8.0246996
51
18.5605636
0
ARC
8
DEFAULT_255_1_388
10
17.1123022
20
62.9761432
40
1.2096583
50
1.127539
51
8.1718423
0
ARC
8
DEFAULT_255_1_388
10
16.7474156
20
62.9618374
40
1.5747719
50
0.5432713
51
1.38669
0
ARC
8
DEFAULT_255_1_388
10
16.9531535
20
62.9925163
40
1.2018103
50
359.8092569
51
4.9408001
0
ARC
8
DEFAULT_255_1_388
10
17.4268116
20
63.03479
40
0.7262727
50
4.8364937
51
12.2906017
0
ARC
8
DEFAULT_255_1_388
10
17.7367581
20
63.1038485
40
0.4087324
50
12.0806994
51
23.8171225
0
ARC
8
DEFAULT_255_1_388
10
17.8687977
20
63.1597508
40
0.2653719
50
24.2874621
51
31.3934353
0
ARC
8
DEFAULT_255_1_388
10
17.9278413
20
63.1983822
40
0.1948607
50
30.7407708
51
82.4658033
0
ARC
8
DEFAULT_255_1_388
10
17.9076073
20
63.0990017
40
0.2961198
50
81.1057101
51
90.2187368
0
ARC
8
DEFAULT_255_1_388
10
17.9035885
20
63.1280421
40
0.2670929
50
89.380395
51
105.6763916
0
ARC
8
DEFAULT_255_1_388
10
17.8829607
20
63.203032
40
0.1893189
50
105.7980655
51
149.7387869
0
ARC
8
DEFAULT_255_1_388
10
18.0026747
20
63.1310719
40
0.3289892
50
149.4208441
51
163.628295
0
ARC
8
DEFAULT_255_1_388
10
18.2378977
20
63.0593345
40
0.5749004
50
163.3764549
51
172.141138
0
ARC
8
DEFAULT_255_1_388
10
18.6091698
20
63.0061582
40
0.9499585
50
172.0258462
51
178.0705453
0
ARC
8
DEFAULT_255_1_388
10
18.9513251
20
62.9899682
40
1.2924734
50
177.8639301
51
179.5036263
0
ARC
8
DEFAULT_255_1_388
10
18.829427
20
62.7296151
40
1.170534
50
179.7995545
51
185.246089
0
ARC
8
DEFAULT_255_1_388
10
18.3745863
20
62.6865404
40
0.7136613
50
185.1411911
51
193.0082205
0
ARC
8
DEFAULT_255_1_388
10
18.0772124
20
62.6162441
40
0.4080987
50
192.7897338
51
205.2507384
0
ARC
8
DEFAULT_255_1_388
10
17.9594334
20
62.5636538
40
0.2791522
50
205.8001921
51
211.2545876
0
ARC
8
DEFAULT_255_1_388
10
17.9005873
20
62.5242132
40
0.2084074
50
210.3789935
51
238.4007996
0
ARC
8
DEFAULT_255_1_388
10
17.8983959
20
62.5294786
40
0.2117943
50
239.6521916
51
265.9793852
0
ARC
8
DEFAULT_255_1_388
10
17.9079808
20
62.6051358
40
0.2879689
50
265.1324455
51
270.0603288
0
ARC
8
DEFAULT_255_1_388
10
17.9112185
20
62.5686418
40
0.2514919
50
269.3314378
51
287.2180039
0
ARC
8
DEFAULT_255_1_388
10
17.9267267
20
62.5120291
40
0.1928357
50
287.7957942
51
329.0808983
0
ARC
8
DEFAULT_255_1_388
10
17.8190024
20
62.5792651
40
0.319808
50
328.6635261
51
343.3325043
0
ARC
8
DEFAULT_255_1_388
10
17.5745483
20
62.6554195
40
0.5758408
50
343.0498092
51
351.9392499
0
ARC
8
DEFAULT_255_1_388
10
17.1844804
20
62.7129205
40
0.9701202
50
351.8071632
51
357.7957897
0
ARC
8
DEFAULT_255_1_388
10
16.8210281
20
62.7317724
40
1.3340376
50
357.5870923
51
359.2682493
0
LINE
8
DEFAULT_255_1_388
10
19.3612156
20
62.976769
11
19.3612156
21
62.7599135
0
LINE
8
DEFAULT_255_1_388
10
18.5308399
20
62.7373244
11
18.5308399
21
62.9605048
0
LINE
8
DEFAULT_255_1_388
10
19.1940562
20
62.7147353
11
19.1940562
21
62.9885153
0
LINE
8
DEFAULT_255_1_388
10
18.6979993
20
63.0011652
11
18.6979993
21
62.7337102
0
ARC
8
DEFAULT_255_1_388
10
17.983449
20
62.7544118
40
1.3777776
50
353.8440855
51
0.2287917
0
ARC
8
DEFAULT_255_1_388
10
18.5053508
20
62.6961414
40
0.852639
50
344.4934746
51
353.9763743
0
ARC
8
DEFAULT_255_1_388
10
18.8420315
20
62.6004191
40
0.5026273
50
329.2803599
51
344.7473406
0
ARC
8
DEFAULT_255_1_388
10
18.9535811
20
62.5392038
40
0.3754848
50
324.9361395
51
328.6153007
0
ARC
8
DEFAULT_255_1_388
10
18.996146
20
62.5094586
40
0.3235566
50
280.5801797
51
324.9173226
0
ARC
8
DEFAULT_255_1_388
10
18.9510089
20
62.6974236
40
0.5167077
50
269.5979457
51
281.6732777
0
ARC
8
DEFAULT_255_1_388
10
18.9428992
20
62.6839113
40
0.5032026
50
256.6228565
51
270.5105488
0
ARC
8
DEFAULT_255_1_388
10
18.8976735
20
62.5097345
40
0.3233092
50
215.8618351
51
257.2787793
0
ARC
8
DEFAULT_255_1_388
10
19.0125442
20
62.5868106
40
0.4615831
50
197.9695203
51
215.2622745
0
ARC
8
DEFAULT_255_1_388
10
19.2921118
20
62.6811641
40
0.7566307
50
187.8816486
51
198.2346584
0
ARC
8
DEFAULT_255_1_388
10
19.7374356
20
62.7454453
40
1.2065653
50
180.8977266
51
188.0054894
0
ARC
8
DEFAULT_255_1_388
10
20.042457
20
62.75694
40
1.5117443
50
180.7434591
51
181.152202
0
ARC
8
DEFAULT_255_1_388
10
19.8749566
20
62.9659371
40
1.3441277
50
173.7674302
51
180.2315596
0
ARC
8
DEFAULT_255_1_388
10
19.3667435
20
63.0233779
40
0.8326847
50
164.3058537
51
173.9000553
0
ARC
8
DEFAULT_255_1_388
10
19.0391435
20
63.1177652
40
0.4917711
50
148.7922028
51
164.5682288
0
ARC
8
DEFAULT_255_1_388
10
18.9322172
20
63.1774457
40
0.3694204
50
144.5883979
51
148.1161588
0
ARC
8
DEFAULT_255_1_388
10
18.8934917
20
63.2044667
40
0.322202
50
101.6440149
51
144.5142619
0
ARC
8
DEFAULT_255_1_388
10
18.941311
20
63.0144337
40
0.5180451
50
89.528284
51
102.5820197
0
ARC
8
DEFAULT_255_1_388
10
18.9502102
20
63.0100376
40
0.5224441
50
77.0437914
51
90.508231
0
ARC
8
DEFAULT_255_1_388
10
18.9954355
20
63.1948272
40
0.3322297
50
48.2777708
51
77.4996087
0
ARC
8
DEFAULT_255_1_388
10
19.0036095
20
63.2093557
40
0.315966
50
36.3141586
51
47.6307332
0
ARC
8
DEFAULT_255_1_388
10
18.9058817
20
63.1435159
40
0.4337313
50
18.2931065
51
35.6770203
0
ARC
8
DEFAULT_255_1_388
10
18.6197658
20
63.0453107
40
0.7362203
50
8.0246996
51
18.5605636
0
ARC
8
DEFAULT_255_1_388
10
18.1514014
20
62.9761432
40
1.2096583
50
1.127539
51
8.1718423
0
ARC
8
DEFAULT_255_1_388
10
17.7865147
20
62.9618374
40
1.5747719
50
0.5432713
51
1.38669
0
ARC
8
DEFAULT_255_1_388
10
17.9922526
20
62.9925163
40
1.2018103
50
359.8092569
51
4.9408001
0
ARC
8
DEFAULT_255_1_388
10
18.4659107
20
63.03479
40
0.7262727
50
4.8364937
51
12.2906017
0
ARC
8
DEFAULT_255_1_388
10
18.7758572
20
63.1038485
40
0.4087324
50
12.0806994
51
23.8171225
0
ARC
8
DEFAULT_255_1_388
10
18.9078968
20
63.1597508
40
0.2653719
50
24.2874621
51
31.3934353
0
ARC
8
DEFAULT_255_1_388
10
18.9669404
20
63.1983822
40
0.1948607
50
30.7407708
51
82.4658033
0
ARC
8
DEFAULT_255_1_388
10
18.9467065
20
63.0990017
40
0.2961198
50
81.1057101
51
90.2187368
0
ARC
8
DEFAULT_255_1_388
10
18.9426877
20
63.1280421
40
0.2670929
50
89.380395
51
105.6763916
0
ARC
8
DEFAULT_255_1_388
10
18.9220598
20
63.203032
40
0.1893189
50
105.7980655
51
149.7387869
0
ARC
8
DEFAULT_255_1_388
10
19.0417739
20
63.1310719
40
0.3289892
50
149.4208441
51
163.628295
0
ARC
8
DEFAULT_255_1_388
10
19.2769968
20
63.0593345
40
0.5749004
50
163.3764549
51
172.141138
0
ARC
8
DEFAULT_255_1_388
10
19.648269
20
63.0061582
40
0.9499585
50
172.0258462
51
178.0705453
0
ARC
8
DEFAULT_255_1_388
10
19.9904242
20
62.9899682
40
1.2924734
50
177.8639301
51
179.5036263
0
ARC
8
DEFAULT_255_1_388
10
19.8685261
20
62.7296151
40
1.170534
50
179.7995545
51
185.246089
0
ARC
8
DEFAULT_255_1_388
10
19.4136854
20
62.6865404
40
0.7136613
50
185.1411911
51
193.0082205
0
ARC
8
DEFAULT_255_1_388
10
19.1163115
20
62.6162441
40
0.4080987
50
192.7897338
51
205.2507384
0
ARC
8
DEFAULT_255_1_388
10
18.9985325
20
62.5636538
40
0.2791522
50
205.8001921
51
211.2545876
0
ARC
8
DEFAULT_255_1_388
10
18.9396864
20
62.5242132
40
0.2084074
50
210.3789935
51
238.4007996
0
ARC
8
DEFAULT_255_1_388
10
18.937495
20
62.5294786
40
0.2117943
50
239.6521916
51
265.9793852
0
ARC
8
DEFAULT_255_1_388
10
18.9470799
20
62.6051358
40
0.2879689
50
265.1324455
51
270.0603288
0
ARC
8
DEFAULT_255_1_388
10
18.9503176
20
62.5686418
40
0.2514919
50
269.3314378
51
287.2180039
0
ARC
8
DEFAULT_255_1_388
10
18.9658258
20
62.5120291
40
0.1928357
50
287.7957942
51
329.0808983
0
ARC
8
DEFAULT_255_1_388
10
18.8581015
20
62.5792651
40
0.319808
50
328.6635261
51
343.3325043
0
ARC
8
DEFAULT_255_1_388
10
18.6136474
20
62.6554195
40
0.5758408
50
343.0498092
51
351.9392499
0
ARC
8
DEFAULT_255_1_388
10
18.2235795
20
62.7129205
40
0.9701202
50
351.8071632
51
357.7957897
0
ARC
8
DEFAULT_255_1_388
10
17.8601272
20
62.7317724
40
1.3340376
50
357.5870923
51
359.2682493
0
LINE
8
DEFAULT_255_1_388
10
20.4915748
20
63.1339892
11
20.3171868
21
63.1339892
0
LINE
8
DEFAULT_255_1_388
10
19.5383143
20
62.5801042
11
19.7127022
21
62.5801042
0
ARC
8
DEFAULT_255_1_388
10
20.3912595
20
64.1403821
40
1.4087688
50
248.9196578
51
254.1442424
0
ARC
8
DEFAULT_255_1_388
10
20.2022475
20
63.6537805
40
0.8867498
50
241.6337352
51
249.0064643
0
ARC
8
DEFAULT_255_1_388
10
20.0302789
20
63.3386764
40
0.5277799
50
230.4982261
51
241.8087583
0
ARC
8
DEFAULT_255_1_388
10
19.942056
20
63.2262686
40
0.3849419
50
227.4062979
51
229.9877433
0
ARC
8
DEFAULT_255_1_388
10
19.8871906
20
63.1727155
40
0.3084129
50
200.6782127
51
228.1765252
0
ARC
8
DEFAULT_255_1_388
10
19.8953275
20
63.1710277
40
0.315461
50
179.506278
51
199.8695278
0
ARC
8
DEFAULT_255_1_388
10
19.8942864
20
63.1793671
40
0.3144584
50
132.4834401
51
181.0242352
0
ARC
8
DEFAULT_255_1_388
10
19.9612068
20
63.1161788
40
0.4063094
50
129.2526113
51
133.4249077
0
ARC
8
DEFAULT_255_1_388
10
19.9777661
20
63.0913619
40
0.436014
50
101.9878945
51
128.8741833
0
ARC
8
DEFAULT_255_1_388
10
20.0226076
20
62.897736
40
0.6347415
50
89.5906376
51
102.3170567
0
ARC
8
DEFAULT_255_1_388
10
20.0305388
20
62.9335586
40
0.5989122
50
77.2359491
51
90.3248968
0
ARC
8
DEFAULT_255_1_388
10
20.0538319
20
63.0423554
40
0.4876594
50
63.8379856
51
77.0808925
0
ARC
8
DEFAULT_255_1_388
10
20.0850852
20
63.1005882
40
0.4216191
50
45.9863127
51
64.1608798
0
ARC
8
DEFAULT_255_1_388
10
20.1144246
20
63.134099
40
0.3771394
50
32.2747934
51
45.6544796
0
ARC
8
DEFAULT_255_1_388
10
20.1219052
20
63.1362426
40
0.3696765
50
359.6507495
51
32.6129943
0
ARC
8
DEFAULT_255_1_388
10
20.0158235
20
63.1367788
40
0.3013762
50
359.469654
51
14.983205
0
ARC
8
DEFAULT_255_1_388
10
20.0951487
20
63.1580288
40
0.2192542
50
14.9781954
51
48.2004799
0
ARC
8
DEFAULT_255_1_388
10
20.0766598
20
63.1347937
40
0.2489048
50
48.5926661
51
74.1242559
0
ARC
8
DEFAULT_255_1_388
10
20.03914
20
63.0109607
40
0.3782845
50
73.7889321
51
86.6653996
0
ARC
8
DEFAULT_255_1_388
10
20.0276215
20
62.8751955
40
0.5145025
50
86.2642725
51
90.0533288
0
ARC
8
DEFAULT_255_1_388
10
20.0244308
20
62.9196376
40
0.4700681
50
89.669455
51
99.2313411
0
ARC
8
DEFAULT_255_1_388
10
19.9971468
20
63.0821401
40
0.3052945
50
99.0695987
51
113.7659242
0
ARC
8
DEFAULT_255_1_388
10
19.9663462
20
63.1547772
40
0.226407
50
114.0402885
51
127.9848946
0
ARC
8
DEFAULT_255_1_388
10
19.9392938
20
63.1880884
40
0.1835045
50
127.7287217
51
176.7106493
0
ARC
8
DEFAULT_255_1_388
10
20.0156603
20
63.176721
40
0.2604907
50
175.1780759
51
180.0581213
0
ARC
8
DEFAULT_255_1_388
10
19.9207947
20
63.1753411
40
0.1656287
50
179.6140658
51
228.124674
0
ARC
8
DEFAULT_255_1_388
10
19.9705304
20
63.221394
40
0.2332038
50
226.5785315
51
230.8792476
0
ARC
8
DEFAULT_255_1_388
10
20.0234791
20
63.2916908
40
0.3211664
50
231.4636401
51
241.9261664
0
ARC
8
DEFAULT_255_1_388
10
20.1581574
20
63.5395349
40
0.6032345
50
241.7177136
51
248.3259138
0
ARC
8
DEFAULT_255_1_388
10
20.3140169
20
63.9256771
40
1.0196417
50
248.2007377
51
252.4527713
0
ARC
8
DEFAULT_255_1_388
10
20.4493696
20
64.3441092
40
1.4594143
50
252.3388938
51
254.347037
0
ARC
8
DEFAULT_255_1_388
10
19.6008996
20
61.3093095
40
1.6917621
50
71.0197462
51
74.4085467
0
ARC
8
DEFAULT_255_1_388
10
19.7916084
20
61.8598144
40
1.1091618
50
66.1845203
51
71.086519
0
ARC
8
DEFAULT_255_1_388
10
19.9666633
20
62.2539439
40
0.6779073
50
59.3537334
51
66.269255
0
ARC
8
DEFAULT_255_1_388
10
20.0666359
20
62.4230777
40
0.4814366
50
49.1021732
51
59.3294421
0
ARC
8
DEFAULT_255_1_388
10
20.1587347
20
62.5280575
40
0.3417875
50
32.7924183
51
49.2503526
0
ARC
8
DEFAULT_255_1_388
10
20.1936961
20
62.5530311
40
0.2988789
50
31.121225
51
32.3977355
0
ARC
8
DEFAULT_255_1_388
10
20.1849139
20
62.5497728
40
0.3080861
50
8.1116803
51
30.7958224
0
ARC
8
DEFAULT_255_1_388
10
20.0937485
20
62.5342437
40
0.4005385
50
359.8390945
51
8.4707348
0
ARC
8
DEFAULT_255_1_388
10
20.1641533
20
62.5287751
40
0.3301608
50
337.4732479
51
0.7538283
0
ARC
8
DEFAULT_255_1_388
10
20.1842558
20
62.5265554
40
0.3107929
50
307.5917028
51
336.4313755
0
ARC
8
DEFAULT_255_1_388
10
20.1331615
20
62.5833509
40
0.3870096
50
307.6560665
51
308.4561779
0
ARC
8
DEFAULT_255_1_388
10
20.1065832
20
62.6241832
40
0.435591
50
284.3733666
51
307.1426212
0
ARC
8
DEFAULT_255_1_388
10
20.0508726
20
62.8291391
40
0.6479685
50
272.4384566
51
284.6464689
0
ARC
8
DEFAULT_255_1_388
10
20.0366111
20
63.0315434
40
0.8508149
50
269.9708517
51
272.8180721
0
ARC
8
DEFAULT_255_1_388
10
20.0317794
20
62.8023283
40
0.6216151
50
248.2707343
51
270.4054609
0
ARC
8
DEFAULT_255_1_388
10
20.0256665
20
62.7808673
40
0.5994203
50
246.1380358
51
248.054058
0
ARC
8
DEFAULT_255_1_388
10
19.9785808
20
62.6819705
40
0.4899388
50
233.1671897
51
246.4951656
0
ARC
8
DEFAULT_255_1_388
10
19.9162443
20
62.5978137
40
0.3852115
50
215.3403381
51
233.084328
0
ARC
8
DEFAULT_255_1_388
10
19.8855807
20
62.5755093
40
0.3472969
50
179.2419235
51
215.2648426
0
ARC
8
DEFAULT_255_1_388
10
19.9719358
20
62.5770979
40
0.259251
50
179.3355796
51
199.1045873
0
ARC
8
DEFAULT_255_1_388
10
19.93455
20
62.5673223
40
0.2207454
50
199.8830064
51
232.7061328
0
ARC
8
DEFAULT_255_1_388
10
19.9876774
20
62.6341456
40
0.306101
50
232.3736206
51
255.5136621
0
ARC
8
DEFAULT_255_1_388
10
20.026028
20
62.7741177
40
0.4512213
50
255.2447928
51
267.5318292
0
ARC
8
DEFAULT_255_1_388
10
20.0358747
20
62.9127709
40
0.5901825
50
267.1564563
51
270.0294721
0
ARC
8
DEFAULT_255_1_388
10
20.0390072
20
62.8628623
40
0.5402814
50
269.6999944
51
278.1662446
0
ARC
8
DEFAULT_255_1_388
10
20.06781
20
62.6681974
40
0.3435003
50
278.0229022
51
290.6255326
0
ARC
8
DEFAULT_255_1_388
10
20.1069266
20
62.5638547
40
0.2320666
50
290.6616368
51
307.0374127
0
ARC
8
DEFAULT_255_1_388
10
20.1407166
20
62.522404
40
0.1786372
50
306.3942078
51
355.303191
0
ARC
8
DEFAULT_255_1_388
10
20.0831459
20
62.5310186
40
0.2367516
50
354.3662092
51
0.0709489
0
ARC
8
DEFAULT_255_1_388
10
20.0991328
20
62.5335561
40
0.2207761
50
359.4175379
51
16.1975911
0
ARC
8
DEFAULT_255_1_388
10
20.1503446
20
62.5475954
40
0.1676828
50
16.4721294
51
52.6261798
0
ARC
8
DEFAULT_255_1_388
10
20.0579953
20
62.4256606
40
0.3206412
50
52.7381828
51
62.4979144
0
ARC
8
DEFAULT_255_1_388
10
19.9021706
20
62.1324236
40
0.6527035
50
62.2517425
51
68.1219454
0
ARC
8
DEFAULT_255_1_388
10
19.7087194
20
61.6569951
40
1.1659797
50
68.006043
51
71.8055127
0
ARC
8
DEFAULT_255_1_388
10
19.5067102
20
61.0511723
40
1.8045908
50
71.718361
51
73.9260743
0
LINE
8
DEFAULT_255_1_388
10
21.1999693
20
62.7138317
11
20.8900467
21
62.7138317
0
LINE
8
DEFAULT_255_1_388
10
20.8900467
20
62.7138317
11
20.8900467
21
62.1988
0
LINE
8
DEFAULT_255_1_388
10
20.8900467
20
62.1988
11
20.7165623
21
62.1988
0
LINE
8
DEFAULT_255_1_388
10
20.7165623
20
62.1988
11
20.7165623
21
63.5143898
0
LINE
8
DEFAULT_255_1_388
10
20.7165623
20
63.5143898
11
21.2017764
21
63.5143898
0
LINE
8
DEFAULT_255_1_388
10
20.8900467
20
63.3716267
11
20.8900467
21
62.8556914
0
LINE
8
DEFAULT_255_1_388
10
20.8900467
20
62.8556914
11
21.2017764
21
62.8556914
0
LINE
8
DEFAULT_255_1_388
10
21.2117156
20
63.3716267
11
20.8900467
21
63.3716267
0
ARC
8
DEFAULT_255_1_388
10
21.2065137
20
62.8327334
40
0.6816729
50
78.8380084
51
90.398184
0
ARC
8
DEFAULT_255_1_388
10
21.2533168
20
63.0600796
40
0.449571
50
58.9633273
51
79.0810717
0
ARC
8
DEFAULT_255_1_388
10
21.2872552
20
63.1230823
40
0.3781049
50
48.0194715
51
58.4475592
0
ARC
8
DEFAULT_255_1_388
10
21.2972372
20
63.1326818
40
0.3642936
50
3.3374546
51
48.1766642
0
ARC
8
DEFAULT_255_1_388
10
21.1587179
20
63.1127581
40
0.5038766
50
359.9483251
51
4.6822857
0
ARC
8
DEFAULT_255_1_388
10
21.1727102
20
63.1079779
40
0.4899031
50
346.1879032
51
0.5059221
0
ARC
8
DEFAULT_255_1_388
10
21.3255894
20
63.0682763
40
0.3319729
50
310.8832219
51
346.5426612
0
ARC
8
DEFAULT_255_1_388
10
21.2908742
20
63.1151853
40
0.3901853
50
286.6925305
51
310.228778
0
ARC
8
DEFAULT_255_1_388
10
21.2268472
20
63.3165585
40
0.6014737
50
274.6848219
51
287.0247342
0
ARC
8
DEFAULT_255_1_388
10
21.2015021
20
63.5650088
40
0.8511785
50
269.8968222
51
275.0192639
0
ARC
8
DEFAULT_255_1_388
10
21.2046014
20
63.3312144
40
0.4755314
50
269.6596206
51
279.4150542
0
ARC
8
DEFAULT_255_1_388
10
21.2335472
20
63.1634945
40
0.3053379
50
279.2050006
51
294.9901776
0
ARC
8
DEFAULT_255_1_388
10
21.2662107
20
63.0906353
40
0.2255036
50
295.2886769
51
311.2912669
0
ARC
8
DEFAULT_255_1_388
10
21.2741848
20
63.0787938
40
0.2113522
50
311.7853512
51
347.2860549
0
ARC
8
DEFAULT_255_1_388
10
21.1635009
20
63.107243
40
0.3256011
50
346.6891629
51
0.1057086
0
ARC
8
DEFAULT_255_1_388
10
21.0712469
20
63.1105247
40
0.417863
50
359.63239
51
359.9961329
0
ARC
8
DEFAULT_255_1_388
10
21.1877074
20
63.1132987
40
0.3014155
50
359.4673371
51
15.5931159
0
ARC
8
DEFAULT_255_1_388
10
21.2580137
20
63.1322937
40
0.2285918
50
15.7441779
51
46.620186
0
ARC
8
DEFAULT_255_1_388
10
21.2413897
20
63.1131361
40
0.2539359
50
46.8628482
51
75.6676625
0
ARC
8
DEFAULT_255_1_388
10
21.2082954
20
62.9940243
40
0.3775415
50
75.2763152
51
88.2916439
0
ARC
8
DEFAULT_255_1_388
10
21.2016953
20
62.8938097
40
0.4779221
50
87.8589087
51
88.7986197
0
LINE
8
DEFAULT_255_2_778
10
9.3927417
20
44.8468581
11
10.7156417
21
44.8468581
0
LINE
8
DEFAULT_255_2_778
10
10.7156417
20
44.8468581
11
10.7156417
21
27.6489581
0
LINE
8
DEFAULT_255_2_778
10
9.3926834
20
27.6489333
11
12.0384834
21
27.6489333
0
LINE
8
DEFAULT_255_2_778
10
12.0384834
20
27.6489333
11
12.0384834
21
22.3572333
0
LINE
8
DEFAULT_255_2_778
10
12.0384834
20
22.3572333
11
9.3926834
21
22.3572333
0
LINE
8
DEFAULT_255_2_778
10
9.3926834
20
22.3572333
11
9.3926834
21
27.6489333
0
LINE
8
DEFAULT_255_2_778
10
10.1865
20
22.8864666
11
10.1865
21
27.1197666
0
LINE
8
DEFAULT_255_2_778
10
9.9219167
20
26.326075
11
10.1865167
21
27.119775
0
LINE
8
DEFAULT_255_2_778
10
10.1865167
20
27.119775
11
10.4511167
21
26.326075
0
LINE
8
DEFAULT_255_2_778
10
10.4511167
20
26.326075
11
9.9219167
21
26.326075
0
LINE
8
DEFAULT_255_2_778
10
11.2448
20
27.1197666
11
11.2448
21
22.8864666
0
LINE
8
DEFAULT_255_2_778
10
10.9802167
20
23.680175
11
11.2448167
21
22.886475
0
LINE
8
DEFAULT_255_2_778
10
11.2448167
20
22.886475
11
11.5094167
21
23.680175
0
LINE
8
DEFAULT_255_2_778
10
11.5094167
20
23.680175
11
10.9802167
21
23.680175
0
LINE
8
DEFAULT_255_2_778
10
10.7156335
20
22.3572494
11
10.7156335
21
5.1593494
0
LINE
8
DEFAULT_255_2_778
10
10.7156335
20
5.1593494
11
9.3927335
21
5.1593494
0
LINE
8
DEFAULT_255_2_778
10
19.9760335
20
44.8468494
11
18.6531335
21
44.8468494
0
LINE
8
DEFAULT_255_2_778
10
18.6531335
20
44.8468494
11
18.6531335
21
27.6489494
0
LINE
8
DEFAULT_255_2_778
10
18.6531335
20
22.3572494
11
18.6531335
21
5.1593494
0
LINE
8
DEFAULT_255_2_778
10
18.6531335
20
5.1593494
11
19.9760335
21
5.1593494
0
LINE
8
DEFAULT_255_2_778
10
17.3301834
20
27.6489333
11
19.9759834
21
27.6489333
0
LINE
8
DEFAULT_255_2_778
10
19.9759834
20
27.6489333
11
19.9759834
21
22.3572333
0
LINE
8
DEFAULT_255_2_778
10
19.9759834
20
22.3572333
11
17.3301834
21
22.3572333
0
LINE
8
DEFAULT_255_2_778
10
17.3301834
20
22.3572333
11
17.3301834
21
27.6489333
0
LINE
8
DEFAULT_255_2_778
10
18.124
20
22.8864666
11
18.124
21
27.1197666
0
LINE
8
DEFAULT_255_2_778
10
17.8594167
20
26.326075
11
18.1240167
21
27.119775
0
LINE
8
DEFAULT_255_2_778
10
18.1240167
20
27.119775
11
18.3886167
21
26.326075
0
LINE
8
DEFAULT_255_2_778
10
18.3886167
20
26.326075
11
17.8594167
21
26.326075
0
LINE
8
DEFAULT_255_2_778
10
19.1823
20
27.1197666
11
19.1823
21
22.8864666
0
LINE
8
DEFAULT_255_2_778
10
18.9177167
20
23.680175
11
19.1823167
21
22.886475
0
LINE
8
DEFAULT_255_2_778
10
19.1823167
20
22.886475
11
19.4469167
21
23.680175
0
LINE
8
DEFAULT_255_2_778
10
19.4469167
20
23.680175
11
18.9177167
21
23.680175
0
LINE
8
DEFAULT_255_1_388
10
4.5264985
20
61.5363148
11
4.5264985
21
60.2144
0
LINE
8
DEFAULT_255_1_388
10
4.5264985
20
60.2144
11
4.3584355
21
60.2144
0
LINE
8
DEFAULT_255_1_388
10
4.3584355
20
60.2144
11
4.3584355
21
61.328495
0
LINE
8
DEFAULT_255_1_388
10
4.3584355
20
61.328495
11
4.021406
21
61.2047066
0
LINE
8
DEFAULT_255_1_388
10
4.021406
20
61.2047066
11
4.021406
21
61.3565055
0
LINE
8
DEFAULT_255_1_388
10
4.021406
20
61.3565055
11
4.5002951
21
61.5363148
0
LINE
8
DEFAULT_255_1_388
10
4.5002951
20
61.5363148
11
4.5264985
21
61.5363148
0
LINE
8
DEFAULT_255_1_388
10
5.2339895
20
61.5299898
11
5.2339895
21
60.3562596
0
LINE
8
DEFAULT_255_1_388
10
5.2339895
20
60.3562596
11
5.8574489
21
60.3562596
0
LINE
8
DEFAULT_255_1_388
10
5.8574489
20
60.3562596
11
5.8574489
21
60.2144
0
LINE
8
DEFAULT_255_1_388
10
5.8574489
20
60.2144
11
5.0596015
21
60.2144
0
LINE
8
DEFAULT_255_1_388
10
5.0596015
20
60.2144
11
5.0596015
21
61.5299898
0
LINE
8
DEFAULT_255_1_388
10
5.0596015
20
61.5299898
11
5.2339895
21
61.5299898
0
LINE
8
DEFAULT_255_1_388
10
3.9918024
20
5.9674898
11
4.2158864
21
5.9674898
0
LINE
8
DEFAULT_255_1_388
10
4.2158864
20
5.9674898
11
4.6459831
21
4.8940553
0
LINE
8
DEFAULT_255_1_388
10
4.6459831
20
4.8940553
11
5.0760797
21
5.9674898
0
LINE
8
DEFAULT_255_1_388
10
5.0760797
20
5.9674898
11
5.3010673
21
5.9674898
0
LINE
8
DEFAULT_255_1_388
10
5.3010673
20
5.9674898
11
5.3010673
21
4.6519
0
LINE
8
DEFAULT_255_1_388
10
5.3010673
20
4.6519
11
5.1275829
21
4.6519
0
LINE
8
DEFAULT_255_1_388
10
5.1275829
20
4.6519
11
5.1275829
21
5.164221
0
LINE
8
DEFAULT_255_1_388
10
5.1275829
20
5.164221
11
5.1438471
21
5.7172025
0
LINE
8
DEFAULT_255_1_388
10
5.1438471
20
5.7172025
11
4.7119433
21
4.6519
0
LINE
8
DEFAULT_255_1_388
10
4.7119433
20
4.6519
11
4.5791193
21
4.6519
0
LINE
8
DEFAULT_255_1_388
10
4.5791193
20
4.6519
11
4.148119
21
5.7144918
0
LINE
8
DEFAULT_255_1_388
10
4.148119
20
5.7144918
11
4.1652868
21
5.164221
0
LINE
8
DEFAULT_255_1_388
10
4.1652868
20
5.164221
11
4.1652868
21
4.6519
0
LINE
8
DEFAULT_255_1_388
10
4.1652868
20
4.6519
11
3.9918024
21
4.6519
0
LINE
8
DEFAULT_255_1_388
10
3.9918024
20
4.6519
11
3.9918024
21
5.9674898
0
LINE
8
DEFAULT_255_1_388
10
4.3636389
20
12.5894
11
3.9995024
21
12.5894
0
LINE
8
DEFAULT_255_1_388
10
3.9995024
20
12.5894
11
3.9995024
21
13.9049898
0
LINE
8
DEFAULT_255_1_388
10
3.9995024
20
13.9049898
11
4.3708674
21
13.9049898
0
LINE
8
DEFAULT_255_1_388
10
4.9509558
20
13.2914696
11
4.9509558
21
13.2074381
0
LINE
8
DEFAULT_255_1_388
10
4.3753852
20
13.7622267
11
4.1729868
21
13.7622267
0
LINE
8
DEFAULT_255_1_388
10
4.1729868
20
13.7622267
11
4.1729868
21
12.7312596
0
LINE
8
DEFAULT_255_1_388
10
4.1729868
20
12.7312596
11
4.3555068
21
12.7312596
0
LINE
8
DEFAULT_255_1_388
10
4.7792785
20
13.2110523
11
4.7792785
21
13.2878553
0
ARC
8
DEFAULT_255_1_388
10
4.3752469
20
13.2451436
40
0.6598608
50
75.4100343
51
90.3802731
0
ARC
8
DEFAULT_255_1_388
10
4.4010714
20
13.3527691
40
0.5492049
50
60.1455157
51
75.1889627
0
ARC
8
DEFAULT_255_1_388
10
4.4189306
20
13.3838914
40
0.5133226
50
26.525419
51
60.1451222
0
ARC
8
DEFAULT_255_1_388
10
4.2929092
20
13.3170642
40
0.6559324
50
7.4029944
51
26.832209
0
ARC
8
DEFAULT_255_1_388
10
4.1135489
20
13.2891229
40
0.8374103
50
0.1605597
51
7.7176135
0
ARC
8
DEFAULT_255_1_388
10
4.1319889
20
13.2031321
40
0.8189782
50
348.7289744
51
0.30125
0
ARC
8
DEFAULT_255_1_388
10
4.3183353
20
13.1661156
40
0.628991
50
333.0706936
51
348.7181455
0
ARC
8
DEFAULT_255_1_388
10
4.4270981
20
13.1070449
40
0.5052808
50
299.2531435
51
333.4571133
0
ARC
8
DEFAULT_255_1_388
10
4.3865012
20
13.1841629
40
0.5924066
50
278.1072193
51
299.0340218
0
ARC
8
DEFAULT_255_1_388
10
4.3577061
20
13.3537979
40
0.7644209
50
270.4446841
51
278.4508355
0
ARC
8
DEFAULT_255_1_388
10
4.3600545
20
13.24923
40
0.5179903
50
269.4969684
51
284.0204874
0
ARC
8
DEFAULT_255_1_388
10
4.4000263
20
13.0956415
40
0.3592968
50
283.7699076
51
318.1557121
0
ARC
8
DEFAULT_255_1_388
10
4.3620808
20
13.1240399
40
0.4065308
50
318.7417595
51
343.687252
0
ARC
8
DEFAULT_255_1_388
10
4.1591387
20
13.1874275
40
0.6191194
50
343.3324891
51
355.8548594
0
ARC
8
DEFAULT_255_1_388
10
3.9230424
20
13.2098719
40
0.856237
50
355.4988754
51
0.0789913
0
ARC
8
DEFAULT_255_1_388
10
4.0111224
20
13.292608
40
0.7681709
50
359.6455047
51
9.8607559
0
ARC
8
DEFAULT_255_1_388
10
4.2766947
20
13.3405664
40
0.498312
50
9.6573037
51
26.1931522
0
ARC
8
DEFAULT_255_1_388
10
4.3811022
20
13.3890587
40
0.3832303
50
26.5777895
51
40.1533752
0
ARC
8
DEFAULT_255_1_388
10
4.4098687
20
13.411502
40
0.3467742
50
40.3839958
51
80.1430923
0
ARC
8
DEFAULT_255_1_388
10
4.3730942
20
13.2484486
40
0.5137832
50
79.2153636
51
89.7445174
0
LINE
8
DEFAULT_255_1_388
10
5.3991237
20
13.9049898
11
5.3991237
21
12.5894
0
LINE
8
DEFAULT_255_1_388
10
5.3991237
20
12.5894
11
5.2256394
21
12.5894
0
LINE
8
DEFAULT_255_1_388
10
5.2256394
20
12.5894
11
5.2256394
21
13.9049898
0
LINE
8
DEFAULT_255_1_388
10
5.2256394
20
13.9049898
11
5.3991237
21
13.9049898
0
LINE
8
DEFAULT_255_1_388
10
6.2222709
20
13.9113148
11
6.2222709
21
12.5894
0
LINE
8
DEFAULT_255_1_388
10
6.2222709
20
12.5894
11
6.054208
21
12.5894
0
LINE
8
DEFAULT_255_1_388
10
6.054208
20
12.5894
11
6.054208
21
13.703495
0
LINE
8
DEFAULT_255_1_388
10
6.054208
20
13.703495
11
5.7171784
21
13.5797066
0
LINE
8
DEFAULT_255_1_388
10
5.7171784
20
13.5797066
11
5.7171784
21
13.7315055
0
LINE
8
DEFAULT_255_1_388
10
5.7171784
20
13.7315055
11
6.1960676
21
13.9113148
0
LINE
8
DEFAULT_255_1_388
10
6.1960676
20
13.9113148
11
6.2222709
21
13.9113148
0
LINE
8
DEFAULT_255_1_388
10
7.5369572
20
13.367369
11
7.5369572
21
13.1505135
0
LINE
8
DEFAULT_255_1_388
10
6.7065815
20
13.1279244
11
6.7065815
21
13.3511048
0
LINE
8
DEFAULT_255_1_388
10
7.3697978
20
13.1053353
11
7.3697978
21
13.3791153
0
LINE
8
DEFAULT_255_1_388
10
6.8737409
20
13.3917652
11
6.8737409
21
13.1243102
0
ARC
8
DEFAULT_255_1_388
10
6.1591906
20
13.1450118
40
1.3777776
50
353.8440855
51
0.2287917
0
ARC
8
DEFAULT_255_1_388
10
6.6810924
20
13.0867414
40
0.852639
50
344.4934746
51
353.9763743
0
ARC
8
DEFAULT_255_1_388
10
7.0177731
20
12.9910191
40
0.5026273
50
329.2803599
51
344.7473406
0
ARC
8
DEFAULT_255_1_388
10
7.1293227
20
12.9298038
40
0.3754848
50
324.9361395
51
328.6153007
0
ARC
8
DEFAULT_255_1_388
10
7.1718876
20
12.9000586
40
0.3235566
50
280.5801797
51
324.9173226
0
ARC
8
DEFAULT_255_1_388
10
7.1267505
20
13.0880236
40
0.5167077
50
269.5979457
51
281.6732777
0
ARC
8
DEFAULT_255_1_388
10
7.1186409
20
13.0745113
40
0.5032026
50
256.6228565
51
270.5105488
0
ARC
8
DEFAULT_255_1_388
10
7.0734151
20
12.9003345
40
0.3233092
50
215.8618351
51
257.2787793
0
ARC
8
DEFAULT_255_1_388
10
7.1882858
20
12.9774106
40
0.4615831
50
197.9695203
51
215.2622745
0
ARC
8
DEFAULT_255_1_388
10
7.4678534
20
13.0717641
40
0.7566307
50
187.8816486
51
198.2346584
0
ARC
8
DEFAULT_255_1_388
10
7.9131772
20
13.1360453
40
1.2065653
50
180.8977266
51
188.0054894
0
ARC
8
DEFAULT_255_1_388
10
8.2181986
20
13.14754
40
1.5117443
50
180.7434591
51
181.152202
0
ARC
8
DEFAULT_255_1_388
10
8.0506982
20
13.3565371
40
1.3441277
50
173.7674302
51
180.2315596
0
ARC
8
DEFAULT_255_1_388
10
7.5424851
20
13.4139779
40
0.8326847
50
164.3058537
51
173.9000553
0
ARC
8
DEFAULT_255_1_388
10
7.2148851
20
13.5083652
40
0.4917711
50
148.7922028
51
164.5682288
0
ARC
8
DEFAULT_255_1_388
10
7.1079588
20
13.5680457
40
0.3694204
50
144.5883979
51
148.1161588
0
ARC
8
DEFAULT_255_1_388
10
7.0692333
20
13.5950667
40
0.322202
50
101.6440149
51
144.5142619
0
ARC
8
DEFAULT_255_1_388
10
7.1170526
20
13.4050337
40
0.5180451
50
89.528284
51
102.5820197
0
ARC
8
DEFAULT_255_1_388
10
7.1259518
20
13.4006376
40
0.5224441
50
77.0437914
51
90.508231
0
ARC
8
DEFAULT_255_1_388
10
7.1711771
20
13.5854272
40
0.3322297
50
48.2777708
51
77.4996087
0
ARC
8
DEFAULT_255_1_388
10
7.1793511
20
13.5999557
40
0.315966
50
36.3141586
51
47.6307332
0
ARC
8
DEFAULT_255_1_388
10
7.0816233
20
13.5341159
40
0.4337313
50
18.2931065
51
35.6770203
0
ARC
8
DEFAULT_255_1_388
10
6.7955074
20
13.4359107
40
0.7362203
50
8.0246996
51
18.5605636
0
ARC
8
DEFAULT_255_1_388
10
6.327143
20
13.3667432
40
1.2096583
50
1.127539
51
8.1718423
0
ARC
8
DEFAULT_255_1_388
10
5.9622563
20
13.3524374
40
1.5747719
50
0.5432713
51
1.38669
0
ARC
8
DEFAULT_255_1_388
10
6.1679942
20
13.3831163
40
1.2018103
50
359.8092569
51
4.9408001
0
ARC
8
DEFAULT_255_1_388
10
6.6416523
20
13.42539
40
0.7262727
50
4.8364937
51
12.2906017
0
ARC
8
DEFAULT_255_1_388
10
6.9515988
20
13.4944485
40
0.4087324
50
12.0806994
51
23.8171225
0
ARC
8
DEFAULT_255_1_388
10
7.0836384
20
13.5503508
40
0.2653719
50
24.2874621
51
31.3934353
0
ARC
8
DEFAULT_255_1_388
10
7.142682
20
13.5889822
40
0.1948607
50
30.7407708
51
82.4658033
0
ARC
8
DEFAULT_255_1_388
10
7.1224481
20
13.4896017
40
0.2961198
50
81.1057101
51
90.2187368
0
ARC
8
DEFAULT_255_1_388
10
7.1184293
20
13.5186421
40
0.2670929
50
89.380395
51
105.6763916
0
ARC
8
DEFAULT_255_1_388
10
7.0978014
20
13.593632
40
0.1893189
50
105.7980655
51
149.7387869
0
ARC
8
DEFAULT_255_1_388
10
7.2175155
20
13.5216719
40
0.3289892
50
149.4208441
51
163.628295
0
ARC
8
DEFAULT_255_1_388
10
7.4527384
20
13.4499345
40
0.5749004
50
163.3764549
51
172.141138
0
ARC
8
DEFAULT_255_1_388
10
7.8240106
20
13.3967582
40
0.9499585
50
172.0258462
51
178.0705453
0
ARC
8
DEFAULT_255_1_388
10
8.1661658
20
13.3805682
40
1.2924734
50
177.8639301
51
179.5036263
0
ARC
8
DEFAULT_255_1_388
10
8.0442677
20
13.1202151
40
1.170534
50
179.7995545
51
185.246089
0
ARC
8
DEFAULT_255_1_388
10
7.589427
20
13.0771404
40
0.7136613
50
185.1411911
51
193.0082205
0
ARC
8
DEFAULT_255_1_388
10
7.2920531
20
13.0068441
40
0.4080987
50
192.7897338
51
205.2507384
0
ARC
8
DEFAULT_255_1_388
10
7.1742741
20
12.9542538
40
0.2791522
50
205.8001921
51
211.2545876
0
ARC
8
DEFAULT_255_1_388
10
7.115428
20
12.9148132
40
0.2084074
50
210.3789935
51
238.4007996
0
ARC
8
DEFAULT_255_1_388
10
7.1132366
20
12.9200786
40
0.2117943
50
239.6521916
51
265.9793852
0
ARC
8
DEFAULT_255_1_388
10
7.1228215
20
12.9957358
40
0.2879689
50
265.1324455
51
270.0603288
0
ARC
8
DEFAULT_255_1_388
10
7.1260592
20
12.9592418
40
0.2514919
50
269.3314378
51
287.2180039
0
ARC
8
DEFAULT_255_1_388
10
7.1415674
20
12.9026291
40
0.1928357
50
287.7957942
51
329.0808983
0
ARC
8
DEFAULT_255_1_388
10
7.0338431
20
12.9698651
40
0.319808
50
328.6635261
51
343.3325043
0
ARC
8
DEFAULT_255_1_388
10
6.789389
20
13.0460195
40
0.5758408
50
343.0498092
51
351.9392499
0
ARC
8
DEFAULT_255_1_388
10
6.3993211
20
13.1035205
40
0.9701202
50
351.8071632
51
357.7957897
0
ARC
8
DEFAULT_255_1_388
10
6.0358688
20
13.1223724
40
1.3340376
50
357.5870923
51
359.2682493
0
LINE
8
DEFAULT_255_1_388
10
4.2427448
20
21.8424898
11
4.6168205
21
20.7573089
0
LINE
8
DEFAULT_255_1_388
10
4.6168205
20
20.7573089
11
4.9927033
21
21.8424898
0
LINE
8
DEFAULT_255_1_388
10
4.9927033
20
21.8424898
11
5.1824518
21
21.8424898
0
LINE
8
DEFAULT_255_1_388
10
5.1824518
20
21.8424898
11
4.694527
21
20.5269
0
LINE
8
DEFAULT_255_1_388
10
4.694527
20
20.5269
11
4.540921
21
20.5269
0
LINE
8
DEFAULT_255_1_388
10
4.540921
20
20.5269
11
4.0538998
21
21.8424898
0
LINE
8
DEFAULT_255_1_388
10
4.0538998
20
21.8424898
11
4.2427448
21
21.8424898
0
LINE
8
DEFAULT_255_1_388
10
5.7227833
20
20.5269
11
5.3586469
21
20.5269
0
LINE
8
DEFAULT_255_1_388
10
5.3586469
20
20.5269
11
5.3586469
21
21.8424898
0
LINE
8
DEFAULT_255_1_388
10
5.3586469
20
21.8424898
11
5.7300119
21
21.8424898
0
LINE
8
DEFAULT_255_1_388
10
6.3101002
20
21.2289696
11
6.3101002
21
21.1449381
0
LINE
8
DEFAULT_255_1_388
10
5.7345297
20
21.6997267
11
5.5321313
21
21.6997267
0
LINE
8
DEFAULT_255_1_388
10
5.5321313
20
21.6997267
11
5.5321313
21
20.6687596
0
LINE
8
DEFAULT_255_1_388
10
5.5321313
20
20.6687596
11
5.7146513
21
20.6687596
0
LINE
8
DEFAULT_255_1_388
10
6.138423
20
21.1485523
11
6.138423
21
21.2253553
0
ARC
8
DEFAULT_255_1_388
10
5.7343913
20
21.1826436
40
0.6598608
50
75.4100343
51
90.3802731
0
ARC
8
DEFAULT_255_1_388
10
5.7602159
20
21.2902691
40
0.5492049
50
60.1455157
51
75.1889627
0
ARC
8
DEFAULT_255_1_388
10
5.778075
20
21.3213914
40
0.5133226
50
26.525419
51
60.1451222
0
ARC
8
DEFAULT_255_1_388
10
5.6520537
20
21.2545642
40
0.6559324
50
7.4029944
51
26.832209
0
ARC
8
DEFAULT_255_1_388
10
5.4726934
20
21.2266229
40
0.8374103
50
0.1605597
51
7.7176135
0
ARC
8
DEFAULT_255_1_388
10
5.4911334
20
21.1406321
40
0.8189782
50
348.7289744
51
0.30125
0
ARC
8
DEFAULT_255_1_388
10
5.6774798
20
21.1036156
40
0.628991
50
333.0706936
51
348.7181455
0
ARC
8
DEFAULT_255_1_388
10
5.7862426
20
21.0445449
40
0.5052808
50
299.2531435
51
333.4571133
0
ARC
8
DEFAULT_255_1_388
10
5.7456457
20
21.1216629
40
0.5924066
50
278.1072193
51
299.0340218
0
ARC
8
DEFAULT_255_1_388
10
5.7168506
20
21.2912979
40
0.7644209
50
270.4446841
51
278.4508355
0
ARC
8
DEFAULT_255_1_388
10
5.7191989
20
21.18673
40
0.5179903
50
269.4969684
51
284.0204874
0
ARC
8
DEFAULT_255_1_388
10
5.7591708
20
21.0331415
40
0.3592968
50
283.7699076
51
318.1557121
0
ARC
8
DEFAULT_255_1_388
10
5.7212253
20
21.0615399
40
0.4065308
50
318.7417595
51
343.687252
0
ARC
8
DEFAULT_255_1_388
10
5.5182832
20
21.1249275
40
0.6191194
50
343.3324891
51
355.8548594
0
ARC
8
DEFAULT_255_1_388
10
5.2821869
20
21.1473719
40
0.856237
50
355.4988754
51
0.0789913
0
ARC
8
DEFAULT_255_1_388
10
5.3702668
20
21.230108
40
0.7681709
50
359.6455047
51
9.8607559
0
ARC
8
DEFAULT_255_1_388
10
5.6358392
20
21.2780664
40
0.498312
50
9.6573037
51
26.1931522
0
ARC
8
DEFAULT_255_1_388
10
5.7402467
20
21.3265587
40
0.3832303
50
26.5777895
51
40.1533752
0
ARC
8
DEFAULT_255_1_388
10
5.7690132
20
21.349002
40
0.3467742
50
40.3839958
51
80.1430923
0
ARC
8
DEFAULT_255_1_388
10
5.7322387
20
21.1859486
40
0.5137832
50
79.2153636
51
89.7445174
0
LINE
8
DEFAULT_255_1_388
10
7.3654635
20
20.9443468
11
7.5398515
21
20.9443468
0
LINE
8
DEFAULT_255_1_388
10
6.5269557
20
21.1232525
11
6.5269557
21
21.2497516
0
LINE
8
DEFAULT_255_1_388
10
7.5398515
20
21.4196217
11
7.3654635
21
21.4196217
0
LINE
8
DEFAULT_255_1_388
10
6.7013437
20
21.2452337
11
6.7013437
21
21.1178312
0
ARC
8
DEFAULT_255_1_388
10
6.9232749
20
21.0115329
40
0.6202263
50
340.1774904
51
353.7812217
0
ARC
8
DEFAULT_255_1_388
10
7.1000601
20
20.9456893
40
0.4315926
50
311.4560052
51
340.4420756
0
ARC
8
DEFAULT_255_1_388
10
7.0963141
20
20.9581665
40
0.4434573
50
282.4332229
51
310.7514507
0
ARC
8
DEFAULT_255_1_388
10
7.0468959
20
21.1623703
40
0.6535262
50
269.9358869
51
282.8096729
0
ARC
8
DEFAULT_255_1_388
10
7.0410899
20
21.3136329
40
0.8048043
50
269.9995752
51
270.3612856
0
ARC
8
DEFAULT_255_1_388
10
7.0351389
20
21.0337781
40
0.5249831
50
250.7885263
51
270.6488451
0
ARC
8
DEFAULT_255_1_388
10
7.0162213
20
20.9620853
40
0.4510942
50
219.3628377
51
250.0611024
0
ARC
8
DEFAULT_255_1_388
10
7.1095087
20
21.0413653
40
0.5735046
50
193.5480293
51
219.5755675
0
ARC
8
DEFAULT_255_1_388
10
7.3763296
20
21.110652
40
0.849146
50
181.1220183
51
193.8754971
0
ARC
8
DEFAULT_255_1_388
10
7.608653
20
21.1230914
40
1.0816971
50
179.9914644
51
181.5398227
0
ARC
8
DEFAULT_255_1_388
10
7.400984
20
21.2539586
40
0.8740384
50
169.5837606
51
180.275782
0
ARC
8
DEFAULT_255_1_388
10
7.1943188
20
21.2921439
40
0.6638751
50
155.0367033
51
169.6002779
0
ARC
8
DEFAULT_255_1_388
10
7.0665647
20
21.3537336
40
0.5220662
50
136.7831557
51
155.2472983
0
ARC
8
DEFAULT_255_1_388
10
7.0227437
20
21.3909577
40
0.4646502
50
121.7633063
51
136.4281161
0
ARC
8
DEFAULT_255_1_388
10
7.0379277
20
21.3629049
40
0.4964979
50
95.6460018
51
121.5489589
0
ARC
8
DEFAULT_255_1_388
10
7.0556251
20
21.2381704
40
0.6223912
50
89.9245727
51
96.1375919
0
ARC
8
DEFAULT_255_1_388
10
7.0612957
20
21.2515721
40
0.6090084
50
76.6779212
51
90.456405
0
ARC
8
DEFAULT_255_1_388
10
7.1055769
20
21.430506
40
0.42469
50
47.4858803
51
76.9287069
0
ARC
8
DEFAULT_255_1_388
10
7.0890383
20
21.4192623
40
0.4441778
50
16.5424081
51
46.8934505
0
ARC
8
DEFAULT_255_1_388
10
6.9081433
20
21.3598265
40
0.6345318
50
5.4072971
51
17.0363711
0
ARC
8
DEFAULT_255_1_388
10
6.7463158
20
21.3338304
40
0.6250632
50
7.8888693
51
15.9242022
0
ARC
8
DEFAULT_255_1_388
10
6.9698143
20
21.3987309
40
0.3923364
50
15.7650676
51
27.9410069
0
ARC
8
DEFAULT_255_1_388
10
7.0940313
20
21.4652317
40
0.2514401
50
27.8167196
51
46.4007942
0
ARC
8
DEFAULT_255_1_388
10
7.0996154
20
21.4645882
40
0.2480958
50
47.4372362
51
75.0695672
0
ARC
8
DEFAULT_255_1_388
10
7.064899
20
21.3437277
40
0.3738281
50
74.7009379
51
87.8124314
0
ARC
8
DEFAULT_255_1_388
10
7.0566607
20
21.2253659
40
0.4924321
50
87.3802571
51
90.0251599
0
ARC
8
DEFAULT_255_1_388
10
7.0523255
20
21.3573997
40
0.3604218
50
89.3451886
51
108.5744412
0
ARC
8
DEFAULT_255_1_388
10
7.0369247
20
21.4151836
40
0.3007661
50
109.2998307
51
143.3037387
0
ARC
8
DEFAULT_255_1_388
10
7.1226536
20
21.3492584
40
0.4089031
50
143.075267
51
163.1918576
0
ARC
8
DEFAULT_255_1_388
10
7.3422371
20
21.2799652
40
0.6391492
50
162.9375929
51
174.6208776
0
ARC
8
DEFAULT_255_1_388
10
7.6376753
20
21.2475711
40
0.9363344
50
174.342123
51
180.1430283
0
ARC
8
DEFAULT_255_1_388
10
7.5329294
20
21.1132117
40
0.8315986
50
179.6817261
51
189.150555
0
ARC
8
DEFAULT_255_1_388
10
7.2516043
20
21.0663559
40
0.5464044
50
188.9911061
51
203.5772363
0
ARC
8
DEFAULT_255_1_388
10
7.1301335
20
21.0159539
40
0.4149206
50
203.9075402
51
215.1312435
0
ARC
8
DEFAULT_255_1_388
10
7.0263132
20
20.9354907
40
0.2837747
50
213.9071511
51
263.8848919
0
ARC
8
DEFAULT_255_1_388
10
7.0404126
20
21.0237519
40
0.3730641
50
263.1757928
51
270.1031044
0
ARC
8
DEFAULT_255_1_388
10
7.0440205
20
21.1640511
40
0.5133712
50
269.6722503
51
279.0606936
0
ARC
8
DEFAULT_255_1_388
10
7.0740361
20
20.982615
40
0.3294739
50
278.8749101
51
293.6349581
0
ARC
8
DEFAULT_255_1_388
10
7.1100564
20
20.8980251
40
0.2375405
50
293.8553806
51
310.0518171
0
ARC
8
DEFAULT_255_1_388
10
7.1106073
20
20.8910021
40
0.2318463
50
311.0644687
51
332.0111037
0
ARC
8
DEFAULT_255_1_388
10
6.9764746
20
20.9649702
40
0.3850112
50
331.6586806
51
343.2877423
0
ARC
8
DEFAULT_255_1_388
10
6.7444212
20
21.0362806
40
0.6277712
50
343.1446576
51
351.0103568
0
ARC
8
DEFAULT_255_1_388
10
6.5811535
20
21.0662873
40
0.7937327
50
350.71248
51
351.1626997
0
LINE
8
DEFAULT_255_1_388
10
3.9918024
20
29.7799898
11
4.2158864
21
29.7799898
0
LINE
8
DEFAULT_255_1_388
10
4.2158864
20
29.7799898
11
4.6459831
21
28.7065553
0
LINE
8
DEFAULT_255_1_388
10
4.6459831
20
28.7065553
11
5.0760797
21
29.7799898
0
LINE
8
DEFAULT_255_1_388
10
5.0760797
20
29.7799898
11
5.3010673
21
29.7799898
0
LINE
8
DEFAULT_255_1_388
10
5.3010673
20
29.7799898
11
5.3010673
21
28.4644
0
LINE
8
DEFAULT_255_1_388
10
5.3010673
20
28.4644
11
5.1275829
21
28.4644
0
LINE
8
DEFAULT_255_1_388
10
5.1275829
20
28.4644
11
5.1275829
21
28.976721
0
LINE
8
DEFAULT_255_1_388
10
5.1275829
20
28.976721
11
5.1438471
21
29.5297025
0
LINE
8
DEFAULT_255_1_388
10
5.1438471
20
29.5297025
11
4.7119433
21
28.4644
0
LINE
8
DEFAULT_255_1_388
10
4.7119433
20
28.4644
11
4.5791193
21
28.4644
0
LINE
8
DEFAULT_255_1_388
10
4.5791193
20
28.4644
11
4.148119
21
29.5269918
0
LINE
8
DEFAULT_255_1_388
10
4.148119
20
29.5269918
11
4.1652868
21
28.976721
0
LINE
8
DEFAULT_255_1_388
10
4.1652868
20
28.976721
11
4.1652868
21
28.4644
0
LINE
8
DEFAULT_255_1_388
10
4.1652868
20
28.4644
11
3.9918024
21
28.4644
0
LINE
8
DEFAULT_255_1_388
10
3.9918024
20
28.4644
11
3.9918024
21
29.7799898
0
LINE
8
DEFAULT_255_1_388
10
4.3636389
20
36.4019
11
3.9995024
21
36.4019
0
LINE
8
DEFAULT_255_1_388
10
3.9995024
20
36.4019
11
3.9995024
21
37.7174898
0
LINE
8
DEFAULT_255_1_388
10
3.9995024
20
37.7174898
11
4.3708674
21
37.7174898
0
LINE
8
DEFAULT_255_1_388
10
4.9509558
20
37.1039696
11
4.9509558
21
37.0199381
0
LINE
8
DEFAULT_255_1_388
10
4.3753852
20
37.5747267
11
4.1729868
21
37.5747267
0
LINE
8
DEFAULT_255_1_388
10
4.1729868
20
37.5747267
11
4.1729868
21
36.5437596
0
LINE
8
DEFAULT_255_1_388
10
4.1729868
20
36.5437596
11
4.3555068
21
36.5437596
0
LINE
8
DEFAULT_255_1_388
10
4.7792785
20
37.0235523
11
4.7792785
21
37.1003553
0
ARC
8
DEFAULT_255_1_388
10
4.3752469
20
37.0576436
40
0.6598608
50
75.4100343
51
90.3802731
0
ARC
8
DEFAULT_255_1_388
10
4.4010714
20
37.1652691
40
0.5492049
50
60.1455157
51
75.1889627
0
ARC
8
DEFAULT_255_1_388
10
4.4189306
20
37.1963914
40
0.5133226
50
26.525419
51
60.1451222
0
ARC
8
DEFAULT_255_1_388
10
4.2929092
20
37.1295642
40
0.6559324
50
7.4029944
51
26.832209
0
ARC
8
DEFAULT_255_1_388
10
4.1135489
20
37.1016229
40
0.8374103
50
0.1605597
51
7.7176135
0
ARC
8
DEFAULT_255_1_388
10
4.1319889
20
37.0156321
40
0.8189782
50
348.7289744
51
0.30125
0
ARC
8
DEFAULT_255_1_388
10
4.3183353
20
36.9786156
40
0.628991
50
333.0706936
51
348.7181455
0
ARC
8
DEFAULT_255_1_388
10
4.4270981
20
36.9195449
40
0.5052808
50
299.2531435
51
333.4571133
0
ARC
8
DEFAULT_255_1_388
10
4.3865012
20
36.9966629
40
0.5924066
50
278.1072193
51
299.0340218
0
ARC
8
DEFAULT_255_1_388
10
4.3577061
20
37.1662979
40
0.7644209
50
270.4446841
51
278.4508355
0
ARC
8
DEFAULT_255_1_388
10
4.3600545
20
37.06173
40
0.5179903
50
269.4969684
51
284.0204874
0
ARC
8
DEFAULT_255_1_388
10
4.4000263
20
36.9081415
40
0.3592968
50
283.7699076
51
318.1557121
0
ARC
8
DEFAULT_255_1_388
10
4.3620808
20
36.9365399
40
0.4065308
50
318.7417595
51
343.687252
0
ARC
8
DEFAULT_255_1_388
10
4.1591387
20
36.9999275
40
0.6191194
50
343.3324891
51
355.8548594
0
ARC
8
DEFAULT_255_1_388
10
3.9230424
20
37.0223719
40
0.856237
50
355.4988754
51
0.0789913
0
ARC
8
DEFAULT_255_1_388
10
4.0111224
20
37.105108
40
0.7681709
50
359.6455047
51
9.8607559
0
ARC
8
DEFAULT_255_1_388
10
4.2766947
20
37.1530664
40
0.498312
50
9.6573037
51
26.1931522
0
ARC
8
DEFAULT_255_1_388
10
4.3811022
20
37.2015587
40
0.3832303
50
26.5777895
51
40.1533752
0
ARC
8
DEFAULT_255_1_388
10
4.4098687
20
37.224002
40
0.3467742
50
40.3839958
51
80.1430923
0
ARC
8
DEFAULT_255_1_388
10
4.3730942
20
37.0609486
40
0.5137832
50
79.2153636
51
89.7445174
0
LINE
8
DEFAULT_255_1_388
10
5.3991237
20
37.7174898
11
5.3991237
21
36.4019
0
LINE
8
DEFAULT_255_1_388
10
5.3991237
20
36.4019
11
5.2256394
21
36.4019
0
LINE
8
DEFAULT_255_1_388
10
5.2256394
20
36.4019
11
5.2256394
21
37.7174898
0
LINE
8
DEFAULT_255_1_388
10
5.2256394
20
37.7174898
11
5.3991237
21
37.7174898
0
LINE
8
DEFAULT_255_1_388
10
6.4978581
20
37.179869
11
6.4978581
21
36.9630135
0
LINE
8
DEFAULT_255_1_388
10
5.6674824
20
36.9404244
11
5.6674824
21
37.1636048
0
LINE
8
DEFAULT_255_1_388
10
6.3306987
20
36.9178353
11
6.3306987
21
37.1916153
0
LINE
8
DEFAULT_255_1_388
10
5.8346418
20
37.2042652
11
5.8346418
21
36.9368102
0
ARC
8
DEFAULT_255_1_388
10
5.1200915
20
36.9575118
40
1.3777776
50
353.8440855
51
0.2287917
0
ARC
8
DEFAULT_255_1_388
10
5.6419932
20
36.8992414
40
0.852639
50
344.4934746
51
353.9763743
0
ARC
8
DEFAULT_255_1_388
10
5.978674
20
36.8035191
40
0.5026273
50
329.2803599
51
344.7473406
0
ARC
8
DEFAULT_255_1_388
10
6.0902235
20
36.7423038
40
0.3754848
50
324.9361395
51
328.6153007
0
ARC
8
DEFAULT_255_1_388
10
6.1327885
20
36.7125586
40
0.3235566
50
280.5801797
51
324.9173226
0
ARC
8
DEFAULT_255_1_388
10
6.0876514
20
36.9005236
40
0.5167077
50
269.5979457
51
281.6732777
0
ARC
8
DEFAULT_255_1_388
10
6.0795417
20
36.8870113
40
0.5032026
50
256.6228565
51
270.5105488
0
ARC
8
DEFAULT_255_1_388
10
6.034316
20
36.7128345
40
0.3233092
50
215.8618351
51
257.2787793
0
ARC
8
DEFAULT_255_1_388
10
6.1491867
20
36.7899106
40
0.4615831
50
197.9695203
51
215.2622745
0
ARC
8
DEFAULT_255_1_388
10
6.4287543
20
36.8842641
40
0.7566307
50
187.8816486
51
198.2346584
0
ARC
8
DEFAULT_255_1_388
10
6.8740781
20
36.9485453
40
1.2065653
50
180.8977266
51
188.0054894
0
ARC
8
DEFAULT_255_1_388
10
7.1790995
20
36.96004
40
1.5117443
50
180.7434591
51
181.152202
0
ARC
8
DEFAULT_255_1_388
10
7.0115991
20
37.1690371
40
1.3441277
50
173.7674302
51
180.2315596
0
ARC
8
DEFAULT_255_1_388
10
6.5033859
20
37.2264779
40
0.8326847
50
164.3058537
51
173.9000553
0
ARC
8
DEFAULT_255_1_388
10
6.175786
20
37.3208652
40
0.4917711
50
148.7922028
51
164.5682288
0
ARC
8
DEFAULT_255_1_388
10
6.0688597
20
37.3805457
40
0.3694204
50
144.5883979
51
148.1161588
0
ARC
8
DEFAULT_255_1_388
10
6.0301342
20
37.4075667
40
0.322202
50
101.6440149
51
144.5142619
0
ARC
8
DEFAULT_255_1_388
10
6.0779534
20
37.2175337
40
0.5180451
50
89.528284
51
102.5820197
0
ARC
8
DEFAULT_255_1_388
10
6.0868526
20
37.2131376
40
0.5224441
50
77.0437914
51
90.508231
0
ARC
8
DEFAULT_255_1_388
10
6.132078
20
37.3979272
40
0.3322297
50
48.2777708
51
77.4996087
0
ARC
8
DEFAULT_255_1_388
10
6.140252
20
37.4124557
40
0.315966
50
36.3141586
51
47.6307332
0
ARC
8
DEFAULT_255_1_388
10
6.0425242
20
37.3466159
40
0.4337313
50
18.2931065
51
35.6770203
0
ARC
8
DEFAULT_255_1_388
10
5.7564083
20
37.2484107
40
0.7362203
50
8.0246996
51
18.5605636
0
ARC
8
DEFAULT_255_1_388
10
5.2880439
20
37.1792432
40
1.2096583
50
1.127539
51
8.1718423
0
ARC
8
DEFAULT_255_1_388
10
4.9231572
20
37.1649374
40
1.5747719
50
0.5432713
51
1.38669
0
ARC
8
DEFAULT_255_1_388
10
5.1288951
20
37.1956163
40
1.2018103
50
359.8092569
51
4.9408001
0
ARC
8
DEFAULT_255_1_388
10
5.6025532
20
37.23789
40
0.7262727
50
4.8364937
51
12.2906017
0
ARC
8
DEFAULT_255_1_388
10
5.9124997
20
37.3069485
40
0.4087324
50
12.0806994
51
23.8171225
0
ARC
8
DEFAULT_255_1_388
10
6.0445393
20
37.3628508
40
0.2653719
50
24.2874621
51
31.3934353
0
ARC
8
DEFAULT_255_1_388
10
6.1035829
20
37.4014822
40
0.1948607
50
30.7407708
51
82.4658033
0
ARC
8
DEFAULT_255_1_388
10
6.0833489
20
37.3021017
40
0.2961198
50
81.1057101
51
90.2187368
0
ARC
8
DEFAULT_255_1_388
10
6.0793301
20
37.3311421
40
0.2670929
50
89.380395
51
105.6763916
0
ARC
8
DEFAULT_255_1_388
10
6.0587023
20
37.406132
40
0.1893189
50
105.7980655
51
149.7387869
0
ARC
8
DEFAULT_255_1_388
10
6.1784163
20
37.3341719
40
0.3289892
50
149.4208441
51
163.628295
0
ARC
8
DEFAULT_255_1_388
10
6.4136393
20
37.2624345
40
0.5749004
50
163.3764549
51
172.141138
0
ARC
8
DEFAULT_255_1_388
10
6.7849114
20
37.2092582
40
0.9499585
50
172.0258462
51
178.0705453
0
ARC
8
DEFAULT_255_1_388
10
7.1270667
20
37.1930682
40
1.2924734
50
177.8639301
51
179.5036263
0
ARC
8
DEFAULT_255_1_388
10
7.0051686
20
36.9327151
40
1.170534
50
179.7995545
51
185.246089
0
ARC
8
DEFAULT_255_1_388
10
6.5503279
20
36.8896404
40
0.7136613
50
185.1411911
51
193.0082205
0
ARC
8
DEFAULT_255_1_388
10
6.252954
20
36.8193441
40
0.4080987
50
192.7897338
51
205.2507384
0
ARC
8
DEFAULT_255_1_388
10
6.135175
20
36.7667538
40
0.2791522
50
205.8001921
51
211.2545876
0
ARC
8
DEFAULT_255_1_388
10
6.0763289
20
36.7273132
40
0.2084074
50
210.3789935
51
238.4007996
0
ARC
8
DEFAULT_255_1_388
10
6.0741375
20
36.7325786
40
0.2117943
50
239.6521916
51
265.9793852
0
ARC
8
DEFAULT_255_1_388
10
6.0837224
20
36.8082358
40
0.2879689
50
265.1324455
51
270.0603288
0
ARC
8
DEFAULT_255_1_388
10
6.0869601
20
36.7717418
40
0.2514919
50
269.3314378
51
287.2180039
0
ARC
8
DEFAULT_255_1_388
10
6.1024683
20
36.7151291
40
0.1928357
50
287.7957942
51
329.0808983
0
ARC
8
DEFAULT_255_1_388
10
5.994744
20
36.7823651
40
0.319808
50
328.6635261
51
343.3325043
0
ARC
8
DEFAULT_255_1_388
10
5.7502899
20
36.8585195
40
0.5758408
50
343.0498092
51
351.9392499
0
ARC
8
DEFAULT_255_1_388
10
5.360222
20
36.9160205
40
0.9701202
50
351.8071632
51
357.7957897
0
ARC
8
DEFAULT_255_1_388
10
4.9967697
20
36.9348724
40
1.3340376
50
357.5870923
51
359.2682493
0
LINE
8
DEFAULT_255_1_388
10
7.5369572
20
37.179869
11
7.5369572
21
36.9630135
0
LINE
8
DEFAULT_255_1_388
10
6.7065815
20
36.9404244
11
6.7065815
21
37.1636048
0
LINE
8
DEFAULT_255_1_388
10
7.3697978
20
36.9178353
11
7.3697978
21
37.1916153
0
LINE
8
DEFAULT_255_1_388
10
6.8737409
20
37.2042652
11
6.8737409
21
36.9368102
0
ARC
8
DEFAULT_255_1_388
10
6.1591906
20
36.9575118
40
1.3777776
50
353.8440855
51
0.2287917
0
ARC
8
DEFAULT_255_1_388
10
6.6810924
20
36.8992414
40
0.852639
50
344.4934746
51
353.9763743
0
ARC
8
DEFAULT_255_1_388
10
7.0177731
20
36.8035191
40
0.5026273
50
329.2803599
51
344.7473406
0
ARC
8
DEFAULT_255_1_388
10
7.1293227
20
36.7423038
40
0.3754848
50
324.9361395
51
328.6153007
0
ARC
8
DEFAULT_255_1_388
10
7.1718876
20
36.7125586
40
0.3235566
50
280.5801797
51
324.9173226
0
ARC
8
DEFAULT_255_1_388
10
7.1267505
20
36.9005236
40
0.5167077
50
269.5979457
51
281.6732777
0
ARC
8
DEFAULT_255_1_388
10
7.1186409
20
36.8870113
40
0.5032026
50
256.6228565
51
270.5105488
0
ARC
8
DEFAULT_255_1_388
10
7.0734151
20
36.7128345
40
0.3233092
50
215.8618351
51
257.2787793
0
ARC
8
DEFAULT_255_1_388
10
7.1882858
20
36.7899106
40
0.4615831
50
197.9695203
51
215.2622745
0
ARC
8
DEFAULT_255_1_388
10
7.4678534
20
36.8842641
40
0.7566307
50
187.8816486
51
198.2346584
0
ARC
8
DEFAULT_255_1_388
10
7.9131772
20
36.9485453
40
1.2065653
50
180.8977266
51
188.0054894
0
ARC
8
DEFAULT_255_1_388
10
8.2181986
20
36.96004
40
1.5117443
50
180.7434591
51
181.152202
0
ARC
8
DEFAULT_255_1_388
10
8.0506982
20
37.1690371
40
1.3441277
50
173.7674302
51
180.2315596
0
ARC
8
DEFAULT_255_1_388
10
7.5424851
20
37.2264779
40
0.8326847
50
164.3058537
51
173.9000553
0
ARC
8
DEFAULT_255_1_388
10
7.2148851
20
37.3208652
40
0.4917711
50
148.7922028
51
164.5682288
0
ARC
8
DEFAULT_255_1_388
10
7.1079588
20
37.3805457
40
0.3694204
50
144.5883979
51
148.1161588
0
ARC
8
DEFAULT_255_1_388
10
7.0692333
20
37.4075667
40
0.322202
50
101.6440149
51
144.5142619
0
ARC
8
DEFAULT_255_1_388
10
7.1170526
20
37.2175337
40
0.5180451
50
89.528284
51
102.5820197
0
ARC
8
DEFAULT_255_1_388
10
7.1259518
20
37.2131376
40
0.5224441
50
77.0437914
51
90.508231
0
ARC
8
DEFAULT_255_1_388
10
7.1711771
20
37.3979272
40
0.3322297
50
48.2777708
51
77.4996087
0
ARC
8
DEFAULT_255_1_388
10
7.1793511
20
37.4124557
40
0.315966
50
36.3141586
51
47.6307332
0
ARC
8
DEFAULT_255_1_388
10
7.0816233
20
37.3466159
40
0.4337313
50
18.2931065
51
35.6770203
0
ARC
8
DEFAULT_255_1_388
10
6.7955074
20
37.2484107
40
0.7362203
50
8.0246996
51
18.5605636
0
ARC
8
DEFAULT_255_1_388
10
6.327143
20
37.1792432
40
1.2096583
50
1.127539
51
8.1718423
0
ARC
8
DEFAULT_255_1_388
10
5.9622563
20
37.1649374
40
1.5747719
50
0.5432713
51
1.38669
0
ARC
8
DEFAULT_255_1_388
10
6.1679942
20
37.1956163
40
1.2018103
50
359.8092569
51
4.9408001
0
ARC
8
DEFAULT_255_1_388
10
6.6416523
20
37.23789
40
0.7262727
50
4.8364937
51
12.2906017
0
ARC
8
DEFAULT_255_1_388
10
6.9515988
20
37.3069485
40
0.4087324
50
12.0806994
51
23.8171225
0
ARC
8
DEFAULT_255_1_388
10
7.0836384
20
37.3628508
40
0.2653719
50
24.2874621
51
31.3934353
0
ARC
8
DEFAULT_255_1_388
10
7.142682
20
37.4014822
40
0.1948607
50
30.7407708
51
82.4658033
0
ARC
8
DEFAULT_255_1_388
10
7.1224481
20
37.3021017
40
0.2961198
50
81.1057101
51
90.2187368
0
ARC
8
DEFAULT_255_1_388
10
7.1184293
20
37.3311421
40
0.2670929
50
89.380395
51
105.6763916
0
ARC
8
DEFAULT_255_1_388
10
7.0978014
20
37.406132
40
0.1893189
50
105.7980655
51
149.7387869
0
ARC
8
DEFAULT_255_1_388
10
7.2175155
20
37.3341719
40
0.3289892
50
149.4208441
51
163.628295
0
ARC
8
DEFAULT_255_1_388
10
7.4527384
20
37.2624345
40
0.5749004
50
163.3764549
51
172.141138
0
ARC
8
DEFAULT_255_1_388
10
7.8240106
20
37.2092582
40
0.9499585
50
172.0258462
51
178.0705453
0
ARC
8
DEFAULT_255_1_388
10
8.1661658
20
37.1930682
40
1.2924734
50
177.8639301
51
179.5036263
0
ARC
8
DEFAULT_255_1_388
10
8.0442677
20
36.9327151
40
1.170534
50
179.7995545
51
185.246089
0
ARC
8
DEFAULT_255_1_388
10
7.589427
20
36.8896404
40
0.7136613
50
185.1411911
51
193.0082205
0
ARC
8
DEFAULT_255_1_388
10
7.2920531
20
36.8193441
40
0.4080987
50
192.7897338
51
205.2507384
0
ARC
8
DEFAULT_255_1_388
10
7.1742741
20
36.7667538
40
0.2791522
50
205.8001921
51
211.2545876
0
ARC
8
DEFAULT_255_1_388
10
7.115428
20
36.7273132
40
0.2084074
50
210.3789935
51
238.4007996
0
ARC
8
DEFAULT_255_1_388
10
7.1132366
20
36.7325786
40
0.2117943
50
239.6521916
51
265.9793852
0
ARC
8
DEFAULT_255_1_388
10
7.1228215
20
36.8082358
40
0.2879689
50
265.1324455
51
270.0603288
0
ARC
8
DEFAULT_255_1_388
10
7.1260592
20
36.7717418
40
0.2514919
50
269.3314378
51
287.2180039
0
ARC
8
DEFAULT_255_1_388
10
7.1415674
20
36.7151291
40
0.1928357
50
287.7957942
51
329.0808983
0
ARC
8
DEFAULT_255_1_388
10
7.0338431
20
36.7823651
40
0.319808
50
328.6635261
51
343.3325043
0
ARC
8
DEFAULT_255_1_388
10
6.789389
20
36.8585195
40
0.5758408
50
343.0498092
51
351.9392499
0
ARC
8
DEFAULT_255_1_388
10
6.3993211
20
36.9160205
40
0.9701202
50
351.8071632
51
357.7957897
0
ARC
8
DEFAULT_255_1_388
10
6.0358688
20
36.9348724
40
1.3340376
50
357.5870923
51
359.2682493
0
LINE
8
DEFAULT_255_1_388
10
4.2427448
20
45.6549898
11
4.6168205
21
44.5698089
0
LINE
8
DEFAULT_255_1_388
10
4.6168205
20
44.5698089
11
4.9927033
21
45.6549898
0
LINE
8
DEFAULT_255_1_388
10
4.9927033
20
45.6549898
11
5.1824518
21
45.6549898
0
LINE
8
DEFAULT_255_1_388
10
5.1824518
20
45.6549898
11
4.694527
21
44.3394
0
LINE
8
DEFAULT_255_1_388
10
4.694527
20
44.3394
11
4.540921
21
44.3394
0
LINE
8
DEFAULT_255_1_388
10
4.540921
20
44.3394
11
4.0538998
21
45.6549898
0
LINE
8
DEFAULT_255_1_388
10
4.0538998
20
45.6549898
11
4.2427448
21
45.6549898
0
LINE
8
DEFAULT_255_1_388
10
5.7227833
20
44.3394
11
5.3586469
21
44.3394
0
LINE
8
DEFAULT_255_1_388
10
5.3586469
20
44.3394
11
5.3586469
21
45.6549898
0
LINE
8
DEFAULT_255_1_388
10
5.3586469
20
45.6549898
11
5.7300119
21
45.6549898
0
LINE
8
DEFAULT_255_1_388
10
6.3101002
20
45.0414696
11
6.3101002
21
44.9574381
0
LINE
8
DEFAULT_255_1_388
10
5.7345297
20
45.5122267
11
5.5321313
21
45.5122267
0
LINE
8
DEFAULT_255_1_388
10
5.5321313
20
45.5122267
11
5.5321313
21
44.4812596
0
LINE
8
DEFAULT_255_1_388
10
5.5321313
20
44.4812596
11
5.7146513
21
44.4812596
0
LINE
8
DEFAULT_255_1_388
10
6.138423
20
44.9610523
11
6.138423
21
45.0378553
0
ARC
8
DEFAULT_255_1_388
10
5.7343913
20
44.9951436
40
0.6598608
50
75.4100343
51
90.3802731
0
ARC
8
DEFAULT_255_1_388
10
5.7602159
20
45.1027691
40
0.5492049
50
60.1455157
51
75.1889627
0
ARC
8
DEFAULT_255_1_388
10
5.778075
20
45.1338914
40
0.5133226
50
26.525419
51
60.1451222
0
ARC
8
DEFAULT_255_1_388
10
5.6520537
20
45.0670642
40
0.6559324
50
7.4029944
51
26.832209
0
ARC
8
DEFAULT_255_1_388
10
5.4726934
20
45.0391229
40
0.8374103
50
0.1605597
51
7.7176135
0
ARC
8
DEFAULT_255_1_388
10
5.4911334
20
44.9531321
40
0.8189782
50
348.7289744
51
0.30125
0
ARC
8
DEFAULT_255_1_388
10
5.6774798
20
44.9161156
40
0.628991
50
333.0706936
51
348.7181455
0
ARC
8
DEFAULT_255_1_388
10
5.7862426
20
44.8570449
40
0.5052808
50
299.2531435
51
333.4571133
0
ARC
8
DEFAULT_255_1_388
10
5.7456457
20
44.9341629
40
0.5924066
50
278.1072193
51
299.0340218
0
ARC
8
DEFAULT_255_1_388
10
5.7168506
20
45.1037979
40
0.7644209
50
270.4446841
51
278.4508355
0
ARC
8
DEFAULT_255_1_388
10
5.7191989
20
44.99923
40
0.5179903
50
269.4969684
51
284.0204874
0
ARC
8
DEFAULT_255_1_388
10
5.7591708
20
44.8456415
40
0.3592968
50
283.7699076
51
318.1557121
0
ARC
8
DEFAULT_255_1_388
10
5.7212253
20
44.8740399
40
0.4065308
50
318.7417595
51
343.687252
0
ARC
8
DEFAULT_255_1_388
10
5.5182832
20
44.9374275
40
0.6191194
50
343.3324891
51
355.8548594
0
ARC
8
DEFAULT_255_1_388
10
5.2821869
20
44.9598719
40
0.856237
50
355.4988754
51
0.0789913
0
ARC
8
DEFAULT_255_1_388
10
5.3702668
20
45.042608
40
0.7681709
50
359.6455047
51
9.8607559
0
ARC
8
DEFAULT_255_1_388
10
5.6358392
20
45.0905664
40
0.498312
50
9.6573037
51
26.1931522
0
ARC
8
DEFAULT_255_1_388
10
5.7402467
20
45.1390587
40
0.3832303
50
26.5777895
51
40.1533752
0
ARC
8
DEFAULT_255_1_388
10
5.7690132
20
45.161502
40
0.3467742
50
40.3839958
51
80.1430923
0
ARC
8
DEFAULT_255_1_388
10
5.7322387
20
44.9984486
40
0.5137832
50
79.2153636
51
89.7445174
0
LINE
8
DEFAULT_255_1_388
10
7.3654635
20
44.7568468
11
7.5398515
21
44.7568468
0
LINE
8
DEFAULT_255_1_388
10
6.5269557
20
44.9357525
11
6.5269557
21
45.0622516
0
LINE
8
DEFAULT_255_1_388
10
7.5398515
20
45.2321217
11
7.3654635
21
45.2321217
0
LINE
8
DEFAULT_255_1_388
10
6.7013437
20
45.0577337
11
6.7013437
21
44.9303312
0
ARC
8
DEFAULT_255_1_388
10
6.9232749
20
44.8240329
40
0.6202263
50
340.1774904
51
353.7812217
0
ARC
8
DEFAULT_255_1_388
10
7.1000601
20
44.7581893
40
0.4315926
50
311.4560052
51
340.4420756
0
ARC
8
DEFAULT_255_1_388
10
7.0963141
20
44.7706665
40
0.4434573
50
282.4332229
51
310.7514507
0
ARC
8
DEFAULT_255_1_388
10
7.0468959
20
44.9748703
40
0.6535262
50
269.9358869
51
282.8096729
0
ARC
8
DEFAULT_255_1_388
10
7.0410899
20
45.1261329
40
0.8048043
50
269.9995752
51
270.3612856
0
ARC
8
DEFAULT_255_1_388
10
7.0351389
20
44.8462781
40
0.5249831
50
250.7885263
51
270.6488451
0
ARC
8
DEFAULT_255_1_388
10
7.0162213
20
44.7745853
40
0.4510942
50
219.3628377
51
250.0611024
0
ARC
8
DEFAULT_255_1_388
10
7.1095087
20
44.8538653
40
0.5735046
50
193.5480293
51
219.5755675
0
ARC
8
DEFAULT_255_1_388
10
7.3763296
20
44.923152
40
0.849146
50
181.1220183
51
193.8754971
0
ARC
8
DEFAULT_255_1_388
10
7.608653
20
44.9355914
40
1.0816971
50
179.9914644
51
181.5398227
0
ARC
8
DEFAULT_255_1_388
10
7.400984
20
45.0664586
40
0.8740384
50
169.5837606
51
180.275782
0
ARC
8
DEFAULT_255_1_388
10
7.1943188
20
45.1046439
40
0.6638751
50
155.0367033
51
169.6002779
0
ARC
8
DEFAULT_255_1_388
10
7.0665647
20
45.1662336
40
0.5220662
50
136.7831557
51
155.2472983
0
ARC
8
DEFAULT_255_1_388
10
7.0227437
20
45.2034577
40
0.4646502
50
121.7633063
51
136.4281161
0
ARC
8
DEFAULT_255_1_388
10
7.0379277
20
45.1754049
40
0.4964979
50
95.6460018
51
121.5489589
0
ARC
8
DEFAULT_255_1_388
10
7.0556251
20
45.0506704
40
0.6223912
50
89.9245727
51
96.1375919
0
ARC
8
DEFAULT_255_1_388
10
7.0612957
20
45.0640721
40
0.6090084
50
76.6779212
51
90.456405
0
ARC
8
DEFAULT_255_1_388
10
7.1055769
20
45.243006
40
0.42469
50
47.4858803
51
76.9287069
0
ARC
8
DEFAULT_255_1_388
10
7.0890383
20
45.2317623
40
0.4441778
50
16.5424081
51
46.8934505
0
ARC
8
DEFAULT_255_1_388
10
6.9081433
20
45.1723265
40
0.6345318
50
5.4072971
51
17.0363711
0
ARC
8
DEFAULT_255_1_388
10
6.7463158
20
45.1463304
40
0.6250632
50
7.8888693
51
15.9242022
0
ARC
8
DEFAULT_255_1_388
10
6.9698143
20
45.2112309
40
0.3923364
50
15.7650676
51
27.9410069
0
ARC
8
DEFAULT_255_1_388
10
7.0940313
20
45.2777317
40
0.2514401
50
27.8167196
51
46.4007942
0
ARC
8
DEFAULT_255_1_388
10
7.0996154
20
45.2770882
40
0.2480958
50
47.4372362
51
75.0695672
0
ARC
8
DEFAULT_255_1_388
10
7.064899
20
45.1562277
40
0.3738281
50
74.7009379
51
87.8124314
0
ARC
8
DEFAULT_255_1_388
10
7.0566607
20
45.0378659
40
0.4924321
50
87.3802571
51
90.0251599
0
ARC
8
DEFAULT_255_1_388
10
7.0523255
20
45.1698997
40
0.3604218
50
89.3451886
51
108.5744412
0
ARC
8
DEFAULT_255_1_388
10
7.0369247
20
45.2276836
40
0.3007661
50
109.2998307
51
143.3037387
0
ARC
8
DEFAULT_255_1_388
10
7.1226536
20
45.1617584
40
0.4089031
50
143.075267
51
163.1918576
0
ARC
8
DEFAULT_255_1_388
10
7.3422371
20
45.0924652
40
0.6391492
50
162.9375929
51
174.6208776
0
ARC
8
DEFAULT_255_1_388
10
7.6376753
20
45.0600711
40
0.9363344
50
174.342123
51
180.1430283
0
ARC
8
DEFAULT_255_1_388
10
7.5329294
20
44.9257117
40
0.8315986
50
179.6817261
51
189.150555
0
ARC
8
DEFAULT_255_1_388
10
7.2516043
20
44.8788559
40
0.5464044
50
188.9911061
51
203.5772363
0
ARC
8
DEFAULT_255_1_388
10
7.1301335
20
44.8284539
40
0.4149206
50
203.9075402
51
215.1312435
0
ARC
8
DEFAULT_255_1_388
10
7.0263132
20
44.7479907
40
0.2837747
50
213.9071511
51
263.8848919
0
ARC
8
DEFAULT_255_1_388
10
7.0404126
20
44.8362519
40
0.3730641
50
263.1757928
51
270.1031044
0
ARC
8
DEFAULT_255_1_388
10
7.0440205
20
44.9765511
40
0.5133712
50
269.6722503
51
279.0606936
0
ARC
8
DEFAULT_255_1_388
10
7.0740361
20
44.795115
40
0.3294739
50
278.8749101
51
293.6349581
0
ARC
8
DEFAULT_255_1_388
10
7.1100564
20
44.7105251
40
0.2375405
50
293.8553806
51
310.0518171
0
ARC
8
DEFAULT_255_1_388
10
7.1106073
20
44.7035021
40
0.2318463
50
311.0644687
51
332.0111037
0
ARC
8
DEFAULT_255_1_388
10
6.9764746
20
44.7774702
40
0.3850112
50
331.6586806
51
343.2877423
0
ARC
8
DEFAULT_255_1_388
10
6.7444212
20
44.8487806
40
0.6277712
50
343.1446576
51
351.0103568
0
ARC
8
DEFAULT_255_1_388
10
6.5811535
20
44.8787873
40
0.7937327
50
350.71248
51
351.1626997
0
LINE
8
DEFAULT_255_1_388
10
4.8391318
20
52.4133382
11
4.8391318
21
52.2769
0
LINE
8
DEFAULT_255_1_388
10
4.8391318
20
52.2769
11
3.9771313
21
52.2769
0
LINE
8
DEFAULT_255_1_388
10
3.9771313
20
52.2769
11
3.9771313
21
52.3970741
0
LINE
8
DEFAULT_255_1_388
10
3.9771313
20
52.3970741
11
4.4325278
21
52.9030702
0
LINE
8
DEFAULT_255_1_388
10
4.1189909
20
53.2048607
11
3.9518315
21
53.2048607
0
LINE
8
DEFAULT_255_1_388
10
4.5310163
20
52.795546
11
4.1786262
21
52.4133382
0
LINE
8
DEFAULT_255_1_388
10
4.1786262
20
52.4133382
11
4.8391318
21
52.4133382
0
ARC
8
DEFAULT_255_1_388
10
2.9149337
20
54.2450983
40
2.0258655
50
318.5132526
51
320.7829045
0
ARC
8
DEFAULT_255_1_388
10
3.5097294
20
53.7609929
40
1.2589638
50
320.7372878
51
323.9739031
0
ARC
8
DEFAULT_255_1_388
10
3.9506226
20
53.4415554
40
0.7145141
50
323.8962701
51
328.64194
0
ARC
8
DEFAULT_255_1_388
10
4.1808484
20
53.2995545
40
0.4440242
50
328.8294576
51
331.7891185
0
ARC
8
DEFAULT_255_1_388
10
4.2930804
20
53.2416374
40
0.3177517
50
331.4254512
51
352.9365785
0
ARC
8
DEFAULT_255_1_388
10
4.3083804
20
53.238205
40
0.3021496
50
353.2257659
51
0.0166158
0
ARC
8
DEFAULT_255_1_388
10
4.3320564
20
53.2407894
40
0.2784847
50
359.486299
51
15.9343185
0
ARC
8
DEFAULT_255_1_388
10
4.3890831
20
53.2561269
40
0.2194403
50
16.1712913
51
43.5286088
0
ARC
8
DEFAULT_255_1_388
10
4.3977776
20
53.2648191
40
0.2071504
50
43.4417391
51
83.1661095
0
ARC
8
DEFAULT_255_1_388
10
4.3826937
20
53.1819316
40
0.2912888
50
82.160179
51
90.1505708
0
ARC
8
DEFAULT_255_1_388
10
4.3791418
20
53.1215279
40
0.3517025
50
89.5460741
51
102.5418361
0
ARC
8
DEFAULT_255_1_388
10
4.3518138
20
53.2374933
40
0.2325748
50
102.1738499
51
129.206123
0
ARC
8
DEFAULT_255_1_388
10
4.3429592
20
53.2514664
40
0.2161591
50
129.72865
51
135.753947
0
ARC
8
DEFAULT_255_1_388
10
4.3566074
20
53.2405728
40
0.2335433
50
136.1757367
51
166.3673339
0
ARC
8
DEFAULT_255_1_388
10
4.4698762
20
53.2102148
40
0.3507873
50
165.9090694
51
178.8684636
0
ARC
8
DEFAULT_255_1_388
10
4.5674534
20
53.2049263
40
0.4484624
50
178.4391136
51
180.0083808
0
ARC
8
DEFAULT_255_1_388
10
4.4095235
20
53.2093197
40
0.4577138
50
163.2878482
51
180.5581842
0
ARC
8
DEFAULT_255_1_388
10
4.3193276
20
53.2341393
40
0.3641968
50
133.4540601
51
162.947111
0
ARC
8
DEFAULT_255_1_388
10
4.3394158
20
53.2127789
40
0.3935189
50
100.7869829
51
133.4382499
0
ARC
8
DEFAULT_255_1_388
10
4.3785403
20
53.0385399
40
0.5720313
50
89.660664
51
101.3702276
0
ARC
8
DEFAULT_255_1_388
10
4.3860012
20
53.0454263
40
0.5651495
50
78.2172678
51
90.412935
0
ARC
8
DEFAULT_255_1_388
10
4.4259478
20
53.2281511
40
0.378122
50
55.9269121
51
78.4888449
0
ARC
8
DEFAULT_255_1_388
10
4.4480193
20
53.2662187
40
0.3342379
50
47.929771
51
55.4049217
0
ARC
8
DEFAULT_255_1_388
10
4.4594723
20
53.2778618
40
0.3179217
50
4.334829
51
48.0560205
0
ARC
8
DEFAULT_255_1_388
10
4.3362525
20
53.2587487
40
0.442341
50
359.9251713
51
5.5971671
0
ARC
8
DEFAULT_255_1_388
10
4.384468
20
53.2650728
40
0.3941854
50
337.8914027
51
358.9967534
0
ARC
8
DEFAULT_255_1_388
10
4.079225
20
53.3828295
40
0.7213271
50
326.9132501
51
338.3508308
0
ARC
8
DEFAULT_255_1_388
10
3.6308362
20
53.6702105
40
1.2538973
50
319.6471833
51
327.0959558
0
ARC
8
DEFAULT_255_1_388
10
3.199502
20
54.026005
40
1.8129975
50
317.2588228
51
319.9045804
0
LINE
8
DEFAULT_255_1_388
10
5.2339895
20
53.5924898
11
5.2339895
21
52.4187596
0
LINE
8
DEFAULT_255_1_388
10
5.2339895
20
52.4187596
11
5.8574489
21
52.4187596
0
LINE
8
DEFAULT_255_1_388
10
5.8574489
20
52.4187596
11
5.8574489
21
52.2769
0
LINE
8
DEFAULT_255_1_388
10
5.8574489
20
52.2769
11
5.0596015
21
52.2769
0
LINE
8
DEFAULT_255_1_388
10
5.0596015
20
52.2769
11
5.0596015
21
53.5924898
0
LINE
8
DEFAULT_255_1_388
10
5.0596015
20
53.5924898
11
5.2339895
21
53.5924898
0
LINE
8
DEFAULT_255_1_388
10
22.7709985
20
61.5363148
11
22.7709985
21
60.2144
0
LINE
8
DEFAULT_255_1_388
10
22.7709985
20
60.2144
11
22.6029355
21
60.2144
0
LINE
8
DEFAULT_255_1_388
10
22.6029355
20
60.2144
11
22.6029355
21
61.328495
0
LINE
8
DEFAULT_255_1_388
10
22.6029355
20
61.328495
11
22.265906
21
61.2047066
0
LINE
8
DEFAULT_255_1_388
10
22.265906
20
61.2047066
11
22.265906
21
61.3565055
0
LINE
8
DEFAULT_255_1_388
10
22.265906
20
61.3565055
11
22.7447951
21
61.5363148
0
LINE
8
DEFAULT_255_1_388
10
22.7447951
20
61.5363148
11
22.7709985
21
61.5363148
0
LINE
8
DEFAULT_255_1_388
10
24.3151901
20
61.5299898
11
24.3151901
21
60.2144
0
LINE
8
DEFAULT_255_1_388
10
24.3151901
20
60.2144
11
24.1408022
21
60.2144
0
LINE
8
DEFAULT_255_1_388
10
24.1408022
20
60.2144
11
23.4784895
21
61.2281993
0
LINE
8
DEFAULT_255_1_388
10
23.4784895
20
61.2281993
11
23.4784895
21
60.2144
0
LINE
8
DEFAULT_255_1_388
10
23.4784895
20
60.2144
11
23.3041015
21
60.2144
0
LINE
8
DEFAULT_255_1_388
10
23.3041015
20
60.2144
11
23.3041015
21
61.5299898
0
LINE
8
DEFAULT_255_1_388
10
23.3041015
20
61.5299898
11
23.4784895
21
61.5299898
0
LINE
8
DEFAULT_255_1_388
10
23.4784895
20
61.5299898
11
24.1426093
21
60.5116727
0
LINE
8
DEFAULT_255_1_388
10
24.1426093
20
60.5116727
11
24.1426093
21
61.5299898
0
LINE
8
DEFAULT_255_1_388
10
24.1426093
20
61.5299898
11
24.3151901
21
61.5299898
0
LINE
8
DEFAULT_255_1_388
10
20.2259389
20
4.6519
11
19.8618024
21
4.6519
0
LINE
8
DEFAULT_255_1_388
10
19.8618024
20
4.6519
11
19.8618024
21
5.9674898
0
LINE
8
DEFAULT_255_1_388
10
19.8618024
20
5.9674898
11
20.2331674
21
5.9674898
0
LINE
8
DEFAULT_255_1_388
10
20.8132558
20
5.3539696
11
20.8132558
21
5.2699381
0
LINE
8
DEFAULT_255_1_388
10
20.2376852
20
5.8247267
11
20.0352868
21
5.8247267
0
LINE
8
DEFAULT_255_1_388
10
20.0352868
20
5.8247267
11
20.0352868
21
4.7937596
0
LINE
8
DEFAULT_255_1_388
10
20.0352868
20
4.7937596
11
20.2178068
21
4.7937596
0
LINE
8
DEFAULT_255_1_388
10
20.6415785
20
5.2735523
11
20.6415785
21
5.3503553
0
ARC
8
DEFAULT_255_1_388
10
20.2375469
20
5.3076436
40
0.6598608
50
75.4100343
51
90.3802731
0
ARC
8
DEFAULT_255_1_388
10
20.2633714
20
5.4152691
40
0.5492049
50
60.1455157
51
75.1889627
0
ARC
8
DEFAULT_255_1_388
10
20.2812306
20
5.4463914
40
0.5133226
50
26.525419
51
60.1451222
0
ARC
8
DEFAULT_255_1_388
10
20.1552092
20
5.3795642
40
0.6559324
50
7.4029944
51
26.832209
0
ARC
8
DEFAULT_255_1_388
10
19.9758489
20
5.3516229
40
0.8374103
50
0.1605597
51
7.7176135
0
ARC
8
DEFAULT_255_1_388
10
19.9942889
20
5.2656321
40
0.8189782
50
348.7289744
51
0.30125
0
ARC
8
DEFAULT_255_1_388
10
20.1806353
20
5.2286156
40
0.628991
50
333.0706936
51
348.7181455
0
ARC
8
DEFAULT_255_1_388
10
20.2893981
20
5.1695449
40
0.5052808
50
299.2531435
51
333.4571133
0
ARC
8
DEFAULT_255_1_388
10
20.2488012
20
5.2466629
40
0.5924066
50
278.1072193
51
299.0340218
0
ARC
8
DEFAULT_255_1_388
10
20.2200061
20
5.4162979
40
0.7644209
50
270.4446841
51
278.4508355
0
ARC
8
DEFAULT_255_1_388
10
20.2223545
20
5.31173
40
0.5179903
50
269.4969684
51
284.0204874
0
ARC
8
DEFAULT_255_1_388
10
20.2623263
20
5.1581415
40
0.3592968
50
283.7699076
51
318.1557121
0
ARC
8
DEFAULT_255_1_388
10
20.2243808
20
5.1865399
40
0.4065308
50
318.7417595
51
343.687252
0
ARC
8
DEFAULT_255_1_388
10
20.0214387
20
5.2499275
40
0.6191194
50
343.3324891
51
355.8548594
0
ARC
8
DEFAULT_255_1_388
10
19.7853424
20
5.2723719
40
0.856237
50
355.4988754
51
0.0789913
0
ARC
8
DEFAULT_255_1_388
10
19.8734224
20
5.355108
40
0.7681709
50
359.6455047
51
9.8607559
0
ARC
8
DEFAULT_255_1_388
10
20.1389947
20
5.4030664
40
0.498312
50
9.6573037
51
26.1931522
0
ARC
8
DEFAULT_255_1_388
10
20.2434022
20
5.4515587
40
0.3832303
50
26.5777895
51
40.1533752
0
ARC
8
DEFAULT_255_1_388
10
20.2721687
20
5.474002
40
0.3467742
50
40.3839958
51
80.1430923
0
ARC
8
DEFAULT_255_1_388
10
20.2353942
20
5.3109486
40
0.5137832
50
79.2153636
51
89.7445174
0
LINE
8
DEFAULT_255_1_388
10
22.0800531
20
5.3512589
11
22.0800531
21
5.2672274
0
LINE
8
DEFAULT_255_1_388
10
21.8496442
20
4.7232816
11
22.0845709
21
4.5389544
0
LINE
8
DEFAULT_255_1_388
10
22.0845709
20
4.5389544
11
21.966204
21
4.4296231
0
LINE
8
DEFAULT_255_1_388
10
21.966204
20
4.4296231
11
21.6888097
21
4.6500929
0
LINE
8
DEFAULT_255_1_388
10
21.0210756
20
5.2554811
11
21.0210756
21
5.3503553
0
LINE
8
DEFAULT_255_1_388
10
21.9065687
20
5.2545775
11
21.9065687
21
5.3521625
0
LINE
8
DEFAULT_255_1_388
10
21.19456
20
5.3639088
11
21.19456
21
5.2672274
0
ARC
8
DEFAULT_255_1_388
10
21.0727411
20
5.2628529
40
1.0073215
50
351.4530536
51
0.2488167
0
ARC
8
DEFAULT_255_1_388
10
21.363558
20
5.2178749
40
0.7130509
50
338.6860608
51
351.554089
0
ARC
8
DEFAULT_255_1_388
10
21.4688036
20
5.1806573
40
0.6014866
50
336.2886209
51
338.3448103
0
ARC
8
DEFAULT_255_1_388
10
21.506828
20
5.1597952
40
0.5582958
50
321.1168943
51
336.6796496
0
ARC
8
DEFAULT_255_1_388
10
21.5779054
20
5.1050644
40
0.4686152
50
305.4418419
51
320.8706891
0
ARC
8
DEFAULT_255_1_388
10
21.5557919
20
5.1891492
40
0.5552257
50
271.6372169
51
283.8614231
0
ARC
8
DEFAULT_255_1_388
10
21.5515372
20
5.2632271
40
0.6293984
50
269.993693
51
271.8317035
0
ARC
8
DEFAULT_255_1_388
10
21.5473196
20
5.172068
40
0.5382553
50
252.5221437
51
270.441579
0
ARC
8
DEFAULT_255_1_388
10
21.5311447
20
5.1114046
40
0.4755426
50
237.5349961
51
252.1858334
0
ARC
8
DEFAULT_255_1_388
10
21.5411823
20
5.124212
40
0.4917393
50
209.0632754
51
237.3492577
0
ARC
8
DEFAULT_255_1_388
10
21.6391149
20
5.1857104
40
0.6072464
50
205.118533
51
209.6465345
0
ARC
8
DEFAULT_255_1_388
10
21.7287151
20
5.2237174
40
0.7045164
50
188.7216633
51
204.8239753
0
ARC
8
DEFAULT_255_1_388
10
21.9533926
20
5.2615387
40
0.9323368
50
180.3722704
51
188.9253909
0
ARC
8
DEFAULT_255_1_388
10
21.9503487
20
5.3548416
40
0.929284
50
169.5253055
51
180.2766048
0
ARC
8
DEFAULT_255_1_388
10
21.7363286
20
5.3942024
40
0.7116745
50
155.8314601
51
169.5088611
0
ARC
8
DEFAULT_255_1_388
10
21.592275
20
5.4610312
40
0.5528904
50
139.6259579
51
156.0379072
0
ARC
8
DEFAULT_255_1_388
10
21.5259283
20
5.5144143
40
0.4677708
50
122.6414784
51
139.3431662
0
ARC
8
DEFAULT_255_1_388
10
21.5372538
20
5.4937787
40
0.4912586
50
93.0224537
51
122.4556091
0
ARC
8
DEFAULT_255_1_388
10
21.5494059
20
5.3851776
40
0.6003837
50
89.9756766
51
93.6340839
0
ARC
8
DEFAULT_255_1_388
10
21.5537757
20
5.4279547
40
0.5576216
50
73.9666049
51
90.4228101
0
ARC
8
DEFAULT_255_1_388
10
21.5744406
20
5.5084139
40
0.4745905
50
57.5177173
51
73.6814962
0
ARC
8
DEFAULT_255_1_388
10
21.5694629
20
5.5043592
40
0.4806881
50
28.7260666
51
57.2767723
0
ARC
8
DEFAULT_255_1_388
10
21.4670037
20
5.4410397
40
0.6010032
50
24.2451459
51
29.3250018
0
ARC
8
DEFAULT_255_1_388
10
21.3628502
20
5.3979744
40
0.713663
50
9.0643887
51
23.9639114
0
ARC
8
DEFAULT_255_1_388
10
21.1090939
20
5.3553505
40
0.9709678
50
359.7585581
51
9.1891216
0
ARC
8
DEFAULT_255_1_388
10
20.9679527
20
5.3568562
40
0.9386278
50
359.7134836
51
7.9655743
0
ARC
8
DEFAULT_255_1_388
10
21.3012226
20
5.4049391
40
0.6019121
50
7.8289718
51
20.0423308
0
ARC
8
DEFAULT_255_1_388
10
21.4839693
20
5.4714145
40
0.4074504
50
20.0676743
51
35.9162425
0
ARC
8
DEFAULT_255_1_388
10
21.5711573
20
5.5362196
40
0.2988273
50
35.659429
51
85.1578517
0
ARC
8
DEFAULT_255_1_388
10
21.5503734
20
5.4107214
40
0.4257521
50
83.7963246
51
90.0959039
0
ARC
8
DEFAULT_255_1_388
10
21.5455279
20
5.4932384
40
0.3432594
50
89.3101324
51
109.9889786
0
ARC
8
DEFAULT_255_1_388
10
21.5362469
20
5.5332665
40
0.3025108
50
110.9286914
51
143.9411475
0
ARC
8
DEFAULT_255_1_388
10
21.6409771
20
5.4531455
40
0.434348
50
143.5289166
51
163.2980252
0
ARC
8
DEFAULT_255_1_388
10
21.8556058
20
5.3856685
40
0.659321
50
163.0418884
51
174.3139873
0
ARC
8
DEFAULT_255_1_388
10
22.1261023
20
5.3544378
40
0.9315905
50
174.050934
51
179.4174954
0
ARC
8
DEFAULT_255_1_388
10
22.0682737
20
5.2623922
40
0.8737271
50
179.6829249
51
188.9631837
0
ARC
8
DEFAULT_255_1_388
10
21.7678468
20
5.2134648
40
0.569348
50
188.8098723
51
202.9300437
0
ARC
8
DEFAULT_255_1_388
10
21.63102
20
5.1577968
40
0.4216493
50
203.2071737
51
215.7877161
0
ARC
8
DEFAULT_255_1_388
10
21.5355483
20
5.082285
40
0.3000949
50
214.7520738
51
264.283405
0
ARC
8
DEFAULT_255_1_388
10
21.5508074
20
5.1784645
40
0.3973553
50
263.4754673
51
270.0952411
0
ARC
8
DEFAULT_255_1_388
10
21.5555467
20
5.1490808
40
0.3679937
50
269.3649295
51
287.5149684
0
ARC
8
DEFAULT_255_1_388
10
21.5755907
20
5.0762714
40
0.2925408
50
288.0629019
51
323.8115617
0
ARC
8
DEFAULT_255_1_388
10
21.4775884
20
5.1493754
40
0.4148018
50
323.6546541
51
342.6591359
0
ARC
8
DEFAULT_255_1_388
10
21.2490541
20
5.223728
40
0.6551163
50
342.4092446
51
353.6451501
0
ARC
8
DEFAULT_255_1_388
10
20.9305335
20
5.2633565
40
0.9760748
50
353.4027553
51
359.4846611
0
LINE
8
DEFAULT_255_1_388
10
22.8535043
20
5.9738148
11
22.8535043
21
4.6519
0
LINE
8
DEFAULT_255_1_388
10
22.8535043
20
4.6519
11
22.6854413
21
4.6519
0
LINE
8
DEFAULT_255_1_388
10
22.6854413
20
4.6519
11
22.6854413
21
5.765995
0
LINE
8
DEFAULT_255_1_388
10
22.6854413
20
5.765995
11
22.3484118
21
5.6422066
0
LINE
8
DEFAULT_255_1_388
10
22.3484118
20
5.6422066
11
22.3484118
21
5.7940055
0
LINE
8
DEFAULT_255_1_388
10
22.3484118
20
5.7940055
11
22.8273009
21
5.9738148
0
LINE
8
DEFAULT_255_1_388
10
22.8273009
20
5.9738148
11
22.8535043
21
5.9738148
0
LINE
8
DEFAULT_255_1_388
10
23.8429074
20
4.6519
11
23.3866073
21
4.6519
0
LINE
8
DEFAULT_255_1_388
10
23.3866073
20
4.6519
11
23.3866073
21
5.9674898
0
LINE
8
DEFAULT_255_1_388
10
23.3866073
20
5.9674898
11
23.816704
21
5.9674898
0
LINE
8
DEFAULT_255_1_388
10
23.8492323
20
5.2672274
11
23.5600917
21
5.2672274
0
LINE
8
DEFAULT_255_1_388
10
23.5600917
20
5.2672274
11
23.5600917
21
4.7937596
0
LINE
8
DEFAULT_255_1_388
10
23.5600917
20
4.7937596
11
23.8465216
21
4.7937596
0
LINE
8
DEFAULT_255_1_388
10
23.5600917
20
5.8247267
11
23.5600917
21
5.4063763
0
LINE
8
DEFAULT_255_1_388
10
23.5600917
20
5.4063763
11
23.8221254
21
5.4063763
0
LINE
8
DEFAULT_255_1_388
10
23.816704
20
5.8247267
11
23.5600917
21
5.8247267
0
ARC
8
DEFAULT_255_1_388
10
23.820946
20
5.1386824
40
0.8288183
50
82.1256322
51
90.2932506
0
ARC
8
DEFAULT_255_1_388
10
23.8647035
20
5.444459
40
0.5199321
50
69.9044202
51
82.2857574
0
ARC
8
DEFAULT_255_1_388
10
23.9289028
20
5.6179993
40
0.3348993
50
51.1840204
51
70.018125
0
ARC
8
DEFAULT_255_1_388
10
23.957586
20
5.6596945
40
0.2844579
50
12.1018086
51
50.421322
0
ARC
8
DEFAULT_255_1_388
10
23.8018732
20
5.6205937
40
0.4449429
50
359.5252354
51
12.8212369
0
ARC
8
DEFAULT_255_1_388
10
23.9796162
20
5.6127943
40
0.2672162
50
323.4907456
51
0.8818258
0
ARC
8
DEFAULT_255_1_388
10
23.9325574
20
5.6491523
40
0.3266736
50
298.6824053
51
323.2758285
0
ARC
8
DEFAULT_255_1_388
10
23.8918866
20
5.7167509
40
0.4055105
50
293.1994739
51
299.139634
0
ARC
8
DEFAULT_255_1_388
10
23.9675815
20
5.0321651
40
0.3229926
50
54.0009997
51
74.9168635
0
ARC
8
DEFAULT_255_1_388
10
23.9806742
20
5.0543511
40
0.2973581
50
36.3578854
51
53.5293172
0
ARC
8
DEFAULT_255_1_388
10
23.966411
20
5.044185
40
0.3148715
50
4.8189348
51
36.3090187
0
ARC
8
DEFAULT_255_1_388
10
23.8787134
20
5.0318383
40
0.4033265
50
359.9373213
51
5.5201284
0
ARC
8
DEFAULT_255_1_388
10
23.8422465
20
5.0272733
40
0.4398126
50
344.7479357
51
0.5372278
0
ARC
8
DEFAULT_255_1_388
10
23.9537363
20
4.9972205
40
0.3243441
50
311.1785587
51
344.6887681
0
ARC
8
DEFAULT_255_1_388
10
23.9208906
20
5.0381084
40
0.3767511
50
286.0417804
51
310.8440924
0
ARC
8
DEFAULT_255_1_388
10
23.8638316
20
5.2233885
40
0.5705957
50
274.1044074
51
286.4070149
0
ARC
8
DEFAULT_255_1_388
10
23.8439531
20
5.4351901
40
0.7832907
50
269.9235077
51
274.4458593
0
ARC
8
DEFAULT_255_1_388
10
23.8491249
20
5.1720462
40
0.3782955
50
269.6057074
51
281.3740795
0
ARC
8
DEFAULT_255_1_388
10
23.8750748
20
5.0490569
40
0.2526069
50
281.105298
51
302.5134029
0
ARC
8
DEFAULT_255_1_388
10
23.8916135
20
5.0193944
40
0.2187131
50
303.0365425
51
311.8818034
0
ARC
8
DEFAULT_255_1_388
10
23.8996312
20
5.0098602
40
0.2062624
50
311.9916937
51
351.7143773
0
ARC
8
DEFAULT_255_1_388
10
23.8077337
20
5.0284271
40
0.2999202
50
350.7343295
51
0.2221526
0
ARC
8
DEFAULT_255_1_388
10
23.7956425
20
5.034787
40
0.3120525
50
359.045729
51
17.2295312
0
ARC
8
DEFAULT_255_1_388
10
23.9125456
20
5.0695155
40
0.1901144
50
17.6685208
51
78.9940245
0
ARC
8
DEFAULT_255_1_388
10
23.8543816
20
4.8607011
40
0.4065575
50
76.565218
51
90.7103392
0
LINE
8
DEFAULT_255_1_388
10
23.8493414
20
5.2672274
11
23.8492323
21
5.2672274
0
ARC
8
DEFAULT_255_1_388
10
23.8246642
20
5.7759949
40
0.3696273
50
269.6064514
51
281.4533785
0
ARC
8
DEFAULT_255_1_388
10
23.8497283
20
5.6577283
40
0.2487412
50
281.2044438
51
302.5143998
0
ARC
8
DEFAULT_255_1_388
10
23.8651537
20
5.6299576
40
0.2170405
50
303.0211308
51
309.8378766
0
ARC
8
DEFAULT_255_1_388
10
23.8857654
20
5.6068486
40
0.1860946
50
309.5229446
51
356.9509628
0
ARC
8
DEFAULT_255_1_388
10
23.811178
20
5.6175831
40
0.2612347
50
355.4699226
51
0.0498632
0
ARC
8
DEFAULT_255_1_388
10
23.7797454
20
5.6200789
40
0.2926762
50
359.5558955
51
11.2092924
0
ARC
8
DEFAULT_255_1_388
10
23.8874421
20
5.6423667
40
0.1827036
50
10.9185717
51
31.322519
0
ARC
8
DEFAULT_255_1_388
10
23.9195969
20
5.6602571
40
0.1459418
50
31.8850633
51
52.1415586
0
ARC
8
DEFAULT_255_1_388
10
23.8887399
20
5.6166674
40
0.1993088
50
52.8283418
51
71.9850132
0
ARC
8
DEFAULT_255_1_388
10
23.8464559
20
5.4922158
40
0.3307407
50
71.686634
51
82.8453416
0
ARC
8
DEFAULT_255_1_388
10
23.8195206
20
5.2886892
40
0.536039
50
82.6981895
51
90.1730083
0
ARC
8
DEFAULT_255_1_388
10
23.8170038
20
5.3765836
40
0.4481429
50
89.8851568
51
90.0383283
0
LINE
8
DEFAULT_255_1_388
10
20.1983389
20
12.5894
11
19.8342024
21
12.5894
0
LINE
8
DEFAULT_255_1_388
10
19.8342024
20
12.5894
11
19.8342024
21
13.9049898
0
LINE
8
DEFAULT_255_1_388
10
19.8342024
20
13.9049898
11
20.2055674
21
13.9049898
0
LINE
8
DEFAULT_255_1_388
10
20.7856558
20
13.2914696
11
20.7856558
21
13.2074381
0
LINE
8
DEFAULT_255_1_388
10
20.2100852
20
13.7622267
11
20.0076868
21
13.7622267
0
LINE
8
DEFAULT_255_1_388
10
20.0076868
20
13.7622267
11
20.0076868
21
12.7312596
0
LINE
8
DEFAULT_255_1_388
10
20.0076868
20
12.7312596
11
20.1902068
21
12.7312596
0
LINE
8
DEFAULT_255_1_388
10
20.6139785
20
13.2110523
11
20.6139785
21
13.2878553
0
ARC
8
DEFAULT_255_1_388
10
20.2099469
20
13.2451436
40
0.6598608
50
75.4100343
51
90.3802731
0
ARC
8
DEFAULT_255_1_388
10
20.2357714
20
13.3527691
40
0.5492049
50
60.1455157
51
75.1889627
0
ARC
8
DEFAULT_255_1_388
10
20.2536306
20
13.3838914
40
0.5133226
50
26.525419
51
60.1451222
0
ARC
8
DEFAULT_255_1_388
10
20.1276092
20
13.3170642
40
0.6559324
50
7.4029944
51
26.832209
0
ARC
8
DEFAULT_255_1_388
10
19.9482489
20
13.2891229
40
0.8374103
50
0.1605597
51
7.7176135
0
ARC
8
DEFAULT_255_1_388
10
19.9666889
20
13.2031321
40
0.8189782
50
348.7289744
51
0.30125
0
ARC
8
DEFAULT_255_1_388
10
20.1530353
20
13.1661156
40
0.628991
50
333.0706936
51
348.7181455
0
ARC
8
DEFAULT_255_1_388
10
20.2617981
20
13.1070449
40
0.5052808
50
299.2531435
51
333.4571133
0
ARC
8
DEFAULT_255_1_388
10
20.2212012
20
13.1841629
40
0.5924066
50
278.1072193
51
299.0340218
0
ARC
8
DEFAULT_255_1_388
10
20.1924061
20
13.3537979
40
0.7644209
50
270.4446841
51
278.4508355
0
ARC
8
DEFAULT_255_1_388
10
20.1947545
20
13.24923
40
0.5179903
50
269.4969684
51
284.0204874
0
ARC
8
DEFAULT_255_1_388
10
20.2347263
20
13.0956415
40
0.3592968
50
283.7699076
51
318.1557121
0
ARC
8
DEFAULT_255_1_388
10
20.1967808
20
13.1240399
40
0.4065308
50
318.7417595
51
343.687252
0
ARC
8
DEFAULT_255_1_388
10
19.9938387
20
13.1874275
40
0.6191194
50
343.3324891
51
355.8548594
0
ARC
8
DEFAULT_255_1_388
10
19.7577424
20
13.2098719
40
0.856237
50
355.4988754
51
0.0789913
0
ARC
8
DEFAULT_255_1_388
10
19.8458224
20
13.292608
40
0.7681709
50
359.6455047
51
9.8607559
0
ARC
8
DEFAULT_255_1_388
10
20.1113947
20
13.3405664
40
0.498312
50
9.6573037
51
26.1931522
0
ARC
8
DEFAULT_255_1_388
10
20.2158022
20
13.3890587
40
0.3832303
50
26.5777895
51
40.1533752
0
ARC
8
DEFAULT_255_1_388
10
20.2445687
20
13.411502
40
0.3467742
50
40.3839958
51
80.1430923
0
ARC
8
DEFAULT_255_1_388
10
20.2077942
20
13.2484486
40
0.5137832
50
79.2153636
51
89.7445174
0
LINE
8
DEFAULT_255_1_388
10
22.0524531
20
13.2887589
11
22.0524531
21
13.2047274
0
LINE
8
DEFAULT_255_1_388
10
21.8220442
20
12.6607816
11
22.0569709
21
12.4764544
0
LINE
8
DEFAULT_255_1_388
10
22.0569709
20
12.4764544
11
21.938604
21
12.3671231
0
LINE
8
DEFAULT_255_1_388
10
21.938604
20
12.3671231
11
21.6612097
21
12.5875929
0
LINE
8
DEFAULT_255_1_388
10
20.9934756
20
13.1929811
11
20.9934756
21
13.2878553
0
LINE
8
DEFAULT_255_1_388
10
21.8789688
20
13.1920775
11
21.8789688
21
13.2896625
0
LINE
8
DEFAULT_255_1_388
10
21.16696
20
13.3014088
11
21.16696
21
13.2047274
0
ARC
8
DEFAULT_255_1_388
10
21.0451411
20
13.2003529
40
1.0073215
50
351.4530536
51
0.2488167
0
ARC
8
DEFAULT_255_1_388
10
21.335958
20
13.1553749
40
0.7130509
50
338.6860608
51
351.554089
0
ARC
8
DEFAULT_255_1_388
10
21.4412036
20
13.1181573
40
0.6014866
50
336.2886209
51
338.3448103
0
ARC
8
DEFAULT_255_1_388
10
21.479228
20
13.0972952
40
0.5582958
50
321.1168943
51
336.6796496
0
ARC
8
DEFAULT_255_1_388
10
21.5503054
20
13.0425644
40
0.4686152
50
305.4418419
51
320.8706891
0
ARC
8
DEFAULT_255_1_388
10
21.5281919
20
13.1266492
40
0.5552257
50
271.6372169
51
283.8614231
0
ARC
8
DEFAULT_255_1_388
10
21.5239372
20
13.2007271
40
0.6293984
50
269.993693
51
271.8317035
0
ARC
8
DEFAULT_255_1_388
10
21.5197196
20
13.109568
40
0.5382553
50
252.5221437
51
270.441579
0
ARC
8
DEFAULT_255_1_388
10
21.5035447
20
13.0489046
40
0.4755426
50
237.5349961
51
252.1858334
0
ARC
8
DEFAULT_255_1_388
10
21.5135823
20
13.061712
40
0.4917393
50
209.0632754
51
237.3492577
0
ARC
8
DEFAULT_255_1_388
10
21.6115149
20
13.1232104
40
0.6072464
50
205.118533
51
209.6465345
0
ARC
8
DEFAULT_255_1_388
10
21.7011151
20
13.1612174
40
0.7045164
50
188.7216633
51
204.8239753
0
ARC
8
DEFAULT_255_1_388
10
21.9257926
20
13.1990387
40
0.9323368
50
180.3722704
51
188.9253909
0
ARC
8
DEFAULT_255_1_388
10
21.9227487
20
13.2923416
40
0.929284
50
169.5253055
51
180.2766048
0
ARC
8
DEFAULT_255_1_388
10
21.7087286
20
13.3317024
40
0.7116745
50
155.8314601
51
169.5088611
0
ARC
8
DEFAULT_255_1_388
10
21.564675
20
13.3985312
40
0.5528904
50
139.6259579
51
156.0379072
0
ARC
8
DEFAULT_255_1_388
10
21.4983283
20
13.4519143
40
0.4677708
50
122.6414784
51
139.3431662
0
ARC
8
DEFAULT_255_1_388
10
21.5096538
20
13.4312787
40
0.4912586
50
93.0224537
51
122.4556091
0
ARC
8
DEFAULT_255_1_388
10
21.5218059
20
13.3226776
40
0.6003837
50
89.9756766
51
93.6340839
0
ARC
8
DEFAULT_255_1_388
10
21.5261757
20
13.3654547
40
0.5576216
50
73.9666049
51
90.4228101
0
ARC
8
DEFAULT_255_1_388
10
21.5468406
20
13.4459139
40
0.4745905
50
57.5177173
51
73.6814962
0
ARC
8
DEFAULT_255_1_388
10
21.5418629
20
13.4418592
40
0.4806881
50
28.7260666
51
57.2767723
0
ARC
8
DEFAULT_255_1_388
10
21.4394037
20
13.3785397
40
0.6010032
50
24.2451459
51
29.3250018
0
ARC
8
DEFAULT_255_1_388
10
21.3352502
20
13.3354744
40
0.713663
50
9.0643887
51
23.9639114
0
ARC
8
DEFAULT_255_1_388
10
21.0814939
20
13.2928505
40
0.9709678
50
359.7585581
51
9.1891216
0
ARC
8
DEFAULT_255_1_388
10
20.9403527
20
13.2943562
40
0.9386278
50
359.7134836
51
7.9655743
0
ARC
8
DEFAULT_255_1_388
10
21.2736226
20
13.3424391
40
0.6019121
50
7.8289718
51
20.0423308
0
ARC
8
DEFAULT_255_1_388
10
21.4563693
20
13.4089145
40
0.4074504
50
20.0676743
51
35.9162425
0
ARC
8
DEFAULT_255_1_388
10
21.5435573
20
13.4737196
40
0.2988273
50
35.659429
51
85.1578517
0
ARC
8
DEFAULT_255_1_388
10
21.5227734
20
13.3482214
40
0.4257521
50
83.7963246
51
90.0959039
0
ARC
8
DEFAULT_255_1_388
10
21.5179279
20
13.4307384
40
0.3432594
50
89.3101324
51
109.9889786
0
ARC
8
DEFAULT_255_1_388
10
21.5086469
20
13.4707665
40
0.3025108
50
110.9286914
51
143.9411475
0
ARC
8
DEFAULT_255_1_388
10
21.6133771
20
13.3906455
40
0.434348
50
143.5289166
51
163.2980252
0
ARC
8
DEFAULT_255_1_388
10
21.8280058
20
13.3231685
40
0.659321
50
163.0418884
51
174.3139873
0
ARC
8
DEFAULT_255_1_388
10
22.0985023
20
13.2919378
40
0.9315905
50
174.050934
51
179.4174954
0
ARC
8
DEFAULT_255_1_388
10
22.0406737
20
13.1998922
40
0.8737271
50
179.6829249
51
188.9631837
0
ARC
8
DEFAULT_255_1_388
10
21.7402468
20
13.1509648
40
0.569348
50
188.8098723
51
202.9300437
0
ARC
8
DEFAULT_255_1_388
10
21.60342
20
13.0952968
40
0.4216493
50
203.2071737
51
215.7877161
0
ARC
8
DEFAULT_255_1_388
10
21.5079483
20
13.019785
40
0.3000949
50
214.7520738
51
264.283405
0
ARC
8
DEFAULT_255_1_388
10
21.5232074
20
13.1159645
40
0.3973553
50
263.4754673
51
270.0952411
0
ARC
8
DEFAULT_255_1_388
10
21.5279467
20
13.0865808
40
0.3679937
50
269.3649295
51
287.5149684
0
ARC
8
DEFAULT_255_1_388
10
21.5479907
20
13.0137714
40
0.2925408
50
288.0629019
51
323.8115617
0
ARC
8
DEFAULT_255_1_388
10
21.4499884
20
13.0868754
40
0.4148018
50
323.6546541
51
342.6591359
0
ARC
8
DEFAULT_255_1_388
10
21.2214541
20
13.161228
40
0.6551163
50
342.4092446
51
353.6451501
0
ARC
8
DEFAULT_255_1_388
10
20.9029335
20
13.2008565
40
0.9760748
50
353.4027553
51
359.4846611
0
LINE
8
DEFAULT_255_1_388
10
22.8259043
20
13.9113148
11
22.8259043
21
12.5894
0
LINE
8
DEFAULT_255_1_388
10
22.8259043
20
12.5894
11
22.6578413
21
12.5894
0
LINE
8
DEFAULT_255_1_388
10
22.6578413
20
12.5894
11
22.6578413
21
13.703495
0
LINE
8
DEFAULT_255_1_388
10
22.6578413
20
13.703495
11
22.3208118
21
13.5797066
0
LINE
8
DEFAULT_255_1_388
10
22.3208118
20
13.5797066
11
22.3208118
21
13.7315055
0
LINE
8
DEFAULT_255_1_388
10
22.3208118
20
13.7315055
11
22.7997009
21
13.9113148
0
LINE
8
DEFAULT_255_1_388
10
22.7997009
20
13.9113148
11
22.8259043
21
13.9113148
0
LINE
8
DEFAULT_255_1_388
10
24.2110686
20
12.5894
11
24.0854731
21
12.9327545
0
LINE
8
DEFAULT_255_1_388
10
24.0854731
20
12.9327545
11
23.5342988
21
12.9327545
0
LINE
8
DEFAULT_255_1_388
10
23.5342988
20
12.9327545
11
23.4105105
21
12.5894
0
LINE
8
DEFAULT_255_1_388
10
23.4105105
20
12.5894
11
23.2316047
21
12.5894
0
LINE
8
DEFAULT_255_1_388
10
23.2316047
20
12.5894
11
23.7339866
21
13.9049898
0
LINE
8
DEFAULT_255_1_388
10
23.7339866
20
13.9049898
11
23.8857854
21
13.9049898
0
LINE
8
DEFAULT_255_1_388
10
23.8857854
20
13.9049898
11
24.3890708
21
12.5894
0
LINE
8
DEFAULT_255_1_388
10
24.3890708
20
12.5894
11
24.2110686
21
12.5894
0
LINE
8
DEFAULT_255_1_388
10
23.809886
20
13.6908451
11
23.5867056
21
13.0755177
0
LINE
8
DEFAULT_255_1_388
10
23.5867056
20
13.0755177
11
24.03397
21
13.0755177
0
LINE
8
DEFAULT_255_1_388
10
24.03397
20
13.0755177
11
23.809886
21
13.6908451
0
LINE
8
DEFAULT_255_1_388
10
22.5009024
20
21.8424898
11
22.7249864
21
21.8424898
0
LINE
8
DEFAULT_255_1_388
10
22.7249864
20
21.8424898
11
23.1550831
21
20.7690553
0
LINE
8
DEFAULT_255_1_388
10
23.1550831
20
20.7690553
11
23.5851797
21
21.8424898
0
LINE
8
DEFAULT_255_1_388
10
23.5851797
20
21.8424898
11
23.8101673
21
21.8424898
0
LINE
8
DEFAULT_255_1_388
10
23.8101673
20
21.8424898
11
23.8101673
21
20.5269
0
LINE
8
DEFAULT_255_1_388
10
23.8101673
20
20.5269
11
23.6366829
21
20.5269
0
LINE
8
DEFAULT_255_1_388
10
23.6366829
20
20.5269
11
23.6366829
21
21.039221
0
LINE
8
DEFAULT_255_1_388
10
23.6366829
20
21.039221
11
23.6529471
21
21.5922025
0
LINE
8
DEFAULT_255_1_388
10
23.6529471
20
21.5922025
11
23.2210433
21
20.5269
0
LINE
8
DEFAULT_255_1_388
10
23.2210433
20
20.5269
11
23.0882193
21
20.5269
0
LINE
8
DEFAULT_255_1_388
10
23.0882193
20
20.5269
11
22.657219
21
21.5894918
0
LINE
8
DEFAULT_255_1_388
10
22.657219
20
21.5894918
11
22.6743868
21
21.039221
0
LINE
8
DEFAULT_255_1_388
10
22.6743868
20
21.039221
11
22.6743868
21
20.5269
0
LINE
8
DEFAULT_255_1_388
10
22.6743868
20
20.5269
11
22.5009024
21
20.5269
0
LINE
8
DEFAULT_255_1_388
10
22.5009024
20
20.5269
11
22.5009024
21
21.8424898
0
ARC
8
DEFAULT_255_1_388
10
24.2142879
20
20.6156142
40
0.1204062
50
163.5412609
51
180.5084512
0
ARC
8
DEFAULT_255_1_388
10
24.1926778
20
20.621446
40
0.0980307
50
138.1652
51
163.2315563
0
ARC
8
DEFAULT_255_1_388
10
24.1800519
20
20.6321456
40
0.0814881
50
105.6860499
51
137.8492655
0
ARC
8
DEFAULT_255_1_388
10
24.193372
20
20.5889109
40
0.126719
50
92.6078949
51
106.199173
0
ARC
8
DEFAULT_255_1_388
10
24.196791
20
20.5443207
40
0.1714243
50
89.9659531
51
93.0713334
0
ARC
8
DEFAULT_255_1_388
10
24.1979946
20
20.5693484
40
0.1464007
50
78.4379126
51
90.4311892
0
ARC
8
DEFAULT_255_1_388
10
24.2088593
20
20.6200017
40
0.094599
50
56.8961942
51
78.7357785
0
ARC
8
DEFAULT_255_1_388
10
24.2159704
20
20.6324075
40
0.0803272
50
42.6503148
51
56.3122241
0
ARC
8
DEFAULT_255_1_388
10
24.2015605
20
20.6191661
40
0.099897
50
3.8141057
51
42.636595
0
ARC
8
DEFAULT_255_1_388
10
24.1692927
20
20.6146616
40
0.1324137
50
359.9498843
51
4.8301897
0
ARC
8
DEFAULT_255_1_388
10
24.1948065
20
20.6134722
40
0.1069053
50
340.9378148
51
0.5753733
0
ARC
8
DEFAULT_255_1_388
10
24.2074647
20
20.6100569
40
0.0938301
50
316.0798885
51
340.3845117
0
ARC
8
DEFAULT_255_1_388
10
24.2139958
20
20.604052
40
0.0849605
50
285.8512844
51
315.941661
0
ARC
8
DEFAULT_255_1_388
10
24.2007839
20
20.646762
40
0.1296594
50
273.1293204
51
286.3125006
0
ARC
8
DEFAULT_255_1_388
10
24.1970348
20
20.6919586
40
0.1749979
50
269.9535313
51
273.5471598
0
ARC
8
DEFAULT_255_1_388
10
24.1957954
20
20.6673833
40
0.1504266
50
259.0487117
51
270.4180248
0
ARC
8
DEFAULT_255_1_388
10
24.1849566
20
20.6136783
40
0.0956414
50
239.7583641
51
259.3115656
0
ARC
8
DEFAULT_255_1_388
10
24.1758499
20
20.5967048
40
0.0763945
50
222.6243303
51
239.2473835
0
ARC
8
DEFAULT_255_1_388
10
24.190967
20
20.6105572
40
0.0968985
50
182.9231258
51
222.598101
0
ARC
8
DEFAULT_255_1_388
10
24.221287
20
20.6144696
40
0.1274004
50
179.9657458
51
183.9850364
0
LINE
8
DEFAULT_255_1_388
10
20.2259389
20
28.4644
11
19.8618024
21
28.4644
0
LINE
8
DEFAULT_255_1_388
10
19.8618024
20
28.4644
11
19.8618024
21
29.7799898
0
LINE
8
DEFAULT_255_1_388
10
19.8618024
20
29.7799898
11
20.2331674
21
29.7799898
0
LINE
8
DEFAULT_255_1_388
10
20.8132558
20
29.1664696
11
20.8132558
21
29.0824381
0
LINE
8
DEFAULT_255_1_388
10
20.2376852
20
29.6372267
11
20.0352868
21
29.6372267
0
LINE
8
DEFAULT_255_1_388
10
20.0352868
20
29.6372267
11
20.0352868
21
28.6062596
0
LINE
8
DEFAULT_255_1_388
10
20.0352868
20
28.6062596
11
20.2178068
21
28.6062596
0
LINE
8
DEFAULT_255_1_388
10
20.6415785
20
29.0860523
11
20.6415785
21
29.1628553
0
ARC
8
DEFAULT_255_1_388
10
20.2375469
20
29.1201436
40
0.6598608
50
75.4100343
51
90.3802731
0
ARC
8
DEFAULT_255_1_388
10
20.2633714
20
29.2277691
40
0.5492049
50
60.1455157
51
75.1889627
0
ARC
8
DEFAULT_255_1_388
10
20.2812306
20
29.2588914
40
0.5133226
50
26.525419
51
60.1451222
0
ARC
8
DEFAULT_255_1_388
10
20.1552092
20
29.1920642
40
0.6559324
50
7.4029944
51
26.832209
0
ARC
8
DEFAULT_255_1_388
10
19.9758489
20
29.1641229
40
0.8374103
50
0.1605597
51
7.7176135
0
ARC
8
DEFAULT_255_1_388
10
19.9942889
20
29.0781321
40
0.8189782
50
348.7289744
51
0.30125
0
ARC
8
DEFAULT_255_1_388
10
20.1806353
20
29.0411156
40
0.628991
50
333.0706936
51
348.7181455
0
ARC
8
DEFAULT_255_1_388
10
20.2893981
20
28.9820449
40
0.5052808
50
299.2531435
51
333.4571133
0
ARC
8
DEFAULT_255_1_388
10
20.2488012
20
29.0591629
40
0.5924066
50
278.1072193
51
299.0340218
0
ARC
8
DEFAULT_255_1_388
10
20.2200061
20
29.2287979
40
0.7644209
50
270.4446841
51
278.4508355
0
ARC
8
DEFAULT_255_1_388
10
20.2223545
20
29.12423
40
0.5179903
50
269.4969684
51
284.0204874
0
ARC
8
DEFAULT_255_1_388
10
20.2623263
20
28.9706415
40
0.3592968
50
283.7699076
51
318.1557121
0
ARC
8
DEFAULT_255_1_388
10
20.2243808
20
28.9990399
40
0.4065308
50
318.7417595
51
343.687252
0
ARC
8
DEFAULT_255_1_388
10
20.0214387
20
29.0624275
40
0.6191194
50
343.3324891
51
355.8548594
0
ARC
8
DEFAULT_255_1_388
10
19.7853424
20
29.0848719
40
0.856237
50
355.4988754
51
0.0789913
0
ARC
8
DEFAULT_255_1_388
10
19.8734224
20
29.167608
40
0.7681709
50
359.6455047
51
9.8607559
0
ARC
8
DEFAULT_255_1_388
10
20.1389947
20
29.2155664
40
0.498312
50
9.6573037
51
26.1931522
0
ARC
8
DEFAULT_255_1_388
10
20.2434022
20
29.2640587
40
0.3832303
50
26.5777895
51
40.1533752
0
ARC
8
DEFAULT_255_1_388
10
20.2721687
20
29.286502
40
0.3467742
50
40.3839958
51
80.1430923
0
ARC
8
DEFAULT_255_1_388
10
20.2353942
20
29.1234486
40
0.5137832
50
79.2153636
51
89.7445174
0
LINE
8
DEFAULT_255_1_388
10
22.0800531
20
29.1637589
11
22.0800531
21
29.0797274
0
LINE
8
DEFAULT_255_1_388
10
21.8496442
20
28.5357816
11
22.0845709
21
28.3514544
0
LINE
8
DEFAULT_255_1_388
10
22.0845709
20
28.3514544
11
21.966204
21
28.2421231
0
LINE
8
DEFAULT_255_1_388
10
21.966204
20
28.2421231
11
21.6888097
21
28.4625929
0
LINE
8
DEFAULT_255_1_388
10
21.0210756
20
29.0679811
11
21.0210756
21
29.1628553
0
LINE
8
DEFAULT_255_1_388
10
21.9065687
20
29.0670775
11
21.9065687
21
29.1646625
0
LINE
8
DEFAULT_255_1_388
10
21.19456
20
29.1764088
11
21.19456
21
29.0797274
0
ARC
8
DEFAULT_255_1_388
10
21.0727411
20
29.0753529
40
1.0073215
50
351.4530536
51
0.2488167
0
ARC
8
DEFAULT_255_1_388
10
21.363558
20
29.0303749
40
0.7130509
50
338.6860608
51
351.554089
0
ARC
8
DEFAULT_255_1_388
10
21.4688036
20
28.9931573
40
0.6014866
50
336.2886209
51
338.3448103
0
ARC
8
DEFAULT_255_1_388
10
21.506828
20
28.9722952
40
0.5582958
50
321.1168943
51
336.6796496
0
ARC
8
DEFAULT_255_1_388
10
21.5779054
20
28.9175644
40
0.4686152
50
305.4418419
51
320.8706891
0
ARC
8
DEFAULT_255_1_388
10
21.5557919
20
29.0016492
40
0.5552257
50
271.6372169
51
283.8614231
0
ARC
8
DEFAULT_255_1_388
10
21.5515372
20
29.0757271
40
0.6293984
50
269.993693
51
271.8317035
0
ARC
8
DEFAULT_255_1_388
10
21.5473196
20
28.984568
40
0.5382553
50
252.5221437
51
270.441579
0
ARC
8
DEFAULT_255_1_388
10
21.5311447
20
28.9239046
40
0.4755426
50
237.5349961
51
252.1858334
0
ARC
8
DEFAULT_255_1_388
10
21.5411823
20
28.936712
40
0.4917393
50
209.0632754
51
237.3492577
0
ARC
8
DEFAULT_255_1_388
10
21.6391149
20
28.9982104
40
0.6072464
50
205.118533
51
209.6465345
0
ARC
8
DEFAULT_255_1_388
10
21.7287151
20
29.0362174
40
0.7045164
50
188.7216633
51
204.8239753
0
ARC
8
DEFAULT_255_1_388
10
21.9533926
20
29.0740387
40
0.9323368
50
180.3722704
51
188.9253909
0
ARC
8
DEFAULT_255_1_388
10
21.9503487
20
29.1673416
40
0.929284
50
169.5253055
51
180.2766048
0
ARC
8
DEFAULT_255_1_388
10
21.7363286
20
29.2067024
40
0.7116745
50
155.8314601
51
169.5088611
0
ARC
8
DEFAULT_255_1_388
10
21.592275
20
29.2735312
40
0.5528904
50
139.6259579
51
156.0379072
0
ARC
8
DEFAULT_255_1_388
10
21.5259283
20
29.3269143
40
0.4677708
50
122.6414784
51
139.3431662
0
ARC
8
DEFAULT_255_1_388
10
21.5372538
20
29.3062787
40
0.4912586
50
93.0224537
51
122.4556091
0
ARC
8
DEFAULT_255_1_388
10
21.5494059
20
29.1976776
40
0.6003837
50
89.9756766
51
93.6340839
0
ARC
8
DEFAULT_255_1_388
10
21.5537757
20
29.2404547
40
0.5576216
50
73.9666049
51
90.4228101
0
ARC
8
DEFAULT_255_1_388
10
21.5744406
20
29.3209139
40
0.4745905
50
57.5177173
51
73.6814962
0
ARC
8
DEFAULT_255_1_388
10
21.5694629
20
29.3168592
40
0.4806881
50
28.7260666
51
57.2767723
0
ARC
8
DEFAULT_255_1_388
10
21.4670037
20
29.2535397
40
0.6010032
50
24.2451459
51
29.3250018
0
ARC
8
DEFAULT_255_1_388
10
21.3628502
20
29.2104744
40
0.713663
50
9.0643887
51
23.9639114
0
ARC
8
DEFAULT_255_1_388
10
21.1090939
20
29.1678505
40
0.9709678
50
359.7585581
51
9.1891216
0
ARC
8
DEFAULT_255_1_388
10
20.9679527
20
29.1693562
40
0.9386278
50
359.7134836
51
7.9655743
0
ARC
8
DEFAULT_255_1_388
10
21.3012226
20
29.2174391
40
0.6019121
50
7.8289718
51
20.0423308
0
ARC
8
DEFAULT_255_1_388
10
21.4839693
20
29.2839145
40
0.4074504
50
20.0676743
51
35.9162425
0
ARC
8
DEFAULT_255_1_388
10
21.5711573
20
29.3487196
40
0.2988273
50
35.659429
51
85.1578517
0
ARC
8
DEFAULT_255_1_388
10
21.5503734
20
29.2232214
40
0.4257521
50
83.7963246
51
90.0959039
0
ARC
8
DEFAULT_255_1_388
10
21.5455279
20
29.3057384
40
0.3432594
50
89.3101324
51
109.9889786
0
ARC
8
DEFAULT_255_1_388
10
21.5362469
20
29.3457665
40
0.3025108
50
110.9286914
51
143.9411475
0
ARC
8
DEFAULT_255_1_388
10
21.6409771
20
29.2656455
40
0.434348
50
143.5289166
51
163.2980252
0
ARC
8
DEFAULT_255_1_388
10
21.8556058
20
29.1981685
40
0.659321
50
163.0418884
51
174.3139873
0
ARC
8
DEFAULT_255_1_388
10
22.1261023
20
29.1669378
40
0.9315905
50
174.050934
51
179.4174954
0
ARC
8
DEFAULT_255_1_388
10
22.0682737
20
29.0748922
40
0.8737271
50
179.6829249
51
188.9631837
0
ARC
8
DEFAULT_255_1_388
10
21.7678468
20
29.0259648
40
0.569348
50
188.8098723
51
202.9300437
0
ARC
8
DEFAULT_255_1_388
10
21.63102
20
28.9702968
40
0.4216493
50
203.2071737
51
215.7877161
0
ARC
8
DEFAULT_255_1_388
10
21.5355483
20
28.894785
40
0.3000949
50
214.7520738
51
264.283405
0
ARC
8
DEFAULT_255_1_388
10
21.5508074
20
28.9909645
40
0.3973553
50
263.4754673
51
270.0952411
0
ARC
8
DEFAULT_255_1_388
10
21.5555467
20
28.9615808
40
0.3679937
50
269.3649295
51
287.5149684
0
ARC
8
DEFAULT_255_1_388
10
21.5755907
20
28.8887714
40
0.2925408
50
288.0629019
51
323.8115617
0
ARC
8
DEFAULT_255_1_388
10
21.4775884
20
28.9618754
40
0.4148018
50
323.6546541
51
342.6591359
0
ARC
8
DEFAULT_255_1_388
10
21.2490541
20
29.036228
40
0.6551163
50
342.4092446
51
353.6451501
0
ARC
8
DEFAULT_255_1_388
10
20.9305335
20
29.0758565
40
0.9760748
50
353.4027553
51
359.4846611
0
LINE
8
DEFAULT_255_1_388
10
23.1290915
20
29.242369
11
23.1290915
21
29.0255135
0
LINE
8
DEFAULT_255_1_388
10
22.2987157
20
29.0029244
11
22.2987157
21
29.2261048
0
LINE
8
DEFAULT_255_1_388
10
22.961932
20
28.9803353
11
22.961932
21
29.2541153
0
LINE
8
DEFAULT_255_1_388
10
22.4658751
20
29.2667652
11
22.4658751
21
28.9993102
0
ARC
8
DEFAULT_255_1_388
10
21.7513249
20
29.0200118
40
1.3777776
50
353.8440855
51
0.2287917
0
ARC
8
DEFAULT_255_1_388
10
22.2732266
20
28.9617414
40
0.852639
50
344.4934746
51
353.9763743
0
ARC
8
DEFAULT_255_1_388
10
22.6099073
20
28.8660191
40
0.5026273
50
329.2803599
51
344.7473406
0
ARC
8
DEFAULT_255_1_388
10
22.7214569
20
28.8048038
40
0.3754848
50
324.9361395
51
328.6153007
0
ARC
8
DEFAULT_255_1_388
10
22.7640219
20
28.7750586
40
0.3235566
50
280.5801797
51
324.9173226
0
ARC
8
DEFAULT_255_1_388
10
22.7188847
20
28.9630236
40
0.5167077
50
269.5979457
51
281.6732777
0
ARC
8
DEFAULT_255_1_388
10
22.7107751
20
28.9495113
40
0.5032026
50
256.6228565
51
270.5105488
0
ARC
8
DEFAULT_255_1_388
10
22.6655494
20
28.7753345
40
0.3233092
50
215.8618351
51
257.2787793
0
ARC
8
DEFAULT_255_1_388
10
22.7804201
20
28.8524106
40
0.4615831
50
197.9695203
51
215.2622745
0
ARC
8
DEFAULT_255_1_388
10
23.0599876
20
28.9467641
40
0.7566307
50
187.8816486
51
198.2346584
0
ARC
8
DEFAULT_255_1_388
10
23.5053114
20
29.0110453
40
1.2065653
50
180.8977266
51
188.0054894
0
ARC
8
DEFAULT_255_1_388
10
23.8103328
20
29.02254
40
1.5117443
50
180.7434591
51
181.152202
0
ARC
8
DEFAULT_255_1_388
10
23.6428324
20
29.2315371
40
1.3441277
50
173.7674302
51
180.2315596
0
ARC
8
DEFAULT_255_1_388
10
23.1346193
20
29.2889779
40
0.8326847
50
164.3058537
51
173.9000553
0
ARC
8
DEFAULT_255_1_388
10
22.8070193
20
29.3833652
40
0.4917711
50
148.7922028
51
164.5682288
0
ARC
8
DEFAULT_255_1_388
10
22.700093
20
29.4430457
40
0.3694204
50
144.5883979
51
148.1161588
0
ARC
8
DEFAULT_255_1_388
10
22.6613676
20
29.4700667
40
0.322202
50
101.6440149
51
144.5142619
0
ARC
8
DEFAULT_255_1_388
10
22.7091868
20
29.2800337
40
0.5180451
50
89.528284
51
102.5820197
0
ARC
8
DEFAULT_255_1_388
10
22.718086
20
29.2756376
40
0.5224441
50
77.0437914
51
90.508231
0
ARC
8
DEFAULT_255_1_388
10
22.7633114
20
29.4604272
40
0.3322297
50
48.2777708
51
77.4996087
0
ARC
8
DEFAULT_255_1_388
10
22.7714854
20
29.4749557
40
0.315966
50
36.3141586
51
47.6307332
0
ARC
8
DEFAULT_255_1_388
10
22.6737576
20
29.4091159
40
0.4337313
50
18.2931065
51
35.6770203
0
ARC
8
DEFAULT_255_1_388
10
22.3876417
20
29.3109107
40
0.7362203
50
8.0246996
51
18.5605636
0
ARC
8
DEFAULT_255_1_388
10
21.9192772
20
29.2417432
40
1.2096583
50
1.127539
51
8.1718423
0
ARC
8
DEFAULT_255_1_388
10
21.5543905
20
29.2274374
40
1.5747719
50
0.5432713
51
1.38669
0
ARC
8
DEFAULT_255_1_388
10
21.7601284
20
29.2581163
40
1.2018103
50
359.8092569
51
4.9408001
0
ARC
8
DEFAULT_255_1_388
10
22.2337865
20
29.30039
40
0.7262727
50
4.8364937
51
12.2906017
0
ARC
8
DEFAULT_255_1_388
10
22.543733
20
29.3694485
40
0.4087324
50
12.0806994
51
23.8171225
0
ARC
8
DEFAULT_255_1_388
10
22.6757726
20
29.4253508
40
0.2653719
50
24.2874621
51
31.3934353
0
ARC
8
DEFAULT_255_1_388
10
22.7348162
20
29.4639822
40
0.1948607
50
30.7407708
51
82.4658033
0
ARC
8
DEFAULT_255_1_388
10
22.7145823
20
29.3646017
40
0.2961198
50
81.1057101
51
90.2187368
0
ARC
8
DEFAULT_255_1_388
10
22.7105635
20
29.3936421
40
0.2670929
50
89.380395
51
105.6763916
0
ARC
8
DEFAULT_255_1_388
10
22.6899357
20
29.468632
40
0.1893189
50
105.7980655
51
149.7387869
0
ARC
8
DEFAULT_255_1_388
10
22.8096497
20
29.3966719
40
0.3289892
50
149.4208441
51
163.628295
0
ARC
8
DEFAULT_255_1_388
10
23.0448727
20
29.3249345
40
0.5749004
50
163.3764549
51
172.141138
0
ARC
8
DEFAULT_255_1_388
10
23.4161448
20
29.2717582
40
0.9499585
50
172.0258462
51
178.0705453
0
ARC
8
DEFAULT_255_1_388
10
23.7583001
20
29.2555682
40
1.2924734
50
177.8639301
51
179.5036263
0
ARC
8
DEFAULT_255_1_388
10
23.6364019
20
28.9952151
40
1.170534
50
179.7995545
51
185.246089
0
ARC
8
DEFAULT_255_1_388
10
23.1815613
20
28.9521404
40
0.7136613
50
185.1411911
51
193.0082205
0
ARC
8
DEFAULT_255_1_388
10
22.8841873
20
28.8818441
40
0.4080987
50
192.7897338
51
205.2507384
0
ARC
8
DEFAULT_255_1_388
10
22.7664083
20
28.8292538
40
0.2791522
50
205.8001921
51
211.2545876
0
ARC
8
DEFAULT_255_1_388
10
22.7075622
20
28.7898132
40
0.2084074
50
210.3789935
51
238.4007996
0
ARC
8
DEFAULT_255_1_388
10
22.7053708
20
28.7950786
40
0.2117943
50
239.6521916
51
265.9793852
0
ARC
8
DEFAULT_255_1_388
10
22.7149557
20
28.8707358
40
0.2879689
50
265.1324455
51
270.0603288
0
ARC
8
DEFAULT_255_1_388
10
22.7181934
20
28.8342418
40
0.2514919
50
269.3314378
51
287.2180039
0
ARC
8
DEFAULT_255_1_388
10
22.7337017
20
28.7776291
40
0.1928357
50
287.7957942
51
329.0808983
0
ARC
8
DEFAULT_255_1_388
10
22.6259774
20
28.8448651
40
0.319808
50
328.6635261
51
343.3325043
0
ARC
8
DEFAULT_255_1_388
10
22.3815232
20
28.9210195
40
0.5758408
50
343.0498092
51
351.9392499
0
ARC
8
DEFAULT_255_1_388
10
21.9914554
20
28.9785205
40
0.9701202
50
351.8071632
51
357.7957897
0
ARC
8
DEFAULT_255_1_388
10
21.6280031
20
28.9973724
40
1.3340376
50
357.5870923
51
359.2682493
0
LINE
8
DEFAULT_255_1_388
10
23.8429074
20
28.4644
11
23.3866073
21
28.4644
0
LINE
8
DEFAULT_255_1_388
10
23.3866073
20
28.4644
11
23.3866073
21
29.7799898
0
LINE
8
DEFAULT_255_1_388
10
23.3866073
20
29.7799898
11
23.816704
21
29.7799898
0
LINE
8
DEFAULT_255_1_388
10
23.8492323
20
29.0797274
11
23.5600917
21
29.0797274
0
LINE
8
DEFAULT_255_1_388
10
23.5600917
20
29.0797274
11
23.5600917
21
28.6062596
0
LINE
8
DEFAULT_255_1_388
10
23.5600917
20
28.6062596
11
23.8465216
21
28.6062596
0
LINE
8
DEFAULT_255_1_388
10
23.5600917
20
29.6372267
11
23.5600917
21
29.2188763
0
LINE
8
DEFAULT_255_1_388
10
23.5600917
20
29.2188763
11
23.8221254
21
29.2188763
0
LINE
8
DEFAULT_255_1_388
10
23.816704
20
29.6372267
11
23.5600917
21
29.6372267
0
ARC
8
DEFAULT_255_1_388
10
23.820946
20
28.9511824
40
0.8288183
50
82.1256322
51
90.2932506
0
ARC
8
DEFAULT_255_1_388
10
23.8647035
20
29.256959
40
0.5199321
50
69.9044202
51
82.2857574
0
ARC
8
DEFAULT_255_1_388
10
23.9289028
20
29.4304993
40
0.3348993
50
51.1840204
51
70.018125
0
ARC
8
DEFAULT_255_1_388
10
23.957586
20
29.4721945
40
0.2844579
50
12.1018086
51
50.421322
0
ARC
8
DEFAULT_255_1_388
10
23.8018732
20
29.4330937
40
0.4449429
50
359.5252354
51
12.8212369
0
ARC
8
DEFAULT_255_1_388
10
23.9796162
20
29.4252943
40
0.2672162
50
323.4907456
51
0.8818258
0
ARC
8
DEFAULT_255_1_388
10
23.9325574
20
29.4616523
40
0.3266736
50
298.6824053
51
323.2758285
0
ARC
8
DEFAULT_255_1_388
10
23.8918866
20
29.5292509
40
0.4055105
50
293.1994739
51
299.139634
0
ARC
8
DEFAULT_255_1_388
10
23.9675815
20
28.8446651
40
0.3229926
50
54.0009997
51
74.9168635
0
ARC
8
DEFAULT_255_1_388
10
23.9806742
20
28.8668511
40
0.2973581
50
36.3578854
51
53.5293172
0
ARC
8
DEFAULT_255_1_388
10
23.966411
20
28.856685
40
0.3148715
50
4.8189348
51
36.3090187
0
ARC
8
DEFAULT_255_1_388
10
23.8787134
20
28.8443383
40
0.4033265
50
359.9373213
51
5.5201284
0
ARC
8
DEFAULT_255_1_388
10
23.8422465
20
28.8397733
40
0.4398126
50
344.7479357
51
0.5372278
0
ARC
8
DEFAULT_255_1_388
10
23.9537363
20
28.8097205
40
0.3243441
50
311.1785587
51
344.6887681
0
ARC
8
DEFAULT_255_1_388
10
23.9208906
20
28.8506084
40
0.3767511
50
286.0417804
51
310.8440924
0
ARC
8
DEFAULT_255_1_388
10
23.8638316
20
29.0358885
40
0.5705957
50
274.1044074
51
286.4070149
0
ARC
8
DEFAULT_255_1_388
10
23.8439531
20
29.2476901
40
0.7832907
50
269.9235077
51
274.4458593
0
ARC
8
DEFAULT_255_1_388
10
23.8491249
20
28.9845462
40
0.3782955
50
269.6057074
51
281.3740795
0
ARC
8
DEFAULT_255_1_388
10
23.8750748
20
28.8615569
40
0.2526069
50
281.105298
51
302.5134029
0
ARC
8
DEFAULT_255_1_388
10
23.8916135
20
28.8318944
40
0.2187131
50
303.0365425
51
311.8818034
0
ARC
8
DEFAULT_255_1_388
10
23.8996312
20
28.8223602
40
0.2062624
50
311.9916937
51
351.7143773
0
ARC
8
DEFAULT_255_1_388
10
23.8077337
20
28.8409271
40
0.2999202
50
350.7343295
51
0.2221526
0
ARC
8
DEFAULT_255_1_388
10
23.7956425
20
28.847287
40
0.3120525
50
359.045729
51
17.2295312
0
ARC
8
DEFAULT_255_1_388
10
23.9125456
20
28.8820155
40
0.1901144
50
17.6685208
51
78.9940245
0
ARC
8
DEFAULT_255_1_388
10
23.8543816
20
28.6732011
40
0.4065575
50
76.565218
51
90.7103392
0
LINE
8
DEFAULT_255_1_388
10
23.8493414
20
29.0797274
11
23.8492323
21
29.0797274
0
ARC
8
DEFAULT_255_1_388
10
23.8246642
20
29.5884949
40
0.3696273
50
269.6064514
51
281.4533785
0
ARC
8
DEFAULT_255_1_388
10
23.8497283
20
29.4702283
40
0.2487412
50
281.2044438
51
302.5143998
0
ARC
8
DEFAULT_255_1_388
10
23.8651537
20
29.4424576
40
0.2170405
50
303.0211308
51
309.8378766
0
ARC
8
DEFAULT_255_1_388
10
23.8857654
20
29.4193486
40
0.1860946
50
309.5229446
51
356.9509628
0
ARC
8
DEFAULT_255_1_388
10
23.811178
20
29.4300831
40
0.2612347
50
355.4699226
51
0.0498632
0
ARC
8
DEFAULT_255_1_388
10
23.7797454
20
29.4325789
40
0.2926762
50
359.5558955
51
11.2092924
0
ARC
8
DEFAULT_255_1_388
10
23.8874421
20
29.4548667
40
0.1827036
50
10.9185717
51
31.322519
0
ARC
8
DEFAULT_255_1_388
10
23.9195969
20
29.4727571
40
0.1459418
50
31.8850633
51
52.1415586
0
ARC
8
DEFAULT_255_1_388
10
23.8887399
20
29.4291674
40
0.1993088
50
52.8283418
51
71.9850132
0
ARC
8
DEFAULT_255_1_388
10
23.8464559
20
29.3047158
40
0.3307407
50
71.686634
51
82.8453416
0
ARC
8
DEFAULT_255_1_388
10
23.8195206
20
29.1011892
40
0.536039
50
82.6981895
51
90.1730083
0
ARC
8
DEFAULT_255_1_388
10
23.8170038
20
29.1890836
40
0.4481429
50
89.8851568
51
90.0383283
0
LINE
8
DEFAULT_255_1_388
10
20.1983389
20
36.4019
11
19.8342024
21
36.4019
0
LINE
8
DEFAULT_255_1_388
10
19.8342024
20
36.4019
11
19.8342024
21
37.7174898
0
LINE
8
DEFAULT_255_1_388
10
19.8342024
20
37.7174898
11
20.2055674
21
37.7174898
0
LINE
8
DEFAULT_255_1_388
10
20.7856558
20
37.1039696
11
20.7856558
21
37.0199381
0
LINE
8
DEFAULT_255_1_388
10
20.2100852
20
37.5747267
11
20.0076868
21
37.5747267
0
LINE
8
DEFAULT_255_1_388
10
20.0076868
20
37.5747267
11
20.0076868
21
36.5437596
0
LINE
8
DEFAULT_255_1_388
10
20.0076868
20
36.5437596
11
20.1902068
21
36.5437596
0
LINE
8
DEFAULT_255_1_388
10
20.6139785
20
37.0235523
11
20.6139785
21
37.1003553
0
ARC
8
DEFAULT_255_1_388
10
20.2099469
20
37.0576436
40
0.6598608
50
75.4100343
51
90.3802731
0
ARC
8
DEFAULT_255_1_388
10
20.2357714
20
37.1652691
40
0.5492049
50
60.1455157
51
75.1889627
0
ARC
8
DEFAULT_255_1_388
10
20.2536306
20
37.1963914
40
0.5133226
50
26.525419
51
60.1451222
0
ARC
8
DEFAULT_255_1_388
10
20.1276092
20
37.1295642
40
0.6559324
50
7.4029944
51
26.832209
0
ARC
8
DEFAULT_255_1_388
10
19.9482489
20
37.1016229
40
0.8374103
50
0.1605597
51
7.7176135
0
ARC
8
DEFAULT_255_1_388
10
19.9666889
20
37.0156321
40
0.8189782
50
348.7289744
51
0.30125
0
ARC
8
DEFAULT_255_1_388
10
20.1530353
20
36.9786156
40
0.628991
50
333.0706936
51
348.7181455
0
ARC
8
DEFAULT_255_1_388
10
20.2617981
20
36.9195449
40
0.5052808
50
299.2531435
51
333.4571133
0
ARC
8
DEFAULT_255_1_388
10
20.2212012
20
36.9966629
40
0.5924066
50
278.1072193
51
299.0340218
0
ARC
8
DEFAULT_255_1_388
10
20.1924061
20
37.1662979
40
0.7644209
50
270.4446841
51
278.4508355
0
ARC
8
DEFAULT_255_1_388
10
20.1947545
20
37.06173
40
0.5179903
50
269.4969684
51
284.0204874
0
ARC
8
DEFAULT_255_1_388
10
20.2347263
20
36.9081415
40
0.3592968
50
283.7699076
51
318.1557121
0
ARC
8
DEFAULT_255_1_388
10
20.1967808
20
36.9365399
40
0.4065308
50
318.7417595
51
343.687252
0
ARC
8
DEFAULT_255_1_388
10
19.9938387
20
36.9999275
40
0.6191194
50
343.3324891
51
355.8548594
0
ARC
8
DEFAULT_255_1_388
10
19.7577424
20
37.0223719
40
0.856237
50
355.4988754
51
0.0789913
0
ARC
8
DEFAULT_255_1_388
10
19.8458224
20
37.105108
40
0.7681709
50
359.6455047
51
9.8607559
0
ARC
8
DEFAULT_255_1_388
10
20.1113947
20
37.1530664
40
0.498312
50
9.6573037
51
26.1931522
0
ARC
8
DEFAULT_255_1_388
10
20.2158022
20
37.2015587
40
0.3832303
50
26.5777895
51
40.1533752
0
ARC
8
DEFAULT_255_1_388
10
20.2445687
20
37.224002
40
0.3467742
50
40.3839958
51
80.1430923
0
ARC
8
DEFAULT_255_1_388
10
20.2077942
20
37.0609486
40
0.5137832
50
79.2153636
51
89.7445174
0
LINE
8
DEFAULT_255_1_388
10
22.0524531
20
37.1012589
11
22.0524531
21
37.0172274
0
LINE
8
DEFAULT_255_1_388
10
21.8220442
20
36.4732816
11
22.0569709
21
36.2889544
0
LINE
8
DEFAULT_255_1_388
10
22.0569709
20
36.2889544
11
21.938604
21
36.1796231
0
LINE
8
DEFAULT_255_1_388
10
21.938604
20
36.1796231
11
21.6612097
21
36.4000929
0
LINE
8
DEFAULT_255_1_388
10
20.9934756
20
37.0054811
11
20.9934756
21
37.1003553
0
LINE
8
DEFAULT_255_1_388
10
21.8789688
20
37.0045775
11
21.8789688
21
37.1021625
0
LINE
8
DEFAULT_255_1_388
10
21.16696
20
37.1139088
11
21.16696
21
37.0172274
0
ARC
8
DEFAULT_255_1_388
10
21.0451411
20
37.0128529
40
1.0073215
50
351.4530536
51
0.2488167
0
ARC
8
DEFAULT_255_1_388
10
21.335958
20
36.9678749
40
0.7130509
50
338.6860608
51
351.554089
0
ARC
8
DEFAULT_255_1_388
10
21.4412036
20
36.9306573
40
0.6014866
50
336.2886209
51
338.3448103
0
ARC
8
DEFAULT_255_1_388
10
21.479228
20
36.9097952
40
0.5582958
50
321.1168943
51
336.6796496
0
ARC
8
DEFAULT_255_1_388
10
21.5503054
20
36.8550644
40
0.4686152
50
305.4418419
51
320.8706891
0
ARC
8
DEFAULT_255_1_388
10
21.5281919
20
36.9391492
40
0.5552257
50
271.6372169
51
283.8614231
0
ARC
8
DEFAULT_255_1_388
10
21.5239372
20
37.0132271
40
0.6293984
50
269.993693
51
271.8317035
0
ARC
8
DEFAULT_255_1_388
10
21.5197196
20
36.922068
40
0.5382553
50
252.5221437
51
270.441579
0
ARC
8
DEFAULT_255_1_388
10
21.5035447
20
36.8614046
40
0.4755426
50
237.5349961
51
252.1858334
0
ARC
8
DEFAULT_255_1_388
10
21.5135823
20
36.874212
40
0.4917393
50
209.0632754
51
237.3492577
0
ARC
8
DEFAULT_255_1_388
10
21.6115149
20
36.9357104
40
0.6072464
50
205.118533
51
209.6465345
0
ARC
8
DEFAULT_255_1_388
10
21.7011151
20
36.9737174
40
0.7045164
50
188.7216633
51
204.8239753
0
ARC
8
DEFAULT_255_1_388
10
21.9257926
20
37.0115387
40
0.9323368
50
180.3722704
51
188.9253909
0
ARC
8
DEFAULT_255_1_388
10
21.9227487
20
37.1048416
40
0.929284
50
169.5253055
51
180.2766048
0
ARC
8
DEFAULT_255_1_388
10
21.7087286
20
37.1442024
40
0.7116745
50
155.8314601
51
169.5088611
0
ARC
8
DEFAULT_255_1_388
10
21.564675
20
37.2110312
40
0.5528904
50
139.6259579
51
156.0379072
0
ARC
8
DEFAULT_255_1_388
10
21.4983283
20
37.2644143
40
0.4677708
50
122.6414784
51
139.3431662
0
ARC
8
DEFAULT_255_1_388
10
21.5096538
20
37.2437787
40
0.4912586
50
93.0224537
51
122.4556091
0
ARC
8
DEFAULT_255_1_388
10
21.5218059
20
37.1351776
40
0.6003837
50
89.9756766
51
93.6340839
0
ARC
8
DEFAULT_255_1_388
10
21.5261757
20
37.1779547
40
0.5576216
50
73.9666049
51
90.4228101
0
ARC
8
DEFAULT_255_1_388
10
21.5468406
20
37.2584139
40
0.4745905
50
57.5177173
51
73.6814962
0
ARC
8
DEFAULT_255_1_388
10
21.5418629
20
37.2543592
40
0.4806881
50
28.7260666
51
57.2767723
0
ARC
8
DEFAULT_255_1_388
10
21.4394037
20
37.1910397
40
0.6010032
50
24.2451459
51
29.3250018
0
ARC
8
DEFAULT_255_1_388
10
21.3352502
20
37.1479744
40
0.713663
50
9.0643887
51
23.9639114
0
ARC
8
DEFAULT_255_1_388
10
21.0814939
20
37.1053505
40
0.9709678
50
359.7585581
51
9.1891216
0
ARC
8
DEFAULT_255_1_388
10
20.9403527
20
37.1068562
40
0.9386278
50
359.7134836
51
7.9655743
0
ARC
8
DEFAULT_255_1_388
10
21.2736226
20
37.1549391
40
0.6019121
50
7.8289718
51
20.0423308
0
ARC
8
DEFAULT_255_1_388
10
21.4563693
20
37.2214145
40
0.4074504
50
20.0676743
51
35.9162425
0
ARC
8
DEFAULT_255_1_388
10
21.5435573
20
37.2862196
40
0.2988273
50
35.659429
51
85.1578517
0
ARC
8
DEFAULT_255_1_388
10
21.5227734
20
37.1607214
40
0.4257521
50
83.7963246
51
90.0959039
0
ARC
8
DEFAULT_255_1_388
10
21.5179279
20
37.2432384
40
0.3432594
50
89.3101324
51
109.9889786
0
ARC
8
DEFAULT_255_1_388
10
21.5086469
20
37.2832665
40
0.3025108
50
110.9286914
51
143.9411475
0
ARC
8
DEFAULT_255_1_388
10
21.6133771
20
37.2031455
40
0.434348
50
143.5289166
51
163.2980252
0
ARC
8
DEFAULT_255_1_388
10
21.8280058
20
37.1356685
40
0.659321
50
163.0418884
51
174.3139873
0
ARC
8
DEFAULT_255_1_388
10
22.0985023
20
37.1044378
40
0.9315905
50
174.050934
51
179.4174954
0
ARC
8
DEFAULT_255_1_388
10
22.0406737
20
37.0123922
40
0.8737271
50
179.6829249
51
188.9631837
0
ARC
8
DEFAULT_255_1_388
10
21.7402468
20
36.9634648
40
0.569348
50
188.8098723
51
202.9300437
0
ARC
8
DEFAULT_255_1_388
10
21.60342
20
36.9077968
40
0.4216493
50
203.2071737
51
215.7877161
0
ARC
8
DEFAULT_255_1_388
10
21.5079483
20
36.832285
40
0.3000949
50
214.7520738
51
264.283405
0
ARC
8
DEFAULT_255_1_388
10
21.5232074
20
36.9284645
40
0.3973553
50
263.4754673
51
270.0952411
0
ARC
8
DEFAULT_255_1_388
10
21.5279467
20
36.8990808
40
0.3679937
50
269.3649295
51
287.5149684
0
ARC
8
DEFAULT_255_1_388
10
21.5479907
20
36.8262714
40
0.2925408
50
288.0629019
51
323.8115617
0
ARC
8
DEFAULT_255_1_388
10
21.4499884
20
36.8993754
40
0.4148018
50
323.6546541
51
342.6591359
0
ARC
8
DEFAULT_255_1_388
10
21.2214541
20
36.973728
40
0.6551163
50
342.4092446
51
353.6451501
0
ARC
8
DEFAULT_255_1_388
10
20.9029335
20
37.0133565
40
0.9760748
50
353.4027553
51
359.4846611
0
LINE
8
DEFAULT_255_1_388
10
23.1014915
20
37.179869
11
23.1014915
21
36.9630135
0
LINE
8
DEFAULT_255_1_388
10
22.2711157
20
36.9404244
11
22.2711157
21
37.1636048
0
LINE
8
DEFAULT_255_1_388
10
22.934332
20
36.9178353
11
22.934332
21
37.1916153
0
LINE
8
DEFAULT_255_1_388
10
22.4382751
20
37.2042652
11
22.4382751
21
36.9368102
0
ARC
8
DEFAULT_255_1_388
10
21.7237249
20
36.9575118
40
1.3777776
50
353.8440855
51
0.2287917
0
ARC
8
DEFAULT_255_1_388
10
22.2456266
20
36.8992414
40
0.852639
50
344.4934746
51
353.9763743
0
ARC
8
DEFAULT_255_1_388
10
22.5823073
20
36.8035191
40
0.5026273
50
329.2803599
51
344.7473406
0
ARC
8
DEFAULT_255_1_388
10
22.6938569
20
36.7423038
40
0.3754848
50
324.9361395
51
328.6153007
0
ARC
8
DEFAULT_255_1_388
10
22.7364219
20
36.7125586
40
0.3235566
50
280.5801797
51
324.9173226
0
ARC
8
DEFAULT_255_1_388
10
22.6912847
20
36.9005236
40
0.5167077
50
269.5979457
51
281.6732777
0
ARC
8
DEFAULT_255_1_388
10
22.6831751
20
36.8870113
40
0.5032026
50
256.6228565
51
270.5105488
0
ARC
8
DEFAULT_255_1_388
10
22.6379494
20
36.7128345
40
0.3233092
50
215.8618351
51
257.2787793
0
ARC
8
DEFAULT_255_1_388
10
22.7528201
20
36.7899106
40
0.4615831
50
197.9695203
51
215.2622745
0
ARC
8
DEFAULT_255_1_388
10
23.0323876
20
36.8842641
40
0.7566307
50
187.8816486
51
198.2346584
0
ARC
8
DEFAULT_255_1_388
10
23.4777114
20
36.9485453
40
1.2065653
50
180.8977266
51
188.0054894
0
ARC
8
DEFAULT_255_1_388
10
23.7827328
20
36.96004
40
1.5117443
50
180.7434591
51
181.152202
0
ARC
8
DEFAULT_255_1_388
10
23.6152324
20
37.1690371
40
1.3441277
50
173.7674302
51
180.2315596
0
ARC
8
DEFAULT_255_1_388
10
23.1070193
20
37.2264779
40
0.8326847
50
164.3058537
51
173.9000553
0
ARC
8
DEFAULT_255_1_388
10
22.7794193
20
37.3208652
40
0.4917711
50
148.7922028
51
164.5682288
0
ARC
8
DEFAULT_255_1_388
10
22.672493
20
37.3805457
40
0.3694204
50
144.5883979
51
148.1161588
0
ARC
8
DEFAULT_255_1_388
10
22.6337676
20
37.4075667
40
0.322202
50
101.6440149
51
144.5142619
0
ARC
8
DEFAULT_255_1_388
10
22.6815868
20
37.2175337
40
0.5180451
50
89.528284
51
102.5820197
0
ARC
8
DEFAULT_255_1_388
10
22.690486
20
37.2131376
40
0.5224441
50
77.0437914
51
90.508231
0
ARC
8
DEFAULT_255_1_388
10
22.7357114
20
37.3979272
40
0.3322297
50
48.2777708
51
77.4996087
0
ARC
8
DEFAULT_255_1_388
10
22.7438854
20
37.4124557
40
0.315966
50
36.3141586
51
47.6307332
0
ARC
8
DEFAULT_255_1_388
10
22.6461576
20
37.3466159
40
0.4337313
50
18.2931065
51
35.6770203
0
ARC
8
DEFAULT_255_1_388
10
22.3600417
20
37.2484107
40
0.7362203
50
8.0246996
51
18.5605636
0
ARC
8
DEFAULT_255_1_388
10
21.8916772
20
37.1792432
40
1.2096583
50
1.127539
51
8.1718423
0
ARC
8
DEFAULT_255_1_388
10
21.5267905
20
37.1649374
40
1.5747719
50
0.5432713
51
1.38669
0
ARC
8
DEFAULT_255_1_388
10
21.7325284
20
37.1956163
40
1.2018103
50
359.8092569
51
4.9408001
0
ARC
8
DEFAULT_255_1_388
10
22.2061865
20
37.23789
40
0.7262727
50
4.8364937
51
12.2906017
0
ARC
8
DEFAULT_255_1_388
10
22.516133
20
37.3069485
40
0.4087324
50
12.0806994
51
23.8171225
0
ARC
8
DEFAULT_255_1_388
10
22.6481726
20
37.3628508
40
0.2653719
50
24.2874621
51
31.3934353
0
ARC
8
DEFAULT_255_1_388
10
22.7072162
20
37.4014822
40
0.1948607
50
30.7407708
51
82.4658033
0
ARC
8
DEFAULT_255_1_388
10
22.6869823
20
37.3021017
40
0.2961198
50
81.1057101
51
90.2187368
0
ARC
8
DEFAULT_255_1_388
10
22.6829635
20
37.3311421
40
0.2670929
50
89.380395
51
105.6763916
0
ARC
8
DEFAULT_255_1_388
10
22.6623357
20
37.406132
40
0.1893189
50
105.7980655
51
149.7387869
0
ARC
8
DEFAULT_255_1_388
10
22.7820497
20
37.3341719
40
0.3289892
50
149.4208441
51
163.628295
0
ARC
8
DEFAULT_255_1_388
10
23.0172727
20
37.2624345
40
0.5749004
50
163.3764549
51
172.141138
0
ARC
8
DEFAULT_255_1_388
10
23.3885448
20
37.2092582
40
0.9499585
50
172.0258462
51
178.0705453
0
ARC
8
DEFAULT_255_1_388
10
23.7307001
20
37.1930682
40
1.2924734
50
177.8639301
51
179.5036263
0
ARC
8
DEFAULT_255_1_388
10
23.6088019
20
36.9327151
40
1.170534
50
179.7995545
51
185.246089
0
ARC
8
DEFAULT_255_1_388
10
23.1539613
20
36.8896404
40
0.7136613
50
185.1411911
51
193.0082205
0
ARC
8
DEFAULT_255_1_388
10
22.8565873
20
36.8193441
40
0.4080987
50
192.7897338
51
205.2507384
0
ARC
8
DEFAULT_255_1_388
10
22.7388083
20
36.7667538
40
0.2791522
50
205.8001921
51
211.2545876
0
ARC
8
DEFAULT_255_1_388
10
22.6799622
20
36.7273132
40
0.2084074
50
210.3789935
51
238.4007996
0
ARC
8
DEFAULT_255_1_388
10
22.6777708
20
36.7325786
40
0.2117943
50
239.6521916
51
265.9793852
0
ARC
8
DEFAULT_255_1_388
10
22.6873557
20
36.8082358
40
0.2879689
50
265.1324455
51
270.0603288
0
ARC
8
DEFAULT_255_1_388
10
22.6905934
20
36.7717418
40
0.2514919
50
269.3314378
51
287.2180039
0
ARC
8
DEFAULT_255_1_388
10
22.7061017
20
36.7151291
40
0.1928357
50
287.7957942
51
329.0808983
0
ARC
8
DEFAULT_255_1_388
10
22.5983774
20
36.7823651
40
0.319808
50
328.6635261
51
343.3325043
0
ARC
8
DEFAULT_255_1_388
10
22.3539232
20
36.8585195
40
0.5758408
50
343.0498092
51
351.9392499
0
ARC
8
DEFAULT_255_1_388
10
21.9638554
20
36.9160205
40
0.9701202
50
351.8071632
51
357.7957897
0
ARC
8
DEFAULT_255_1_388
10
21.6004031
20
36.9348724
40
1.3340376
50
357.5870923
51
359.2682493
0
LINE
8
DEFAULT_255_1_388
10
24.2110686
20
36.4019
11
24.0854731
21
36.7452545
0
LINE
8
DEFAULT_255_1_388
10
24.0854731
20
36.7452545
11
23.5342988
21
36.7452545
0
LINE
8
DEFAULT_255_1_388
10
23.5342988
20
36.7452545
11
23.4105105
21
36.4019
0
LINE
8
DEFAULT_255_1_388
10
23.4105105
20
36.4019
11
23.2316047
21
36.4019
0
LINE
8
DEFAULT_255_1_388
10
23.2316047
20
36.4019
11
23.7339866
21
37.7174898
0
LINE
8
DEFAULT_255_1_388
10
23.7339866
20
37.7174898
11
23.8857854
21
37.7174898
0
LINE
8
DEFAULT_255_1_388
10
23.8857854
20
37.7174898
11
24.3890708
21
36.4019
0
LINE
8
DEFAULT_255_1_388
10
24.3890708
20
36.4019
11
24.2110686
21
36.4019
0
LINE
8
DEFAULT_255_1_388
10
23.809886
20
37.5033451
11
23.5867056
21
36.8880177
0
LINE
8
DEFAULT_255_1_388
10
23.5867056
20
36.8880177
11
24.03397
21
36.8880177
0
LINE
8
DEFAULT_255_1_388
10
24.03397
20
36.8880177
11
23.809886
21
37.5033451
0
LINE
8
DEFAULT_255_1_388
10
22.5009024
20
45.6549898
11
22.7249864
21
45.6549898
0
LINE
8
DEFAULT_255_1_388
10
22.7249864
20
45.6549898
11
23.1550831
21
44.5815553
0
LINE
8
DEFAULT_255_1_388
10
23.1550831
20
44.5815553
11
23.5851797
21
45.6549898
0
LINE
8
DEFAULT_255_1_388
10
23.5851797
20
45.6549898
11
23.8101673
21
45.6549898
0
LINE
8
DEFAULT_255_1_388
10
23.8101673
20
45.6549898
11
23.8101673
21
44.3394
0
LINE
8
DEFAULT_255_1_388
10
23.8101673
20
44.3394
11
23.6366829
21
44.3394
0
LINE
8
DEFAULT_255_1_388
10
23.6366829
20
44.3394
11
23.6366829
21
44.851721
0
LINE
8
DEFAULT_255_1_388
10
23.6366829
20
44.851721
11
23.6529471
21
45.4047025
0
LINE
8
DEFAULT_255_1_388
10
23.6529471
20
45.4047025
11
23.2210433
21
44.3394
0
LINE
8
DEFAULT_255_1_388
10
23.2210433
20
44.3394
11
23.0882193
21
44.3394
0
LINE
8
DEFAULT_255_1_388
10
23.0882193
20
44.3394
11
22.657219
21
45.4019918
0
LINE
8
DEFAULT_255_1_388
10
22.657219
20
45.4019918
11
22.6743868
21
44.851721
0
LINE
8
DEFAULT_255_1_388
10
22.6743868
20
44.851721
11
22.6743868
21
44.3394
0
LINE
8
DEFAULT_255_1_388
10
22.6743868
20
44.3394
11
22.5009024
21
44.3394
0
LINE
8
DEFAULT_255_1_388
10
22.5009024
20
44.3394
11
22.5009024
21
45.6549898
0
ARC
8
DEFAULT_255_1_388
10
24.2142879
20
44.4281142
40
0.1204062
50
163.5412609
51
180.5084512
0
ARC
8
DEFAULT_255_1_388
10
24.1926778
20
44.433946
40
0.0980307
50
138.1652
51
163.2315563
0
ARC
8
DEFAULT_255_1_388
10
24.1800519
20
44.4446456
40
0.0814881
50
105.6860499
51
137.8492655
0
ARC
8
DEFAULT_255_1_388
10
24.193372
20
44.4014109
40
0.126719
50
92.6078949
51
106.199173
0
ARC
8
DEFAULT_255_1_388
10
24.196791
20
44.3568207
40
0.1714243
50
89.9659531
51
93.0713334
0
ARC
8
DEFAULT_255_1_388
10
24.1979946
20
44.3818484
40
0.1464007
50
78.4379126
51
90.4311892
0
ARC
8
DEFAULT_255_1_388
10
24.2088593
20
44.4325017
40
0.094599
50
56.8961942
51
78.7357785
0
ARC
8
DEFAULT_255_1_388
10
24.2159704
20
44.4449075
40
0.0803272
50
42.6503148
51
56.3122241
0
ARC
8
DEFAULT_255_1_388
10
24.2015605
20
44.4316661
40
0.099897
50
3.8141057
51
42.636595
0
ARC
8
DEFAULT_255_1_388
10
24.1692927
20
44.4271616
40
0.1324137
50
359.9498843
51
4.8301897
0
ARC
8
DEFAULT_255_1_388
10
24.1948065
20
44.4259722
40
0.1069053
50
340.9378148
51
0.5753733
0
ARC
8
DEFAULT_255_1_388
10
24.2074647
20
44.4225569
40
0.0938301
50
316.0798885
51
340.3845117
0
ARC
8
DEFAULT_255_1_388
10
24.2139958
20
44.416552
40
0.0849605
50
285.8512844
51
315.941661
0
ARC
8
DEFAULT_255_1_388
10
24.2007839
20
44.459262
40
0.1296594
50
273.1293204
51
286.3125006
0
ARC
8
DEFAULT_255_1_388
10
24.1970348
20
44.5044586
40
0.1749979
50
269.9535313
51
273.5471598
0
ARC
8
DEFAULT_255_1_388
10
24.1957954
20
44.4798833
40
0.1504266
50
259.0487117
51
270.4180248
0
ARC
8
DEFAULT_255_1_388
10
24.1849566
20
44.4261783
40
0.0956414
50
239.7583641
51
259.3115656
0
ARC
8
DEFAULT_255_1_388
10
24.1758499
20
44.4092048
40
0.0763945
50
222.6243303
51
239.2473835
0
ARC
8
DEFAULT_255_1_388
10
24.190967
20
44.4230572
40
0.0968985
50
182.9231258
51
222.598101
0
ARC
8
DEFAULT_255_1_388
10
24.221287
20
44.4269696
40
0.1274004
50
179.9657458
51
183.9850364
0
LINE
8
DEFAULT_255_1_388
10
23.0836318
20
52.4133382
11
23.0836318
21
52.2769
0
LINE
8
DEFAULT_255_1_388
10
23.0836318
20
52.2769
11
22.2216313
21
52.2769
0
LINE
8
DEFAULT_255_1_388
10
22.2216313
20
52.2769
11
22.2216313
21
52.3970741
0
LINE
8
DEFAULT_255_1_388
10
22.2216313
20
52.3970741
11
22.6770278
21
52.9030702
0
LINE
8
DEFAULT_255_1_388
10
22.3634909
20
53.2048607
11
22.1963315
21
53.2048607
0
LINE
8
DEFAULT_255_1_388
10
22.7755163
20
52.795546
11
22.4231262
21
52.4133382
0
LINE
8
DEFAULT_255_1_388
10
22.4231262
20
52.4133382
11
23.0836318
21
52.4133382
0
ARC
8
DEFAULT_255_1_388
10
21.1594337
20
54.2450983
40
2.0258655
50
318.5132526
51
320.7829045
0
ARC
8
DEFAULT_255_1_388
10
21.7542294
20
53.7609929
40
1.2589638
50
320.7372878
51
323.9739031
0
ARC
8
DEFAULT_255_1_388
10
22.1951226
20
53.4415554
40
0.7145141
50
323.8962701
51
328.64194
0
ARC
8
DEFAULT_255_1_388
10
22.4253484
20
53.2995545
40
0.4440242
50
328.8294576
51
331.7891185
0
ARC
8
DEFAULT_255_1_388
10
22.5375804
20
53.2416374
40
0.3177517
50
331.4254512
51
352.9365785
0
ARC
8
DEFAULT_255_1_388
10
22.5528804
20
53.238205
40
0.3021496
50
353.2257659
51
0.0166158
0
ARC
8
DEFAULT_255_1_388
10
22.5765564
20
53.2407894
40
0.2784847
50
359.486299
51
15.9343185
0
ARC
8
DEFAULT_255_1_388
10
22.6335831
20
53.2561269
40
0.2194403
50
16.1712913
51
43.5286088
0
ARC
8
DEFAULT_255_1_388
10
22.6422776
20
53.2648191
40
0.2071504
50
43.4417391
51
83.1661095
0
ARC
8
DEFAULT_255_1_388
10
22.6271937
20
53.1819316
40
0.2912888
50
82.160179
51
90.1505708
0
ARC
8
DEFAULT_255_1_388
10
22.6236418
20
53.1215279
40
0.3517025
50
89.5460741
51
102.5418361
0
ARC
8
DEFAULT_255_1_388
10
22.5963138
20
53.2374933
40
0.2325748
50
102.1738499
51
129.206123
0
ARC
8
DEFAULT_255_1_388
10
22.5874592
20
53.2514664
40
0.2161591
50
129.72865
51
135.753947
0
ARC
8
DEFAULT_255_1_388
10
22.6011074
20
53.2405728
40
0.2335433
50
136.1757367
51
166.3673339
0
ARC
8
DEFAULT_255_1_388
10
22.7143762
20
53.2102148
40
0.3507873
50
165.9090694
51
178.8684636
0
ARC
8
DEFAULT_255_1_388
10
22.8119534
20
53.2049263
40
0.4484624
50
178.4391136
51
180.0083808
0
ARC
8
DEFAULT_255_1_388
10
22.6540235
20
53.2093197
40
0.4577138
50
163.2878482
51
180.5581842
0
ARC
8
DEFAULT_255_1_388
10
22.5638276
20
53.2341393
40
0.3641968
50
133.4540601
51
162.947111
0
ARC
8
DEFAULT_255_1_388
10
22.5839158
20
53.2127789
40
0.3935189
50
100.7869829
51
133.4382499
0
ARC
8
DEFAULT_255_1_388
10
22.6230403
20
53.0385399
40
0.5720313
50
89.660664
51
101.3702276
0
ARC
8
DEFAULT_255_1_388
10
22.6305012
20
53.0454263
40
0.5651495
50
78.2172678
51
90.412935
0
ARC
8
DEFAULT_255_1_388
10
22.6704478
20
53.2281511
40
0.378122
50
55.9269121
51
78.4888449
0
ARC
8
DEFAULT_255_1_388
10
22.6925193
20
53.2662187
40
0.3342379
50
47.929771
51
55.4049217
0
ARC
8
DEFAULT_255_1_388
10
22.7039723
20
53.2778618
40
0.3179217
50
4.334829
51
48.0560205
0
ARC
8
DEFAULT_255_1_388
10
22.5807525
20
53.2587487
40
0.442341
50
359.9251713
51
5.5971671
0
ARC
8
DEFAULT_255_1_388
10
22.628968
20
53.2650728
40
0.3941854
50
337.8914027
51
358.9967534
0
ARC
8
DEFAULT_255_1_388
10
22.323725
20
53.3828295
40
0.7213271
50
326.9132501
51
338.3508308
0
ARC
8
DEFAULT_255_1_388
10
21.8753362
20
53.6702105
40
1.2538973
50
319.6471833
51
327.0959558
0
ARC
8
DEFAULT_255_1_388
10
21.444002
20
54.026005
40
1.8129975
50
317.2588228
51
319.9045804
0
LINE
8
DEFAULT_255_1_388
10
24.3151901
20
53.5924898
11
24.3151901
21
52.2769
0
LINE
8
DEFAULT_255_1_388
10
24.3151901
20
52.2769
11
24.1408022
21
52.2769
0
LINE
8
DEFAULT_255_1_388
10
24.1408022
20
52.2769
11
23.4784895
21
53.2906993
0
LINE
8
DEFAULT_255_1_388
10
23.4784895
20
53.2906993
11
23.4784895
21
52.2769
0
LINE
8
DEFAULT_255_1_388
10
23.4784895
20
52.2769
11
23.3041015
21
52.2769
0
LINE
8
DEFAULT_255_1_388
10
23.3041015
20
52.2769
11
23.3041015
21
53.5924898
0
LINE
8
DEFAULT_255_1_388
10
23.3041015
20
53.5924898
11
23.4784895
21
53.5924898
0
LINE
8
DEFAULT_255_1_388
10
23.4784895
20
53.5924898
11
24.1426093
21
52.5741727
0
LINE
8
DEFAULT_255_1_388
10
24.1426093
20
52.5741727
11
24.1426093
21
53.5924898
0
LINE
8
DEFAULT_255_1_388
10
24.1426093
20
53.5924898
11
24.3151901
21
53.5924898
0
ENDSEC
0
EOF