0
SECTION
2
HEADER
9
$MEASUREMENT
70
1
0
ENDSEC
0
SECTION
2
TABLES
0
TABLE
2
LTYPE
0
LTYPE
72
65
70
64
2
CONTINUOUS
3
______
73
0
40
0
0
ENDTAB
0
TABLE
2
LAYER
0
LAYER
2
DEFAULT_255_2_778
70
0
62
255
6
CONTINUOUS
0
ENDTAB
0
ENDSEC
0
SECTION
2
ENTITIES
0
ARC
8
DEFAULT_255_2_778
10
32.9514734
20
25.8239833
40
26.0010072
50
247.6485044
51
269.998547
0
ARC
8
DEFAULT_255_2_778
10
32.9515872
20
47.0203642
40
26.0028118
50
90.0017037
51
112.3501316
0
LINE
8
DEFAULT_255_2_778
10
33.061914
20
1.9452761
11
32.950814
21
-0.1770239
0
LINE
8
DEFAULT_255_2_778
10
32.950814
20
73.0231761
11
33.061914
21
70.9009761
0
LINE
8
DEFAULT_255_2_778
10
58.440814
20
24.8179761
11
58.440814
21
24.8131761
0
LINE
8
DEFAULT_255_2_778
10
57.957114
20
9.2178761
11
58.037014
21
9.2162761
0
LINE
8
DEFAULT_255_2_778
10
58.037014
20
9.2162761
11
57.956814
21
9.2162761
0
LINE
8
DEFAULT_255_2_778
10
58.370414
20
20.9176761
11
58.370414
21
20.9116761
0
LINE
8
DEFAULT_255_2_778
10
58.198914
20
16.9912761
11
58.278814
21
16.9912761
0
LINE
8
DEFAULT_255_2_778
10
58.278814
20
16.9912761
11
58.278814
21
16.9833761
0
LINE
8
DEFAULT_255_2_778
10
57.843114
20
4.3129761
11
57.843114
21
4.3108761
0
LINE
8
DEFAULT_255_2_778
10
57.992614
20
8.0110761
11
57.992314
21
8.0028761
0
LINE
8
DEFAULT_255_2_778
10
57.992314
20
8.0028761
11
57.912114
21
8.0028761
0
LINE
8
DEFAULT_255_2_778
10
58.130214
20
11.9112761
11
58.130414
21
11.9194761
0
LINE
8
DEFAULT_255_2_778
10
58.130414
20
11.9194761
11
58.130214
21
11.9094761
0
LINE
8
DEFAULT_255_2_778
10
58.088614
20
13.1161761
11
58.168814
21
13.1161761
0
LINE
8
DEFAULT_255_2_778
10
58.168814
20
13.1161761
11
58.088614
21
13.1161761
0
LINE
8
DEFAULT_255_2_778
10
57.957614
20
9.2334761
11
58.037814
21
9.2334761
0
LINE
8
DEFAULT_255_2_778
10
58.037814
20
9.2334761
11
58.037514
21
9.2252761
0
LINE
8
DEFAULT_255_2_778
10
58.105514
20
11.1691761
11
58.105814
21
11.1767761
0
LINE
8
DEFAULT_255_2_778
10
57.843114
20
4.3076761
11
57.843114
21
4.3074761
0
LINE
8
DEFAULT_255_2_778
10
57.843114
20
4.3074761
11
57.843114
21
4.3076761
0
LINE
8
DEFAULT_255_2_778
10
57.843114
20
4.3076761
11
57.843114
21
4.3098761
0
LINE
8
DEFAULT_255_2_778
10
57.843114
20
4.3098761
11
57.843614
21
4.3211761
0
LINE
8
DEFAULT_255_2_778
10
57.843614
20
4.3211761
11
57.844114
21
4.3312761
0
LINE
8
DEFAULT_255_2_778
10
57.844114
20
4.3312761
11
57.844714
21
4.3439761
0
LINE
8
DEFAULT_255_2_778
10
57.844714
20
4.3439761
11
57.846014
21
4.3759761
0
LINE
8
DEFAULT_255_2_778
10
57.846014
20
4.3759761
11
57.847614
21
4.4151761
0
LINE
8
DEFAULT_255_2_778
10
57.847614
20
4.4151761
11
57.848414
21
4.4365761
0
LINE
8
DEFAULT_255_2_778
10
57.848414
20
4.4365761
11
57.849414
21
4.4590761
0
LINE
8
DEFAULT_255_2_778
10
57.849414
20
4.4590761
11
57.851314
21
4.5050761
0
LINE
8
DEFAULT_255_2_778
10
57.851314
20
4.5050761
11
57.853414
21
4.5524761
0
LINE
8
DEFAULT_255_2_778
10
57.853414
20
4.5524761
11
57.855514
21
4.6005761
0
LINE
8
DEFAULT_255_2_778
10
57.855514
20
4.6005761
11
57.857614
21
4.6492761
0
LINE
8
DEFAULT_255_2_778
10
57.857614
20
4.6492761
11
57.859714
21
4.6984761
0
LINE
8
DEFAULT_255_2_778
10
57.859714
20
4.6984761
11
57.861914
21
4.7482761
0
LINE
8
DEFAULT_255_2_778
10
57.861914
20
4.7482761
11
57.864014
21
4.7982761
0
LINE
8
DEFAULT_255_2_778
10
57.864014
20
4.7982761
11
57.868214
21
4.8982761
0
LINE
8
DEFAULT_255_2_778
10
57.868214
20
4.8982761
11
57.872414
21
4.9982761
0
LINE
8
DEFAULT_255_2_778
10
57.872414
20
4.9982761
11
57.876714
21
5.0982761
0
LINE
8
DEFAULT_255_2_778
10
57.876714
20
5.0982761
11
57.880914
21
5.1982761
0
LINE
8
DEFAULT_255_2_778
10
57.880914
20
5.1982761
11
57.883014
21
5.2482761
0
LINE
8
DEFAULT_255_2_778
10
57.883014
20
5.2482761
11
57.885114
21
5.2982761
0
LINE
8
DEFAULT_255_2_778
10
57.885114
20
5.2982761
11
57.889414
21
5.3977761
0
LINE
8
DEFAULT_255_2_778
10
57.889414
20
5.3977761
11
57.891514
21
5.4469761
0
LINE
8
DEFAULT_255_2_778
10
57.891514
20
5.4469761
11
57.893614
21
5.4956761
0
LINE
8
DEFAULT_255_2_778
10
57.893614
20
5.4956761
11
57.895514
21
5.5435761
0
LINE
8
DEFAULT_255_2_778
10
57.895514
20
5.5435761
11
57.897314
21
5.5901761
0
LINE
8
DEFAULT_255_2_778
10
57.897314
20
5.5901761
11
57.899214
21
5.6332761
0
LINE
8
DEFAULT_255_2_778
10
57.899214
20
5.6332761
11
57.900014
21
5.6530761
0
LINE
8
DEFAULT_255_2_778
10
57.900014
20
5.6530761
11
57.900814
21
5.6713761
0
LINE
8
DEFAULT_255_2_778
10
57.900814
20
5.6713761
11
57.901614
21
5.6874761
0
LINE
8
DEFAULT_255_2_778
10
57.901614
20
5.6874761
11
57.902114
21
5.7015761
0
LINE
8
DEFAULT_255_2_778
10
57.902114
20
5.7015761
11
57.902914
21
5.7213761
0
LINE
8
DEFAULT_255_2_778
10
57.902914
20
5.7213761
11
57.903114
21
5.7271761
0
LINE
8
DEFAULT_255_2_778
10
57.903114
20
5.7271761
11
57.903114
21
5.7303761
0
LINE
8
DEFAULT_255_2_778
10
57.903114
20
5.7303761
11
57.903114
21
5.7316761
0
LINE
8
DEFAULT_255_2_778
10
57.903114
20
5.7316761
11
57.903114
21
5.7314761
0
LINE
8
DEFAULT_255_2_778
10
57.903114
20
5.7314761
11
57.902614
21
5.7202761
0
LINE
8
DEFAULT_255_2_778
10
58.063714
20
9.9591761
11
58.063514
21
9.9528761
0
LINE
8
DEFAULT_255_2_778
10
58.036514
20
9.1961761
11
58.036814
21
9.2011761
0
LINE
8
DEFAULT_255_2_778
10
58.104814
20
11.1463761
11
58.105014
21
11.1545761
0
LINE
8
DEFAULT_255_2_778
10
58.2791344
20
16.9913925
11
58.2788344
21
16.9833925
0
LINE
8
DEFAULT_255_2_778
10
57.9541344
20
9.1387925
11
58.0886344
21
9.1347925
0
LINE
8
DEFAULT_255_2_778
10
58.0886344
20
9.1347925
11
58.0571344
21
8.0351925
0
LINE
8
DEFAULT_255_2_778
10
58.0571344
20
8.0351925
11
57.9134344
21
8.0393925
0
LINE
8
DEFAULT_255_2_778
10
58.1457344
20
15.0365925
11
58.2576344
21
15.0333925
0
LINE
8
DEFAULT_255_2_778
10
58.2576344
20
15.0333925
11
58.2261344
21
13.9337925
0
LINE
8
DEFAULT_255_2_778
10
58.2261344
20
13.9337925
11
58.1134344
21
13.9369925
0
LINE
8
DEFAULT_255_2_778
10
58.4074344
20
22.8311925
11
58.4079344
21
22.8595925
0
LINE
8
DEFAULT_255_2_778
10
58.4079344
20
22.8595925
11
58.3280344
21
22.8595925
0
LINE
8
DEFAULT_255_2_778
10
58.4407344
20
24.8179925
11
58.3608344
21
24.8179925
0
LINE
8
DEFAULT_255_2_778
10
58.3275344
20
22.8335925
11
58.4809344
21
22.8290925
0
LINE
8
DEFAULT_255_2_778
10
58.4809344
20
22.8290925
11
58.4494344
21
21.7294925
0
LINE
8
DEFAULT_255_2_778
10
58.4494344
20
21.7294925
11
58.3066344
21
21.7334925
0
LINE
8
DEFAULT_255_2_778
10
57.9932833
20
8.0372779
11
57.9922833
21
8.0112779
0
LINE
8
DEFAULT_255_2_778
10
57.9922833
20
8.0112779
11
57.9120833
21
8.0112779
0
LINE
8
DEFAULT_255_2_778
10
58.0340833
20
9.1365779
11
58.0366833
21
9.2111779
0
LINE
8
DEFAULT_255_2_778
10
58.0366833
20
9.2111779
11
57.9564833
21
9.2111779
0
LINE
8
DEFAULT_255_2_778
10
58.2660833
20
19.7841779
11
58.3935833
21
19.7804779
0
LINE
8
DEFAULT_255_2_778
10
58.3935833
20
19.7804779
11
58.4250833
21
20.8800779
0
LINE
8
DEFAULT_255_2_778
10
58.4250833
20
20.8800779
11
58.2896833
21
20.8840779
0
LINE
8
DEFAULT_255_2_778
10
58.4496833
20
21.7294779
11
58.4496833
21
21.7294779
0
LINE
8
DEFAULT_255_2_778
10
58.4496833
20
21.7294779
11
58.3869833
21
21.7312779
0
LINE
8
DEFAULT_255_2_778
10
58.3869833
20
21.7312779
11
58.3856833
21
21.6611779
0
LINE
8
DEFAULT_255_2_778
10
58.3856833
20
21.6611779
11
58.3057833
21
21.6611779
0
LINE
8
DEFAULT_255_2_778
10
58.2467833
20
18.9351779
11
58.3692833
21
18.9317779
0
LINE
8
DEFAULT_255_2_778
10
58.3692833
20
18.9317779
11
58.3377833
21
17.8320779
0
LINE
8
DEFAULT_255_2_778
10
58.3377833
20
17.8320779
11
58.2202833
21
17.8355779
0
LINE
8
DEFAULT_255_2_778
10
58.3703833
20
20.9176779
11
58.2904833
21
20.9176779
0
LINE
8
DEFAULT_255_2_778
10
58.3639833
20
25.0110779
11
58.4438833
21
25.0110779
0
LINE
8
DEFAULT_255_2_778
10
58.4438833
20
25.0110779
11
58.4406833
21
24.8126779
0
LINE
8
DEFAULT_255_2_778
10
58.4406833
20
24.8126779
11
58.3607833
21
24.8126779
0
LINE
8
DEFAULT_255_2_778
10
58.3652833
20
25.1110779
11
58.4451833
21
25.1110779
0
LINE
8
DEFAULT_255_2_778
10
58.4451833
20
25.1110779
11
58.4435833
21
25.0110779
0
LINE
8
DEFAULT_255_2_778
10
58.2589833
20
19.4611779
11
58.3388833
21
19.4611779
0
LINE
8
DEFAULT_255_2_778
10
58.2610833
20
19.5611779
11
58.3409833
21
19.5611779
0
LINE
8
DEFAULT_255_2_778
10
58.3409833
20
19.5611779
11
58.3443833
21
19.7111779
0
LINE
8
DEFAULT_255_2_778
10
58.3412125
20
23.6027966
11
58.4212125
21
23.6027966
0
LINE
8
DEFAULT_255_2_778
10
58.4212125
20
23.6027966
11
58.4214125
21
23.6159966
0
LINE
8
DEFAULT_255_2_778
10
58.4214125
20
23.6159966
11
58.4214125
21
23.6225966
0
LINE
8
DEFAULT_255_2_778
10
58.4214125
20
23.6225966
11
58.4214125
21
23.6291966
0
LINE
8
DEFAULT_255_2_778
10
58.4214125
20
23.6291966
11
58.3415125
21
23.6291966
0
LINE
8
DEFAULT_255_2_778
10
58.1989125
20
16.9857966
11
58.3137125
21
16.9825966
0
LINE
8
DEFAULT_255_2_778
10
58.3137125
20
16.9825966
11
58.2822125
21
15.8829966
0
LINE
8
DEFAULT_255_2_778
10
58.2822125
20
15.8829966
11
58.1698125
21
15.8861966
0
LINE
8
DEFAULT_255_2_778
10
58.3426125
20
23.6836966
11
58.5056125
21
23.6789966
0
LINE
8
DEFAULT_255_2_778
10
58.5056125
20
23.6789966
11
58.4225125
21
23.6812966
0
LINE
8
DEFAULT_255_2_778
10
58.3603125
20
24.7835966
11
58.5368125
21
24.7785966
0
LINE
8
DEFAULT_255_2_778
10
58.5368125
20
24.7785966
11
58.5053125
21
23.6791966
0
LINE
8
DEFAULT_255_2_778
10
57.9026125
20
5.7327966
11
57.8224125
21
5.7327966
0
LINE
8
DEFAULT_255_2_778
10
58.2256125
20
15.0339966
11
58.2264125
21
15.0627966
0
LINE
8
DEFAULT_255_2_778
10
58.2264125
20
15.0627966
11
58.1462125
21
15.0627966
0
LINE
8
DEFAULT_255_2_778
10
58.1111125
20
13.8546966
11
58.1912125
21
13.8546966
0
LINE
8
DEFAULT_255_2_778
10
58.1912125
20
13.8546966
11
58.1912125
21
13.8546966
0
LINE
8
DEFAULT_255_2_778
10
58.1912125
20
13.8546966
11
58.1912125
21
13.8618966
0
LINE
8
DEFAULT_255_2_778
10
58.1912125
20
13.8618966
11
58.1918125
21
13.8821966
0
LINE
8
DEFAULT_255_2_778
10
58.1918125
20
13.8821966
11
58.1933125
21
13.9343966
0
LINE
8
DEFAULT_255_2_778
10
58.0648125
20
9.9851966
11
58.0640125
21
9.9610966
0
LINE
8
DEFAULT_255_2_778
10
58.0640125
20
9.9610966
11
57.9838125
21
9.9610966
0
LINE
8
DEFAULT_255_2_778
10
58.2513125
20
19.1315966
11
58.3312125
21
19.1315966
0
LINE
8
DEFAULT_255_2_778
10
58.3312125
20
19.1315966
11
58.3267125
21
18.9328966
0
LINE
8
DEFAULT_255_2_778
10
58.2536125
20
19.2315966
11
58.3335125
21
19.2315966
0
LINE
8
DEFAULT_255_2_778
10
58.3335125
20
19.2315966
11
58.3312125
21
19.1315966
0
LINE
8
DEFAULT_255_2_778
10
58.1624125
20
15.6316966
11
58.2426125
21
15.6316966
0
LINE
8
DEFAULT_255_2_778
10
58.1653125
20
15.7316966
11
58.2455125
21
15.7316966
0
LINE
8
DEFAULT_255_2_778
10
58.2455125
20
15.7316966
11
58.2476125
21
15.8096966
0
LINE
8
DEFAULT_255_2_778
10
58.2494125
20
15.8837966
11
58.2473125
21
15.8096966
0
LINE
8
DEFAULT_255_2_778
10
58.2473125
20
15.8096966
11
58.1674125
21
15.8096966
0
LINE
8
DEFAULT_255_2_778
10
58.2791125
20
17.0045966
11
58.1992125
21
17.0045966
0
LINE
8
DEFAULT_255_2_778
10
58.3275764
20
18.9677112
11
58.2476764
21
18.9677112
0
LINE
8
DEFAULT_255_2_778
10
58.2182764
20
17.7530112
11
58.2984764
21
17.7530112
0
LINE
8
DEFAULT_255_2_778
10
58.2984764
20
17.7530112
11
58.2984764
21
17.7530112
0
LINE
8
DEFAULT_255_2_778
10
58.2984764
20
17.7530112
11
58.2984764
21
17.7562112
0
LINE
8
DEFAULT_255_2_778
10
58.2984764
20
17.7562112
11
58.2986764
21
17.7665112
0
LINE
8
DEFAULT_255_2_778
10
58.2986764
20
17.7665112
11
58.2992764
21
17.7850112
0
LINE
8
DEFAULT_255_2_778
10
58.2992764
20
17.7850112
11
58.3005764
21
17.8332112
0
LINE
8
DEFAULT_255_2_778
10
58.3936764
20
19.7805112
11
58.3460764
21
19.7819112
0
LINE
8
DEFAULT_255_2_778
10
58.0224764
20
11.0869112
11
58.1444764
21
11.0834112
0
LINE
8
DEFAULT_255_2_778
10
58.1444764
20
11.0834112
11
58.1129764
21
9.9838112
0
LINE
8
DEFAULT_255_2_778
10
58.1129764
20
9.9838112
11
57.9846764
21
9.9875112
0
LINE
8
DEFAULT_255_2_778
10
58.0875764
20
13.0882112
11
58.2018764
21
13.0850112
0
LINE
8
DEFAULT_255_2_778
10
58.2018764
20
13.0850112
11
58.1703764
21
11.9854112
0
LINE
8
DEFAULT_255_2_778
10
58.1703764
20
11.9854112
11
58.0526764
21
11.9888112
0
LINE
8
DEFAULT_255_2_778
10
57.9835764
20
9.9528112
11
58.0634764
21
9.9528112
0
LINE
8
DEFAULT_255_2_778
10
58.3695764
20
20.8815112
11
58.3701764
21
20.9111112
0
LINE
8
DEFAULT_255_2_778
10
58.3701764
20
20.9111112
11
58.2902764
21
20.9111112
0
LINE
8
DEFAULT_255_2_778
10
58.3444764
20
19.7112112
11
58.2645764
21
19.7112112
0
LINE
8
DEFAULT_255_2_778
10
58.1676764
20
13.0858112
11
58.1684764
21
13.1146112
0
LINE
8
DEFAULT_255_2_778
10
58.1684764
20
13.1146112
11
58.0883764
21
13.1146112
0
LINE
8
DEFAULT_255_2_778
10
58.1325764
20
11.9864112
11
58.1304764
21
11.9195112
0
LINE
8
DEFAULT_255_2_778
10
58.1304764
20
11.9195112
11
58.0502764
21
11.9195112
0
LINE
8
DEFAULT_255_2_778
10
58.0499764
20
11.9094112
11
58.1301764
21
11.9094112
0
LINE
8
DEFAULT_255_2_778
10
57.9928764
20
8.0185112
11
57.9928764
21
8.0185112
0
LINE
8
DEFAULT_255_2_778
10
58.1057764
20
11.1779112
11
58.0256764
21
11.1779112
0
LINE
8
DEFAULT_255_2_778
10
58.4082764
20
22.8592112
11
58.4211764
21
23.6027112
0
LINE
8
DEFAULT_255_2_778
10
58.3703708
20
20.9114289
11
58.3854708
21
21.6596289
0
LINE
8
DEFAULT_255_2_778
10
58.3388708
20
19.4612289
11
58.3412708
21
19.5612289
0
LINE
8
DEFAULT_255_2_778
10
58.1912708
20
13.8610289
11
58.1933708
21
13.9346289
0
LINE
8
DEFAULT_255_2_778
10
58.2793708
20
17.0048289
11
58.3002708
21
17.8332289
0
LINE
8
DEFAULT_255_2_778
10
58.2425708
20
15.6316289
11
58.2452708
21
15.7316289
0
LINE
8
DEFAULT_255_2_778
10
58.1055708
20
11.1612289
11
58.1028708
21
11.0845289
0
LINE
8
DEFAULT_255_2_778
10
58.4410708
20
24.8129289
11
58.4404708
21
24.7812289
0
LINE
8
DEFAULT_255_2_778
10
58.4225708
20
23.6813289
11
58.4216708
21
23.6294289
0
LINE
8
DEFAULT_255_2_778
10
58.3275708
20
18.9677289
11
58.3275708
21
18.9646289
0
LINE
8
DEFAULT_255_2_778
10
58.3275708
20
18.9646289
11
58.3267708
21
18.9331289
0
LINE
8
DEFAULT_255_2_778
10
58.1684708
20
13.1146289
11
58.1684708
21
13.1162289
0
LINE
8
DEFAULT_255_2_778
10
57.9573708
20
9.2215289
11
58.0375708
21
9.2215289
0
LINE
8
DEFAULT_255_2_778
10
58.0375708
20
9.2215289
11
58.0372708
21
9.2162289
0
LINE
8
DEFAULT_255_2_778
10
57.9573781
20
9.2252367
11
58.0374781
21
9.2252367
0
LINE
8
DEFAULT_255_2_778
10
58.0374781
20
9.2252367
11
58.0372781
21
9.2212367
0
LINE
8
DEFAULT_255_2_778
10
58.1025781
20
11.0852367
11
58.1031781
21
11.1006367
0
LINE
8
DEFAULT_255_2_778
10
58.1031781
20
11.1006367
11
58.1036781
21
11.1178367
0
LINE
8
DEFAULT_255_2_778
10
58.1036781
20
11.1178367
11
58.1041781
21
11.1326367
0
LINE
8
DEFAULT_255_2_778
10
58.1041781
20
11.1326367
11
58.1049781
21
11.1543367
0
LINE
8
DEFAULT_255_2_778
10
58.1049781
20
11.1543367
11
58.1052781
21
11.1612367
0
LINE
8
DEFAULT_255_2_778
10
58.1052781
20
11.1612367
11
58.1052781
21
11.1654367
0
LINE
8
DEFAULT_255_2_778
10
58.1052781
20
11.1654367
11
58.1052781
21
11.1678367
0
LINE
8
DEFAULT_255_2_778
10
58.1052781
20
11.1678367
11
58.0250781
21
11.1678367
0
LINE
8
DEFAULT_255_2_778
10
58.3444781
20
19.7112367
11
58.3459781
21
19.7818367
0
LINE
8
DEFAULT_255_2_778
10
58.0422781
20
61.1719367
11
58.1224781
21
61.1719367
0
LINE
8
DEFAULT_255_2_778
10
58.1224781
20
61.1719367
11
58.1224781
21
61.1666367
0
LINE
8
DEFAULT_255_2_778
10
58.1224781
20
61.1666367
11
58.1224781
21
61.1666367
0
LINE
8
DEFAULT_255_2_778
10
58.1224781
20
61.1666367
11
58.0422781
21
61.1666367
0
LINE
8
DEFAULT_255_2_778
10
57.8493781
20
68.4445367
11
57.8496781
21
68.4366367
0
LINE
8
DEFAULT_255_2_778
10
57.8496781
20
68.4400367
11
57.8498781
21
68.4313367
0
LINE
8
DEFAULT_255_2_778
10
57.9528781
20
65.9212367
11
57.9530781
21
65.9122367
0
LINE
8
DEFAULT_255_2_778
10
58.0144781
20
64.3101367
11
58.0147781
21
64.3056367
0
LINE
8
DEFAULT_255_2_778
10
58.0147781
20
64.3056367
11
57.9321781
21
64.3056367
0
LINE
8
DEFAULT_255_2_778
10
58.0126781
20
64.3609367
11
58.0123781
21
64.3699367
0
LINE
8
DEFAULT_255_2_778
10
58.1639781
20
59.8720367
11
58.1636781
21
59.8810367
0
LINE
8
DEFAULT_255_2_778
10
58.1578781
20
62.1315367
11
58.3219781
21
62.1376367
0
LINE
8
DEFAULT_255_2_778
10
58.3219781
20
62.1376367
11
58.2811781
21
63.2362367
0
LINE
8
DEFAULT_255_2_778
10
58.2811781
20
63.2362367
11
58.1049781
21
63.2296367
0
LINE
8
DEFAULT_255_2_778
10
57.9165781
20
66.8311367
11
57.8340781
21
66.8311367
0
LINE
8
DEFAULT_255_2_778
10
57.8546781
20
68.3156367
11
57.8498781
21
68.4289367
0
LINE
8
DEFAULT_255_2_778
10
57.8498781
20
68.4289367
11
57.7673781
21
68.4289367
0
LINE
8
DEFAULT_255_2_778
10
57.9166115
20
66.8311457
11
57.8549115
21
68.3157457
0
LINE
8
DEFAULT_255_2_778
10
57.8549115
20
68.3157457
11
57.7724115
21
68.3157457
0
LINE
8
DEFAULT_255_2_778
10
58.1645115
20
59.8594457
11
58.1645115
21
59.8599457
0
LINE
8
DEFAULT_255_2_778
10
58.1645115
20
59.8599457
11
58.1645115
21
59.8612457
0
LINE
8
DEFAULT_255_2_778
10
58.1645115
20
59.8612457
11
58.1645115
21
59.8639457
0
LINE
8
DEFAULT_255_2_778
10
58.1645115
20
59.8639457
11
58.1645115
21
59.8670457
0
LINE
8
DEFAULT_255_2_778
10
58.1645115
20
59.8670457
11
58.1645115
21
59.8702457
0
LINE
8
DEFAULT_255_2_778
10
58.1645115
20
59.8702457
11
58.1230115
21
61.1648457
0
LINE
8
DEFAULT_255_2_778
10
58.1230115
20
61.1648457
11
58.0428115
21
61.1648457
0
LINE
8
DEFAULT_255_2_778
10
58.0148115
20
64.3102457
11
57.9322115
21
64.3102457
0
LINE
8
DEFAULT_255_2_778
10
57.9542115
20
65.8945457
11
57.9539115
21
65.9003457
0
LINE
8
DEFAULT_255_2_778
10
57.9539115
20
65.9003457
11
57.9536115
21
65.9061457
0
LINE
8
DEFAULT_255_2_778
10
57.9536115
20
65.9061457
11
57.9534115
21
65.9120457
0
LINE
8
DEFAULT_255_2_778
10
57.9534115
20
65.9120457
11
57.8708115
21
65.9120457
0
LINE
8
DEFAULT_255_2_778
10
57.9317115
20
64.3189457
11
58.0142115
21
64.3189457
0
LINE
8
DEFAULT_255_2_778
10
58.0142115
20
64.3189457
11
57.9687115
21
65.5172457
0
LINE
8
DEFAULT_255_2_778
10
57.9687115
20
65.5172457
11
57.8862115
21
65.5172457
0
LINE
8
DEFAULT_255_2_778
10
57.8714115
20
65.8945457
11
57.9539115
21
65.8945457
0
LINE
8
DEFAULT_255_2_778
10
57.9539115
20
65.8945457
11
57.9552115
21
65.8593457
0
LINE
8
DEFAULT_255_2_778
10
57.9552115
20
65.8593457
11
57.9565115
21
65.8244457
0
LINE
8
DEFAULT_255_2_778
10
57.9565115
20
65.8244457
11
57.9592115
21
65.7551457
0
LINE
8
DEFAULT_255_2_778
10
57.9592115
20
65.7551457
11
57.9618115
21
65.6873457
0
LINE
8
DEFAULT_255_2_778
10
57.9618115
20
65.6873457
11
57.9632115
21
65.6553457
0
LINE
8
DEFAULT_255_2_778
10
57.9632115
20
65.6553457
11
57.9637115
21
65.6400457
0
LINE
8
DEFAULT_255_2_778
10
57.9637115
20
65.6400457
11
57.9642115
21
65.6257457
0
LINE
8
DEFAULT_255_2_778
10
57.9642115
20
65.6257457
11
57.8817115
21
65.6257457
0
LINE
8
DEFAULT_255_2_778
10
58.1648115
20
59.8522457
11
58.0846115
21
59.8522457
0
LINE
8
DEFAULT_255_2_778
10
57.9531115
20
65.9128457
11
57.9528115
21
65.9210457
0
LINE
8
DEFAULT_255_2_778
10
57.9528115
20
65.9210457
11
57.9526115
21
65.9268457
0
LINE
8
DEFAULT_255_2_778
10
57.9526115
20
65.9268457
11
57.9526115
21
65.9300457
0
LINE
8
DEFAULT_255_2_778
10
57.9526115
20
65.9300457
11
57.8700115
21
65.9300457
0
ARC
8
DEFAULT_255_2_778
10
6.4508199
20
92.2714379
40
28.2980732
50
269.999758
51
284.6961095
0
ARC
8
DEFAULT_255_2_778
10
6.4510974
20
92.2711099
40
28.2976855
50
284.6957345
51
297.8717601
0
ARC
8
DEFAULT_255_2_778
10
21.4499351
20
-320.4594277
40
391.5325924
50
84.6838968
51
89.9999319
0
ARC
8
DEFAULT_255_2_778
10
55.899121
20
62.573075
40
2.3012935
50
359.9953102
51
26.5405555
0
ARC
8
DEFAULT_255_2_778
10
55.8948759
20
62.5728872
40
2.3055387
50
359.3943651
51
359.9999846
0
ARC
8
DEFAULT_255_2_778
10
55.8990329
20
62.5727634
40
2.3013805
50
337.4784797
51
359.3963543
0
ARC
8
DEFAULT_255_2_778
10
-691.4939268
20
36.4228798
40
749.9446403
50
0.1001718
51
1.9308704
0
ARC
8
DEFAULT_255_2_778
10
-691.615236
20
36.4226357
40
750.0659497
50
1e-7
51
0.1001742
0
ARC
8
DEFAULT_255_2_778
10
-691.5785943
20
36.4229671
40
750.0293082
50
357.4808927
51
359.9999747
0
ARC
8
DEFAULT_255_2_778
10
21.4529274
20
393.2710133
40
391.4977486
50
270.0001473
51
275.316182
0
LINE
8
DEFAULT_255_2_778
10
21.453934
20
1.7732646
11
21.4507003
21
1.7732647
0
LINE
8
DEFAULT_255_2_778
10
57.9539003
20
65.8944647
11
57.9587003
21
65.7746647
0
LINE
8
DEFAULT_255_2_778
10
57.9166003
20
66.8308647
11
57.9166003
21
66.8302647
0
LINE
8
DEFAULT_255_2_778
10
57.9166003
20
66.8302647
11
57.9169003
21
66.8242647
0
LINE
8
DEFAULT_255_2_778
10
57.9169003
20
66.8242647
11
57.9172003
21
66.8202647
0
LINE
8
DEFAULT_255_2_778
10
58.1225003
20
61.1647647
11
58.1225003
21
61.1666647
0
LINE
8
DEFAULT_255_2_778
10
57.9685003
20
65.5216647
11
57.9643003
21
65.6304647
0
LINE
8
DEFAULT_255_2_778
10
57.9539003
20
65.9010647
11
57.9534003
21
65.9121647
0
LINE
8
DEFAULT_255_2_778
10
58.0844003
20
59.8593647
11
58.1643003
21
59.8593647
0
LINE
8
DEFAULT_255_2_778
10
58.0841003
20
59.8701647
11
58.1643003
21
59.8701647
0
LINE
8
DEFAULT_255_2_778
10
58.1643003
20
59.8701647
11
58.1646003
21
59.8611647
0
LINE
8
DEFAULT_255_2_778
10
57.8497003
20
68.4400647
11
57.7672003
21
68.4400647
0
LINE
8
DEFAULT_255_2_778
10
57.8494003
20
68.4445647
11
57.7669003
21
68.4445647
0
LINE
8
DEFAULT_255_2_778
10
19.6804003
20
69.2726647
11
4.9508003
21
69.1440647
0
LINE
8
DEFAULT_255_2_778
10
4.9508003
20
69.1440647
11
4.9508003
21
63.9733647
0
LINE
8
DEFAULT_255_2_778
10
4.9508003
20
63.9733647
11
6.4507003
21
63.9733647
0
LINE
8
DEFAULT_255_2_778
10
19.6801003
20
67.2560647
11
19.6801003
21
71.0731647
0
LINE
8
DEFAULT_255_2_778
10
19.6801003
20
71.0731647
11
21.4504003
21
71.0731647
0
LINE
8
DEFAULT_255_2_778
10
57.7256003
20
69.3890647
11
57.9579003
21
63.6013647
0
LINE
8
DEFAULT_255_2_778
10
21.4507003
20
1.7732647
11
4.9508003
21
1.7732647
0
LINE
8
DEFAULT_255_2_778
10
4.9508003
20
1.7732647
11
4.9508003
21
63.9730647
0
LINE
8
DEFAULT_255_2_778
10
4.9508003
20
36.7730647
11
0.2007003
21
36.7730647
0
LINE
8
DEFAULT_255_2_778
10
0.2007003
20
36.7730647
11
0.2007003
21
42.8542647
0
LINE
8
DEFAULT_255_2_778
10
4.9508003
20
42.8542647
11
0.2007003
21
42.8542647
0
LINE
8
DEFAULT_255_2_778
10
0.2007003
20
42.8542647
11
0.2007003
21
45.3731647
0
LINE
8
DEFAULT_255_2_778
10
0.2007003
20
45.3731647
11
4.9508003
21
45.3731647
0
LINE
8
DEFAULT_255_2_778
10
0.2007003
20
39.2919647
11
4.9508003
21
39.2919647
0
LINE
8
DEFAULT_255_2_778
10
4.9507679
20
6.0733199
11
4.5507679
21
6.0733199
0
LINE
8
DEFAULT_255_2_778
10
4.5507679
20
6.0733199
11
3.5505679
21
7.0734199
0
LINE
8
DEFAULT_255_2_778
10
3.5505679
20
7.0734199
11
3.5505679
21
32.0733199
0
LINE
8
DEFAULT_255_2_778
10
3.5505679
20
32.0733199
11
4.5507679
21
33.0735199
0
LINE
8
DEFAULT_255_2_778
10
4.5507679
20
33.0735199
11
4.9507679
21
33.0735199
0
LINE
8
DEFAULT_255_2_778
10
3.5508679
20
8.0386199
11
2.0506679
21
8.0386199
0
LINE
8
DEFAULT_255_2_778
10
2.0506679
20
8.0386199
11
2.0506679
21
31.1087199
0
LINE
8
DEFAULT_255_2_778
10
2.0506679
20
31.1087199
11
3.5505679
21
31.1087199
0
LINE
8
DEFAULT_255_2_778
10
4.8507679
20
65.8482199
11
1.3508679
21
65.8482199
0
LINE
8
DEFAULT_255_2_778
10
1.3508679
20
65.8482199
11
1.3508679
21
50.2981199
0
LINE
8
DEFAULT_255_2_778
10
1.3508679
20
50.2981199
11
4.8507679
21
50.2981199
0
LINE
8
DEFAULT_255_2_778
10
4.9507679
20
49.9732199
11
4.8507679
21
49.9732199
0
LINE
8
DEFAULT_255_2_778
10
4.8507679
20
49.9732199
11
4.8507679
21
66.0731199
0
LINE
8
DEFAULT_255_2_778
10
4.8507679
20
66.0731199
11
4.9507679
21
66.0731199
0
LINE
8
DEFAULT_255_2_778
10
14.9869679
20
69.2314199
11
17.0506679
21
70.4231199
0
LINE
8
DEFAULT_255_2_778
10
17.0506679
20
70.4231199
11
17.2507679
21
70.4231199
0
LINE
8
DEFAULT_255_2_778
10
17.2507679
20
70.4231199
11
17.3531679
21
69.2521199
0
ENDSEC
0
EOF