0
SECTION
2
HEADER
9
$MEASUREMENT
70
1
0
ENDSEC
0
SECTION
2
TABLES
0
TABLE
2
LTYPE
0
LTYPE
72
65
70
64
2
CONTINUOUS
3
______
73
0
40
0
0
ENDTAB
0
TABLE
2
LAYER
0
LAYER
2
DEFAULT_255_2_778
70
0
62
255
6
CONTINUOUS
0
ENDTAB
0
ENDSEC
0
SECTION
2
ENTITIES
0
ARC
8
DEFAULT_255_2_778
10
4.9392682
20
57.9792064
40
0.3001094
50
270.0208901
51
359.9791099
0
LINE
8
DEFAULT_255_2_778
10
26.0403776
20
101.535397
11
39.4404776
21
101.535397
0
LINE
8
DEFAULT_255_2_778
10
39.4404776
20
101.535397
11
39.4404776
21
98.270697
0
LINE
8
DEFAULT_255_2_778
10
39.4404776
20
98.270697
11
38.6903776
21
97.520597
0
LINE
8
DEFAULT_255_2_778
10
38.6903776
20
97.520597
11
38.6903776
21
72.939997
0
LINE
8
DEFAULT_255_2_778
10
38.6903776
20
72.939997
11
39.4404776
21
72.189897
0
LINE
8
DEFAULT_255_2_778
10
39.4404776
20
72.189897
11
39.4404776
21
68.776997
0
LINE
8
DEFAULT_255_2_778
10
39.4404776
20
68.776997
11
26.0403776
21
68.776997
0
LINE
8
DEFAULT_255_2_778
10
26.0403776
20
68.776997
11
26.0403776
21
72.189897
0
LINE
8
DEFAULT_255_2_778
10
26.0403776
20
72.189897
11
26.7904776
21
72.939997
0
LINE
8
DEFAULT_255_2_778
10
26.7904776
20
72.939997
11
26.7904776
21
97.520597
0
LINE
8
DEFAULT_255_2_778
10
26.7904776
20
97.520597
11
26.0403776
21
98.270697
0
LINE
8
DEFAULT_255_2_778
10
26.0403776
20
98.270697
11
26.0403776
21
101.535397
0
LINE
8
DEFAULT_255_2_778
10
3.6362776
20
59.420597
11
3.6545776
21
59.416297
0
LINE
8
DEFAULT_255_2_778
10
3.6545776
20
59.416297
11
3.6592776
21
59.414797
0
LINE
8
DEFAULT_255_2_778
10
3.6592776
20
59.414797
11
3.6640776
21
59.413197
0
LINE
8
DEFAULT_255_2_778
10
3.6640776
20
59.413197
11
3.6687776
21
59.411597
0
LINE
8
DEFAULT_255_2_778
10
3.6687776
20
59.411597
11
3.6735776
21
59.409697
0
LINE
8
DEFAULT_255_2_778
10
3.6735776
20
59.409697
11
3.6783776
21
59.407897
0
LINE
8
DEFAULT_255_2_778
10
3.6783776
20
59.407897
11
3.6828776
21
59.405797
0
LINE
8
DEFAULT_255_2_778
10
3.6828776
20
59.405797
11
3.6873776
21
59.403597
0
LINE
8
DEFAULT_255_2_778
10
3.6873776
20
59.403597
11
3.6918776
21
59.401497
0
LINE
8
DEFAULT_255_2_778
10
3.6918776
20
59.401497
11
3.6963776
21
59.399097
0
LINE
8
DEFAULT_255_2_778
10
3.6963776
20
59.399097
11
3.7005776
21
59.396797
0
LINE
8
DEFAULT_255_2_778
10
3.7005776
20
59.396797
11
3.7047776
21
59.394097
0
LINE
8
DEFAULT_255_2_778
10
3.7047776
20
59.394097
11
3.7090776
21
59.391497
0
LINE
8
DEFAULT_255_2_778
10
3.7090776
20
59.391497
11
3.7132776
21
59.388797
0
LINE
8
DEFAULT_255_2_778
10
3.7132776
20
59.388797
11
3.7172776
21
59.385897
0
LINE
8
DEFAULT_255_2_778
10
3.7172776
20
59.385897
11
3.7211776
21
59.382997
0
LINE
8
DEFAULT_255_2_778
10
3.7211776
20
59.382997
11
3.7251776
21
59.379797
0
LINE
8
DEFAULT_255_2_778
10
3.7251776
20
59.379797
11
3.7291776
21
59.376697
0
LINE
8
DEFAULT_255_2_778
10
3.7291776
20
59.376697
11
3.7330776
21
59.373197
0
LINE
8
DEFAULT_255_2_778
10
3.7330776
20
59.373197
11
3.7367776
21
59.369797
0
LINE
8
DEFAULT_255_2_778
10
3.7367776
20
59.369797
11
3.7404776
21
59.366097
0
LINE
8
DEFAULT_255_2_778
10
3.7404776
20
59.366097
11
3.7441776
21
59.362397
0
LINE
8
DEFAULT_255_2_778
10
3.7441776
20
59.362397
11
3.7479776
21
59.358397
0
LINE
8
DEFAULT_255_2_778
10
3.7479776
20
59.358397
11
3.7513776
21
59.354397
0
LINE
8
DEFAULT_255_2_778
10
3.7513776
20
59.354397
11
3.7547776
21
59.350197
0
LINE
8
DEFAULT_255_2_778
10
3.7547776
20
59.350197
11
3.7582776
21
59.345997
0
LINE
8
DEFAULT_255_2_778
10
3.7582776
20
59.345997
11
3.7613776
21
59.341497
0
LINE
8
DEFAULT_255_2_778
10
3.7613776
20
59.341497
11
3.7645776
21
59.336997
0
LINE
8
DEFAULT_255_2_778
10
3.7645776
20
59.336997
11
3.7677776
21
59.332197
0
LINE
8
DEFAULT_255_2_778
10
3.7677776
20
59.332197
11
3.7706776
21
59.327397
0
LINE
8
DEFAULT_255_2_778
10
3.7706776
20
59.327397
11
3.7735776
21
59.322397
0
LINE
8
DEFAULT_255_2_778
10
3.7735776
20
59.322397
11
3.7762776
21
59.317397
0
LINE
8
DEFAULT_255_2_778
10
3.7762776
20
59.317397
11
3.7788776
21
59.312097
0
LINE
8
DEFAULT_255_2_778
10
3.7788776
20
59.312097
11
3.7812776
21
59.306797
0
LINE
8
DEFAULT_255_2_778
10
3.7812776
20
59.306797
11
3.7836776
21
59.301297
0
LINE
8
DEFAULT_255_2_778
10
3.7836776
20
59.301297
11
3.7857776
21
59.295697
0
LINE
8
DEFAULT_255_2_778
10
3.7857776
20
59.295697
11
3.7878776
21
59.290097
0
LINE
8
DEFAULT_255_2_778
10
3.7878776
20
59.290097
11
3.7897776
21
59.284297
0
LINE
8
DEFAULT_255_2_778
10
3.7897776
20
59.284297
11
3.7915776
21
59.278497
0
LINE
8
DEFAULT_255_2_778
10
3.7915776
20
59.278497
11
3.7931776
21
59.272697
0
LINE
8
DEFAULT_255_2_778
10
3.7931776
20
59.272697
11
3.7939776
21
59.269797
0
LINE
8
DEFAULT_255_2_778
10
3.7939776
20
59.269797
11
3.7947776
21
59.266897
0
LINE
8
DEFAULT_255_2_778
10
3.7947776
20
59.266897
11
3.7952776
21
59.263897
0
LINE
8
DEFAULT_255_2_778
10
3.7952776
20
59.263897
11
3.7957776
21
59.260997
0
LINE
8
DEFAULT_255_2_778
10
3.7957776
20
59.260997
11
3.7963776
21
59.257897
0
LINE
8
DEFAULT_255_2_778
10
3.7963776
20
59.257897
11
3.7968776
21
59.254697
0
LINE
8
DEFAULT_255_2_778
10
3.7968776
20
59.254697
11
3.7973776
21
59.251497
0
LINE
8
DEFAULT_255_2_778
10
3.7973776
20
59.251497
11
3.7979776
21
59.248297
0
LINE
8
DEFAULT_255_2_778
10
3.7979776
20
59.248297
11
3.7981776
21
59.245197
0
LINE
8
DEFAULT_255_2_778
10
3.7981776
20
59.245197
11
3.7984776
21
59.241997
0
LINE
8
DEFAULT_255_2_778
10
3.7984776
20
59.241997
11
3.7987776
21
59.238797
0
LINE
8
DEFAULT_255_2_778
10
3.7987776
20
59.238797
11
3.7989776
21
59.235597
0
LINE
8
DEFAULT_255_2_778
10
3.7989776
20
59.235597
11
3.7989776
21
59.232497
0
LINE
8
DEFAULT_255_2_778
10
3.7989776
20
59.232497
11
3.7989776
21
59.229297
0
LINE
8
DEFAULT_255_2_778
10
3.7989776
20
59.229297
11
3.8394776
21
57.679097
0
LINE
8
DEFAULT_255_2_778
10
3.8394776
20
57.679097
11
4.9393776
21
57.679097
0
LINE
8
DEFAULT_255_2_778
10
40.2402776
20
111.430297
11
25.2405776
21
111.430297
0
LINE
8
DEFAULT_255_2_778
10
25.2405776
20
111.430297
11
25.2381776
21
111.917397
0
LINE
8
DEFAULT_255_2_778
10
25.2381776
20
111.917397
11
25.2296776
21
111.999097
0
LINE
8
DEFAULT_255_2_778
10
25.2296776
20
111.999097
11
25.2148776
21
112.116597
0
LINE
8
DEFAULT_255_2_778
10
25.2148776
20
112.116597
11
25.1857776
21
112.304997
0
LINE
8
DEFAULT_255_2_778
10
25.1857776
20
112.304997
11
25.1354776
21
112.616597
0
LINE
8
DEFAULT_255_2_778
10
25.1354776
20
112.616597
11
25.1177776
21
112.747097
0
LINE
8
DEFAULT_255_2_778
10
25.1177776
20
112.747097
11
25.1058776
21
112.851097
0
LINE
8
DEFAULT_255_2_778
10
25.1058776
20
112.851097
11
25.0987776
21
112.923797
0
LINE
8
DEFAULT_255_2_778
10
25.0987776
20
112.923797
11
25.0923776
21
112.999997
0
LINE
8
DEFAULT_255_2_778
10
25.0923776
20
112.999997
11
25.0870776
21
113.079697
0
LINE
8
DEFAULT_255_2_778
10
25.0870776
20
113.079697
11
25.0846776
21
113.120897
0
LINE
8
DEFAULT_255_2_778
10
25.0846776
20
113.120897
11
25.0825776
21
113.163297
0
LINE
8
DEFAULT_255_2_778
10
25.0825776
20
113.163297
11
25.0783776
21
113.260597
0
LINE
8
DEFAULT_255_2_778
10
25.0783776
20
113.260597
11
25.0754776
21
113.309097
0
LINE
8
DEFAULT_255_2_778
10
25.0754776
20
113.309097
11
25.0712776
21
113.356197
0
LINE
8
DEFAULT_255_2_778
10
25.0712776
20
113.356197
11
25.0651776
21
113.401097
0
LINE
8
DEFAULT_255_2_778
10
25.0651776
20
113.401097
11
25.0537776
21
113.454797
0
LINE
8
DEFAULT_255_2_778
10
25.0537776
20
113.454797
11
25.0341776
21
113.507797
0
LINE
8
DEFAULT_255_2_778
10
25.0341776
20
113.507797
11
25.0055776
21
113.547997
0
LINE
8
DEFAULT_255_2_778
10
25.0055776
20
113.547997
11
24.9574776
21
113.575497
0
LINE
8
DEFAULT_255_2_778
10
24.9574776
20
113.575497
11
24.9264776
21
113.579197
0
LINE
8
DEFAULT_255_2_778
10
25.2426776
20
106.079297
11
25.2408776
21
111.430297
0
LINE
8
DEFAULT_255_2_778
10
40.2402776
20
44.278997
11
24.8814776
21
44.278997
0
LINE
8
DEFAULT_255_2_778
10
24.8814776
20
44.278997
11
24.8814776
21
51.829397
0
LINE
8
DEFAULT_255_2_778
10
24.8814776
20
51.829397
11
24.8486776
21
51.928897
0
LINE
8
DEFAULT_255_2_778
10
24.8486776
20
51.928897
11
24.8486776
21
90.528997
0
LINE
8
DEFAULT_255_2_778
10
24.8486776
20
90.528997
11
24.8814776
21
90.628397
0
LINE
8
DEFAULT_255_2_778
10
24.8814776
20
90.628397
11
24.8814776
21
113.578897
0
LINE
8
DEFAULT_255_2_778
10
25.2400263
20
46.4247575
11
25.2427263
21
104.2234575
0
LINE
8
DEFAULT_255_2_778
10
26.8654263
20
105.6487575
11
27.8155263
21
105.6487575
0
LINE
8
DEFAULT_255_2_778
10
27.8155263
20
105.6487575
11
27.8155263
21
104.6986575
0
LINE
8
DEFAULT_255_2_778
10
27.8155263
20
104.6986575
11
26.8654263
21
104.6986575
0
LINE
8
DEFAULT_255_2_778
10
26.8654263
20
104.6986575
11
26.8654263
21
105.6487575
0
LINE
8
DEFAULT_255_2_778
10
40.2403263
20
104.2234575
11
25.2429263
21
104.2234575
0
LINE
8
DEFAULT_255_2_778
10
25.2429263
20
104.2234575
11
25.2424263
21
106.0792575
0
LINE
8
DEFAULT_255_2_778
10
25.2424263
20
106.0792575
11
40.2403263
21
106.0792575
0
LINE
8
DEFAULT_255_2_778
10
24.9265263
20
44.2789575
11
24.9913263
21
44.2979575
0
LINE
8
DEFAULT_255_2_778
10
24.9913263
20
44.2979575
11
25.0292263
21
44.3408575
0
LINE
8
DEFAULT_255_2_778
10
25.0292263
20
44.3408575
11
25.0503263
21
44.3913575
0
LINE
8
DEFAULT_255_2_778
10
25.0503263
20
44.3913575
11
25.0612263
21
44.4350575
0
LINE
8
DEFAULT_255_2_778
10
25.0612263
20
44.4350575
11
25.0683263
21
44.4784575
0
LINE
8
DEFAULT_255_2_778
10
25.0683263
20
44.4784575
11
25.0733263
21
44.5244575
0
LINE
8
DEFAULT_255_2_778
10
25.0733263
20
44.5244575
11
25.0768263
21
44.5723575
0
LINE
8
DEFAULT_255_2_778
10
25.0768263
20
44.5723575
11
25.0792263
21
44.6210575
0
LINE
8
DEFAULT_255_2_778
10
25.0792263
20
44.6210575
11
25.0821263
21
44.6938575
0
LINE
8
DEFAULT_255_2_778
10
25.0821263
20
44.6938575
11
25.0842263
21
44.7361575
0
LINE
8
DEFAULT_255_2_778
10
25.0842263
20
44.7361575
11
25.0866263
21
44.7774575
0
LINE
8
DEFAULT_255_2_778
10
25.0866263
20
44.7774575
11
25.0919263
21
44.8570575
0
LINE
8
DEFAULT_255_2_778
10
25.0919263
20
44.8570575
11
25.0982263
21
44.9329575
0
LINE
8
DEFAULT_255_2_778
10
25.0982263
20
44.9329575
11
25.1091263
21
45.0409575
0
LINE
8
DEFAULT_255_2_778
10
25.1091263
20
45.0409575
11
25.1260263
21
45.1756575
0
LINE
8
DEFAULT_255_2_778
10
25.1260263
20
45.1756575
11
25.1607263
21
45.4010575
0
LINE
8
DEFAULT_255_2_778
10
25.1607263
20
45.4010575
11
25.2035263
21
45.6629575
0
LINE
8
DEFAULT_255_2_778
10
25.2035263
20
45.6629575
11
25.2199263
21
45.7775575
0
LINE
8
DEFAULT_255_2_778
10
25.2199263
20
45.7775575
11
25.2297263
21
45.8563575
0
LINE
8
DEFAULT_255_2_778
10
25.2297263
20
45.8563575
11
25.2387263
21
45.9436575
0
LINE
8
DEFAULT_255_2_778
10
25.2387263
20
45.9436575
11
25.2408263
21
46.4252575
0
LINE
8
DEFAULT_255_2_778
10
25.2408263
20
46.4252575
11
40.2408263
21
46.4252575
0
LINE
8
DEFAULT_255_2_778
10
40.2403263
20
45.9373575
11
25.2379263
21
45.9373575
0
ARC
8
DEFAULT_255_2_778
10
1.540561
20
55.1790374
40
0.5000969
50
179.9996485
51
270.0003515
0
ARC
8
DEFAULT_255_2_778
10
1.5405461
20
57.4213324
40
0.500082
50
125.4835198
51
179.9990823
0
ARC
8
DEFAULT_255_2_778
10
3.6550757
20
58.9277527
40
0.5011761
50
100.4976167
51
125.4266109
0
LINE
8
DEFAULT_255_2_778
10
40.2403641
20
46.2228404
11
25.2402641
21
46.2228404
0
LINE
8
DEFAULT_255_2_778
10
5.2404641
20
54.6789404
11
1.5405641
21
54.6789404
0
LINE
8
DEFAULT_255_2_778
10
1.0404641
20
55.1790404
11
1.0404641
21
57.4213404
0
LINE
8
DEFAULT_255_2_778
10
1.2502641
20
57.8285404
11
3.3645641
21
59.3361404
0
LINE
8
DEFAULT_255_2_778
10
3.6365651
20
59.4204909
11
3.5635651
21
59.4204909
0
LINE
8
DEFAULT_255_2_778
10
40.2403651
20
111.6314909
11
25.2405651
21
111.6314909
0
LINE
8
DEFAULT_255_2_778
10
40.2403651
20
111.9175909
11
25.2382651
21
111.9175909
0
LINE
8
DEFAULT_255_2_778
10
40.2403651
20
113.5788909
11
5.2404651
21
113.5788909
0
LINE
8
DEFAULT_255_2_778
10
40.2406651
20
115.2348909
11
20.3405651
21
115.2348909
0
LINE
8
DEFAULT_255_2_778
10
20.2404284
20
115.234871
11
5.2404284
21
115.234871
0
LINE
8
DEFAULT_255_2_778
10
24.8487284
20
51.928771
11
5.2404284
21
51.928771
0
LINE
8
DEFAULT_255_2_778
10
5.2404284
20
51.829371
11
24.8817284
21
51.829371
0
LINE
8
DEFAULT_255_2_778
10
24.8487284
20
90.528871
11
5.2404284
21
90.528871
0
ARC
8
DEFAULT_255_2_778
10
14.9335551
20
84.2569532
40
2.193142
50
157.1036608
51
180.0747241
0
ARC
8
DEFAULT_255_2_778
10
14.9423108
20
84.2514122
40
2.2033645
50
100.4106179
51
157.0595091
0
ARC
8
DEFAULT_255_2_778
10
14.9394413
20
84.2410853
40
2.2130078
50
89.9747912
51
100.2892332
0
ARC
8
DEFAULT_255_2_778
10
14.9432705
20
84.2610917
40
2.1930031
50
67.0978915
51
90.0746064
0
ARC
8
DEFAULT_255_2_778
10
14.9376264
20
84.2520999
40
2.2034832
50
10.4113014
51
67.05369
0
ARC
8
DEFAULT_255_2_778
10
14.927647
20
84.2550616
40
2.2127681
50
359.9749205
51
10.2891805
0
ARC
8
DEFAULT_255_2_778
10
14.947262
20
84.2512253
40
2.1931548
50
337.1192163
51
0.0749176
0
ARC
8
DEFAULT_255_2_778
10
14.9385078
20
84.2567957
40
2.2033867
50
280.4126007
51
337.0742745
0
ARC
8
DEFAULT_255_2_778
10
14.9413855
20
84.2670302
40
2.2129375
50
269.9748701
51
280.2914274
0
ARC
8
DEFAULT_255_2_778
10
14.9375415
20
84.2473812
40
2.1932901
50
247.1208715
51
270.075064
0
ARC
8
DEFAULT_255_2_778
10
14.9430095
20
84.2559023
40
2.2032674
50
190.4112809
51
247.0760143
0
ARC
8
DEFAULT_255_2_778
10
14.9536098
20
84.2531191
40
2.2131952
50
179.9747882
51
190.290824
0
ARC
8
DEFAULT_255_2_778
10
14.9357944
20
84.2557891
40
1.0952808
50
141.7937994
51
180.0887261
0
ARC
8
DEFAULT_255_2_778
10
14.9395937
20
84.2558367
40
1.0982394
50
93.576878
51
141.9183419
0
ARC
8
DEFAULT_255_2_778
10
14.9404433
20
84.23734
40
1.1167531
50
89.9963258
51
93.5611799
0
ARC
8
DEFAULT_255_2_778
10
14.942211
20
84.2588135
40
1.0952808
50
51.7937994
51
90.0887261
0
ARC
8
DEFAULT_255_2_778
10
14.9422586
20
84.2550142
40
1.0982394
50
3.576878
51
51.9183419
0
ARC
8
DEFAULT_255_2_778
10
14.9237619
20
84.2541646
40
1.1167531
50
359.9963258
51
3.5611799
0
ARC
8
DEFAULT_255_2_778
10
14.9452354
20
84.2523969
40
1.0952808
50
321.7937994
51
0.0887261
0
ARC
8
DEFAULT_255_2_778
10
14.9414362
20
84.2523493
40
1.0982394
50
273.576878
51
321.9183419
0
ARC
8
DEFAULT_255_2_778
10
14.9405865
20
84.270846
40
1.1167531
50
269.9963258
51
273.5611799
0
ARC
8
DEFAULT_255_2_778
10
14.9388188
20
84.2493725
40
1.0952808
50
231.7937994
51
270.0887261
0
ARC
8
DEFAULT_255_2_778
10
14.9387712
20
84.2531717
40
1.0982394
50
183.576878
51
231.9183419
0
ARC
8
DEFAULT_255_2_778
10
14.957268
20
84.2540214
40
1.1167531
50
179.9963258
51
183.5611799
0
ARC
8
DEFAULT_255_2_778
10
14.9335551
20
59.2670532
40
2.193142
50
157.1036608
51
180.0747241
0
ARC
8
DEFAULT_255_2_778
10
14.9423108
20
59.2615122
40
2.2033645
50
100.4106179
51
157.0595091
0
ARC
8
DEFAULT_255_2_778
10
14.9394413
20
59.2511853
40
2.2130078
50
89.9747912
51
100.2892332
0
ARC
8
DEFAULT_255_2_778
10
14.9432705
20
59.2711917
40
2.1930031
50
67.0978915
51
90.0746064
0
ARC
8
DEFAULT_255_2_778
10
14.9376264
20
59.2621999
40
2.2034832
50
10.4113014
51
67.05369
0
ARC
8
DEFAULT_255_2_778
10
14.927647
20
59.2651616
40
2.2127681
50
359.9749205
51
10.2891805
0
ARC
8
DEFAULT_255_2_778
10
14.9474137
20
59.2613374
40
2.1930031
50
337.0978915
51
0.0746064
0
ARC
8
DEFAULT_255_2_778
10
14.9384218
20
59.2669815
40
2.2034832
50
280.4113014
51
337.05369
0
ARC
8
DEFAULT_255_2_778
10
14.9413835
20
59.2769609
40
2.2127681
50
269.9749205
51
280.2891805
0
ARC
8
DEFAULT_255_2_778
10
14.9375473
20
59.2573459
40
2.1931548
50
247.1192163
51
270.0749176
0
ARC
8
DEFAULT_255_2_778
10
14.9431176
20
59.2661001
40
2.2033867
50
190.4126007
51
247.0742745
0
ARC
8
DEFAULT_255_2_778
10
14.9533521
20
59.2632224
40
2.2129375
50
179.9748701
51
190.2914274
0
ARC
8
DEFAULT_255_2_778
10
14.9357944
20
59.2658891
40
1.0952808
50
141.7937994
51
180.0887261
0
ARC
8
DEFAULT_255_2_778
10
14.9395937
20
59.2659367
40
1.0982394
50
93.576878
51
141.9183419
0
ARC
8
DEFAULT_255_2_778
10
14.9404433
20
59.24744
40
1.1167531
50
89.9963258
51
93.5611799
0
ARC
8
DEFAULT_255_2_778
10
14.942211
20
59.2689135
40
1.0952808
50
51.7937994
51
90.0887261
0
ARC
8
DEFAULT_255_2_778
10
14.9422586
20
59.2651142
40
1.0982394
50
3.576878
51
51.9183419
0
ARC
8
DEFAULT_255_2_778
10
14.9237619
20
59.2642646
40
1.1167531
50
359.9963258
51
3.5611799
0
ARC
8
DEFAULT_255_2_778
10
14.9452354
20
59.2624969
40
1.0952808
50
321.7937994
51
0.0887261
0
ARC
8
DEFAULT_255_2_778
10
14.9414362
20
59.2624493
40
1.0982394
50
273.576878
51
321.9183419
0
ARC
8
DEFAULT_255_2_778
10
14.9405865
20
59.280946
40
1.1167531
50
269.9963258
51
273.5611799
0
ARC
8
DEFAULT_255_2_778
10
14.9388188
20
59.2594725
40
1.0952808
50
231.7937994
51
270.0887261
0
ARC
8
DEFAULT_255_2_778
10
14.9387712
20
59.2632717
40
1.0982394
50
183.576878
51
231.9183419
0
ARC
8
DEFAULT_255_2_778
10
14.957268
20
59.2641214
40
1.1167531
50
179.9963258
51
183.5611799
0
ARC
8
DEFAULT_255_2_778
10
13.5466118
20
76.885993
40
2.6125565
50
99.9450264
51
122.7791173
0
ARC
8
DEFAULT_255_2_778
10
13.5520591
20
76.8783214
40
2.6219557
50
122.788438
51
171.4381339
0
ARC
8
DEFAULT_255_2_778
10
13.5620297
20
76.8796772
40
2.6316148
50
171.4996404
51
180.0127188
0
ARC
8
DEFAULT_255_2_778
10
13.5440014
20
66.6373569
40
2.6135874
50
179.9531721
51
202.7795444
0
ARC
8
DEFAULT_255_2_778
10
13.5518058
20
66.6410896
40
2.6222284
50
202.788717
51
251.4318428
0
ARC
8
DEFAULT_255_2_778
10
13.5523246
20
66.6514445
40
2.6322109
50
251.4929115
51
260.0037335
0
ARC
8
DEFAULT_255_2_778
10
16.3313432
20
66.1505092
40
2.6215669
50
259.9845095
51
264.8886474
0
ARC
8
DEFAULT_255_2_778
10
16.3309808
20
66.1467241
40
2.6177647
50
264.8891675
51
269.9999187
0
ARC
8
DEFAULT_255_2_778
10
16.3308851
20
66.1486328
40
2.6196735
50
270.0020121
51
309.9981781
0
ARC
8
DEFAULT_255_2_778
10
16.3313722
20
66.1482184
40
2.619043
50
309.9958424
51
359.999079
0
ARC
8
DEFAULT_255_2_778
10
17.658266
20
66.1484305
40
1.2921492
50
359.9887303
51
0.0338096
0
ARC
8
DEFAULT_255_2_778
10
17.6589409
20
77.3698554
40
1.2914743
50
359.9661771
51
0.0112741
0
ARC
8
DEFAULT_255_2_778
10
16.3315764
20
77.3700627
40
2.6188387
50
0.0010227
51
50.0062421
0
ARC
8
DEFAULT_255_2_778
10
16.3310758
20
77.3701175
40
2.6191185
50
49.9970821
51
90.0000631
0
ARC
8
DEFAULT_255_2_778
10
16.3310793
20
77.3710175
40
2.6182186
50
90.0001402
51
95.1121092
0
ARC
8
DEFAULT_255_2_778
10
16.3314624
20
77.3670268
40
2.6222276
50
95.112676
51
100.0155848
0
ARC
8
DEFAULT_255_2_778
10
21.4909899
20
83.6143766
40
3.0006749
50
180.0054163
51
226.4908746
0
ARC
8
DEFAULT_255_2_778
10
14.9400033
20
84.2619348
40
3.5503126
50
359.9589798
51
16.9006462
0
ARC
8
DEFAULT_255_2_778
10
14.9336316
20
84.2527235
40
3.5590938
50
17.0127086
51
71.7144491
0
ARC
8
DEFAULT_255_2_778
10
14.9437073
20
84.2641764
40
3.5450629
50
71.8109948
51
89.1737692
0
ARC
8
DEFAULT_255_2_778
10
14.9395053
20
84.1873224
40
3.6219708
50
89.1248356
51
89.9856101
0
ARC
8
DEFAULT_255_2_778
10
14.9380566
20
84.2584985
40
3.5507953
50
89.9619461
51
106.9015136
0
ARC
8
DEFAULT_255_2_778
10
14.9470438
20
84.2525486
40
3.5591075
50
107.0120966
51
161.7136486
0
ARC
8
DEFAULT_255_2_778
10
14.9351421
20
84.26287
40
3.5445736
50
161.811698
51
179.1766405
0
ARC
8
DEFAULT_255_2_778
10
15.012483
20
84.2586695
40
3.6219682
50
179.1277816
51
179.9885559
0
ARC
8
DEFAULT_255_2_778
10
8.39023
20
82.8144093
40
3.0002849
50
313.5059235
51
359.9958683
0
ARC
8
DEFAULT_255_2_778
10
13.1405964
20
77.8095041
40
3.9000814
50
133.504913
51
179.9986943
0
ARC
8
DEFAULT_255_2_778
10
13.1403724
20
65.7097858
40
3.8998575
50
180.0013641
51
226.4965022
0
ARC
8
DEFAULT_255_2_778
10
8.3898386
20
60.7048088
40
3.0006762
50
0.0054254
51
46.4908618
0
ARC
8
DEFAULT_255_2_778
10
14.940916
20
59.2574555
40
3.5504019
50
179.9590512
51
196.9004313
0
ARC
8
DEFAULT_255_2_778
10
14.9473233
20
59.2666589
40
3.5592149
50
197.012203
51
251.7129746
0
ARC
8
DEFAULT_255_2_778
10
14.9371262
20
59.2549366
40
3.54489
50
251.8100158
51
269.173671
0
ARC
8
DEFAULT_255_2_778
10
14.9413246
20
59.3319636
40
3.6219708
50
269.1248356
51
269.9856101
0
ARC
8
DEFAULT_255_2_778
10
14.9427704
20
59.2606119
40
3.5506197
50
269.9619905
51
286.9024231
0
ARC
8
DEFAULT_255_2_778
10
14.9336668
20
59.2668288
40
3.5592214
50
287.0135438
51
341.7142261
0
ARC
8
DEFAULT_255_2_778
10
14.9455905
20
59.2565216
40
3.5446709
50
341.8119463
51
359.1765723
0
ARC
8
DEFAULT_255_2_778
10
14.8683044
20
59.2607166
40
3.6220106
50
359.1277888
51
359.9885534
0
ARC
8
DEFAULT_255_2_778
10
21.4907671
20
59.9050051
40
3.0004522
50
133.5072985
51
179.9945019
0
ARC
8
DEFAULT_255_2_778
10
16.7402897
20
64.9099578
40
3.9000253
50
313.5045576
51
359.9975787
0
ARC
8
DEFAULT_255_2_778
10
16.7400663
20
78.6098322
40
3.9002486
50
0.0023616
51
46.4940329
0
ARC
8
DEFAULT_255_2_778
10
29.7378755
20
103.6632759
40
0.3870838
50
18.8427333
51
27.180338
0
ARC
8
DEFAULT_255_2_778
10
29.8736043
20
103.7521383
40
0.2234314
50
51.7873614
51
66.2151676
0
ARC
8
DEFAULT_255_2_778
10
29.8008934
20
103.4283313
40
0.5562696
50
78.6871157
51
90.0105627
0
ARC
8
DEFAULT_255_2_778
10
29.800791
20
103.4310401
40
0.5535608
50
90.0000218
51
90.3080405
0
ARC
8
DEFAULT_255_2_778
10
29.7939141
20
103.6256886
40
0.3735229
50
131.9718462
51
142.9975688
0
ARC
8
DEFAULT_255_2_778
10
29.8755076
20
103.5946783
40
0.4601415
50
155.0480196
51
163.9893176
0
ARC
8
DEFAULT_255_2_778
10
30.1980135
20
103.5017134
40
0.7957788
50
163.9600543
51
169.1292193
0
ARC
8
DEFAULT_255_2_778
10
30.0365706
20
103.1350914
40
0.6313806
50
191.6131292
51
198.0945915
0
ARC
8
DEFAULT_255_2_778
10
29.8303481
20
103.0648338
40
0.4135336
50
207.7020423
51
217.6919245
0
ARC
8
DEFAULT_255_2_778
10
29.8308023
20
103.0506516
40
0.405385
50
216.0662968
51
228.6373897
0
ARC
8
DEFAULT_255_2_778
10
30.3240164
20
103.4917233
40
0.8315106
50
167.0621842
51
173.8993054
0
ARC
8
DEFAULT_255_2_778
10
29.8557911
20
103.6158682
40
0.3462231
50
153.3259102
51
161.5232871
0
ARC
8
DEFAULT_255_2_778
10
29.7171556
20
103.6972843
40
0.1848073
50
125.7373972
51
141.1571442
0
ARC
8
DEFAULT_255_2_778
10
27.1581222
20
103.1147801
40
0.4274086
50
283.8471468
51
295.5577326
0
ARC
8
DEFAULT_255_2_778
10
27.2240376
20
102.9871492
40
0.2838631
50
294.668956
51
313.6612797
0
ARC
8
DEFAULT_255_2_778
10
27.162626
20
103.5852564
40
0.2925867
50
57.2716502
51
72.1081324
0
ARC
8
DEFAULT_255_2_778
10
27.0172946
20
103.5027544
40
0.4557551
50
18.7687078
51
28.2101513
0
ARC
8
DEFAULT_255_2_778
10
26.718827
20
103.411587
40
0.7680227
50
6.8202164
51
12.4064477
0
LINE
8
DEFAULT_255_2_778
10
5.2405149
20
90.628393
11
24.8818149
21
90.628393
0
LINE
8
DEFAULT_255_2_778
10
12.7404149
20
84.254093
11
12.7404149
21
84.254093
0
LINE
8
DEFAULT_255_2_778
10
13.8405149
20
84.254093
11
13.8405149
21
84.254093
0
LINE
8
DEFAULT_255_2_778
10
12.7404149
20
59.264193
11
12.7404149
21
59.264193
0
LINE
8
DEFAULT_255_2_778
10
13.8405149
20
59.264193
11
13.8405149
21
59.264193
0
LINE
8
DEFAULT_255_2_778
10
10.9304149
20
76.879093
11
10.9304149
21
66.639493
0
LINE
8
DEFAULT_255_2_778
10
13.0954149
20
64.059193
11
15.8754149
21
63.568893
0
LINE
8
DEFAULT_255_2_778
10
18.9504149
20
66.149193
11
18.9504149
21
77.369093
0
LINE
8
DEFAULT_255_2_778
10
15.8754149
20
79.949293
11
13.0954149
21
79.459293
0
LINE
8
DEFAULT_255_2_778
10
18.4903149
20
83.614093
11
18.4903149
21
84.259393
0
LINE
8
DEFAULT_255_2_778
10
11.3905149
20
84.259393
11
11.3905149
21
82.814193
0
LINE
8
DEFAULT_255_2_778
10
9.2405149
20
77.809593
11
9.2405149
21
65.709693
0
LINE
8
DEFAULT_255_2_778
10
11.3905149
20
60.705093
11
11.3905149
21
59.259993
0
LINE
8
DEFAULT_255_2_778
10
18.4903149
20
59.259993
11
18.4903149
21
59.905293
0
LINE
8
DEFAULT_255_2_778
10
20.6403149
20
64.909793
11
20.6403149
21
78.609993
0
LINE
8
DEFAULT_255_2_778
10
19.4251149
20
81.438693
11
19.4251149
21
81.438093
0
LINE
8
DEFAULT_255_2_778
10
27.9444149
20
103.969993
11
27.8544149
21
103.969993
0
LINE
8
DEFAULT_255_2_778
10
27.8544149
20
103.969993
11
27.8544149
21
102.673593
0
LINE
8
DEFAULT_255_2_778
10
27.8544149
20
102.673593
11
27.9444149
21
102.673593
0
LINE
8
DEFAULT_255_2_778
10
27.9444149
20
102.673593
11
27.9444149
21
103.969993
0
LINE
8
DEFAULT_255_2_778
10
30.1198149
20
103.733993
11
30.1042149
21
103.788293
0
LINE
8
DEFAULT_255_2_778
10
30.0822149
20
103.840093
11
30.0682149
21
103.864693
0
LINE
8
DEFAULT_255_2_778
10
30.0682149
20
103.864693
11
30.0518149
21
103.887793
0
LINE
8
DEFAULT_255_2_778
10
30.0518149
20
103.887793
11
30.0330149
21
103.908893
0
LINE
8
DEFAULT_255_2_778
10
30.0330149
20
103.908893
11
30.0118149
21
103.927693
0
LINE
8
DEFAULT_255_2_778
10
29.9637149
20
103.956593
11
29.9372149
21
103.966593
0
LINE
8
DEFAULT_255_2_778
10
29.9372149
20
103.966593
11
29.9100149
21
103.973793
0
LINE
8
DEFAULT_255_2_778
10
29.7978149
20
103.984593
11
29.7298149
21
103.980593
0
LINE
8
DEFAULT_255_2_778
10
29.7298149
20
103.980593
11
29.6629149
21
103.967093
0
LINE
8
DEFAULT_255_2_778
10
29.6629149
20
103.967093
11
29.6306149
21
103.955993
0
LINE
8
DEFAULT_255_2_778
10
29.6306149
20
103.955993
11
29.5999149
21
103.941693
0
LINE
8
DEFAULT_255_2_778
10
29.5999149
20
103.941693
11
29.5711149
21
103.924293
0
LINE
8
DEFAULT_255_2_778
10
29.5711149
20
103.924293
11
29.5441149
21
103.903393
0
LINE
8
DEFAULT_255_2_778
10
29.4956149
20
103.850493
11
29.4755149
21
103.820793
0
LINE
8
DEFAULT_255_2_778
10
29.4755149
20
103.820793
11
29.4583149
21
103.788793
0
LINE
8
DEFAULT_255_2_778
10
29.4165149
20
103.651793
11
29.4057149
21
103.580593
0
LINE
8
DEFAULT_255_2_778
10
29.4057149
20
103.580593
11
29.3991149
21
103.509093
0
LINE
8
DEFAULT_255_2_778
10
29.3991149
20
103.509093
11
29.3943149
21
103.365693
0
LINE
8
DEFAULT_255_2_778
10
29.3943149
20
103.365693
11
29.3948149
21
103.293793
0
LINE
8
DEFAULT_255_2_778
10
29.3948149
20
103.293793
11
29.3967149
21
103.222093
0
LINE
8
DEFAULT_255_2_778
10
29.3967149
20
103.222093
11
29.4001149
21
103.150393
0
LINE
8
DEFAULT_255_2_778
10
29.4001149
20
103.150393
11
29.4067149
21
103.078893
0
LINE
8
DEFAULT_255_2_778
10
29.4067149
20
103.078893
11
29.4181149
21
103.007993
0
LINE
8
DEFAULT_255_2_778
10
29.4364149
20
102.938993
11
29.4488149
21
102.905093
0
LINE
8
DEFAULT_255_2_778
10
29.4488149
20
102.905093
11
29.4642149
21
102.872593
0
LINE
8
DEFAULT_255_2_778
10
29.5629149
20
102.746393
11
29.5803149
21
102.732293
0
LINE
8
DEFAULT_255_2_778
10
29.5803149
20
102.732293
11
29.5986149
21
102.719593
0
LINE
8
DEFAULT_255_2_778
10
29.5986149
20
102.719593
11
29.6375149
21
102.698693
0
LINE
8
DEFAULT_255_2_778
10
29.6375149
20
102.698693
11
29.6581149
21
102.690493
0
LINE
8
DEFAULT_255_2_778
10
29.6581149
20
102.690493
11
29.6790149
21
102.683393
0
LINE
8
DEFAULT_255_2_778
10
29.6790149
20
102.683393
11
29.7221149
21
102.672293
0
LINE
8
DEFAULT_255_2_778
10
29.7221149
20
102.672293
11
29.7658149
21
102.665893
0
LINE
8
DEFAULT_255_2_778
10
29.7658149
20
102.665893
11
29.8100149
21
102.664093
0
LINE
8
DEFAULT_255_2_778
10
29.8100149
20
102.664093
11
29.8544149
21
102.666193
0
LINE
8
DEFAULT_255_2_778
10
29.8544149
20
102.666193
11
29.8983149
21
102.671993
0
LINE
8
DEFAULT_255_2_778
10
29.8983149
20
102.671993
11
29.9415149
21
102.681793
0
LINE
8
DEFAULT_255_2_778
10
29.9415149
20
102.681793
11
29.9838149
21
102.695793
0
LINE
8
DEFAULT_255_2_778
10
29.9838149
20
102.695793
11
30.0251149
21
102.712493
0
LINE
8
DEFAULT_255_2_778
10
30.0251149
20
102.712493
11
30.0658149
21
102.730493
0
LINE
8
DEFAULT_255_2_778
10
30.0658149
20
102.730493
11
30.1058149
21
102.750293
0
LINE
8
DEFAULT_255_2_778
10
30.1058149
20
102.750293
11
30.1447149
21
102.772293
0
LINE
8
DEFAULT_255_2_778
10
30.1447149
20
102.772293
11
30.1447149
21
103.401693
0
LINE
8
DEFAULT_255_2_778
10
30.1447149
20
103.401693
11
29.8258149
21
103.401693
0
LINE
8
DEFAULT_255_2_778
10
29.8258149
20
103.401693
11
29.8258149
21
103.311493
0
LINE
8
DEFAULT_255_2_778
10
29.8258149
20
103.311493
11
30.0547149
21
103.311493
0
LINE
8
DEFAULT_255_2_778
10
30.0547149
20
103.311493
11
30.0547149
21
102.824393
0
LINE
8
DEFAULT_255_2_778
10
30.0547149
20
102.824393
11
30.0124149
21
102.803993
0
LINE
8
DEFAULT_255_2_778
10
30.0124149
20
102.803993
11
29.9621149
21
102.784493
0
LINE
8
DEFAULT_255_2_778
10
29.9621149
20
102.784493
11
29.9105149
21
102.769093
0
LINE
8
DEFAULT_255_2_778
10
29.9105149
20
102.769093
11
29.8843149
21
102.762993
0
LINE
8
DEFAULT_255_2_778
10
29.8843149
20
102.762993
11
29.8579149
21
102.758293
0
LINE
8
DEFAULT_255_2_778
10
29.8579149
20
102.758293
11
29.8042149
21
102.754593
0
LINE
8
DEFAULT_255_2_778
10
29.8042149
20
102.754593
11
29.7544149
21
102.758493
0
LINE
8
DEFAULT_255_2_778
10
29.7544149
20
102.758493
11
29.7301149
21
102.763493
0
LINE
8
DEFAULT_255_2_778
10
29.7301149
20
102.763493
11
29.7060149
21
102.770693
0
LINE
8
DEFAULT_255_2_778
10
29.7060149
20
102.770693
11
29.6827149
21
102.779393
0
LINE
8
DEFAULT_255_2_778
10
29.6827149
20
102.779393
11
29.6605149
21
102.790493
0
LINE
8
DEFAULT_255_2_778
10
29.6605149
20
102.790493
11
29.6200149
21
102.819893
0
LINE
8
DEFAULT_255_2_778
10
29.6200149
20
102.819893
11
29.5856149
21
102.855593
0
LINE
8
DEFAULT_255_2_778
10
29.5856149
20
102.855593
11
29.5703149
21
102.875493
0
LINE
8
DEFAULT_255_2_778
10
29.5703149
20
102.875493
11
29.5562149
21
102.896393
0
LINE
8
DEFAULT_255_2_778
10
29.5562149
20
102.896393
11
29.5435149
21
102.917793
0
LINE
8
DEFAULT_255_2_778
10
29.5435149
20
102.917793
11
29.5322149
21
102.939993
0
LINE
8
DEFAULT_255_2_778
10
29.5322149
20
102.939993
11
29.5234149
21
102.963293
0
LINE
8
DEFAULT_255_2_778
10
29.5234149
20
102.963293
11
29.5163149
21
102.987393
0
LINE
8
DEFAULT_255_2_778
10
29.5163149
20
102.987393
11
29.5060149
21
103.036293
0
LINE
8
DEFAULT_255_2_778
10
29.5060149
20
103.036293
11
29.4991149
21
103.085493
0
LINE
8
DEFAULT_255_2_778
10
29.4991149
20
103.085493
11
29.4941149
21
103.134793
0
LINE
8
DEFAULT_255_2_778
10
29.4941149
20
103.134793
11
29.4906149
21
103.183993
0
LINE
8
DEFAULT_255_2_778
10
29.4906149
20
103.183993
11
29.4874149
21
103.282893
0
LINE
8
DEFAULT_255_2_778
10
29.4874149
20
103.282893
11
29.4869149
21
103.332393
0
LINE
8
DEFAULT_255_2_778
10
29.4869149
20
103.332393
11
29.4869149
21
103.381893
0
LINE
8
DEFAULT_255_2_778
10
29.4869149
20
103.381893
11
29.4896149
21
103.481093
0
LINE
8
DEFAULT_255_2_778
10
29.4896149
20
103.481093
11
29.4972149
21
103.580093
0
LINE
8
DEFAULT_255_2_778
10
29.5136149
20
103.677893
11
29.5274149
21
103.725593
0
LINE
8
DEFAULT_255_2_778
10
29.5464149
20
103.771293
11
29.5586149
21
103.792793
0
LINE
8
DEFAULT_255_2_778
10
29.5586149
20
103.792793
11
29.5732149
21
103.813193
0
LINE
8
DEFAULT_255_2_778
10
29.6092149
20
103.847293
11
29.6303149
21
103.860493
0
LINE
8
DEFAULT_255_2_778
10
29.6303149
20
103.860493
11
29.6531149
21
103.870593
0
LINE
8
DEFAULT_255_2_778
10
29.6531149
20
103.870593
11
29.7010149
21
103.883793
0
LINE
8
DEFAULT_255_2_778
10
29.7010149
20
103.883793
11
29.7499149
21
103.890393
0
LINE
8
DEFAULT_255_2_778
10
29.7499149
20
103.890393
11
29.7994149
21
103.892293
0
LINE
8
DEFAULT_255_2_778
10
29.7994149
20
103.892293
11
29.8489149
21
103.889893
0
LINE
8
DEFAULT_255_2_778
10
29.8489149
20
103.889893
11
29.8975149
21
103.880893
0
LINE
8
DEFAULT_255_2_778
10
29.8975149
20
103.880893
11
29.9327149
21
103.867093
0
LINE
8
DEFAULT_255_2_778
10
29.9327149
20
103.867093
11
29.9642149
21
103.846493
0
LINE
8
DEFAULT_255_2_778
10
29.9642149
20
103.846493
11
29.9904149
21
103.818393
0
LINE
8
DEFAULT_255_2_778
10
29.9904149
20
103.818393
11
30.0007149
21
103.802293
0
LINE
8
DEFAULT_255_2_778
10
30.0007149
20
103.802293
11
30.0092149
21
103.785093
0
LINE
8
DEFAULT_255_2_778
10
30.0092149
20
103.785093
11
30.0227149
21
103.749093
0
LINE
8
DEFAULT_255_2_778
10
30.0227149
20
103.749093
11
30.0328149
21
103.712093
0
LINE
8
DEFAULT_255_2_778
10
30.0328149
20
103.712093
11
30.1211149
21
103.733793
0
LINE
8
DEFAULT_255_2_778
10
28.7172149
20
103.859993
11
28.7323149
21
103.812893
0
LINE
8
DEFAULT_255_2_778
10
28.7323149
20
103.812893
11
28.7474149
21
103.765793
0
LINE
8
DEFAULT_255_2_778
10
28.7474149
20
103.765793
11
28.7776149
21
103.671893
0
LINE
8
DEFAULT_255_2_778
10
28.7776149
20
103.671893
11
28.8384149
21
103.483993
0
LINE
8
DEFAULT_255_2_778
10
28.8384149
20
103.483993
11
28.8691149
21
103.390093
0
LINE
8
DEFAULT_255_2_778
10
28.8691149
20
103.390093
11
28.8995149
21
103.296193
0
LINE
8
DEFAULT_255_2_778
10
28.8995149
20
103.296193
11
28.9604149
21
103.108293
0
LINE
8
DEFAULT_255_2_778
10
28.9604149
20
103.108293
11
28.4651149
21
103.108293
0
LINE
8
DEFAULT_255_2_778
10
28.4651149
20
103.108293
11
28.5196149
21
103.271793
0
LINE
8
DEFAULT_255_2_778
10
28.5196149
20
103.271793
11
28.5746149
21
103.435293
0
LINE
8
DEFAULT_255_2_778
10
28.5746149
20
103.435293
11
28.6021149
21
103.517093
0
LINE
8
DEFAULT_255_2_778
10
28.6021149
20
103.517093
11
28.6299149
21
103.598593
0
LINE
8
DEFAULT_255_2_778
10
28.6299149
20
103.598593
11
28.6844149
21
103.762093
0
LINE
8
DEFAULT_255_2_778
10
28.6844149
20
103.762093
11
28.7006149
21
103.810993
0
LINE
8
DEFAULT_255_2_778
10
28.7006149
20
103.810993
11
28.7088149
21
103.835593
0
LINE
8
DEFAULT_255_2_778
10
28.7088149
20
103.835593
11
28.7172149
21
103.859993
0
LINE
8
DEFAULT_255_2_778
10
28.9911149
20
103.015993
11
29.0189149
21
102.927893
0
LINE
8
DEFAULT_255_2_778
10
29.0189149
20
102.927893
11
29.0477149
21
102.839993
0
LINE
8
DEFAULT_255_2_778
10
29.0477149
20
102.839993
11
29.0623149
21
102.796093
0
LINE
8
DEFAULT_255_2_778
10
29.0623149
20
102.796093
11
29.0773149
21
102.752393
0
LINE
8
DEFAULT_255_2_778
10
29.0773149
20
102.752393
11
29.1062149
21
102.664593
0
LINE
8
DEFAULT_255_2_778
10
29.1062149
20
102.664593
11
29.1946149
21
102.693393
0
LINE
8
DEFAULT_255_2_778
10
29.1946149
20
102.693393
11
28.7749149
21
103.975593
0
LINE
8
DEFAULT_255_2_778
10
28.7749149
20
103.975593
11
28.6596149
21
103.975593
0
LINE
8
DEFAULT_255_2_778
10
28.6596149
20
103.975593
11
28.2291149
21
102.693393
0
LINE
8
DEFAULT_255_2_778
10
28.2291149
20
102.693393
11
28.3156149
21
102.664593
0
LINE
8
DEFAULT_255_2_778
10
28.3156149
20
102.664593
11
28.4344149
21
103.015993
0
LINE
8
DEFAULT_255_2_778
10
28.4344149
20
103.015993
11
28.9911149
21
103.015993
0
LINE
8
DEFAULT_255_2_778
10
27.5806149
20
103.399593
11
27.5732149
21
103.497493
0
LINE
8
DEFAULT_255_2_778
10
27.5732149
20
103.497493
11
27.5668149
21
103.545893
0
LINE
8
DEFAULT_255_2_778
10
27.5668149
20
103.545893
11
27.5578149
21
103.594093
0
LINE
8
DEFAULT_255_2_778
10
27.5578149
20
103.594093
11
27.5462149
21
103.641693
0
LINE
8
DEFAULT_255_2_778
10
27.5462149
20
103.641693
11
27.5393149
21
103.665193
0
LINE
8
DEFAULT_255_2_778
10
27.5393149
20
103.665193
11
27.5314149
21
103.688793
0
LINE
8
DEFAULT_255_2_778
10
27.5314149
20
103.688793
11
27.5129149
21
103.734293
0
LINE
8
DEFAULT_255_2_778
10
27.5129149
20
103.734293
11
27.4901149
21
103.777993
0
LINE
8
DEFAULT_255_2_778
10
27.4901149
20
103.777993
11
27.4769149
21
103.798893
0
LINE
8
DEFAULT_255_2_778
10
27.4769149
20
103.798893
11
27.4626149
21
103.818993
0
LINE
8
DEFAULT_255_2_778
10
27.4626149
20
103.818993
11
27.4306149
21
103.856293
0
LINE
8
DEFAULT_255_2_778
10
27.4306149
20
103.856293
11
27.4131149
21
103.873493
0
LINE
8
DEFAULT_255_2_778
10
27.4131149
20
103.873493
11
27.3946149
21
103.889593
0
LINE
8
DEFAULT_255_2_778
10
27.3946149
20
103.889593
11
27.3747149
21
103.904393
0
LINE
8
DEFAULT_255_2_778
10
27.3747149
20
103.904393
11
27.3536149
21
103.917693
0
LINE
8
DEFAULT_255_2_778
10
27.3536149
20
103.917693
11
27.3091149
21
103.939393
0
LINE
8
DEFAULT_255_2_778
10
27.3091149
20
103.939393
11
27.2626149
21
103.955493
0
LINE
8
DEFAULT_255_2_778
10
27.2626149
20
103.955493
11
27.2141149
21
103.966893
0
LINE
8
DEFAULT_255_2_778
10
27.2141149
20
103.966893
11
27.1649149
21
103.973193
0
LINE
8
DEFAULT_255_2_778
10
27.1649149
20
103.973193
11
27.0837149
21
103.977693
0
LINE
8
DEFAULT_255_2_778
10
27.0837149
20
103.977693
11
27.0025149
21
103.978293
0
LINE
8
DEFAULT_255_2_778
10
27.0025149
20
103.978293
11
26.8398149
21
103.976693
0
LINE
8
DEFAULT_255_2_778
10
26.8398149
20
103.976693
11
26.8398149
21
102.681493
0
LINE
8
DEFAULT_255_2_778
10
26.8398149
20
102.681493
11
26.8601149
21
102.679693
0
LINE
8
DEFAULT_255_2_778
10
26.8601149
20
102.679693
11
26.8805149
21
102.677793
0
LINE
8
DEFAULT_255_2_778
10
26.8805149
20
102.677793
11
26.9165149
21
102.674593
0
LINE
8
DEFAULT_255_2_778
10
26.9165149
20
102.674593
11
26.9596149
21
102.671993
0
LINE
8
DEFAULT_255_2_778
10
26.9596149
20
102.671993
11
27.0027149
21
102.671193
0
LINE
8
DEFAULT_255_2_778
10
27.0027149
20
102.671193
11
27.0459149
21
102.671693
0
LINE
8
DEFAULT_255_2_778
10
27.0459149
20
102.671693
11
27.0890149
21
102.673793
0
LINE
8
DEFAULT_255_2_778
10
27.0890149
20
102.673793
11
27.1747149
21
102.682893
0
LINE
8
DEFAULT_255_2_778
10
27.1747149
20
102.682893
11
27.2604149
21
102.699793
0
LINE
8
DEFAULT_255_2_778
10
27.4200149
20
102.781793
11
27.4364149
21
102.798693
0
LINE
8
DEFAULT_255_2_778
10
27.4364149
20
102.798693
11
27.4515149
21
102.816693
0
LINE
8
DEFAULT_255_2_778
10
27.4515149
20
102.816693
11
27.4652149
21
102.835793
0
LINE
8
DEFAULT_255_2_778
10
27.4652149
20
102.835793
11
27.4779149
21
102.855393
0
LINE
8
DEFAULT_255_2_778
10
27.4779149
20
102.855393
11
27.5010149
21
102.896393
0
LINE
8
DEFAULT_255_2_778
10
27.5010149
20
102.896393
11
27.5200149
21
102.939193
0
LINE
8
DEFAULT_255_2_778
10
27.5200149
20
102.939193
11
27.5356149
21
102.983193
0
LINE
8
DEFAULT_255_2_778
10
27.5356149
20
102.983193
11
27.5486149
21
103.027893
0
LINE
8
DEFAULT_255_2_778
10
27.5486149
20
103.027893
11
27.5594149
21
103.073393
0
LINE
8
DEFAULT_255_2_778
10
27.5594149
20
103.073393
11
27.5679149
21
103.119393
0
LINE
8
DEFAULT_255_2_778
10
27.5679149
20
103.119393
11
27.5787149
21
103.212293
0
LINE
8
DEFAULT_255_2_778
10
27.5787149
20
103.212293
11
27.5822149
21
103.305393
0
LINE
8
DEFAULT_255_2_778
10
27.5822149
20
103.305393
11
27.5806149
21
103.399593
0
LINE
8
DEFAULT_255_2_778
10
27.3049149
20
102.812493
11
27.2525149
21
102.793393
0
LINE
8
DEFAULT_255_2_778
10
27.2525149
20
102.793393
11
27.2255149
21
102.786593
0
LINE
8
DEFAULT_255_2_778
10
27.2255149
20
102.786593
11
27.1983149
21
102.780693
0
LINE
8
DEFAULT_255_2_778
10
27.1983149
20
102.780693
11
27.1432149
21
102.771993
0
LINE
8
DEFAULT_255_2_778
10
27.1432149
20
102.771993
11
27.0877149
21
102.767293
0
LINE
8
DEFAULT_255_2_778
10
27.0877149
20
102.767293
11
27.0488149
21
102.765893
0
LINE
8
DEFAULT_255_2_778
10
27.0488149
20
102.765893
11
27.0099149
21
102.765693
0
LINE
8
DEFAULT_255_2_778
10
27.0099149
20
102.765693
11
26.9710149
21
102.765693
0
LINE
8
DEFAULT_255_2_778
10
26.9710149
20
102.765693
11
26.9321149
21
102.767293
0
LINE
8
DEFAULT_255_2_778
10
26.9321149
20
102.767293
11
26.9321149
21
103.885393
0
LINE
8
DEFAULT_255_2_778
10
26.9321149
20
103.885393
11
27.0128149
21
103.885393
0
LINE
8
DEFAULT_255_2_778
10
27.0128149
20
103.885393
11
27.0533149
21
103.885393
0
LINE
8
DEFAULT_255_2_778
10
27.0533149
20
103.885393
11
27.0938149
21
103.885393
0
LINE
8
DEFAULT_255_2_778
10
27.0938149
20
103.885393
11
27.1340149
21
103.883793
0
LINE
8
DEFAULT_255_2_778
10
27.1340149
20
103.883793
11
27.1739149
21
103.880593
0
LINE
8
DEFAULT_255_2_778
10
27.1739149
20
103.880593
11
27.2136149
21
103.874493
0
LINE
8
DEFAULT_255_2_778
10
27.2136149
20
103.874493
11
27.2525149
21
103.863693
0
LINE
8
DEFAULT_255_2_778
10
27.3208149
20
103.831393
11
27.3509149
21
103.808393
0
LINE
8
DEFAULT_255_2_778
10
27.3509149
20
103.808393
11
27.3771149
21
103.781093
0
LINE
8
DEFAULT_255_2_778
10
27.3771149
20
103.781093
11
27.3888149
21
103.766293
0
LINE
8
DEFAULT_255_2_778
10
27.3888149
20
103.766293
11
27.3996149
21
103.750693
0
LINE
8
DEFAULT_255_2_778
10
27.3996149
20
103.750693
11
27.4189149
21
103.718193
0
LINE
8
DEFAULT_255_2_778
10
27.4488149
20
103.649393
11
27.4599149
21
103.613093
0
LINE
8
DEFAULT_255_2_778
10
27.4599149
20
103.613093
11
27.4689149
21
103.576593
0
LINE
8
DEFAULT_255_2_778
10
27.4814149
20
103.502793
11
27.4848149
21
103.465793
0
LINE
8
DEFAULT_255_2_778
10
27.4848149
20
103.465793
11
27.4875149
21
103.428393
0
LINE
8
DEFAULT_255_2_778
10
27.4875149
20
103.428393
11
27.4909149
21
103.353793
0
LINE
8
DEFAULT_255_2_778
10
27.4909149
20
103.353793
11
27.4917149
21
103.316493
0
LINE
8
DEFAULT_255_2_778
10
27.4917149
20
103.316493
11
27.4917149
21
103.278993
0
LINE
8
DEFAULT_255_2_778
10
27.4917149
20
103.278993
11
27.4877149
21
103.204093
0
LINE
8
DEFAULT_255_2_778
10
27.4877149
20
103.204093
11
27.4787149
21
103.129993
0
LINE
8
DEFAULT_255_2_778
10
27.4787149
20
103.129993
11
27.4639149
21
103.056693
0
LINE
8
DEFAULT_255_2_778
10
27.4639149
20
103.056693
11
27.4539149
21
103.020493
0
LINE
8
DEFAULT_255_2_778
10
27.4539149
20
103.020493
11
27.4417149
21
102.984993
0
LINE
8
DEFAULT_255_2_778
10
27.4417149
20
102.984993
11
27.4271149
21
102.950293
0
LINE
8
DEFAULT_255_2_778
10
27.4271149
20
102.950293
11
27.4097149
21
102.916993
0
LINE
8
DEFAULT_255_2_778
10
27.4097149
20
102.916993
11
27.3893149
21
102.885493
0
LINE
8
DEFAULT_255_2_778
10
27.3893149
20
102.885493
11
27.3652149
21
102.856693
0
LINE
8
DEFAULT_255_2_778
10
27.3652149
20
102.856693
11
27.3515149
21
102.843693
0
LINE
8
DEFAULT_255_2_778
10
27.3515149
20
102.843693
11
27.3369149
21
102.831793
0
LINE
8
DEFAULT_255_2_778
10
27.3369149
20
102.831793
11
27.3049149
21
102.812493
0
ARC
8
DEFAULT_255_2_778
10
26.4079167
20
110.9027231
40
0.3357973
50
118.637319
51
137.7175755
0
ARC
8
DEFAULT_255_2_778
10
26.4790006
20
110.8954097
40
0.422569
50
12.4822724
51
20.159655
0
ARC
8
DEFAULT_255_2_778
10
26.5087754
20
110.9005599
40
0.287577
50
12.3652898
51
27.7911506
0
ARC
8
DEFAULT_255_2_778
10
26.5364402
20
110.7879221
40
0.3602208
50
72.3797731
51
84.7691134
0
ARC
8
DEFAULT_255_2_778
10
26.8858839
20
110.7607272
40
0.7335996
50
170.0216298
51
173.7694402
0
ARC
8
DEFAULT_255_2_778
10
26.9853492
20
110.7492238
40
0.8337261
50
173.7254237
51
175.7822026
0
ARC
8
DEFAULT_255_2_778
10
26.5891398
20
110.170596
40
0.42502
50
198.3284379
51
208.768998
0
ARC
8
DEFAULT_255_2_778
10
26.4456045
20
110.1408319
40
0.4711428
50
332.1512536
51
340.4847155
0
ARC
8
DEFAULT_255_2_778
10
26.5768547
20
110.0662912
40
0.3196677
50
308.3921787
51
320.6589636
0
ARC
8
DEFAULT_255_2_778
10
26.3839877
20
110.0380754
40
0.2860838
50
215.0836048
51
228.702492
0
ARC
8
DEFAULT_255_2_778
10
26.5910393
20
110.160696
40
0.5280794
50
198.2703259
51
205.6454533
0
ARC
8
DEFAULT_255_2_778
10
27.1044173
20
110.7257274
40
1.0585077
50
171.9726965
51
179.3333729
0
ARC
8
DEFAULT_255_2_778
10
26.4888548
20
110.8598803
40
0.4258565
50
150.2894553
51
159.7261691
0
ARC
8
DEFAULT_255_2_778
10
26.4139455
20
110.9016236
40
0.3401071
50
138.3068853
51
150.1427653
0
LINE
8
DEFAULT_255_2_778
10
26.2469813
20
111.1974427
11
26.2721813
21
111.2101427
0
LINE
8
DEFAULT_255_2_778
10
26.2721813
20
111.2101427
11
26.2977813
21
111.2209427
0
LINE
8
DEFAULT_255_2_778
10
26.2977813
20
111.2209427
11
26.3509813
21
111.2373427
0
LINE
8
DEFAULT_255_2_778
10
26.3509813
20
111.2373427
11
26.3782813
21
111.2434427
0
LINE
8
DEFAULT_255_2_778
10
26.3782813
20
111.2434427
11
26.4060813
21
111.2482427
0
LINE
8
DEFAULT_255_2_778
10
26.4060813
20
111.2482427
11
26.4615813
21
111.2537427
0
LINE
8
DEFAULT_255_2_778
10
26.4615813
20
111.2537427
11
26.5171813
21
111.2553427
0
LINE
8
DEFAULT_255_2_778
10
26.5171813
20
111.2553427
11
26.5724813
21
111.2527427
0
LINE
8
DEFAULT_255_2_778
10
26.5724813
20
111.2527427
11
26.6277813
21
111.2450427
0
LINE
8
DEFAULT_255_2_778
10
26.6277813
20
111.2450427
11
26.6552813
21
111.2386427
0
LINE
8
DEFAULT_255_2_778
10
26.6552813
20
111.2386427
11
26.6822813
21
111.2307427
0
LINE
8
DEFAULT_255_2_778
10
26.6822813
20
111.2307427
11
26.7338813
21
111.2085427
0
LINE
8
DEFAULT_255_2_778
10
26.7338813
20
111.2085427
11
26.7581813
21
111.1942427
0
LINE
8
DEFAULT_255_2_778
10
26.7581813
20
111.1942427
11
26.7806813
21
111.1778427
0
LINE
8
DEFAULT_255_2_778
10
26.7806813
20
111.1778427
11
26.8206813
21
111.1386427
0
LINE
8
DEFAULT_255_2_778
10
26.8206813
20
111.1386427
11
26.8375813
21
111.1161427
0
LINE
8
DEFAULT_255_2_778
10
26.8375813
20
111.1161427
11
26.8523813
21
111.0923427
0
LINE
8
DEFAULT_255_2_778
10
26.8523813
20
111.0923427
11
26.8650813
21
111.0672427
0
LINE
8
DEFAULT_255_2_778
10
26.8650813
20
111.0672427
11
26.8756813
21
111.0410427
0
LINE
8
DEFAULT_255_2_778
10
26.8915813
20
110.9867427
11
26.7896813
21
110.9621427
0
LINE
8
DEFAULT_255_2_778
10
26.7631813
20
111.0346427
11
26.7531813
21
111.0513427
0
LINE
8
DEFAULT_255_2_778
10
26.7531813
20
111.0513427
11
26.7415813
21
111.0672427
0
LINE
8
DEFAULT_255_2_778
10
26.7415813
20
111.0672427
11
26.7142813
21
111.0947427
0
LINE
8
DEFAULT_255_2_778
10
26.7142813
20
111.0947427
11
26.6983813
21
111.1063427
0
LINE
8
DEFAULT_255_2_778
10
26.6983813
20
111.1063427
11
26.6814813
21
111.1161427
0
LINE
8
DEFAULT_255_2_778
10
26.6814813
20
111.1161427
11
26.6454813
21
111.1312427
0
LINE
8
DEFAULT_255_2_778
10
26.5692813
20
111.1466427
11
26.4914813
21
111.1489427
0
LINE
8
DEFAULT_255_2_778
10
26.4914813
20
111.1489427
11
26.4139813
21
111.1431427
0
LINE
8
DEFAULT_255_2_778
10
26.4139813
20
111.1431427
11
26.3753813
21
111.1368427
0
LINE
8
DEFAULT_255_2_778
10
26.3753813
20
111.1368427
11
26.3562813
21
111.1325427
0
LINE
8
DEFAULT_255_2_778
10
26.3562813
20
111.1325427
11
26.3377813
21
111.1270427
0
LINE
8
DEFAULT_255_2_778
10
26.3377813
20
111.1270427
11
26.3020813
21
111.1114427
0
LINE
8
DEFAULT_255_2_778
10
26.3020813
20
111.1114427
11
26.2694813
21
111.0902427
0
LINE
8
DEFAULT_255_2_778
10
26.2694813
20
111.0902427
11
26.2409813
21
111.0640427
0
LINE
8
DEFAULT_255_2_778
10
26.2409813
20
111.0640427
11
26.2282813
21
111.0489427
0
LINE
8
DEFAULT_255_2_778
10
26.2282813
20
111.0489427
11
26.2168813
21
111.0331427
0
LINE
8
DEFAULT_255_2_778
10
26.2168813
20
111.0331427
11
26.1977813
21
110.9989427
0
LINE
8
DEFAULT_255_2_778
10
26.1977813
20
110.9989427
11
26.1829813
21
110.9627427
0
LINE
8
DEFAULT_255_2_778
10
26.1829813
20
110.9627427
11
26.1715813
21
110.9256427
0
LINE
8
DEFAULT_255_2_778
10
26.1715813
20
110.9256427
11
26.1633813
21
110.8878427
0
LINE
8
DEFAULT_255_2_778
10
26.1538813
20
110.8105427
11
26.1506813
21
110.7330427
0
LINE
8
DEFAULT_255_2_778
10
26.1506813
20
110.7330427
11
26.1506813
21
110.6941427
0
LINE
8
DEFAULT_255_2_778
10
26.1506813
20
110.6941427
11
26.1506813
21
110.6552427
0
LINE
8
DEFAULT_255_2_778
10
26.1506813
20
110.6552427
11
26.1506813
21
110.4999427
0
LINE
8
DEFAULT_255_2_778
10
26.1506813
20
110.4999427
11
26.1506813
21
110.3446427
0
LINE
8
DEFAULT_255_2_778
10
26.1506813
20
110.3446427
11
26.1506813
21
110.3057427
0
LINE
8
DEFAULT_255_2_778
10
26.1506813
20
110.3057427
11
26.1514813
21
110.2668427
0
LINE
8
DEFAULT_255_2_778
10
26.1514813
20
110.2668427
11
26.1559813
21
110.1893427
0
LINE
8
DEFAULT_255_2_778
10
26.1559813
20
110.1893427
11
26.1662813
21
110.1123427
0
LINE
8
DEFAULT_255_2_778
10
26.1662813
20
110.1123427
11
26.1745813
21
110.0742427
0
LINE
8
DEFAULT_255_2_778
10
26.1745813
20
110.0742427
11
26.1856813
21
110.0369427
0
LINE
8
DEFAULT_255_2_778
10
26.2165813
20
109.9660427
11
26.2377813
21
109.9332427
0
LINE
8
DEFAULT_255_2_778
10
26.2377813
20
109.9332427
11
26.2636813
21
109.9041427
0
LINE
8
DEFAULT_255_2_778
10
26.2636813
20
109.9041427
11
26.2784813
21
109.8914427
0
LINE
8
DEFAULT_255_2_778
10
26.2784813
20
109.8914427
11
26.2943813
21
109.8800427
0
LINE
8
DEFAULT_255_2_778
10
26.2943813
20
109.8800427
11
26.3287813
21
109.8617427
0
LINE
8
DEFAULT_255_2_778
10
26.3287813
20
109.8617427
11
26.3470813
21
109.8551427
0
LINE
8
DEFAULT_255_2_778
10
26.3470813
20
109.8551427
11
26.3660813
21
109.8504427
0
LINE
8
DEFAULT_255_2_778
10
26.3660813
20
109.8504427
11
26.3853813
21
109.8475427
0
LINE
8
DEFAULT_255_2_778
10
26.3853813
20
109.8475427
11
26.4046813
21
109.8453427
0
LINE
8
DEFAULT_255_2_778
10
26.4046813
20
109.8453427
11
26.4819813
21
109.8406427
0
LINE
8
DEFAULT_255_2_778
10
26.4819813
20
109.8406427
11
26.5208813
21
109.8406427
0
LINE
8
DEFAULT_255_2_778
10
26.5208813
20
109.8406427
11
26.5597813
21
109.8430427
0
LINE
8
DEFAULT_255_2_778
10
26.5597813
20
109.8430427
11
26.5790813
21
109.8448427
0
LINE
8
DEFAULT_255_2_778
10
26.5790813
20
109.8448427
11
26.5983813
21
109.8475427
0
LINE
8
DEFAULT_255_2_778
10
26.5983813
20
109.8475427
11
26.6359813
21
109.8570427
0
LINE
8
DEFAULT_255_2_778
10
26.6359813
20
109.8570427
11
26.6541813
21
109.8639427
0
LINE
8
DEFAULT_255_2_778
10
26.6541813
20
109.8639427
11
26.6716813
21
109.8721427
0
LINE
8
DEFAULT_255_2_778
10
26.6716813
20
109.8721427
11
26.7039813
21
109.8930427
0
LINE
8
DEFAULT_255_2_778
10
26.7039813
20
109.8930427
11
26.7330813
21
109.9189427
0
LINE
8
DEFAULT_255_2_778
10
26.7330813
20
109.9189427
11
26.7460813
21
109.9332427
0
LINE
8
DEFAULT_255_2_778
10
26.7460813
20
109.9332427
11
26.7576813
21
109.9488427
0
LINE
8
DEFAULT_255_2_778
10
26.7576813
20
109.9488427
11
26.7769813
21
109.9827427
0
LINE
8
DEFAULT_255_2_778
10
26.7769813
20
109.9827427
11
26.7917813
21
110.0189427
0
LINE
8
DEFAULT_255_2_778
10
26.7917813
20
110.0189427
11
26.8896813
21
109.9834427
0
LINE
8
DEFAULT_255_2_778
10
26.8621813
20
109.9207427
11
26.8444813
21
109.8914427
0
LINE
8
DEFAULT_255_2_778
10
26.8444813
20
109.8914427
11
26.8240813
21
109.8636427
0
LINE
8
DEFAULT_255_2_778
10
26.7753813
20
109.8157427
11
26.7473813
21
109.7959427
0
LINE
8
DEFAULT_255_2_778
10
26.7473813
20
109.7959427
11
26.7174813
21
109.7789427
0
LINE
8
DEFAULT_255_2_778
10
26.7174813
20
109.7789427
11
26.6533813
21
109.7543427
0
LINE
8
DEFAULT_255_2_778
10
26.6533813
20
109.7543427
11
26.6197813
21
109.7461427
0
LINE
8
DEFAULT_255_2_778
10
26.6197813
20
109.7461427
11
26.5861813
21
109.7406427
0
LINE
8
DEFAULT_255_2_778
10
26.5861813
20
109.7406427
11
26.5181813
21
109.7358427
0
LINE
8
DEFAULT_255_2_778
10
26.5181813
20
109.7358427
11
26.4837813
21
109.7358427
0
LINE
8
DEFAULT_255_2_778
10
26.4837813
20
109.7358427
11
26.4494813
21
109.7369427
0
LINE
8
DEFAULT_255_2_778
10
26.4494813
20
109.7369427
11
26.4152813
21
109.7384427
0
LINE
8
DEFAULT_255_2_778
10
26.4152813
20
109.7384427
11
26.3814813
21
109.7419427
0
LINE
8
DEFAULT_255_2_778
10
26.3814813
20
109.7419427
11
26.3147813
21
109.7572427
0
LINE
8
DEFAULT_255_2_778
10
26.3147813
20
109.7572427
11
26.2824813
21
109.7691427
0
LINE
8
DEFAULT_255_2_778
10
26.2824813
20
109.7691427
11
26.2517813
21
109.7842427
0
LINE
8
DEFAULT_255_2_778
10
26.2517813
20
109.7842427
11
26.2223813
21
109.8022427
0
LINE
8
DEFAULT_255_2_778
10
26.2223813
20
109.8022427
11
26.2083813
21
109.8123427
0
LINE
8
DEFAULT_255_2_778
10
26.2083813
20
109.8123427
11
26.1951813
21
109.8231427
0
LINE
8
DEFAULT_255_2_778
10
26.1498813
20
109.8736427
11
26.1311813
21
109.9022427
0
LINE
8
DEFAULT_255_2_778
10
26.1311813
20
109.9022427
11
26.1149813
21
109.9321427
0
LINE
8
DEFAULT_255_2_778
10
26.0895813
20
109.9951427
11
26.0710813
21
110.0607427
0
LINE
8
DEFAULT_255_2_778
10
26.0710813
20
110.0607427
11
26.0639813
21
110.0938427
0
LINE
8
DEFAULT_255_2_778
10
26.0639813
20
110.0938427
11
26.0583813
21
110.1271427
0
LINE
8
DEFAULT_255_2_778
10
26.0583813
20
110.1271427
11
26.0506813
21
110.1943427
0
LINE
8
DEFAULT_255_2_778
10
26.0506813
20
110.1943427
11
26.0467813
21
110.2621427
0
LINE
8
DEFAULT_255_2_778
10
26.0467813
20
110.2621427
11
26.0459813
21
110.2959427
0
LINE
8
DEFAULT_255_2_778
10
26.0459813
20
110.2959427
11
26.0456813
21
110.3301427
0
LINE
8
DEFAULT_255_2_778
10
26.0456813
20
110.3301427
11
26.0456813
21
110.6020427
0
LINE
8
DEFAULT_255_2_778
10
26.0456813
20
110.6020427
11
26.0456813
21
110.6700427
0
LINE
8
DEFAULT_255_2_778
10
26.0456813
20
110.6700427
11
26.0456813
21
110.7042427
0
LINE
8
DEFAULT_255_2_778
10
26.0456813
20
110.7042427
11
26.0459813
21
110.7380427
0
LINE
8
DEFAULT_255_2_778
10
26.0562813
20
110.8735427
11
26.0689813
21
110.9407427
0
LINE
8
DEFAULT_255_2_778
10
26.0689813
20
110.9407427
11
26.0779813
21
110.9740427
0
LINE
8
DEFAULT_255_2_778
10
26.0779813
20
110.9740427
11
26.0893813
21
111.0074427
0
LINE
8
DEFAULT_255_2_778
10
27.3608813
20
111.2490427
11
27.2190813
21
111.2490427
0
LINE
8
DEFAULT_255_2_778
10
27.2190813
20
111.2490427
11
27.2190813
21
109.6490427
0
LINE
8
DEFAULT_255_2_778
10
27.2190813
20
109.6490427
11
27.3325813
21
109.6490427
0
LINE
8
DEFAULT_255_2_778
10
27.3325813
20
109.6490427
11
27.3325813
21
111.0002427
0
LINE
8
DEFAULT_255_2_778
10
27.3325813
20
111.0002427
11
27.8270813
21
109.6490427
0
LINE
8
DEFAULT_255_2_778
10
27.8270813
20
109.6490427
11
27.9892813
21
109.6490427
0
LINE
8
DEFAULT_255_2_778
10
27.9892813
20
109.6490427
11
28.4927813
21
111.0047427
0
LINE
8
DEFAULT_255_2_778
10
28.4927813
20
111.0047427
11
28.4927813
21
109.6490427
0
LINE
8
DEFAULT_255_2_778
10
28.4927813
20
109.6490427
11
28.6062813
21
109.6490427
0
LINE
8
DEFAULT_255_2_778
10
28.6062813
20
109.6490427
11
28.6062813
21
111.2490427
0
LINE
8
DEFAULT_255_2_778
10
28.6062813
20
111.2490427
11
28.4620813
21
111.2490427
0
LINE
8
DEFAULT_255_2_778
10
28.4620813
20
111.2490427
11
27.9117813
21
109.7620427
0
LINE
8
DEFAULT_255_2_778
10
27.9117813
20
109.7620427
11
27.3611813
21
111.2490427
0
ARC
8
DEFAULT_255_2_778
10
37.7280628
20
110.3449805
40
0.475786
50
283.6741984
51
293.7177528
0
ARC
8
DEFAULT_255_2_778
10
37.8090393
20
110.1334464
40
0.2497872
50
296.2299268
51
316.2706615
0
ARC
8
DEFAULT_255_2_778
10
37.7117912
20
110.663371
40
0.5880545
50
74.6620188
51
85.4599777
0
ARC
8
DEFAULT_255_2_778
10
37.7124455
20
110.7764811
40
0.4878282
50
31.8463619
51
44.9257387
0
ARC
8
DEFAULT_255_2_778
10
37.5646208
20
110.2980001
40
0.6498345
50
329.1202515
51
338.8639536
0
LINE
8
DEFAULT_255_2_778
10
26.6018389
20
111.2553804
11
26.4722389
21
111.2553804
0
LINE
8
DEFAULT_255_2_778
10
37.4889389
20
109.8575804
11
37.5114389
21
109.8559804
0
LINE
8
DEFAULT_255_2_778
10
37.5114389
20
109.8559804
11
37.5339389
21
109.8554804
0
LINE
8
DEFAULT_255_2_778
10
37.5339389
20
109.8554804
11
37.5789389
21
109.8554804
0
LINE
8
DEFAULT_255_2_778
10
37.5789389
20
109.8554804
11
37.6238389
21
109.8559804
0
LINE
8
DEFAULT_255_2_778
10
37.6238389
20
109.8559804
11
37.6688389
21
109.8577804
0
LINE
8
DEFAULT_255_2_778
10
37.6688389
20
109.8577804
11
37.7553389
21
109.8659804
0
LINE
8
DEFAULT_255_2_778
10
37.7553389
20
109.8659804
11
37.8405389
21
109.8826804
0
LINE
8
DEFAULT_255_2_778
10
37.9895389
20
109.9607804
11
38.0041389
21
109.9771804
0
LINE
8
DEFAULT_255_2_778
10
38.0041389
20
109.9771804
11
38.0175389
21
109.9943804
0
LINE
8
DEFAULT_255_2_778
10
38.0175389
20
109.9943804
11
38.0414389
21
110.0305804
0
LINE
8
DEFAULT_255_2_778
10
38.0414389
20
110.0305804
11
38.0615389
21
110.0691804
0
LINE
8
DEFAULT_255_2_778
10
38.0615389
20
110.0691804
11
38.0784389
21
110.1094804
0
LINE
8
DEFAULT_255_2_778
10
38.0784389
20
110.1094804
11
38.0922389
21
110.1504804
0
LINE
8
DEFAULT_255_2_778
10
38.0922389
20
110.1504804
11
38.1038389
21
110.1919804
0
LINE
8
DEFAULT_255_2_778
10
38.1038389
20
110.1919804
11
38.1210389
21
110.2768804
0
LINE
8
DEFAULT_255_2_778
10
38.1210389
20
110.2768804
11
38.1268389
21
110.3200804
0
LINE
8
DEFAULT_255_2_778
10
38.1268389
20
110.3200804
11
38.1313389
21
110.3631804
0
LINE
8
DEFAULT_255_2_778
10
38.1313389
20
110.3631804
11
38.1358389
21
110.4491804
0
LINE
8
DEFAULT_255_2_778
10
38.1358389
20
110.4491804
11
38.1358389
21
110.4919804
0
LINE
8
DEFAULT_255_2_778
10
38.1358389
20
110.4919804
11
38.1350389
21
110.5348804
0
LINE
8
DEFAULT_255_2_778
10
38.1350389
20
110.5348804
11
38.1313389
21
110.6208804
0
LINE
8
DEFAULT_255_2_778
10
38.1313389
20
110.6208804
11
38.1284389
21
110.6637804
0
LINE
8
DEFAULT_255_2_778
10
38.1284389
20
110.6637804
11
38.1242389
21
110.7065804
0
LINE
8
DEFAULT_255_2_778
10
38.1242389
20
110.7065804
11
38.1181389
21
110.7494804
0
LINE
8
DEFAULT_255_2_778
10
38.1181389
20
110.7494804
11
38.1099389
21
110.7923804
0
LINE
8
DEFAULT_255_2_778
10
38.1099389
20
110.7923804
11
38.0993389
21
110.8346804
0
LINE
8
DEFAULT_255_2_778
10
38.0993389
20
110.8346804
11
38.0863389
21
110.8761804
0
LINE
8
DEFAULT_255_2_778
10
38.0863389
20
110.8761804
11
38.0705389
21
110.9166804
0
LINE
8
DEFAULT_255_2_778
10
38.0705389
20
110.9166804
11
38.0514389
21
110.9558804
0
LINE
8
DEFAULT_255_2_778
10
38.0514389
20
110.9558804
11
38.0292389
21
110.9928804
0
LINE
8
DEFAULT_255_2_778
10
38.0292389
20
110.9928804
11
38.0168389
21
111.0105804
0
LINE
8
DEFAULT_255_2_778
10
38.0168389
20
111.0105804
11
38.0035389
21
111.0277804
0
LINE
8
DEFAULT_255_2_778
10
38.0035389
20
111.0277804
11
37.9731389
21
111.0592804
0
LINE
8
DEFAULT_255_2_778
10
37.9731389
20
111.0592804
11
37.9384389
21
111.0854804
0
LINE
8
DEFAULT_255_2_778
10
37.9384389
20
111.0854804
11
37.9003389
21
111.1066804
0
LINE
8
DEFAULT_255_2_778
10
37.9003389
20
111.1066804
11
37.8596389
21
111.1227804
0
LINE
8
DEFAULT_255_2_778
10
37.8596389
20
111.1227804
11
37.8149389
21
111.1352804
0
LINE
8
DEFAULT_255_2_778
10
37.8149389
20
111.1352804
11
37.7691389
21
111.1420804
0
LINE
8
DEFAULT_255_2_778
10
37.7691389
20
111.1420804
11
37.7458389
21
111.1441804
0
LINE
8
DEFAULT_255_2_778
10
37.7458389
20
111.1441804
11
37.7225389
21
111.1457804
0
LINE
8
DEFAULT_255_2_778
10
37.7225389
20
111.1457804
11
37.6760389
21
111.1476804
0
LINE
8
DEFAULT_255_2_778
10
37.6760389
20
111.1476804
11
37.6294389
21
111.1479804
0
LINE
8
DEFAULT_255_2_778
10
37.6294389
20
111.1479804
11
37.5828389
21
111.1479804
0
LINE
8
DEFAULT_255_2_778
10
37.5828389
20
111.1479804
11
37.4894389
21
111.1479804
0
LINE
8
DEFAULT_255_2_778
10
37.4894389
20
111.1479804
11
37.4889389
21
109.8575804
0
LINE
8
DEFAULT_255_2_778
10
37.6117389
20
111.2558804
11
37.7583389
21
111.2495804
0
LINE
8
DEFAULT_255_2_778
10
37.8673389
20
111.2304804
11
37.9199389
21
111.2124804
0
LINE
8
DEFAULT_255_2_778
10
37.9199389
20
111.2124804
11
37.9699389
21
111.1883804
0
LINE
8
DEFAULT_255_2_778
10
37.9699389
20
111.1883804
11
38.0160389
21
111.1579804
0
LINE
8
DEFAULT_255_2_778
10
38.0160389
20
111.1579804
11
38.0374389
21
111.1402804
0
LINE
8
DEFAULT_255_2_778
10
38.0374389
20
111.1402804
11
38.0578389
21
111.1209804
0
LINE
8
DEFAULT_255_2_778
10
38.1268389
20
111.0338804
11
38.1408389
21
111.0097804
0
LINE
8
DEFAULT_255_2_778
10
38.1408389
20
111.0097804
11
38.1538389
21
110.9851804
0
LINE
8
DEFAULT_255_2_778
10
38.1538389
20
110.9851804
11
38.1760389
21
110.9343804
0
LINE
8
DEFAULT_255_2_778
10
38.1760389
20
110.9343804
11
38.1938389
21
110.8817804
0
LINE
8
DEFAULT_255_2_778
10
38.1938389
20
110.8817804
11
38.2009389
21
110.8547804
0
LINE
8
DEFAULT_255_2_778
10
38.2009389
20
110.8547804
11
38.2075389
21
110.8274804
0
LINE
8
DEFAULT_255_2_778
10
38.2075389
20
110.8274804
11
38.2186389
21
110.7729804
0
LINE
8
DEFAULT_255_2_778
10
38.2186389
20
110.7729804
11
38.2268389
21
110.7184804
0
LINE
8
DEFAULT_255_2_778
10
38.2268389
20
110.7184804
11
38.2364389
21
110.6089804
0
LINE
8
DEFAULT_255_2_778
10
38.2364389
20
110.6089804
11
38.2382389
21
110.5539804
0
LINE
8
DEFAULT_255_2_778
10
38.2382389
20
110.5539804
11
38.2393389
21
110.4988804
0
LINE
8
DEFAULT_255_2_778
10
38.2393389
20
110.4988804
11
38.2393389
21
110.4438804
0
LINE
8
DEFAULT_255_2_778
10
38.2393389
20
110.4438804
11
38.2369389
21
110.3888804
0
LINE
8
DEFAULT_255_2_778
10
38.2369389
20
110.3888804
11
38.2252389
21
110.2784804
0
LINE
8
DEFAULT_255_2_778
10
38.2252389
20
110.2784804
11
38.2041389
21
110.1694804
0
LINE
8
DEFAULT_255_2_778
10
38.2041389
20
110.1694804
11
38.1890389
21
110.1160804
0
LINE
8
DEFAULT_255_2_778
10
38.1890389
20
110.1160804
11
38.1707389
21
110.0636804
0
LINE
8
DEFAULT_255_2_778
10
38.1223389
20
109.9644804
11
38.1072389
21
109.9408804
0
LINE
8
DEFAULT_255_2_778
10
38.1072389
20
109.9408804
11
38.0911389
21
109.9181804
0
LINE
8
DEFAULT_255_2_778
10
38.0911389
20
109.9181804
11
38.0546389
21
109.8765804
0
LINE
8
DEFAULT_255_2_778
10
38.0546389
20
109.8765804
11
38.0340389
21
109.8580804
0
LINE
8
DEFAULT_255_2_778
10
38.0340389
20
109.8580804
11
38.0115389
21
109.8411804
0
LINE
8
DEFAULT_255_2_778
10
38.0115389
20
109.8411804
11
37.9628389
21
109.8136804
0
LINE
8
DEFAULT_255_2_778
10
37.9628389
20
109.8136804
11
37.9043389
21
109.7905804
0
LINE
8
DEFAULT_255_2_778
10
37.9043389
20
109.7905804
11
37.8744389
21
109.7818804
0
LINE
8
DEFAULT_255_2_778
10
37.8744389
20
109.7818804
11
37.8442389
21
109.7747804
0
LINE
8
DEFAULT_255_2_778
10
37.8442389
20
109.7747804
11
37.7831389
21
109.7628804
0
LINE
8
DEFAULT_255_2_778
10
37.7831389
20
109.7628804
11
37.7212389
21
109.7546804
0
LINE
8
DEFAULT_255_2_778
10
37.7212389
20
109.7546804
11
37.6588389
21
109.7495804
0
LINE
8
DEFAULT_255_2_778
10
37.6588389
20
109.7495804
11
37.5961389
21
109.7474804
0
LINE
8
DEFAULT_255_2_778
10
37.5961389
20
109.7474804
11
37.5334389
21
109.7479804
0
LINE
8
DEFAULT_255_2_778
10
37.5334389
20
109.7479804
11
37.4707389
21
109.7516804
0
LINE
8
DEFAULT_255_2_778
10
37.4707389
20
109.7516804
11
37.4474389
21
109.7538804
0
LINE
8
DEFAULT_255_2_778
10
37.4474389
20
109.7538804
11
37.4241389
21
109.7559804
0
LINE
8
DEFAULT_255_2_778
10
37.4241389
20
109.7559804
11
37.3823389
21
109.7598804
0
LINE
8
DEFAULT_255_2_778
10
37.3823389
20
109.7598804
11
37.3823389
21
111.2537804
0
LINE
8
DEFAULT_255_2_778
10
37.3823389
20
111.2537804
11
37.6117389
21
111.2558804
0
LINE
8
DEFAULT_255_2_778
10
38.7327389
20
110.4343804
11
39.2005389
21
110.4740804
0
LINE
8
DEFAULT_255_2_778
10
39.2005389
20
110.4740804
11
39.3635389
21
110.5988804
0
LINE
8
DEFAULT_255_2_778
10
39.3635389
20
110.5988804
11
39.4183389
21
110.7004804
0
LINE
8
DEFAULT_255_2_778
10
39.4183389
20
110.7004804
11
39.4349389
21
110.7645804
0
LINE
8
DEFAULT_255_2_778
10
39.4349389
20
110.7645804
11
39.4325389
21
110.9132804
0
LINE
8
DEFAULT_255_2_778
10
39.4325389
20
110.9132804
11
39.4085389
21
110.9925804
0
LINE
8
DEFAULT_255_2_778
10
39.4085389
20
110.9925804
11
39.3325389
21
111.1108804
0
LINE
8
DEFAULT_255_2_778
10
39.3325389
20
111.1108804
11
39.1193389
21
111.2344804
0
LINE
8
DEFAULT_255_2_778
10
39.1193389
20
111.2344804
11
38.9872389
21
111.2495804
0
LINE
8
DEFAULT_255_2_778
10
38.9872389
20
111.2495804
11
38.6192389
21
111.2495804
0
LINE
8
DEFAULT_255_2_778
10
38.6192389
20
111.2495804
11
38.6192389
21
109.6490804
0
LINE
8
DEFAULT_255_2_778
10
38.6192389
20
109.6490804
11
38.7327389
21
109.6490804
0
LINE
8
DEFAULT_255_2_778
10
38.7327389
20
109.6490804
11
38.7327389
21
110.4343804
0
LINE
8
DEFAULT_255_2_778
10
38.9880389
20
111.1357804
11
39.2455389
21
111.0354804
0
LINE
8
DEFAULT_255_2_778
10
39.2455389
20
111.0354804
11
39.3127389
21
110.9237804
0
LINE
8
DEFAULT_255_2_778
10
39.3127389
20
110.9237804
11
39.3251389
21
110.8692804
0
LINE
8
DEFAULT_255_2_778
10
39.3251389
20
110.8692804
11
39.3233389
21
110.7822804
0
LINE
8
DEFAULT_255_2_778
10
39.3233389
20
110.7822804
11
39.3005389
21
110.7110804
0
LINE
8
DEFAULT_255_2_778
10
39.3005389
20
110.7110804
11
39.1680389
21
110.5838804
0
LINE
8
DEFAULT_255_2_778
10
39.1680389
20
110.5838804
11
38.9928389
21
110.5475804
0
LINE
8
DEFAULT_255_2_778
10
38.9928389
20
110.5475804
11
38.7330389
21
110.5475804
0
LINE
8
DEFAULT_255_2_778
10
38.7330389
20
110.5475804
11
38.7330389
21
111.1357804
0
LINE
8
DEFAULT_255_2_778
10
38.7330389
20
111.1357804
11
38.9880389
21
111.1357804
0
LINE
8
DEFAULT_255_2_778
10
12.7636389
20
48.6795804
11
13.4875389
21
48.6795804
0
LINE
8
DEFAULT_255_2_778
10
13.4875389
20
48.6795804
11
13.4875389
21
48.5731804
0
LINE
8
DEFAULT_255_2_778
10
13.4875389
20
48.5731804
11
12.8715389
21
48.5731804
0
LINE
8
DEFAULT_255_2_778
10
12.8715389
20
48.5731804
11
12.8715389
21
48.0238804
0
LINE
8
DEFAULT_255_2_778
10
12.8715389
20
48.0238804
11
13.4494389
21
48.0238804
0
LINE
8
DEFAULT_255_2_778
10
13.4494389
20
48.0238804
11
13.4494389
21
47.9198804
0
LINE
8
DEFAULT_255_2_778
10
13.4494389
20
47.9198804
11
12.8715389
21
47.9198804
0
LINE
8
DEFAULT_255_2_778
10
12.8715389
20
47.9198804
11
12.8715389
21
47.1832804
0
LINE
8
DEFAULT_255_2_778
10
12.8715389
20
47.1832804
11
12.7639389
21
47.1832804
0
LINE
8
DEFAULT_255_2_778
10
12.7639389
20
47.1832804
11
12.7639389
21
48.6795804
0
LINE
8
DEFAULT_255_2_778
10
16.2945389
20
48.6813804
11
16.4021389
21
48.6813804
0
LINE
8
DEFAULT_255_2_778
10
16.4021389
20
48.6813804
11
16.3998389
21
47.5703804
0
LINE
8
DEFAULT_255_2_778
10
16.3998389
20
47.5703804
11
16.3971389
21
47.5465804
0
LINE
8
DEFAULT_255_2_778
10
16.3971389
20
47.5465804
11
16.3934389
21
47.5235804
0
LINE
8
DEFAULT_255_2_778
10
16.3934389
20
47.5235804
11
16.3831389
21
47.4793804
0
LINE
8
DEFAULT_255_2_778
10
16.3831389
20
47.4793804
11
16.3688389
21
47.4383804
0
LINE
8
DEFAULT_255_2_778
10
16.3688389
20
47.4383804
11
16.3410389
21
47.3819804
0
LINE
8
DEFAULT_255_2_778
10
16.3410389
20
47.3819804
11
16.2945389
21
47.3171804
0
LINE
8
DEFAULT_255_2_778
10
16.2945389
20
47.3171804
11
16.2222389
21
47.2523804
0
LINE
8
DEFAULT_255_2_778
10
16.2222389
20
47.2523804
11
16.1198389
21
47.1986804
0
LINE
8
DEFAULT_255_2_778
10
16.1198389
20
47.1986804
11
15.9883389
21
47.1713804
0
LINE
8
DEFAULT_255_2_778
10
15.9883389
20
47.1713804
11
15.8555389
21
47.1827804
0
LINE
8
DEFAULT_255_2_778
10
15.8555389
20
47.1827804
11
15.7460389
21
47.2235804
0
LINE
8
DEFAULT_255_2_778
10
15.7460389
20
47.2235804
11
15.6653389
21
47.2790804
0
LINE
8
DEFAULT_255_2_778
10
15.6653389
20
47.2790804
11
15.6103389
21
47.3370804
0
LINE
8
DEFAULT_255_2_778
10
15.6103389
20
47.3370804
11
15.5761389
21
47.3880804
0
LINE
8
DEFAULT_255_2_778
10
15.5761389
20
47.3880804
11
15.5483389
21
47.4457804
0
LINE
8
DEFAULT_255_2_778
10
15.5483389
20
47.4457804
11
15.5346389
21
47.4878804
0
LINE
8
DEFAULT_255_2_778
10
15.5346389
20
47.4878804
11
15.5293389
21
47.5100804
0
LINE
8
DEFAULT_255_2_778
10
15.5293389
20
47.5100804
11
15.5251389
21
47.5330804
0
LINE
8
DEFAULT_255_2_778
10
15.5251389
20
47.5330804
11
15.5219389
21
47.5568804
0
LINE
8
DEFAULT_255_2_778
10
15.5219389
20
47.5568804
11
15.5198389
21
47.5814804
0
LINE
8
DEFAULT_255_2_778
10
15.5198389
20
47.5814804
11
15.5184389
21
48.6813804
0
LINE
8
DEFAULT_255_2_778
10
15.5184389
20
48.6813804
11
15.6261389
21
48.6813804
0
LINE
8
DEFAULT_255_2_778
10
15.6261389
20
48.6813804
11
15.6282389
21
47.5791804
0
LINE
8
DEFAULT_255_2_778
10
15.6282389
20
47.5791804
11
15.6325389
21
47.5473804
0
LINE
8
DEFAULT_255_2_778
10
15.6325389
20
47.5473804
11
15.6444389
21
47.4986804
0
LINE
8
DEFAULT_255_2_778
10
15.6444389
20
47.4986804
11
15.6584389
21
47.4632804
0
LINE
8
DEFAULT_255_2_778
10
15.6584389
20
47.4632804
11
15.6849389
21
47.4161804
0
LINE
8
DEFAULT_255_2_778
10
15.6849389
20
47.4161804
11
15.7290389
21
47.3645804
0
LINE
8
DEFAULT_255_2_778
10
15.7290389
20
47.3645804
11
15.8103389
21
47.3100804
0
LINE
8
DEFAULT_255_2_778
10
15.8103389
20
47.3100804
11
15.9344389
21
47.2782804
0
LINE
8
DEFAULT_255_2_778
10
15.9344389
20
47.2782804
11
16.0606389
21
47.2917804
0
LINE
8
DEFAULT_255_2_778
10
16.0606389
20
47.2917804
11
16.1513389
21
47.3330804
0
LINE
8
DEFAULT_255_2_778
10
16.1513389
20
47.3330804
11
16.2146389
21
47.3888804
0
LINE
8
DEFAULT_255_2_778
10
16.2146389
20
47.3888804
11
16.2455389
21
47.4320804
0
LINE
8
DEFAULT_255_2_778
10
16.2455389
20
47.4320804
11
16.2770389
21
47.5010804
0
LINE
8
DEFAULT_255_2_778
10
16.2770389
20
47.5010804
11
16.2871389
21
47.5404804
0
LINE
8
DEFAULT_255_2_778
10
16.2871389
20
47.5404804
11
16.2918389
21
47.5722804
0
LINE
8
DEFAULT_255_2_778
10
16.2918389
20
47.5722804
11
16.2942389
21
47.6060804
0
LINE
8
DEFAULT_255_2_778
10
16.2942389
20
47.6060804
11
16.2945389
21
48.6810804
0
LINE
8
DEFAULT_255_2_778
10
17.8362389
20
47.8053804
11
18.3169389
21
47.8053804
0
LINE
8
DEFAULT_255_2_778
10
18.3169389
20
47.8053804
11
18.3169389
21
47.6989804
0
LINE
8
DEFAULT_255_2_778
10
18.3169389
20
47.6989804
11
17.8362389
21
47.6989804
0
LINE
8
DEFAULT_255_2_778
10
17.8362389
20
47.6989804
11
17.8362389
21
47.8053804
0
LINE
8
DEFAULT_255_2_778
10
13.7256389
20
48.6747804
11
13.8312389
21
48.6747804
0
LINE
8
DEFAULT_255_2_778
10
13.8312389
20
48.6747804
11
13.8312389
21
47.1790804
0
LINE
8
DEFAULT_255_2_778
10
13.8312389
20
47.1790804
11
13.7256389
21
47.1790804
0
LINE
8
DEFAULT_255_2_778
10
13.7256389
20
47.1790804
11
13.7256389
21
48.6747804
0
LINE
8
DEFAULT_255_2_778
10
17.1803389
20
48.0069804
11
17.4253389
21
47.8738804
0
LINE
8
DEFAULT_255_2_778
10
17.4253389
20
47.8738804
11
17.5340389
21
47.7640804
0
LINE
8
DEFAULT_255_2_778
10
17.5340389
20
47.7640804
11
17.5602389
21
47.7116804
0
LINE
8
DEFAULT_255_2_778
10
17.5602389
20
47.7116804
11
17.5708389
21
47.6717804
0
LINE
8
DEFAULT_255_2_778
10
17.5708389
20
47.6717804
11
17.5684389
21
47.5211804
0
LINE
8
DEFAULT_255_2_778
10
17.5684389
20
47.5211804
11
17.5526389
21
47.4624804
0
LINE
8
DEFAULT_255_2_778
10
17.5526389
20
47.4624804
11
17.5171389
21
47.3838804
0
LINE
8
DEFAULT_255_2_778
10
17.5171389
20
47.3838804
11
17.4422389
21
47.2880804
0
LINE
8
DEFAULT_255_2_778
10
17.4422389
20
47.2880804
11
17.3144389
21
47.2031804
0
LINE
8
DEFAULT_255_2_778
10
17.3144389
20
47.2031804
11
17.1507389
21
47.1668804
0
LINE
8
DEFAULT_255_2_778
10
17.1507389
20
47.1668804
11
16.9837389
21
47.1904804
0
LINE
8
DEFAULT_255_2_778
10
16.9837389
20
47.1904804
11
16.8728389
21
47.2555804
0
LINE
8
DEFAULT_255_2_778
10
16.8728389
20
47.2555804
11
16.8051389
21
47.3362804
0
LINE
8
DEFAULT_255_2_778
10
16.8051389
20
47.3362804
11
16.7673389
21
47.4129804
0
LINE
8
DEFAULT_255_2_778
10
16.7673389
20
47.4129804
11
16.7525389
21
47.4563804
0
LINE
8
DEFAULT_255_2_778
10
16.7525389
20
47.4563804
11
16.8559389
21
47.4851804
0
LINE
8
DEFAULT_255_2_778
10
16.8559389
20
47.4851804
11
16.8710389
21
47.4407804
0
LINE
8
DEFAULT_255_2_778
10
16.8710389
20
47.4407804
11
16.8972389
21
47.3896804
0
LINE
8
DEFAULT_255_2_778
10
16.8972389
20
47.3896804
11
16.9395389
21
47.3388804
0
LINE
8
DEFAULT_255_2_778
10
16.9395389
20
47.3388804
11
17.0168389
21
47.2920804
0
LINE
8
DEFAULT_255_2_778
10
17.0168389
20
47.2920804
11
17.1623389
21
47.2740804
0
LINE
8
DEFAULT_255_2_778
10
17.1623389
20
47.2740804
11
17.2819389
21
47.3036804
0
LINE
8
DEFAULT_255_2_778
10
17.2819389
20
47.3036804
11
17.3851389
21
47.3814804
0
LINE
8
DEFAULT_255_2_778
10
17.3851389
20
47.3814804
11
17.4335389
21
47.4536804
0
LINE
8
DEFAULT_255_2_778
10
17.4335389
20
47.4536804
11
17.4581389
21
47.5230804
0
LINE
8
DEFAULT_255_2_778
10
17.4581389
20
47.5230804
11
17.4671389
21
47.5701804
0
LINE
8
DEFAULT_255_2_778
10
17.4671389
20
47.5701804
11
17.4652389
21
47.6521804
0
LINE
8
DEFAULT_255_2_778
10
17.4652389
20
47.6521804
11
17.4523389
21
47.6928804
0
LINE
8
DEFAULT_255_2_778
10
17.4523389
20
47.6928804
11
17.4179389
21
47.7431804
0
LINE
8
DEFAULT_255_2_778
10
17.4179389
20
47.7431804
11
17.3089389
21
47.8243804
0
LINE
8
DEFAULT_255_2_778
10
17.3089389
20
47.8243804
11
16.8043389
21
48.1363804
0
LINE
8
DEFAULT_255_2_778
10
16.8043389
20
48.1363804
11
16.7773389
21
48.1844804
0
LINE
8
DEFAULT_255_2_778
10
16.7773389
20
48.1844804
11
16.7670389
21
48.2164804
0
LINE
8
DEFAULT_255_2_778
10
16.7670389
20
48.2164804
11
16.7694389
21
48.3908804
0
LINE
8
DEFAULT_255_2_778
10
16.7694389
20
48.3908804
11
16.7866389
21
48.4480804
0
LINE
8
DEFAULT_255_2_778
10
16.7866389
20
48.4480804
11
16.8295389
21
48.5292804
0
LINE
8
DEFAULT_255_2_778
10
16.8295389
20
48.5292804
11
16.9152389
21
48.6162804
0
LINE
8
DEFAULT_255_2_778
10
16.9152389
20
48.6162804
11
17.0813389
21
48.6834804
0
LINE
8
DEFAULT_255_2_778
10
17.0813389
20
48.6834804
11
17.2581389
21
48.6858804
0
LINE
8
DEFAULT_255_2_778
10
17.2581389
20
48.6858804
11
17.3782389
21
48.6363804
0
LINE
8
DEFAULT_255_2_778
10
17.3782389
20
48.6363804
11
17.4570389
21
48.5636804
0
LINE
8
DEFAULT_255_2_778
10
17.4570389
20
48.5636804
11
17.5031389
21
48.4916804
0
LINE
8
DEFAULT_255_2_778
10
17.5031389
20
48.4916804
11
17.5327389
21
48.4207804
0
LINE
8
DEFAULT_255_2_778
10
17.5327389
20
48.4207804
11
17.5377389
21
48.4054804
0
LINE
8
DEFAULT_255_2_778
10
17.5377389
20
48.4054804
11
17.4343389
21
48.3760804
0
LINE
8
DEFAULT_255_2_778
10
17.4343389
20
48.3760804
11
17.3570389
21
48.5141804
0
LINE
8
DEFAULT_255_2_778
10
17.3570389
20
48.5141804
11
17.2105389
21
48.5853804
0
LINE
8
DEFAULT_255_2_778
10
17.2105389
20
48.5853804
11
16.9570389
21
48.5144804
0
LINE
8
DEFAULT_255_2_778
10
16.9570389
20
48.5144804
11
16.8810389
21
48.3982804
0
LINE
8
DEFAULT_255_2_778
10
16.8810389
20
48.3982804
11
16.8694389
21
48.3379804
0
LINE
8
DEFAULT_255_2_778
10
16.8694389
20
48.3379804
11
16.8720389
21
48.2434804
0
LINE
8
DEFAULT_255_2_778
10
16.8720389
20
48.2434804
11
16.8924389
21
48.1961804
0
LINE
8
DEFAULT_255_2_778
10
16.8924389
20
48.1961804
11
17.0583389
21
48.0704804
0
LINE
8
DEFAULT_255_2_778
10
17.0583389
20
48.0704804
11
17.1811389
21
48.0079804
0
LINE
8
DEFAULT_255_2_778
10
9.6680177
20
48.572826
11
9.4254177
21
48.572826
0
LINE
8
DEFAULT_255_2_778
10
9.4254177
20
48.572826
11
9.4254177
21
48.021426
0
LINE
8
DEFAULT_255_2_778
10
9.4254177
20
48.021426
11
9.7984177
21
48.039426
0
LINE
8
DEFAULT_255_2_778
10
9.7984177
20
48.039426
11
9.9310177
21
48.123826
0
LINE
8
DEFAULT_255_2_778
10
9.9310177
20
48.123826
11
9.9741177
21
48.197426
0
LINE
8
DEFAULT_255_2_778
10
9.9741177
20
48.197426
11
9.9874177
21
48.248526
0
LINE
8
DEFAULT_255_2_778
10
9.9874177
20
48.248526
11
9.9855177
21
48.338726
0
LINE
8
DEFAULT_255_2_778
10
9.9855177
20
48.338726
11
9.9254177
21
48.464926
0
LINE
8
DEFAULT_255_2_778
10
9.9254177
20
48.464926
11
9.6680177
21
48.572826
0
LINE
8
DEFAULT_255_2_778
10
9.3177177
20
48.679226
11
9.7728177
21
48.669726
0
LINE
8
DEFAULT_255_2_778
10
9.7728177
20
48.669726
11
9.9228177
21
48.609426
0
LINE
8
DEFAULT_255_2_778
10
9.9228177
20
48.609426
11
10.0114177
21
48.531326
0
LINE
8
DEFAULT_255_2_778
10
10.0114177
20
48.531326
11
10.0588177
21
48.457726
0
LINE
8
DEFAULT_255_2_778
10
10.0588177
20
48.457726
11
10.0813177
21
48.399826
0
LINE
8
DEFAULT_255_2_778
10
10.0813177
20
48.399826
11
10.0927177
21
48.352226
0
LINE
8
DEFAULT_255_2_778
10
10.0927177
20
48.352226
11
10.0919177
21
48.220426
0
LINE
8
DEFAULT_255_2_778
10
10.0919177
20
48.220426
11
10.0802177
21
48.174626
0
LINE
8
DEFAULT_255_2_778
10
10.0802177
20
48.174626
11
10.0517177
21
48.109626
0
LINE
8
DEFAULT_255_2_778
10
10.0517177
20
48.109626
11
9.9927177
21
48.033626
0
LINE
8
DEFAULT_255_2_778
10
9.9927177
20
48.033626
11
9.8686177
21
47.951926
0
LINE
8
DEFAULT_255_2_778
10
9.8686177
20
47.951926
11
9.6675177
21
47.915326
0
LINE
8
DEFAULT_255_2_778
10
9.6675177
20
47.915326
11
9.4254177
21
47.915326
0
LINE
8
DEFAULT_255_2_778
10
9.4254177
20
47.915326
11
9.4254177
21
47.178726
0
LINE
8
DEFAULT_255_2_778
10
9.4254177
20
47.178726
11
9.3177177
21
47.178726
0
LINE
8
DEFAULT_255_2_778
10
9.3177177
20
47.178726
11
9.3177177
21
48.679226
0
LINE
8
DEFAULT_255_2_778
10
10.7350293
20
48.5730698
11
10.4924293
21
48.5730698
0
LINE
8
DEFAULT_255_2_778
10
10.4924293
20
48.5730698
11
10.4924293
21
48.0238698
0
LINE
8
DEFAULT_255_2_778
10
10.4924293
20
48.0238698
11
10.9641293
21
48.0896698
0
LINE
8
DEFAULT_255_2_778
10
10.9641293
20
48.0896698
11
11.0504293
21
48.2278698
0
LINE
8
DEFAULT_255_2_778
10
11.0504293
20
48.2278698
11
11.0557293
21
48.2592698
0
LINE
8
DEFAULT_255_2_778
10
11.0557293
20
48.2592698
11
11.0530293
21
48.3383698
0
LINE
8
DEFAULT_255_2_778
10
11.0530293
20
48.3383698
11
11.0009293
21
48.4566698
0
LINE
8
DEFAULT_255_2_778
10
11.0009293
20
48.4566698
11
10.7472293
21
48.5730698
0
LINE
8
DEFAULT_255_2_778
10
10.7472293
20
48.5730698
11
10.7350293
21
48.5730698
0
LINE
8
DEFAULT_255_2_778
10
11.0557293
20
47.3930698
11
11.0533293
21
47.6256698
0
LINE
8
DEFAULT_255_2_778
10
11.0533293
20
47.6256698
11
11.0459293
21
47.6737698
0
LINE
8
DEFAULT_255_2_778
10
11.0459293
20
47.6737698
11
11.0268293
21
47.7414698
0
LINE
8
DEFAULT_255_2_778
10
11.0268293
20
47.7414698
11
10.9763293
21
47.8266698
0
LINE
8
DEFAULT_255_2_778
10
10.9763293
20
47.8266698
11
10.8271293
21
47.9097698
0
LINE
8
DEFAULT_255_2_778
10
10.8271293
20
47.9097698
11
10.7541293
21
47.9171698
0
LINE
8
DEFAULT_255_2_778
10
10.7541293
20
47.9171698
11
10.4924293
21
47.9171698
0
LINE
8
DEFAULT_255_2_778
10
10.4924293
20
47.9171698
11
10.4924293
21
47.1787698
0
LINE
8
DEFAULT_255_2_778
10
10.4924293
20
47.1787698
11
10.3847293
21
47.1787698
0
LINE
8
DEFAULT_255_2_778
10
10.3847293
20
47.1787698
11
10.3847293
21
48.6791698
0
LINE
8
DEFAULT_255_2_778
10
10.3847293
20
48.6791698
11
10.8517293
21
48.6672698
0
LINE
8
DEFAULT_255_2_778
10
10.8517293
20
48.6672698
11
11.0038293
21
48.6013698
0
LINE
8
DEFAULT_255_2_778
10
11.0038293
20
48.6013698
11
11.0922293
21
48.5148698
0
LINE
8
DEFAULT_255_2_778
10
11.0922293
20
48.5148698
11
11.1337293
21
48.4418698
0
LINE
8
DEFAULT_255_2_778
10
11.1337293
20
48.4418698
11
11.1528293
21
48.3854698
0
LINE
8
DEFAULT_255_2_778
10
11.1528293
20
48.3854698
11
11.1599293
21
48.3510698
0
LINE
8
DEFAULT_255_2_778
10
11.1599293
20
48.3510698
11
11.1586293
21
48.2227698
0
LINE
8
DEFAULT_255_2_778
10
11.1586293
20
48.2227698
11
11.1470293
21
48.1772698
0
LINE
8
DEFAULT_255_2_778
10
11.1470293
20
48.1772698
11
11.1181293
21
48.1103698
0
LINE
8
DEFAULT_255_2_778
10
11.1181293
20
48.1103698
11
11.0663293
21
48.0399698
0
LINE
8
DEFAULT_255_2_778
10
11.0663293
20
48.0399698
11
10.9686293
21
47.9695698
0
LINE
8
DEFAULT_255_2_778
10
10.9686293
20
47.9695698
11
11.0594293
21
47.8899698
0
LINE
8
DEFAULT_255_2_778
10
11.0594293
20
47.8899698
11
11.1311293
21
47.7600698
0
LINE
8
DEFAULT_255_2_778
10
11.1311293
20
47.7600698
11
11.1515293
21
47.6753698
0
LINE
8
DEFAULT_255_2_778
10
11.1515293
20
47.6753698
11
11.1591293
21
47.6129698
0
LINE
8
DEFAULT_255_2_778
10
11.1591293
20
47.6129698
11
11.1618293
21
47.3753698
0
LINE
8
DEFAULT_255_2_778
10
11.1618293
20
47.3753698
11
11.1681293
21
47.3065698
0
LINE
8
DEFAULT_255_2_778
10
11.1681293
20
47.3065698
11
11.1967293
21
47.2057698
0
LINE
8
DEFAULT_255_2_778
10
11.1967293
20
47.2057698
11
11.0975293
21
47.1684698
0
LINE
8
DEFAULT_255_2_778
10
11.0975293
20
47.1684698
11
11.0583293
21
47.3388698
0
LINE
8
DEFAULT_255_2_778
10
11.0583293
20
47.3388698
11
11.0557293
21
47.3798698
0
LINE
8
DEFAULT_255_2_778
10
11.0557293
20
47.3798698
11
11.0557293
21
47.3930698
0
LINE
8
DEFAULT_255_2_778
10
11.7370293
20
47.3623698
11
11.8150293
21
47.3030698
0
LINE
8
DEFAULT_255_2_778
10
11.8150293
20
47.3030698
11
11.9346293
21
47.2731698
0
LINE
8
DEFAULT_255_2_778
10
11.9346293
20
47.2731698
11
12.0682293
21
47.2943698
0
LINE
8
DEFAULT_255_2_778
10
12.0682293
20
47.2943698
11
12.1656293
21
47.3507698
0
LINE
8
DEFAULT_255_2_778
10
12.1656293
20
47.3507698
11
12.2249293
21
47.4168698
0
LINE
8
DEFAULT_255_2_778
10
12.2249293
20
47.4168698
11
12.2561293
21
47.4713698
0
LINE
8
DEFAULT_255_2_778
10
12.2561293
20
47.4713698
11
12.2744293
21
47.5176698
0
LINE
8
DEFAULT_255_2_778
10
12.2744293
20
47.5176698
11
12.2833293
21
47.5512698
0
LINE
8
DEFAULT_255_2_778
10
12.2833293
20
47.5512698
11
12.2894293
21
47.5869698
0
LINE
8
DEFAULT_255_2_778
10
12.2894293
20
47.5869698
11
12.2871293
21
48.3100698
0
LINE
8
DEFAULT_255_2_778
10
12.2871293
20
48.3100698
11
12.2799293
21
48.3447698
0
LINE
8
DEFAULT_255_2_778
10
12.2799293
20
48.3447698
11
12.2643293
21
48.3926698
0
LINE
8
DEFAULT_255_2_778
10
12.2643293
20
48.3926698
11
12.2429293
21
48.4355698
0
LINE
8
DEFAULT_255_2_778
10
12.2429293
20
48.4355698
11
12.2050293
21
48.4849698
0
LINE
8
DEFAULT_255_2_778
10
12.2050293
20
48.4849698
11
12.1130293
21
48.5532698
0
LINE
8
DEFAULT_255_2_778
10
12.1130293
20
48.5532698
11
11.9915293
21
48.5812698
0
LINE
8
DEFAULT_255_2_778
10
11.9915293
20
48.5812698
11
11.8447293
21
48.5542698
0
LINE
8
DEFAULT_255_2_778
10
11.8447293
20
48.5542698
11
11.7505293
21
48.4958698
0
LINE
8
DEFAULT_255_2_778
10
11.7505293
20
48.4958698
11
11.6944293
21
48.4307698
0
LINE
8
DEFAULT_255_2_778
10
11.6944293
20
48.4307698
11
11.6655293
21
48.3767698
0
LINE
8
DEFAULT_255_2_778
10
11.6655293
20
48.3767698
11
11.6499293
21
48.3307698
0
LINE
8
DEFAULT_255_2_778
10
11.6499293
20
48.3307698
11
11.6431293
21
48.2976698
0
LINE
8
DEFAULT_255_2_778
10
11.6431293
20
48.2976698
11
11.6446293
21
47.5573698
0
LINE
8
DEFAULT_255_2_778
10
11.6446293
20
47.5573698
11
11.6687293
21
47.4681698
0
LINE
8
DEFAULT_255_2_778
10
11.6687293
20
47.4681698
11
11.7370293
21
47.3623698
0
LINE
8
DEFAULT_255_2_778
10
12.1410293
20
48.6574698
11
12.2704293
21
48.5709698
0
LINE
8
DEFAULT_255_2_778
10
12.2704293
20
48.5709698
11
12.3257293
21
48.5032698
0
LINE
8
DEFAULT_255_2_778
10
12.3257293
20
48.5032698
11
12.3595293
21
48.4399698
0
LINE
8
DEFAULT_255_2_778
10
12.3595293
20
48.4399698
11
12.3789293
21
48.3873698
0
LINE
8
DEFAULT_255_2_778
10
12.3789293
20
48.3873698
11
12.3884293
21
48.3505698
0
LINE
8
DEFAULT_255_2_778
10
12.3884293
20
48.3505698
11
12.3953293
21
48.3124698
0
LINE
8
DEFAULT_255_2_778
10
12.3953293
20
48.3124698
11
12.3955293
21
47.5687698
0
LINE
8
DEFAULT_255_2_778
10
12.3955293
20
47.5687698
11
12.3889293
21
47.5316698
0
LINE
8
DEFAULT_255_2_778
10
12.3889293
20
47.5316698
11
12.3799293
21
47.4962698
0
LINE
8
DEFAULT_255_2_778
10
12.3799293
20
47.4962698
11
12.3619293
21
47.4464698
0
LINE
8
DEFAULT_255_2_778
10
12.3619293
20
47.4464698
11
12.3228293
21
47.3724698
0
LINE
8
DEFAULT_255_2_778
10
12.3228293
20
47.3724698
11
12.2529293
21
47.2866698
0
LINE
8
DEFAULT_255_2_778
10
12.2529293
20
47.2866698
11
12.1553293
21
47.2165698
0
LINE
8
DEFAULT_255_2_778
10
12.1553293
20
47.2165698
11
11.9873293
21
47.1684698
0
LINE
8
DEFAULT_255_2_778
10
11.9873293
20
47.1684698
11
11.8129293
21
47.1887698
0
LINE
8
DEFAULT_255_2_778
10
11.8129293
20
47.1887698
11
11.6891293
21
47.2610698
0
LINE
8
DEFAULT_255_2_778
10
11.6891293
20
47.2610698
11
11.5819293
21
47.4041698
0
LINE
8
DEFAULT_255_2_778
10
11.5819293
20
47.4041698
11
11.5483293
21
47.5033698
0
LINE
8
DEFAULT_255_2_778
10
11.5483293
20
47.5033698
11
11.5370293
21
47.5711698
0
LINE
8
DEFAULT_255_2_778
10
11.5370293
20
47.5711698
11
11.5372293
21
48.3010698
0
LINE
8
DEFAULT_255_2_778
10
11.5372293
20
48.3010698
11
11.5433293
21
48.3365698
0
LINE
8
DEFAULT_255_2_778
10
11.5433293
20
48.3365698
11
11.5568293
21
48.3868698
0
LINE
8
DEFAULT_255_2_778
10
11.5568293
20
48.3868698
11
11.5830293
21
48.4482698
0
LINE
8
DEFAULT_255_2_778
10
11.5830293
20
48.4482698
11
11.6351293
21
48.5275698
0
LINE
8
DEFAULT_255_2_778
10
11.6351293
20
48.5275698
11
11.7251293
21
48.6088698
0
LINE
8
DEFAULT_255_2_778
10
11.7251293
20
48.6088698
11
11.8746293
21
48.6749698
0
LINE
8
DEFAULT_255_2_778
10
11.8746293
20
48.6749698
11
12.0471293
21
48.6831698
0
LINE
8
DEFAULT_255_2_778
10
12.0471293
20
48.6831698
11
12.1410293
21
48.6574698
0
LINE
8
DEFAULT_255_2_778
10
14.3897293
20
47.9177698
11
14.3897293
21
47.2829698
0
LINE
8
DEFAULT_255_2_778
10
14.3897293
20
47.2829698
11
14.8120293
21
47.3046698
0
LINE
8
DEFAULT_255_2_778
10
14.8120293
20
47.3046698
11
14.9776293
21
47.4126698
0
LINE
8
DEFAULT_255_2_778
10
14.9776293
20
47.4126698
11
15.0202293
21
47.4896698
0
LINE
8
DEFAULT_255_2_778
10
15.0202293
20
47.4896698
11
15.0334293
21
47.5404698
0
LINE
8
DEFAULT_255_2_778
10
15.0334293
20
47.5404698
11
15.0387293
21
47.5785698
0
LINE
8
DEFAULT_255_2_778
10
15.0387293
20
47.5785698
11
15.0366293
21
47.7028698
0
LINE
8
DEFAULT_255_2_778
10
15.0366293
20
47.7028698
11
15.0279293
21
47.7478698
0
LINE
8
DEFAULT_255_2_778
10
15.0279293
20
47.7478698
11
15.0041293
21
47.8081698
0
LINE
8
DEFAULT_255_2_778
10
15.0041293
20
47.8081698
11
14.9390293
21
47.8769698
0
LINE
8
DEFAULT_255_2_778
10
14.9390293
20
47.8769698
11
14.7654293
21
47.9174698
0
LINE
8
DEFAULT_255_2_778
10
14.7654293
20
47.9174698
11
14.3897293
21
47.9177698
0
LINE
8
DEFAULT_255_2_778
10
14.3897293
20
48.0216698
11
14.8712293
21
48.0433698
0
LINE
8
DEFAULT_255_2_778
10
14.8712293
20
48.0433698
11
14.9617293
21
48.1224698
0
LINE
8
DEFAULT_255_2_778
10
14.9617293
20
48.1224698
11
14.9882293
21
48.1838698
0
LINE
8
DEFAULT_255_2_778
10
14.9882293
20
48.1838698
11
14.9961293
21
48.2233698
0
LINE
8
DEFAULT_255_2_778
10
14.9961293
20
48.2233698
11
14.9937293
21
48.3283698
0
LINE
8
DEFAULT_255_2_778
10
14.9937293
20
48.3283698
11
14.9789293
21
48.3772698
0
LINE
8
DEFAULT_255_2_778
10
14.9789293
20
48.3772698
11
14.8099293
21
48.5357698
0
LINE
8
DEFAULT_255_2_778
10
14.8099293
20
48.5357698
11
14.6196293
21
48.5707698
0
LINE
8
DEFAULT_255_2_778
10
14.6196293
20
48.5707698
11
14.3897293
21
48.5707698
0
LINE
8
DEFAULT_255_2_778
10
14.3897293
20
48.5707698
11
14.3897293
21
48.0216698
0
LINE
8
DEFAULT_255_2_778
10
14.9675293
20
47.9777698
11
15.0649293
21
47.9034698
0
LINE
8
DEFAULT_255_2_778
10
15.0649293
20
47.9034698
11
15.1075293
21
47.8383698
0
LINE
8
DEFAULT_255_2_778
10
15.1075293
20
47.8383698
11
15.1287293
21
47.7833698
0
LINE
8
DEFAULT_255_2_778
10
15.1287293
20
47.7833698
11
15.1401293
21
47.7343698
0
LINE
8
DEFAULT_255_2_778
10
15.1401293
20
47.7343698
11
15.1453293
21
47.6946698
0
LINE
8
DEFAULT_255_2_778
10
15.1453293
20
47.6946698
11
15.1440293
21
47.5626698
0
LINE
8
DEFAULT_255_2_778
10
15.1440293
20
47.5626698
11
15.1369293
21
47.5166698
0
LINE
8
DEFAULT_255_2_778
10
15.1369293
20
47.5166698
11
15.1263293
21
47.4700698
0
LINE
8
DEFAULT_255_2_778
10
15.1263293
20
47.4700698
11
15.1104293
21
47.4247698
0
LINE
8
DEFAULT_255_2_778
10
15.1104293
20
47.4247698
11
15.0792293
21
47.3684698
0
LINE
8
DEFAULT_255_2_778
10
15.0792293
20
47.3684698
11
14.9652293
21
47.2607698
0
LINE
8
DEFAULT_255_2_778
10
14.9652293
20
47.2607698
11
14.7532293
21
47.1877698
0
LINE
8
DEFAULT_255_2_778
10
14.7532293
20
47.1877698
11
14.6209293
21
47.1789698
0
LINE
8
DEFAULT_255_2_778
10
14.6209293
20
47.1789698
11
14.2817293
21
47.1789698
0
LINE
8
DEFAULT_255_2_778
10
14.2817293
20
47.1789698
11
14.2817293
21
48.6770698
0
LINE
8
DEFAULT_255_2_778
10
14.2817293
20
48.6770698
11
14.7509293
21
48.6643698
0
LINE
8
DEFAULT_255_2_778
10
14.7509293
20
48.6643698
11
14.9316293
21
48.5921698
0
LINE
8
DEFAULT_255_2_778
10
14.9316293
20
48.5921698
11
15.0250293
21
48.5082698
0
LINE
8
DEFAULT_255_2_778
10
15.0250293
20
48.5082698
11
15.0707293
21
48.4347698
0
LINE
8
DEFAULT_255_2_778
10
15.0707293
20
48.4347698
11
15.0924293
21
48.3757698
0
LINE
8
DEFAULT_255_2_778
10
15.0924293
20
48.3757698
11
15.1006293
21
48.3383698
0
LINE
8
DEFAULT_255_2_778
10
15.1006293
20
48.3383698
11
15.0998293
21
48.1952698
0
LINE
8
DEFAULT_255_2_778
10
15.0998293
20
48.1952698
11
15.0887293
21
48.1481698
0
LINE
8
DEFAULT_255_2_778
10
15.0887293
20
48.1481698
11
15.0615293
21
48.0846698
0
LINE
8
DEFAULT_255_2_778
10
15.0615293
20
48.0846698
11
15.0011293
21
48.0063698
0
LINE
8
DEFAULT_255_2_778
10
15.0011293
20
48.0063698
11
14.9675293
21
47.9777698
0
LINE
8
DEFAULT_255_2_778
10
19.1030293
20
48.5479698
11
18.8821293
21
48.5773698
0
LINE
8
DEFAULT_255_2_778
10
18.8821293
20
48.5773698
11
18.7156293
21
48.5773698
0
LINE
8
DEFAULT_255_2_778
10
18.7156293
20
48.5773698
11
18.7156293
21
47.2872698
0
LINE
8
DEFAULT_255_2_778
10
18.7156293
20
47.2872698
11
19.1522293
21
47.3393698
0
LINE
8
DEFAULT_255_2_778
10
19.1522293
20
47.3393698
11
19.2459293
21
47.4163698
0
LINE
8
DEFAULT_255_2_778
10
19.2459293
20
47.4163698
11
19.3043293
21
47.5171698
0
LINE
8
DEFAULT_255_2_778
10
19.3043293
20
47.5171698
11
19.3276293
21
47.5824698
0
LINE
8
DEFAULT_255_2_778
10
19.3276293
20
47.5824698
11
19.3459293
21
47.6525698
0
LINE
8
DEFAULT_255_2_778
10
19.3459293
20
47.6525698
11
19.3554293
21
47.7015698
0
LINE
8
DEFAULT_255_2_778
10
19.3554293
20
47.7015698
11
19.3625293
21
47.7518698
0
LINE
8
DEFAULT_255_2_778
10
19.3625293
20
47.7518698
11
19.3676293
21
47.8020698
0
LINE
8
DEFAULT_255_2_778
10
19.3676293
20
47.8020698
11
19.3662293
21
48.0550698
0
LINE
8
DEFAULT_255_2_778
10
19.3662293
20
48.0550698
11
19.3623293
21
48.1074698
0
LINE
8
DEFAULT_255_2_778
10
19.3623293
20
48.1074698
11
19.3596293
21
48.1336698
0
LINE
8
DEFAULT_255_2_778
10
19.3596293
20
48.1336698
11
19.3522293
21
48.1846698
0
LINE
8
DEFAULT_255_2_778
10
19.3522293
20
48.1846698
11
19.3419293
21
48.2341698
0
LINE
8
DEFAULT_255_2_778
10
19.3419293
20
48.2341698
11
19.3289293
21
48.2820698
0
LINE
8
DEFAULT_255_2_778
10
19.3289293
20
48.2820698
11
19.2932293
21
48.3709698
0
LINE
8
DEFAULT_255_2_778
10
19.2932293
20
48.3709698
11
19.2297293
21
48.4656698
0
LINE
8
DEFAULT_255_2_778
10
19.2297293
20
48.4656698
11
19.1374293
21
48.5336698
0
LINE
8
DEFAULT_255_2_778
10
19.1374293
20
48.5336698
11
19.1030293
21
48.5479698
0
LINE
8
DEFAULT_255_2_778
10
19.0001293
20
47.1885698
11
18.8995293
21
47.1782698
0
LINE
8
DEFAULT_255_2_778
10
18.8995293
20
47.1782698
11
18.8884293
21
47.1776698
0
LINE
8
DEFAULT_255_2_778
10
18.8884293
20
47.1776698
11
18.8776293
21
47.1771698
0
LINE
8
DEFAULT_255_2_778
10
18.8776293
20
47.1771698
11
18.8670293
21
47.1766698
0
LINE
8
DEFAULT_255_2_778
10
18.8670293
20
47.1766698
11
18.8564293
21
47.1760698
0
LINE
8
DEFAULT_255_2_778
10
18.8564293
20
47.1760698
11
18.8461293
21
47.1758698
0
LINE
8
DEFAULT_255_2_778
10
18.8461293
20
47.1758698
11
18.8360293
21
47.1755698
0
LINE
8
DEFAULT_255_2_778
10
18.8360293
20
47.1755698
11
18.8260293
21
47.1752698
0
LINE
8
DEFAULT_255_2_778
10
18.8260293
20
47.1752698
11
18.8162293
21
47.1752698
0
LINE
8
DEFAULT_255_2_778
10
18.8162293
20
47.1752698
11
18.8067293
21
47.1752698
0
LINE
8
DEFAULT_255_2_778
10
18.8067293
20
47.1752698
11
18.7971293
21
47.1752698
0
LINE
8
DEFAULT_255_2_778
10
18.7971293
20
47.1752698
11
18.7879293
21
47.1752698
0
LINE
8
DEFAULT_255_2_778
10
18.7879293
20
47.1752698
11
18.7789293
21
47.1752698
0
LINE
8
DEFAULT_255_2_778
10
18.7789293
20
47.1752698
11
18.7699293
21
47.1752698
0
LINE
8
DEFAULT_255_2_778
10
18.7699293
20
47.1752698
11
18.7611293
21
47.1755698
0
LINE
8
DEFAULT_255_2_778
10
18.7611293
20
47.1755698
11
18.7527293
21
47.1758698
0
LINE
8
DEFAULT_255_2_778
10
18.7527293
20
47.1758698
11
18.7442293
21
47.1760698
0
LINE
8
DEFAULT_255_2_778
10
18.7442293
20
47.1760698
11
18.7360293
21
47.1763698
0
LINE
8
DEFAULT_255_2_778
10
18.7360293
20
47.1763698
11
18.7281293
21
47.1768698
0
LINE
8
DEFAULT_255_2_778
10
18.7281293
20
47.1768698
11
18.7241293
21
47.1771698
0
LINE
8
DEFAULT_255_2_778
10
18.7241293
20
47.1771698
11
18.7201293
21
47.1774698
0
LINE
8
DEFAULT_255_2_778
10
18.7201293
20
47.1774698
11
18.7162293
21
47.1776698
0
LINE
8
DEFAULT_255_2_778
10
18.7162293
20
47.1776698
11
18.7125293
21
47.1779698
0
LINE
8
DEFAULT_255_2_778
10
18.7125293
20
47.1779698
11
18.7088293
21
47.1782698
0
LINE
8
DEFAULT_255_2_778
10
18.7088293
20
47.1782698
11
18.7051293
21
47.1784698
0
LINE
8
DEFAULT_255_2_778
10
18.7051293
20
47.1784698
11
18.7013293
21
47.1787698
0
LINE
8
DEFAULT_255_2_778
10
18.7013293
20
47.1787698
11
18.6976293
21
47.1789698
0
LINE
8
DEFAULT_255_2_778
10
18.6976293
20
47.1789698
11
18.6079293
21
47.1869698
0
LINE
8
DEFAULT_255_2_778
10
18.6079293
20
47.1869698
11
18.6079293
21
48.6812698
0
LINE
8
DEFAULT_255_2_778
10
18.6079293
20
48.6812698
11
18.8508293
21
48.6831698
0
LINE
8
DEFAULT_255_2_778
10
18.8508293
20
48.6831698
11
18.8778293
21
48.6828698
0
LINE
8
DEFAULT_255_2_778
10
18.8778293
20
48.6828698
11
18.9051293
21
48.6820698
0
LINE
8
DEFAULT_255_2_778
10
18.9051293
20
48.6820698
11
18.9323293
21
48.6807698
0
LINE
8
DEFAULT_255_2_778
10
18.9323293
20
48.6807698
11
18.9596293
21
48.6791698
0
LINE
8
DEFAULT_255_2_778
10
18.9596293
20
48.6791698
11
18.9871293
21
48.6770698
0
LINE
8
DEFAULT_255_2_778
10
18.9871293
20
48.6770698
11
19.0006293
21
48.6757698
0
LINE
8
DEFAULT_255_2_778
10
19.0006293
20
48.6757698
11
19.0141293
21
48.6741698
0
LINE
8
DEFAULT_255_2_778
10
19.0141293
20
48.6741698
11
19.0273293
21
48.6723698
0
LINE
8
DEFAULT_255_2_778
10
19.0273293
20
48.6723698
11
19.0403293
21
48.6701698
0
LINE
8
DEFAULT_255_2_778
10
19.0403293
20
48.6701698
11
19.0530293
21
48.6680698
0
LINE
8
DEFAULT_255_2_778
10
19.0530293
20
48.6680698
11
19.0654293
21
48.6656698
0
LINE
8
DEFAULT_255_2_778
10
19.0654293
20
48.6656698
11
19.0776293
21
48.6630698
0
LINE
8
DEFAULT_255_2_778
10
19.0776293
20
48.6630698
11
19.0895293
21
48.6601698
0
LINE
8
DEFAULT_255_2_778
10
19.0895293
20
48.6601698
11
19.1014293
21
48.6569698
0
LINE
8
DEFAULT_255_2_778
10
19.1014293
20
48.6569698
11
19.1130293
21
48.6535698
0
LINE
8
DEFAULT_255_2_778
10
19.1130293
20
48.6535698
11
19.1244293
21
48.6498698
0
LINE
8
DEFAULT_255_2_778
10
19.1244293
20
48.6498698
11
19.1355293
21
48.6458698
0
LINE
8
DEFAULT_255_2_778
10
19.1355293
20
48.6458698
11
19.1464293
21
48.6418698
0
LINE
8
DEFAULT_255_2_778
10
19.1464293
20
48.6418698
11
19.1570293
21
48.6376698
0
LINE
8
DEFAULT_255_2_778
10
19.1570293
20
48.6376698
11
19.1675293
21
48.6331698
0
LINE
8
DEFAULT_255_2_778
10
19.1675293
20
48.6331698
11
19.1779293
21
48.6286698
0
LINE
8
DEFAULT_255_2_778
10
19.1779293
20
48.6286698
11
19.1879293
21
48.6238698
0
LINE
8
DEFAULT_255_2_778
10
19.1879293
20
48.6238698
11
19.1977293
21
48.6188698
0
LINE
8
DEFAULT_255_2_778
10
19.1977293
20
48.6188698
11
19.2072293
21
48.6135698
0
LINE
8
DEFAULT_255_2_778
10
19.2072293
20
48.6135698
11
19.2165293
21
48.6082698
0
LINE
8
DEFAULT_255_2_778
10
19.2165293
20
48.6082698
11
19.2255293
21
48.6027698
0
LINE
8
DEFAULT_255_2_778
10
19.2255293
20
48.6027698
11
19.2342293
21
48.5968698
0
LINE
8
DEFAULT_255_2_778
10
19.2342293
20
48.5968698
11
19.2429293
21
48.5908698
0
LINE
8
DEFAULT_255_2_778
10
19.2429293
20
48.5908698
11
19.2514293
21
48.5847698
0
LINE
8
DEFAULT_255_2_778
10
19.2514293
20
48.5847698
11
19.2596293
21
48.5783698
0
LINE
8
DEFAULT_255_2_778
10
19.2596293
20
48.5783698
11
19.2676293
21
48.5717698
0
LINE
8
DEFAULT_255_2_778
10
19.2676293
20
48.5717698
11
19.2752293
21
48.5648698
0
LINE
8
DEFAULT_255_2_778
10
19.2752293
20
48.5648698
11
19.2826293
21
48.5580698
0
LINE
8
DEFAULT_255_2_778
10
19.2826293
20
48.5580698
11
19.2900293
21
48.5508698
0
LINE
8
DEFAULT_255_2_778
10
19.2900293
20
48.5508698
11
19.2972293
21
48.5437698
0
LINE
8
DEFAULT_255_2_778
10
19.2972293
20
48.5437698
11
19.3041293
21
48.5363698
0
LINE
8
DEFAULT_255_2_778
10
19.3041293
20
48.5363698
11
19.3109293
21
48.5288698
0
LINE
8
DEFAULT_255_2_778
10
19.3109293
20
48.5288698
11
19.3176293
21
48.5214698
0
LINE
8
DEFAULT_255_2_778
10
19.3176293
20
48.5214698
11
19.3239293
21
48.5138698
0
LINE
8
DEFAULT_255_2_778
10
19.3239293
20
48.5138698
11
19.3363293
21
48.4982698
0
LINE
8
DEFAULT_255_2_778
10
19.3363293
20
48.4982698
11
19.3480293
21
48.4823698
0
LINE
8
DEFAULT_255_2_778
10
19.3480293
20
48.4823698
11
19.3591293
21
48.4659698
0
LINE
8
DEFAULT_255_2_778
10
19.3591293
20
48.4659698
11
19.3697293
21
48.4492698
0
LINE
8
DEFAULT_255_2_778
10
19.3697293
20
48.4492698
11
19.3795293
21
48.4320698
0
LINE
8
DEFAULT_255_2_778
10
19.3795293
20
48.4320698
11
19.3887293
21
48.4145698
0
LINE
8
DEFAULT_255_2_778
10
19.3887293
20
48.4145698
11
19.3975293
21
48.3968698
0
LINE
8
DEFAULT_255_2_778
10
19.3975293
20
48.3968698
11
19.4054293
21
48.3788698
0
LINE
8
DEFAULT_255_2_778
10
19.4054293
20
48.3788698
11
19.4128293
21
48.3606698
0
LINE
8
DEFAULT_255_2_778
10
19.4128293
20
48.3606698
11
19.4197293
21
48.3418698
0
LINE
8
DEFAULT_255_2_778
10
19.4197293
20
48.3418698
11
19.4260293
21
48.3227698
0
LINE
8
DEFAULT_255_2_778
10
19.4260293
20
48.3227698
11
19.4316293
21
48.3037698
0
LINE
8
DEFAULT_255_2_778
10
19.4316293
20
48.3037698
11
19.4369293
21
48.2844698
0
LINE
8
DEFAULT_255_2_778
10
19.4369293
20
48.2844698
11
19.4417293
21
48.2653698
0
LINE
8
DEFAULT_255_2_778
10
19.4417293
20
48.2653698
11
19.4461293
21
48.2463698
0
LINE
8
DEFAULT_255_2_778
10
19.4461293
20
48.2463698
11
19.4504293
21
48.2275698
0
LINE
8
DEFAULT_255_2_778
10
19.4504293
20
48.2275698
11
19.4541293
21
48.2087698
0
LINE
8
DEFAULT_255_2_778
10
19.4541293
20
48.2087698
11
19.4575293
21
48.1899698
0
LINE
8
DEFAULT_255_2_778
10
19.4575293
20
48.1899698
11
19.4607293
21
48.1714698
0
LINE
8
DEFAULT_255_2_778
10
19.4607293
20
48.1714698
11
19.4633293
21
48.1529698
0
LINE
8
DEFAULT_255_2_778
10
19.4633293
20
48.1529698
11
19.4649293
21
48.1407698
0
LINE
8
DEFAULT_255_2_778
10
19.4649293
20
48.1407698
11
19.4663293
21
48.1288698
0
LINE
8
DEFAULT_255_2_778
10
19.4663293
20
48.1288698
11
19.4671293
21
48.1227698
0
LINE
8
DEFAULT_255_2_778
10
19.4671293
20
48.1227698
11
19.4684293
21
48.1108698
0
LINE
8
DEFAULT_255_2_778
10
19.4684293
20
48.1108698
11
19.4694293
21
48.0992698
0
LINE
8
DEFAULT_255_2_778
10
19.4694293
20
48.0992698
11
19.4705293
21
48.0875698
0
LINE
8
DEFAULT_255_2_778
10
19.4705293
20
48.0875698
11
19.4715293
21
48.0759698
0
LINE
8
DEFAULT_255_2_778
10
19.4715293
20
48.0759698
11
19.4723293
21
48.0645698
0
LINE
8
DEFAULT_255_2_778
10
19.4723293
20
48.0645698
11
19.4731293
21
48.0531698
0
LINE
8
DEFAULT_255_2_778
10
19.4731293
20
48.0531698
11
19.4739293
21
48.0420698
0
LINE
8
DEFAULT_255_2_778
10
19.4739293
20
48.0420698
11
19.4745293
21
48.0309698
0
LINE
8
DEFAULT_255_2_778
10
19.4745293
20
48.0309698
11
19.4750293
21
48.0201698
0
LINE
8
DEFAULT_255_2_778
10
19.4750293
20
48.0201698
11
19.4753293
21
48.0145698
0
LINE
8
DEFAULT_255_2_778
10
19.4753293
20
48.0145698
11
19.4760293
21
47.9817698
0
LINE
8
DEFAULT_255_2_778
10
19.4760293
20
47.9817698
11
19.4766293
21
47.9513698
0
LINE
8
DEFAULT_255_2_778
10
19.4766293
20
47.9513698
11
19.4768293
21
47.9232698
0
LINE
8
DEFAULT_255_2_778
10
19.4768293
20
47.9232698
11
19.4768293
21
47.9100698
0
LINE
8
DEFAULT_255_2_778
10
19.4768293
20
47.9100698
11
19.4768293
21
47.8973698
0
LINE
8
DEFAULT_255_2_778
10
19.4768293
20
47.8973698
11
19.4766293
21
47.8724698
0
LINE
8
DEFAULT_255_2_778
10
19.4766293
20
47.8724698
11
19.4758293
21
47.8473698
0
LINE
8
DEFAULT_255_2_778
10
19.4758293
20
47.8473698
11
19.4745293
21
47.8221698
0
LINE
8
DEFAULT_255_2_778
10
19.4745293
20
47.8221698
11
19.4726293
21
47.7967698
0
LINE
8
DEFAULT_255_2_778
10
19.4726293
20
47.7967698
11
19.4702293
21
47.7711698
0
LINE
8
DEFAULT_255_2_778
10
19.4702293
20
47.7711698
11
19.4676293
21
47.7454698
0
LINE
8
DEFAULT_255_2_778
10
19.4676293
20
47.7454698
11
19.4644293
21
47.7195698
0
LINE
8
DEFAULT_255_2_778
10
19.4644293
20
47.7195698
11
19.4607293
21
47.6936698
0
LINE
8
DEFAULT_255_2_778
10
19.4607293
20
47.6936698
11
19.4586293
21
47.6806698
0
LINE
8
DEFAULT_255_2_778
10
19.4586293
20
47.6806698
11
19.4565293
21
47.6679698
0
LINE
8
DEFAULT_255_2_778
10
19.4565293
20
47.6679698
11
19.4541293
21
47.6552698
0
LINE
8
DEFAULT_255_2_778
10
19.4541293
20
47.6552698
11
19.4514293
21
47.6425698
0
LINE
8
DEFAULT_255_2_778
10
19.4514293
20
47.6425698
11
19.4488293
21
47.6301698
0
LINE
8
DEFAULT_255_2_778
10
19.4488293
20
47.6301698
11
19.4459293
21
47.6176698
0
LINE
8
DEFAULT_255_2_778
10
19.4459293
20
47.6176698
11
19.4430293
21
47.6052698
0
LINE
8
DEFAULT_255_2_778
10
19.4430293
20
47.6052698
11
19.4398293
21
47.5928698
0
LINE
8
DEFAULT_255_2_778
10
19.4398293
20
47.5928698
11
19.4366293
21
47.5806698
0
LINE
8
DEFAULT_255_2_778
10
19.4366293
20
47.5806698
11
19.4332293
21
47.5684698
0
LINE
8
DEFAULT_255_2_778
10
19.4332293
20
47.5684698
11
19.4258293
21
47.5443698
0
LINE
8
DEFAULT_255_2_778
10
19.4258293
20
47.5443698
11
19.4178293
21
47.5205698
0
LINE
8
DEFAULT_255_2_778
10
19.4178293
20
47.5205698
11
19.4136293
21
47.5089698
0
LINE
8
DEFAULT_255_2_778
10
19.4136293
20
47.5089698
11
19.4094293
21
47.4972698
0
LINE
8
DEFAULT_255_2_778
10
19.4094293
20
47.4972698
11
19.4049293
21
47.4859698
0
LINE
8
DEFAULT_255_2_778
10
19.4049293
20
47.4859698
11
19.4001293
21
47.4745698
0
LINE
8
DEFAULT_255_2_778
10
19.4001293
20
47.4745698
11
19.3953293
21
47.4634698
0
LINE
8
DEFAULT_255_2_778
10
19.3953293
20
47.4634698
11
19.3903293
21
47.4525698
0
LINE
8
DEFAULT_255_2_778
10
19.3903293
20
47.4525698
11
19.3850293
21
47.4417698
0
LINE
8
DEFAULT_255_2_778
10
19.3850293
20
47.4417698
11
19.3797293
21
47.4311698
0
LINE
8
DEFAULT_255_2_778
10
19.3797293
20
47.4311698
11
19.3742293
21
47.4208698
0
LINE
8
DEFAULT_255_2_778
10
19.3742293
20
47.4208698
11
19.3684293
21
47.4105698
0
LINE
8
DEFAULT_255_2_778
10
19.3684293
20
47.4105698
11
19.3625293
21
47.4004698
0
LINE
8
DEFAULT_255_2_778
10
19.3625293
20
47.4004698
11
19.3565293
21
47.3903698
0
LINE
8
DEFAULT_255_2_778
10
19.3565293
20
47.3903698
11
19.3501293
21
47.3806698
0
LINE
8
DEFAULT_255_2_778
10
19.3501293
20
47.3806698
11
19.3438293
21
47.3710698
0
LINE
8
DEFAULT_255_2_778
10
19.3438293
20
47.3710698
11
19.3371293
21
47.3615698
0
LINE
8
DEFAULT_255_2_778
10
19.3371293
20
47.3615698
11
19.3305293
21
47.3522698
0
LINE
8
DEFAULT_255_2_778
10
19.3305293
20
47.3522698
11
19.3236293
21
47.3430698
0
LINE
8
DEFAULT_255_2_778
10
19.3236293
20
47.3430698
11
19.3165293
21
47.3343698
0
LINE
8
DEFAULT_255_2_778
10
19.3165293
20
47.3343698
11
19.3091293
21
47.3258698
0
LINE
8
DEFAULT_255_2_778
10
19.3091293
20
47.3258698
11
19.3017293
21
47.3176698
0
LINE
8
DEFAULT_255_2_778
10
19.3017293
20
47.3176698
11
19.2940293
21
47.3096698
0
LINE
8
DEFAULT_255_2_778
10
19.2940293
20
47.3096698
11
19.2861293
21
47.3020698
0
LINE
8
DEFAULT_255_2_778
10
19.2861293
20
47.3020698
11
19.2779293
21
47.2946698
0
LINE
8
DEFAULT_255_2_778
10
19.2779293
20
47.2946698
11
19.2697293
21
47.2874698
0
LINE
8
DEFAULT_255_2_778
10
19.2697293
20
47.2874698
11
19.2612293
21
47.2808698
0
LINE
8
DEFAULT_255_2_778
10
19.2612293
20
47.2808698
11
19.2525293
21
47.2745698
0
LINE
8
DEFAULT_255_2_778
10
19.2525293
20
47.2745698
11
19.2435293
21
47.2684698
0
LINE
8
DEFAULT_255_2_778
10
19.2435293
20
47.2684698
11
19.2345293
21
47.2626698
0
LINE
8
DEFAULT_255_2_778
10
19.2345293
20
47.2626698
11
19.2252293
21
47.2570698
0
LINE
8
DEFAULT_255_2_778
10
19.2252293
20
47.2570698
11
19.2157293
21
47.2517698
0
LINE
8
DEFAULT_255_2_778
10
19.2157293
20
47.2517698
11
19.2062293
21
47.2467698
0
LINE
8
DEFAULT_255_2_778
10
19.2062293
20
47.2467698
11
19.1964293
21
47.2419698
0
LINE
8
DEFAULT_255_2_778
10
19.1964293
20
47.2419698
11
19.1924293
21
47.2401698
0
LINE
8
DEFAULT_255_2_778
10
19.1924293
20
47.2401698
11
19.1884293
21
47.2382698
0
LINE
8
DEFAULT_255_2_778
10
19.1884293
20
47.2382698
11
19.1842293
21
47.2364698
0
LINE
8
DEFAULT_255_2_778
10
19.1842293
20
47.2364698
11
19.1800293
21
47.2345698
0
LINE
8
DEFAULT_255_2_778
10
19.1800293
20
47.2345698
11
19.1757293
21
47.2327698
0
LINE
8
DEFAULT_255_2_778
10
19.1757293
20
47.2327698
11
19.1715293
21
47.2311698
0
LINE
8
DEFAULT_255_2_778
10
19.1715293
20
47.2311698
11
19.1673293
21
47.2295698
0
LINE
8
DEFAULT_255_2_778
10
19.1673293
20
47.2295698
11
19.1630293
21
47.2279698
0
LINE
8
DEFAULT_255_2_778
10
19.1630293
20
47.2279698
11
19.1588293
21
47.2263698
0
LINE
8
DEFAULT_255_2_778
10
19.1588293
20
47.2263698
11
19.1546293
21
47.2247698
0
LINE
8
DEFAULT_255_2_778
10
19.1546293
20
47.2247698
11
19.1503293
21
47.2231698
0
LINE
8
DEFAULT_255_2_778
10
19.1503293
20
47.2231698
11
19.1461293
21
47.2215698
0
LINE
8
DEFAULT_255_2_778
10
19.1461293
20
47.2215698
11
19.1419293
21
47.2200698
0
LINE
8
DEFAULT_255_2_778
10
19.1419293
20
47.2200698
11
19.1374293
21
47.2186698
0
LINE
8
DEFAULT_255_2_778
10
19.1374293
20
47.2186698
11
19.1329293
21
47.2173698
0
LINE
8
DEFAULT_255_2_778
10
19.1329293
20
47.2173698
11
19.1284293
21
47.2160698
0
LINE
8
DEFAULT_255_2_778
10
19.1284293
20
47.2160698
11
19.1239293
21
47.2147698
0
LINE
8
DEFAULT_255_2_778
10
19.1239293
20
47.2147698
11
19.1194293
21
47.2133698
0
LINE
8
DEFAULT_255_2_778
10
19.1194293
20
47.2133698
11
19.1149293
21
47.2120698
0
LINE
8
DEFAULT_255_2_778
10
19.1149293
20
47.2120698
11
19.1104293
21
47.2107698
0
LINE
8
DEFAULT_255_2_778
10
19.1104293
20
47.2107698
11
19.1059293
21
47.2094698
0
LINE
8
DEFAULT_255_2_778
10
19.1059293
20
47.2094698
11
19.1014293
21
47.2083698
0
LINE
8
DEFAULT_255_2_778
10
19.1014293
20
47.2083698
11
19.0921293
21
47.2062698
0
LINE
8
DEFAULT_255_2_778
10
19.0921293
20
47.2062698
11
19.0829293
21
47.2041698
0
LINE
8
DEFAULT_255_2_778
10
19.0829293
20
47.2041698
11
19.0736293
21
47.2020698
0
LINE
8
DEFAULT_255_2_778
10
19.0736293
20
47.2020698
11
19.0644293
21
47.2001698
0
LINE
8
DEFAULT_255_2_778
10
19.0644293
20
47.2001698
11
19.0551293
21
47.1983698
0
LINE
8
DEFAULT_255_2_778
10
19.0551293
20
47.1983698
11
19.0458293
21
47.1964698
0
LINE
8
DEFAULT_255_2_778
10
19.0458293
20
47.1964698
11
19.0366293
21
47.1948698
0
LINE
8
DEFAULT_255_2_778
10
19.0366293
20
47.1948698
11
19.0273293
21
47.1932698
0
LINE
8
DEFAULT_255_2_778
10
19.0273293
20
47.1932698
11
19.0181293
21
47.1916698
0
LINE
8
DEFAULT_255_2_778
10
19.0181293
20
47.1916698
11
19.0088293
21
47.1901698
0
LINE
8
DEFAULT_255_2_778
10
19.0088293
20
47.1901698
11
19.0001293
21
47.1885698
0
LINE
8
DEFAULT_255_2_778
10
20.1330177
20
48.573126
11
19.8904177
21
48.573126
0
LINE
8
DEFAULT_255_2_778
10
19.8904177
20
48.573126
11
19.8904177
21
48.021726
0
LINE
8
DEFAULT_255_2_778
10
19.8904177
20
48.021726
11
20.2634177
21
48.039726
0
LINE
8
DEFAULT_255_2_778
10
20.2634177
20
48.039726
11
20.3960177
21
48.124126
0
LINE
8
DEFAULT_255_2_778
10
20.3960177
20
48.124126
11
20.4391177
21
48.197726
0
LINE
8
DEFAULT_255_2_778
10
20.4391177
20
48.197726
11
20.4524177
21
48.248826
0
LINE
8
DEFAULT_255_2_778
10
20.4524177
20
48.248826
11
20.4505177
21
48.339026
0
LINE
8
DEFAULT_255_2_778
10
20.4505177
20
48.339026
11
20.3904177
21
48.465226
0
LINE
8
DEFAULT_255_2_778
10
20.3904177
20
48.465226
11
20.1330177
21
48.573126
0
LINE
8
DEFAULT_255_2_778
10
19.7827177
20
48.679526
11
20.2378177
21
48.670026
0
LINE
8
DEFAULT_255_2_778
10
20.2378177
20
48.670026
11
20.3878177
21
48.609726
0
LINE
8
DEFAULT_255_2_778
10
20.3878177
20
48.609726
11
20.4764177
21
48.531626
0
LINE
8
DEFAULT_255_2_778
10
20.4764177
20
48.531626
11
20.5238177
21
48.458026
0
LINE
8
DEFAULT_255_2_778
10
20.5238177
20
48.458026
11
20.5463177
21
48.400126
0
LINE
8
DEFAULT_255_2_778
10
20.5463177
20
48.400126
11
20.5577177
21
48.352526
0
LINE
8
DEFAULT_255_2_778
10
20.5577177
20
48.352526
11
20.5569177
21
48.220726
0
LINE
8
DEFAULT_255_2_778
10
20.5569177
20
48.220726
11
20.5452177
21
48.174926
0
LINE
8
DEFAULT_255_2_778
10
20.5452177
20
48.174926
11
20.5167177
21
48.109926
0
LINE
8
DEFAULT_255_2_778
10
20.5167177
20
48.109926
11
20.4577177
21
48.033926
0
LINE
8
DEFAULT_255_2_778
10
20.4577177
20
48.033926
11
20.3336177
21
47.952226
0
LINE
8
DEFAULT_255_2_778
10
20.3336177
20
47.952226
11
20.1325177
21
47.915626
0
LINE
8
DEFAULT_255_2_778
10
20.1325177
20
47.915626
11
19.8904177
21
47.915626
0
LINE
8
DEFAULT_255_2_778
10
19.8904177
20
47.915626
11
19.8904177
21
47.179026
0
LINE
8
DEFAULT_255_2_778
10
19.8904177
20
47.179026
11
19.7827177
21
47.179026
0
LINE
8
DEFAULT_255_2_778
10
19.7827177
20
47.179026
11
19.7827177
21
48.679526
0
ARC
8
DEFAULT_255_2_778
10
26.0652628
20
47.7340267
40
0.4679985
50
354.3956706
51
355.2741678
0
ARC
8
DEFAULT_255_2_778
10
26.0658301
20
47.7339762
40
0.4674289
50
355.2746073
51
0.0000366
0
ARC
8
DEFAULT_255_2_778
10
26.0670887
20
47.7341
40
0.4661704
50
359.9848263
51
33.2536435
0
ARC
8
DEFAULT_255_2_778
10
26.3429607
20
47.8790095
40
0.1588872
50
44.1712109
51
89.2660912
0
ARC
8
DEFAULT_255_2_778
10
26.3450014
20
47.8901708
40
0.1477129
50
90.0021504
51
93.4065237
0
ARC
8
DEFAULT_255_2_778
10
26.3254689
20
47.8355808
40
0.200642
50
94.7871926
51
146.0535688
0
ARC
8
DEFAULT_255_2_778
10
26.5412939
20
47.669145
40
0.4729482
50
143.9272018
51
180.0107935
0
ARC
8
DEFAULT_255_2_778
10
26.5422441
20
47.6690623
40
0.4738984
50
180.0007749
51
183.6827545
0
ARC
8
DEFAULT_255_2_778
10
26.4499538
20
47.6250534
40
0.3808713
50
177.958273
51
179.9998334
0
ARC
8
DEFAULT_255_2_778
10
26.4041356
20
47.6180463
40
0.3351265
50
178.8017219
51
228.594508
0
ARC
8
DEFAULT_255_2_778
10
26.334328
20
47.5466427
40
0.2354568
50
229.8438845
51
262.4581637
0
LINE
8
DEFAULT_255_2_778
10
14.1725243
20
49.3536229
11
14.0810243
21
49.4057229
0
LINE
8
DEFAULT_255_2_778
10
14.0810243
20
49.4057229
11
14.5033243
21
50.1487229
0
LINE
8
DEFAULT_255_2_778
10
14.5033243
20
50.1487229
11
14.0979243
21
50.8498229
0
LINE
8
DEFAULT_255_2_778
10
14.0979243
20
50.8498229
11
14.1871243
21
50.9017229
0
LINE
8
DEFAULT_255_2_778
10
14.1871243
20
50.9017229
11
14.5617243
21
50.2529229
0
LINE
8
DEFAULT_255_2_778
10
14.5617243
20
50.2529229
11
14.9300243
21
50.9017229
0
LINE
8
DEFAULT_255_2_778
10
14.9300243
20
50.9017229
11
15.0237243
21
50.8498229
0
LINE
8
DEFAULT_255_2_778
10
15.0237243
20
50.8498229
11
14.6239243
21
50.1466229
0
LINE
8
DEFAULT_255_2_778
10
14.6239243
20
50.1466229
11
15.0549243
21
49.4060229
0
LINE
8
DEFAULT_255_2_778
10
15.0549243
20
49.4060229
11
14.9631243
21
49.3539229
0
LINE
8
DEFAULT_255_2_778
10
14.9631243
20
49.3539229
11
14.5639243
21
50.0429229
0
LINE
8
DEFAULT_255_2_778
10
14.5639243
20
50.0429229
11
14.1725243
21
49.3539229
0
LINE
8
DEFAULT_255_2_778
10
15.6685243
20
50.8707229
11
15.7995243
21
50.8707229
0
LINE
8
DEFAULT_255_2_778
10
15.7995243
20
50.8707229
11
15.7995243
21
49.3769229
0
LINE
8
DEFAULT_255_2_778
10
15.7995243
20
49.3769229
11
15.6955243
21
49.3769229
0
LINE
8
DEFAULT_255_2_778
10
15.6955243
20
49.3769229
11
15.6955243
21
50.7416229
0
LINE
8
DEFAULT_255_2_778
10
15.6955243
20
50.7416229
11
15.4230243
21
50.5003229
0
LINE
8
DEFAULT_255_2_778
10
15.4230243
20
50.5003229
11
15.4164243
21
50.6109229
0
LINE
8
DEFAULT_255_2_778
10
15.4164243
20
50.6109229
11
15.5852243
21
50.7787229
0
LINE
8
DEFAULT_255_2_778
10
15.5852243
20
50.7787229
11
15.6682243
21
50.8705229
0
LINE
8
DEFAULT_255_2_778
10
26.3037243
20
47.3132229
11
26.3727243
21
47.3232229
0
LINE
8
DEFAULT_255_2_778
10
26.3727243
20
47.3232229
11
26.4241243
21
47.3523229
0
LINE
8
DEFAULT_255_2_778
10
26.4241243
20
47.3523229
11
26.4767243
21
47.4177229
0
LINE
8
DEFAULT_255_2_778
10
26.4767243
20
47.4177229
11
26.5093243
21
47.4992229
0
LINE
8
DEFAULT_255_2_778
10
26.5093243
20
47.4992229
11
26.5310243
21
47.6883229
0
LINE
8
DEFAULT_255_2_778
10
26.3362243
20
48.0376229
11
26.3087243
21
48.0355229
0
LINE
8
DEFAULT_255_2_778
10
38.0388243
20
47.1653229
11
38.4854243
21
47.2049229
0
LINE
8
DEFAULT_255_2_778
10
38.4854243
20
47.2049229
11
38.6211243
21
47.3298229
0
LINE
8
DEFAULT_255_2_778
10
38.6211243
20
47.3298229
11
38.6661243
21
47.4383229
0
LINE
8
DEFAULT_255_2_778
10
38.6661243
20
47.4383229
11
38.6828243
21
47.5407229
0
LINE
8
DEFAULT_255_2_778
10
38.6828243
20
47.5407229
11
38.6804243
21
47.7204229
0
LINE
8
DEFAULT_255_2_778
10
38.6804243
20
47.7204229
11
38.6634243
21
47.8018229
0
LINE
8
DEFAULT_255_2_778
10
38.6634243
20
47.8018229
11
38.6198243
21
47.8960229
0
LINE
8
DEFAULT_255_2_778
10
38.6198243
20
47.8960229
11
38.5510243
21
47.9640229
0
LINE
8
DEFAULT_255_2_778
10
38.5510243
20
47.9640229
11
38.6235243
21
48.0754229
0
LINE
8
DEFAULT_255_2_778
10
38.6235243
20
48.0754229
11
38.6473243
21
48.1609229
0
LINE
8
DEFAULT_255_2_778
10
38.6473243
20
48.1609229
11
38.6534243
21
48.2125229
0
LINE
8
DEFAULT_255_2_778
10
38.6534243
20
48.2125229
11
38.6510243
21
48.3231229
0
LINE
8
DEFAULT_255_2_778
10
38.6510243
20
48.3231229
11
38.6383243
21
48.3887229
0
LINE
8
DEFAULT_255_2_778
10
38.6383243
20
48.3887229
11
38.5960243
21
48.4913229
0
LINE
8
DEFAULT_255_2_778
10
38.5960243
20
48.4913229
11
38.4711243
21
48.6162229
0
LINE
8
DEFAULT_255_2_778
10
38.4711243
20
48.6162229
11
38.2930243
21
48.6631229
0
LINE
8
DEFAULT_255_2_778
10
38.2930243
20
48.6631229
11
38.0385243
21
48.6631229
0
LINE
8
DEFAULT_255_2_778
10
38.0385243
20
48.6631229
11
38.0388243
21
47.1653229
0
LINE
8
DEFAULT_255_2_778
10
38.1192243
20
47.9040229
11
38.5068243
21
47.8791229
0
LINE
8
DEFAULT_255_2_778
10
38.5068243
20
47.8791229
11
38.5751243
21
47.8029229
0
LINE
8
DEFAULT_255_2_778
10
38.5751243
20
47.8029229
11
38.5989243
21
47.7211229
0
LINE
8
DEFAULT_255_2_778
10
38.5989243
20
47.7211229
11
38.6050243
21
47.6666229
0
LINE
8
DEFAULT_255_2_778
10
38.6050243
20
47.6666229
11
38.6028243
21
47.5457229
0
LINE
8
DEFAULT_255_2_778
10
38.6028243
20
47.5457229
11
38.5915243
21
47.4796229
0
LINE
8
DEFAULT_255_2_778
10
38.5915243
20
47.4796229
11
38.5420243
21
47.3730229
0
LINE
8
DEFAULT_255_2_778
10
38.5420243
20
47.3730229
11
38.4031243
21
47.2817229
0
LINE
8
DEFAULT_255_2_778
10
38.4031243
20
47.2817229
11
38.2838243
21
47.2698229
0
LINE
8
DEFAULT_255_2_778
10
38.2838243
20
47.2698229
11
38.1192243
21
47.2698229
0
LINE
8
DEFAULT_255_2_778
10
38.1192243
20
47.2698229
11
38.1192243
21
47.9040229
0
LINE
8
DEFAULT_255_2_778
10
38.4063243
20
48.5353229
11
38.5465243
21
48.3982229
0
LINE
8
DEFAULT_255_2_778
10
38.5465243
20
48.3982229
11
38.5700243
21
48.3188229
0
LINE
8
DEFAULT_255_2_778
10
38.5700243
20
48.3188229
11
38.5682243
21
48.1778229
0
LINE
8
DEFAULT_255_2_778
10
38.5682243
20
48.1778229
11
38.5436243
21
48.1021229
0
LINE
8
DEFAULT_255_2_778
10
38.5436243
20
48.1021229
11
38.4700243
21
48.0246229
0
LINE
8
DEFAULT_255_2_778
10
38.4700243
20
48.0246229
11
38.3925243
21
48.0080229
0
LINE
8
DEFAULT_255_2_778
10
38.3925243
20
48.0080229
11
38.1192243
21
48.0080229
0
LINE
8
DEFAULT_255_2_778
10
38.1192243
20
48.0080229
11
38.1192243
21
48.5570229
0
LINE
8
DEFAULT_255_2_778
10
38.1192243
20
48.5570229
11
38.4063243
21
48.5353229
0
LINE
8
DEFAULT_255_2_778
10
33.9900604
20
47.6822791
11
33.5564604
21
47.6822791
0
LINE
8
DEFAULT_255_2_778
10
33.5564604
20
47.6822791
11
33.7773604
21
48.5498791
0
LINE
8
DEFAULT_255_2_778
10
33.7773604
20
48.5498791
11
33.9900604
21
47.6822791
0
LINE
8
DEFAULT_255_2_778
10
33.3500604
20
47.2036791
11
33.4257604
21
47.1705791
0
LINE
8
DEFAULT_255_2_778
10
33.4257604
20
47.1705791
11
33.5297604
21
47.5759791
0
LINE
8
DEFAULT_255_2_778
10
33.5297604
20
47.5759791
11
34.0170604
21
47.5759791
0
LINE
8
DEFAULT_255_2_778
10
34.0170604
20
47.5759791
11
34.0797604
21
47.3206791
0
LINE
8
DEFAULT_255_2_778
10
34.0797604
20
47.3206791
11
34.1178604
21
47.1705791
0
LINE
8
DEFAULT_255_2_778
10
34.1178604
20
47.1705791
11
34.1951604
21
47.2036791
0
LINE
8
DEFAULT_255_2_778
10
34.1951604
20
47.2036791
11
33.8278604
21
48.6829791
0
LINE
8
DEFAULT_255_2_778
10
33.8278604
20
48.6829791
11
33.7268604
21
48.6829791
0
LINE
8
DEFAULT_255_2_778
10
33.7268604
20
48.6829791
11
33.3500604
21
47.2036791
0
LINE
8
DEFAULT_255_2_778
10
37.7439604
20
47.6822791
11
37.3103604
21
47.6822791
0
LINE
8
DEFAULT_255_2_778
10
37.3103604
20
47.6822791
11
37.5312604
21
48.5498791
0
LINE
8
DEFAULT_255_2_778
10
37.5312604
20
48.5498791
11
37.7439604
21
47.6822791
0
LINE
8
DEFAULT_255_2_778
10
37.1039604
20
47.2036791
11
37.1795604
21
47.1705791
0
LINE
8
DEFAULT_255_2_778
10
37.1795604
20
47.1705791
11
37.2836604
21
47.5759791
0
LINE
8
DEFAULT_255_2_778
10
37.2836604
20
47.5759791
11
37.7709604
21
47.5759791
0
LINE
8
DEFAULT_255_2_778
10
37.7709604
20
47.5759791
11
37.8336604
21
47.3206791
0
LINE
8
DEFAULT_255_2_778
10
37.8336604
20
47.3206791
11
37.8717604
21
47.1705791
0
LINE
8
DEFAULT_255_2_778
10
37.8717604
20
47.1705791
11
37.9490604
21
47.2036791
0
LINE
8
DEFAULT_255_2_778
10
37.9490604
20
47.2036791
11
37.5817604
21
48.6829791
0
LINE
8
DEFAULT_255_2_778
10
37.5817604
20
48.6829791
11
37.4807604
21
48.6829791
0
LINE
8
DEFAULT_255_2_778
10
37.4807604
20
48.6829791
11
37.1039604
21
47.2036791
0
LINE
8
DEFAULT_255_2_778
10
31.2643115
20
47.7211302
11
31.8292115
21
47.7211302
0
LINE
8
DEFAULT_255_2_778
10
31.8292115
20
47.7211302
11
31.8292115
21
47.8320302
0
LINE
8
DEFAULT_255_2_778
10
31.8292115
20
47.8320302
11
31.2643115
21
47.8320302
0
LINE
8
DEFAULT_255_2_778
10
31.2643115
20
47.8320302
11
31.2643115
21
47.7211302
0
LINE
8
DEFAULT_255_2_778
10
35.7146115
20
47.7211302
11
36.2795115
21
47.7211302
0
LINE
8
DEFAULT_255_2_778
10
36.2795115
20
47.7211302
11
36.2795115
21
47.8320302
0
LINE
8
DEFAULT_255_2_778
10
36.2795115
20
47.8320302
11
35.7146115
21
47.8320302
0
LINE
8
DEFAULT_255_2_778
10
35.7146115
20
47.8320302
11
35.7146115
21
47.7211302
0
ARC
8
DEFAULT_255_2_778
10
32.2220972
20
47.8913077
40
0.1837734
50
102.8405823
51
168.199706
0
ARC
8
DEFAULT_255_2_778
10
32.2051559
20
47.9305251
40
0.1419861
50
90.0041392
51
99.6906429
0
ARC
8
DEFAULT_255_2_778
10
32.2051192
20
47.9296326
40
0.1428786
50
82.2009878
51
89.9894086
0
ARC
8
DEFAULT_255_2_778
10
32.1645741
20
47.4771886
40
0.1466337
50
270.0129666
51
278.5630845
0
ARC
8
DEFAULT_255_2_778
10
32.1738835
20
47.5069858
40
0.1766746
50
196.4433178
51
266.9903301
0
ARC
8
DEFAULT_255_2_778
10
32.2365937
20
47.5405825
40
0.2467546
50
199.5799687
51
199.8054712
0
ARC
8
DEFAULT_255_2_778
10
32.1924806
20
47.508881
40
0.2956139
50
198.2940674
51
248.1231819
0
ARC
8
DEFAULT_255_2_778
10
32.1612007
20
47.4503695
40
0.2297744
50
249.9251509
51
269.9387125
0
ARC
8
DEFAULT_255_2_778
10
32.1609371
20
47.4486297
40
0.2280344
50
270.0044599
51
275.3521896
0
ARC
8
DEFAULT_255_2_778
10
32.1254393
20
47.552816
40
0.336056
50
279.725334
51
329.1699388
0
ARC
8
DEFAULT_255_2_778
10
32.0164182
20
47.6277796
40
0.4681669
50
328.1298745
51
0.3797416
0
ARC
8
DEFAULT_255_2_778
10
31.9899195
20
47.6308865
40
0.4946553
50
359.9995315
51
4.2415248
0
ARC
8
DEFAULT_255_2_778
10
31.9917436
20
47.6310196
40
0.4928264
50
4.2417824
51
6.9894013
0
ARC
8
DEFAULT_255_2_778
10
32.2196079
20
47.9638321
40
0.219028
50
85.8633373
51
89.998696
0
ARC
8
DEFAULT_255_2_778
10
32.2280653
20
47.9302671
40
0.2527344
50
91.9165444
51
152.3919244
0
LINE
8
DEFAULT_255_2_778
10
32.4743076
20
48.5698895
11
32.4743076
21
48.6807895
0
LINE
8
DEFAULT_255_2_778
10
32.4743076
20
48.6807895
11
31.9118076
21
48.6807895
0
LINE
8
DEFAULT_255_2_778
10
31.9118076
20
48.6807895
11
31.9118076
21
47.8864895
0
LINE
8
DEFAULT_255_2_778
10
31.9118076
20
47.8864895
11
32.0356076
21
47.8864895
0
LINE
8
DEFAULT_255_2_778
10
32.0356076
20
47.8864895
11
32.0422076
21
47.9288895
0
LINE
8
DEFAULT_255_2_778
10
32.2245076
20
48.0711895
11
32.2748076
21
48.0600895
0
LINE
8
DEFAULT_255_2_778
10
32.2748076
20
48.0600895
11
32.3058076
21
48.0356895
0
LINE
8
DEFAULT_255_2_778
10
32.3058076
20
48.0356895
11
32.3441076
21
47.9732895
0
LINE
8
DEFAULT_255_2_778
10
32.3441076
20
47.9732895
11
32.3777076
21
47.8504895
0
LINE
8
DEFAULT_255_2_778
10
32.3777076
20
47.8504895
11
32.3888076
21
47.6906895
0
LINE
8
DEFAULT_255_2_778
10
32.3888076
20
47.6906895
11
32.3664076
21
47.5168895
0
LINE
8
DEFAULT_255_2_778
10
32.3664076
20
47.5168895
11
32.3325076
21
47.4319895
0
LINE
8
DEFAULT_255_2_778
10
32.3325076
20
47.4319895
11
32.2875076
21
47.3734895
0
LINE
8
DEFAULT_255_2_778
10
32.2875076
20
47.3734895
11
32.2388076
21
47.3419895
0
LINE
8
DEFAULT_255_2_778
10
32.2388076
20
47.3419895
11
32.1864076
21
47.3321895
0
LINE
8
DEFAULT_255_2_778
10
32.0041076
20
47.4578895
11
31.9118076
21
47.4160895
0
LINE
8
DEFAULT_255_2_778
10
32.4809076
20
47.6909895
11
32.4473076
21
47.9751895
0
LINE
8
DEFAULT_255_2_778
10
32.4473076
20
47.9751895
11
32.3899076
21
48.0991895
0
LINE
8
DEFAULT_255_2_778
10
32.3899076
20
48.0991895
11
32.3391076
21
48.1502895
0
LINE
8
DEFAULT_255_2_778
10
32.3391076
20
48.1502895
11
32.2767076
21
48.1777895
0
LINE
8
DEFAULT_255_2_778
10
32.2767076
20
48.1777895
11
32.2354076
21
48.1822895
0
LINE
8
DEFAULT_255_2_778
10
32.0041076
20
48.0473895
11
32.0041076
21
48.5701895
0
LINE
8
DEFAULT_255_2_778
10
32.0041076
20
48.5701895
11
32.4743076
21
48.5701895
0
ARC
8
DEFAULT_255_2_778
10
26.2691148
20
48.381644
40
0.3025071
50
22.4628807
51
76.9627032
0
ARC
8
DEFAULT_255_2_778
10
26.2899429
20
48.4331205
40
0.2478111
50
78.9697407
51
89.9962794
0
ARC
8
DEFAULT_255_2_778
10
26.2899587
20
48.4328966
40
0.248035
50
89.9999218
51
91.6608467
0
ARC
8
DEFAULT_255_2_778
10
26.2888546
20
47.5347299
40
0.317322
50
274.593914
51
328.9010177
0
ARC
8
DEFAULT_255_2_778
10
26.1804958
20
47.6120876
40
0.4501808
50
327.5937774
51
0.3818902
0
ARC
8
DEFAULT_255_2_778
10
26.1560758
20
47.6150925
40
0.474591
50
359.9994695
51
3.8228804
0
ARC
8
DEFAULT_255_2_778
10
26.15991
20
47.6153866
40
0.4707456
50
3.8182792
51
9.7401487
0
ARC
8
DEFAULT_255_2_778
10
26.0345489
20
47.7406148
40
0.5910816
50
355.5766491
51
0.0002392
0
ARC
8
DEFAULT_255_2_778
10
26.0743014
20
47.7457945
40
0.5513533
50
359.4619822
51
36.0328344
0
ARC
8
DEFAULT_255_2_778
10
26.339842
20
47.8945607
40
0.251678
50
44.2335391
51
89.1654685
0
ARC
8
DEFAULT_255_2_778
10
26.3435176
20
47.9154658
40
0.2307461
50
90.0024916
51
91.5515582
0
ARC
8
DEFAULT_255_2_778
10
26.330561
20
47.8649954
40
0.2800787
50
94.9549714
51
146.3659004
0
ARC
8
DEFAULT_255_2_778
10
26.3397166
20
47.8251534
40
0.3110415
50
141.1824617
51
157.4913122
0
ARC
8
DEFAULT_255_2_778
10
26.292693
20
48.4114292
40
0.1693717
50
90.0009645
51
93.2571011
0
ARC
8
DEFAULT_255_2_778
10
26.2835326
20
48.3797831
40
0.2012264
50
20.1275638
51
87.3916524
0
LINE
8
DEFAULT_255_2_778
10
26.2827699
20
48.6808274
11
26.1692699
21
48.6607274
0
LINE
8
DEFAULT_255_2_778
10
26.1692699
20
48.6607274
11
26.0991699
21
48.6146274
0
LINE
8
DEFAULT_255_2_778
10
26.0991699
20
48.6146274
11
26.0462699
21
48.5424274
0
LINE
8
DEFAULT_255_2_778
10
26.0462699
20
48.5424274
11
26.0068699
21
48.4260274
0
LINE
8
DEFAULT_255_2_778
10
26.0068699
20
48.4260274
11
25.9777699
21
48.0043274
0
LINE
8
DEFAULT_255_2_778
10
25.9777699
20
48.0043274
11
25.9774699
21
47.9445274
0
LINE
8
DEFAULT_255_2_778
10
25.9774699
20
47.9445274
11
25.9864699
21
47.6621274
0
LINE
8
DEFAULT_255_2_778
10
25.9864699
20
47.6621274
11
26.0314699
21
47.4365274
0
LINE
8
DEFAULT_255_2_778
10
26.0314699
20
47.4365274
11
26.0846699
21
47.3327274
0
LINE
8
DEFAULT_255_2_778
10
26.0846699
20
47.3327274
11
26.1650699
21
47.2565274
0
LINE
8
DEFAULT_255_2_778
10
26.1650699
20
47.2565274
11
26.2518699
21
47.2235274
0
LINE
8
DEFAULT_255_2_778
10
26.2518699
20
47.2235274
11
26.3142699
21
47.2184274
0
LINE
8
DEFAULT_255_2_778
10
26.3372699
20
48.1461274
11
26.3063699
21
48.1440274
0
LINE
8
DEFAULT_255_2_778
10
26.0523699
20
47.9442274
11
26.0552699
21
48.1418274
0
LINE
8
DEFAULT_255_2_778
10
26.0552699
20
48.1418274
11
26.0705699
21
48.3387274
0
LINE
8
DEFAULT_255_2_778
10
26.0705699
20
48.3387274
11
26.0991699
21
48.4493274
0
LINE
8
DEFAULT_255_2_778
10
26.0991699
20
48.4493274
11
26.1351699
21
48.5144274
0
LINE
8
DEFAULT_255_2_778
10
26.1351699
20
48.5144274
11
26.1769699
21
48.5538274
0
LINE
8
DEFAULT_255_2_778
10
26.1769699
20
48.5538274
11
26.2272699
21
48.5747274
0
LINE
8
DEFAULT_255_2_778
10
26.2272699
20
48.5747274
11
26.2830699
21
48.5805274
0
LINE
8
DEFAULT_255_2_778
10
26.4724699
20
48.4490274
11
26.5489699
21
48.4969274
0
LINE
8
DEFAULT_255_2_778
10
29.8234699
20
47.7288274
11
30.1308699
21
48.5607274
0
LINE
8
DEFAULT_255_2_778
10
30.1308699
20
48.5607274
11
30.1888699
21
48.5607274
0
LINE
8
DEFAULT_255_2_778
10
30.1888699
20
48.5607274
11
30.1888699
21
47.7029274
0
LINE
8
DEFAULT_255_2_778
10
30.1888699
20
47.7029274
11
29.8234699
21
47.7029274
0
LINE
8
DEFAULT_255_2_778
10
29.8234699
20
47.7029274
11
29.8234699
21
47.7288274
0
LINE
8
DEFAULT_255_2_778
10
30.2808699
20
47.7026274
11
30.2808699
21
48.6633274
0
LINE
8
DEFAULT_255_2_778
10
30.2808699
20
48.6633274
11
30.0755699
21
48.6633274
0
LINE
8
DEFAULT_255_2_778
10
30.0755699
20
48.6633274
11
29.7400699
21
47.7413274
0
LINE
8
DEFAULT_255_2_778
10
29.7400699
20
47.7413274
11
29.7400699
21
47.5918274
0
LINE
8
DEFAULT_255_2_778
10
29.7400699
20
47.5918274
11
30.1885699
21
47.5918274
0
LINE
8
DEFAULT_255_2_778
10
30.1885699
20
47.5918274
11
30.1885699
21
47.2224274
0
LINE
8
DEFAULT_255_2_778
10
30.1885699
20
47.2224274
11
30.2808699
21
47.2224274
0
LINE
8
DEFAULT_255_2_778
10
30.2808699
20
47.2224274
11
30.2808699
21
47.5918274
0
LINE
8
DEFAULT_255_2_778
10
30.2808699
20
47.5918274
11
30.4571699
21
47.5918274
0
LINE
8
DEFAULT_255_2_778
10
30.4571699
20
47.5918274
11
30.4571699
21
47.7026274
0
LINE
8
DEFAULT_255_2_778
10
30.4571699
20
47.7026274
11
30.2808699
21
47.7026274
0
ARC
8
DEFAULT_255_2_778
10
30.8784972
20
47.8932077
40
0.1837734
50
102.8405823
51
168.199706
0
ARC
8
DEFAULT_255_2_778
10
30.8615559
20
47.9324251
40
0.1419861
50
90.0041392
51
99.6906429
0
ARC
8
DEFAULT_255_2_778
10
30.8615192
20
47.9315326
40
0.1428786
50
82.2009878
51
89.9894086
0
ARC
8
DEFAULT_255_2_778
10
30.8209741
20
47.4790886
40
0.1466337
50
270.0129666
51
278.5630845
0
ARC
8
DEFAULT_255_2_778
10
30.8302835
20
47.5088858
40
0.1766746
50
196.4433178
51
266.9903301
0
ARC
8
DEFAULT_255_2_778
10
30.8929937
20
47.5424825
40
0.2467546
50
199.5799687
51
199.8054712
0
ARC
8
DEFAULT_255_2_778
10
30.8488806
20
47.510781
40
0.2956139
50
198.2940674
51
248.1231819
0
ARC
8
DEFAULT_255_2_778
10
30.8176007
20
47.4522695
40
0.2297744
50
249.9251509
51
269.9387125
0
ARC
8
DEFAULT_255_2_778
10
30.8173371
20
47.4505297
40
0.2280344
50
270.0044599
51
275.3521896
0
ARC
8
DEFAULT_255_2_778
10
30.7818393
20
47.554716
40
0.336056
50
279.725334
51
329.1699388
0
ARC
8
DEFAULT_255_2_778
10
30.6728182
20
47.6296796
40
0.4681669
50
328.1298745
51
0.3797416
0
ARC
8
DEFAULT_255_2_778
10
30.6463195
20
47.6327865
40
0.4946553
50
359.9995315
51
4.2415248
0
ARC
8
DEFAULT_255_2_778
10
30.6481436
20
47.6329196
40
0.4928264
50
4.2417824
51
6.9894013
0
ARC
8
DEFAULT_255_2_778
10
30.8760079
20
47.9657321
40
0.219028
50
85.8633373
51
89.998696
0
ARC
8
DEFAULT_255_2_778
10
30.8844653
20
47.9321671
40
0.2527344
50
91.9165444
51
152.3919244
0
LINE
8
DEFAULT_255_2_778
10
31.1307076
20
48.5717895
11
31.1307076
21
48.6826895
0
LINE
8
DEFAULT_255_2_778
10
31.1307076
20
48.6826895
11
30.5682076
21
48.6826895
0
LINE
8
DEFAULT_255_2_778
10
30.5682076
20
48.6826895
11
30.5682076
21
47.8883895
0
LINE
8
DEFAULT_255_2_778
10
30.5682076
20
47.8883895
11
30.6920076
21
47.8883895
0
LINE
8
DEFAULT_255_2_778
10
30.6920076
20
47.8883895
11
30.6986076
21
47.9307895
0
LINE
8
DEFAULT_255_2_778
10
30.8809076
20
48.0730895
11
30.9312076
21
48.0619895
0
LINE
8
DEFAULT_255_2_778
10
30.9312076
20
48.0619895
11
30.9622076
21
48.0375895
0
LINE
8
DEFAULT_255_2_778
10
30.9622076
20
48.0375895
11
31.0005076
21
47.9751895
0
LINE
8
DEFAULT_255_2_778
10
31.0005076
20
47.9751895
11
31.0341076
21
47.8523895
0
LINE
8
DEFAULT_255_2_778
10
31.0341076
20
47.8523895
11
31.0452076
21
47.6925895
0
LINE
8
DEFAULT_255_2_778
10
31.0452076
20
47.6925895
11
31.0228076
21
47.5187895
0
LINE
8
DEFAULT_255_2_778
10
31.0228076
20
47.5187895
11
30.9889076
21
47.4338895
0
LINE
8
DEFAULT_255_2_778
10
30.9889076
20
47.4338895
11
30.9439076
21
47.3753895
0
LINE
8
DEFAULT_255_2_778
10
30.9439076
20
47.3753895
11
30.8952076
21
47.3438895
0
LINE
8
DEFAULT_255_2_778
10
30.8952076
20
47.3438895
11
30.8428076
21
47.3340895
0
LINE
8
DEFAULT_255_2_778
10
30.6605076
20
47.4597895
11
30.5682076
21
47.4179895
0
LINE
8
DEFAULT_255_2_778
10
31.1373076
20
47.6928895
11
31.1037076
21
47.9770895
0
LINE
8
DEFAULT_255_2_778
10
31.1037076
20
47.9770895
11
31.0463076
21
48.1010895
0
LINE
8
DEFAULT_255_2_778
10
31.0463076
20
48.1010895
11
30.9955076
21
48.1521895
0
LINE
8
DEFAULT_255_2_778
10
30.9955076
20
48.1521895
11
30.9331076
21
48.1796895
0
LINE
8
DEFAULT_255_2_778
10
30.9331076
20
48.1796895
11
30.8918076
21
48.1841895
0
LINE
8
DEFAULT_255_2_778
10
30.6605076
20
48.0492895
11
30.6605076
21
48.5720895
0
LINE
8
DEFAULT_255_2_778
10
30.6605076
20
48.5720895
11
31.1307076
21
48.5720895
0
LINE
8
DEFAULT_255_2_778
10
32.8491793
20
47.1581594
11
32.9243793
21
47.1684594
0
LINE
8
DEFAULT_255_2_778
10
32.9243793
20
47.1684594
11
32.9312793
21
47.1697594
0
LINE
8
DEFAULT_255_2_778
10
32.9312793
20
47.1697594
11
32.9380793
21
47.1713594
0
LINE
8
DEFAULT_255_2_778
10
32.9380793
20
47.1713594
11
32.9449793
21
47.1729594
0
LINE
8
DEFAULT_255_2_778
10
32.9449793
20
47.1729594
11
32.9518793
21
47.1745594
0
LINE
8
DEFAULT_255_2_778
10
32.9518793
20
47.1745594
11
32.9587793
21
47.1763594
0
LINE
8
DEFAULT_255_2_778
10
32.9587793
20
47.1763594
11
32.9656793
21
47.1782594
0
LINE
8
DEFAULT_255_2_778
10
32.9656793
20
47.1782594
11
32.9724793
21
47.1801594
0
LINE
8
DEFAULT_255_2_778
10
32.9724793
20
47.1801594
11
32.9793793
21
47.1819594
0
LINE
8
DEFAULT_255_2_778
10
32.9793793
20
47.1819594
11
32.9862793
21
47.1840594
0
LINE
8
DEFAULT_255_2_778
10
32.9862793
20
47.1840594
11
32.9931793
21
47.1861594
0
LINE
8
DEFAULT_255_2_778
10
32.9931793
20
47.1861594
11
32.9999793
21
47.1883594
0
LINE
8
DEFAULT_255_2_778
10
32.9999793
20
47.1883594
11
33.0034793
21
47.1893594
0
LINE
8
DEFAULT_255_2_778
10
33.0034793
20
47.1893594
11
33.0068793
21
47.1904594
0
LINE
8
DEFAULT_255_2_778
10
33.0068793
20
47.1904594
11
33.0103793
21
47.1917594
0
LINE
8
DEFAULT_255_2_778
10
33.0103793
20
47.1917594
11
33.0137793
21
47.1930594
0
LINE
8
DEFAULT_255_2_778
10
33.0137793
20
47.1930594
11
33.0171793
21
47.1943594
0
LINE
8
DEFAULT_255_2_778
10
33.0171793
20
47.1943594
11
33.0203793
21
47.1957594
0
LINE
8
DEFAULT_255_2_778
10
33.0203793
20
47.1957594
11
33.0235793
21
47.1970594
0
LINE
8
DEFAULT_255_2_778
10
33.0235793
20
47.1970594
11
33.0267793
21
47.1983594
0
LINE
8
DEFAULT_255_2_778
10
33.0267793
20
47.1983594
11
33.0298793
21
47.1996594
0
LINE
8
DEFAULT_255_2_778
10
33.0298793
20
47.1996594
11
33.0330793
21
47.2012594
0
LINE
8
DEFAULT_255_2_778
10
33.0330793
20
47.2012594
11
33.0362793
21
47.2028594
0
LINE
8
DEFAULT_255_2_778
10
33.0362793
20
47.2028594
11
33.0394793
21
47.2044594
0
LINE
8
DEFAULT_255_2_778
10
33.0394793
20
47.2044594
11
33.0425793
21
47.2060594
0
LINE
8
DEFAULT_255_2_778
10
33.0425793
20
47.2060594
11
33.0457793
21
47.2076594
0
LINE
8
DEFAULT_255_2_778
10
33.0457793
20
47.2076594
11
33.0489793
21
47.2092594
0
LINE
8
DEFAULT_255_2_778
10
33.0489793
20
47.2092594
11
33.0521793
21
47.2107594
0
LINE
8
DEFAULT_255_2_778
10
33.0521793
20
47.2107594
11
33.0552793
21
47.2123594
0
LINE
8
DEFAULT_255_2_778
10
33.0552793
20
47.2123594
11
33.0584793
21
47.2142594
0
LINE
8
DEFAULT_255_2_778
10
33.0584793
20
47.2142594
11
33.0616793
21
47.2160594
0
LINE
8
DEFAULT_255_2_778
10
33.0616793
20
47.2160594
11
33.0648793
21
47.2179594
0
LINE
8
DEFAULT_255_2_778
10
33.0648793
20
47.2179594
11
33.0679793
21
47.2197594
0
LINE
8
DEFAULT_255_2_778
10
33.0679793
20
47.2197594
11
33.0709793
21
47.2216594
0
LINE
8
DEFAULT_255_2_778
10
33.0709793
20
47.2216594
11
33.0772793
21
47.2256594
0
LINE
8
DEFAULT_255_2_778
10
33.0772793
20
47.2256594
11
33.0836793
21
47.2298594
0
LINE
8
DEFAULT_255_2_778
10
33.0836793
20
47.2298594
11
33.0896793
21
47.2343594
0
LINE
8
DEFAULT_255_2_778
10
33.0896793
20
47.2343594
11
33.0957793
21
47.2388594
0
LINE
8
DEFAULT_255_2_778
10
33.0957793
20
47.2388594
11
33.1015793
21
47.2436594
0
LINE
8
DEFAULT_255_2_778
10
33.1015793
20
47.2436594
11
33.1071793
21
47.2486594
0
LINE
8
DEFAULT_255_2_778
10
33.1071793
20
47.2486594
11
33.1127793
21
47.2536594
0
LINE
8
DEFAULT_255_2_778
10
33.1127793
20
47.2536594
11
33.1180793
21
47.2589594
0
LINE
8
DEFAULT_255_2_778
10
33.1180793
20
47.2589594
11
33.1232793
21
47.2645594
0
LINE
8
DEFAULT_255_2_778
10
33.1232793
20
47.2645594
11
33.1283793
21
47.2700594
0
LINE
8
DEFAULT_255_2_778
10
33.1283793
20
47.2700594
11
33.1333793
21
47.2758594
0
LINE
8
DEFAULT_255_2_778
10
33.1333793
20
47.2758594
11
33.1381793
21
47.2817594
0
LINE
8
DEFAULT_255_2_778
10
33.1381793
20
47.2817594
11
33.1428793
21
47.2877594
0
LINE
8
DEFAULT_255_2_778
10
33.1428793
20
47.2877594
11
33.1473793
21
47.2938594
0
LINE
8
DEFAULT_255_2_778
10
33.1473793
20
47.2938594
11
33.1518793
21
47.2999594
0
LINE
8
DEFAULT_255_2_778
10
33.1518793
20
47.2999594
11
33.1561793
21
47.3063594
0
LINE
8
DEFAULT_255_2_778
10
33.1561793
20
47.3063594
11
33.1600793
21
47.3126594
0
LINE
8
DEFAULT_255_2_778
10
33.1600793
20
47.3126594
11
33.1640793
21
47.3190594
0
LINE
8
DEFAULT_255_2_778
10
33.1640793
20
47.3190594
11
33.1677793
21
47.3256594
0
LINE
8
DEFAULT_255_2_778
10
33.1677793
20
47.3256594
11
33.1714793
21
47.3322594
0
LINE
8
DEFAULT_255_2_778
10
33.1714793
20
47.3322594
11
33.1751793
21
47.3388594
0
LINE
8
DEFAULT_255_2_778
10
33.1751793
20
47.3388594
11
33.1785793
21
47.3454594
0
LINE
8
DEFAULT_255_2_778
10
33.1785793
20
47.3454594
11
33.1820793
21
47.3520594
0
LINE
8
DEFAULT_255_2_778
10
33.1820793
20
47.3520594
11
33.1854793
21
47.3589594
0
LINE
8
DEFAULT_255_2_778
10
33.1854793
20
47.3589594
11
33.1886793
21
47.3658594
0
LINE
8
DEFAULT_255_2_778
10
33.1886793
20
47.3658594
11
33.1918793
21
47.3727594
0
LINE
8
DEFAULT_255_2_778
10
33.1918793
20
47.3727594
11
33.1949793
21
47.3795594
0
LINE
8
DEFAULT_255_2_778
10
33.1949793
20
47.3795594
11
33.1979793
21
47.3864594
0
LINE
8
DEFAULT_255_2_778
10
33.1979793
20
47.3864594
11
33.2008793
21
47.3933594
0
LINE
8
DEFAULT_255_2_778
10
33.2008793
20
47.3933594
11
33.2037793
21
47.4002594
0
LINE
8
DEFAULT_255_2_778
10
33.2037793
20
47.4002594
11
33.2066793
21
47.4073594
0
LINE
8
DEFAULT_255_2_778
10
33.2066793
20
47.4073594
11
33.2092793
21
47.4145594
0
LINE
8
DEFAULT_255_2_778
10
33.2092793
20
47.4145594
11
33.2119793
21
47.4216594
0
LINE
8
DEFAULT_255_2_778
10
33.2119793
20
47.4216594
11
33.2145793
21
47.4288594
0
LINE
8
DEFAULT_255_2_778
10
33.2145793
20
47.4288594
11
33.2169793
21
47.4359594
0
LINE
8
DEFAULT_255_2_778
10
33.2169793
20
47.4359594
11
33.2193793
21
47.4430594
0
LINE
8
DEFAULT_255_2_778
10
33.2193793
20
47.4430594
11
33.2217793
21
47.4502594
0
LINE
8
DEFAULT_255_2_778
10
33.2217793
20
47.4502594
11
33.2240793
21
47.4573594
0
LINE
8
DEFAULT_255_2_778
10
33.2240793
20
47.4573594
11
33.2262793
21
47.4645594
0
LINE
8
DEFAULT_255_2_778
10
33.2262793
20
47.4645594
11
33.2283793
21
47.4716594
0
LINE
8
DEFAULT_255_2_778
10
33.2283793
20
47.4716594
11
33.2304793
21
47.4788594
0
LINE
8
DEFAULT_255_2_778
10
33.2304793
20
47.4788594
11
33.2325793
21
47.4859594
0
LINE
8
DEFAULT_255_2_778
10
33.2325793
20
47.4859594
11
33.2344793
21
47.4931594
0
LINE
8
DEFAULT_255_2_778
10
33.2344793
20
47.4931594
11
33.2362793
21
47.5002594
0
LINE
8
DEFAULT_255_2_778
10
33.2362793
20
47.5002594
11
33.2381793
21
47.5073594
0
LINE
8
DEFAULT_255_2_778
10
33.2381793
20
47.5073594
11
33.2399793
21
47.5145594
0
LINE
8
DEFAULT_255_2_778
10
33.2399793
20
47.5145594
11
33.2418793
21
47.5219594
0
LINE
8
DEFAULT_255_2_778
10
33.2418793
20
47.5219594
11
33.2434793
21
47.5293594
0
LINE
8
DEFAULT_255_2_778
10
33.2434793
20
47.5293594
11
33.2450793
21
47.5367594
0
LINE
8
DEFAULT_255_2_778
10
33.2450793
20
47.5367594
11
33.2465793
21
47.5441594
0
LINE
8
DEFAULT_255_2_778
10
33.2465793
20
47.5441594
11
33.2481793
21
47.5515594
0
LINE
8
DEFAULT_255_2_778
10
33.2481793
20
47.5515594
11
33.2497793
21
47.5589594
0
LINE
8
DEFAULT_255_2_778
10
33.2497793
20
47.5589594
11
33.2513793
21
47.5663594
0
LINE
8
DEFAULT_255_2_778
10
33.2513793
20
47.5663594
11
33.2529793
21
47.5738594
0
LINE
8
DEFAULT_255_2_778
10
33.2529793
20
47.5738594
11
33.2542793
21
47.5812594
0
LINE
8
DEFAULT_255_2_778
10
33.2542793
20
47.5812594
11
33.2555793
21
47.5886594
0
LINE
8
DEFAULT_255_2_778
10
33.2555793
20
47.5886594
11
33.2569793
21
47.5960594
0
LINE
8
DEFAULT_255_2_778
10
33.2569793
20
47.5960594
11
33.2582793
21
47.6034594
0
LINE
8
DEFAULT_255_2_778
10
33.2582793
20
47.6034594
11
33.2595793
21
47.6108594
0
LINE
8
DEFAULT_255_2_778
10
33.2595793
20
47.6108594
11
33.2608793
21
47.6182594
0
LINE
8
DEFAULT_255_2_778
10
33.2608793
20
47.6182594
11
33.2619793
21
47.6256594
0
LINE
8
DEFAULT_255_2_778
10
33.2619793
20
47.6256594
11
33.2629793
21
47.6330594
0
LINE
8
DEFAULT_255_2_778
10
33.2629793
20
47.6330594
11
33.2640793
21
47.6404594
0
LINE
8
DEFAULT_255_2_778
10
33.2640793
20
47.6404594
11
33.2651793
21
47.6478594
0
LINE
8
DEFAULT_255_2_778
10
33.2651793
20
47.6478594
11
33.2661793
21
47.6552594
0
LINE
8
DEFAULT_255_2_778
10
33.2661793
20
47.6552594
11
33.2672793
21
47.6627594
0
LINE
8
DEFAULT_255_2_778
10
33.2672793
20
47.6627594
11
33.2680793
21
47.6701594
0
LINE
8
DEFAULT_255_2_778
10
33.2680793
20
47.6701594
11
33.2688793
21
47.6775594
0
LINE
8
DEFAULT_255_2_778
10
33.2688793
20
47.6775594
11
33.2696793
21
47.6849594
0
LINE
8
DEFAULT_255_2_778
10
33.2696793
20
47.6849594
11
33.2704793
21
47.6923594
0
LINE
8
DEFAULT_255_2_778
10
33.2704793
20
47.6923594
11
33.2719793
21
47.7074594
0
LINE
8
DEFAULT_255_2_778
10
33.2719793
20
47.7074594
11
33.2733793
21
47.7224594
0
LINE
8
DEFAULT_255_2_778
10
33.2733793
20
47.7224594
11
33.2746793
21
47.7375594
0
LINE
8
DEFAULT_255_2_778
10
33.2746793
20
47.7375594
11
33.2756793
21
47.7526594
0
LINE
8
DEFAULT_255_2_778
10
33.2756793
20
47.7526594
11
33.2767793
21
47.7677594
0
LINE
8
DEFAULT_255_2_778
10
33.2767793
20
47.7677594
11
33.2775793
21
47.7828594
0
LINE
8
DEFAULT_255_2_778
10
33.2775793
20
47.7828594
11
33.2783793
21
47.7979594
0
LINE
8
DEFAULT_255_2_778
10
33.2783793
20
47.7979594
11
33.2791793
21
47.8129594
0
LINE
8
DEFAULT_255_2_778
10
33.2791793
20
47.8129594
11
33.2796793
21
47.8280594
0
LINE
8
DEFAULT_255_2_778
10
33.2796793
20
47.8280594
11
33.2799793
21
47.8354594
0
LINE
8
DEFAULT_255_2_778
10
33.2799793
20
47.8354594
11
33.2801793
21
47.8428594
0
LINE
8
DEFAULT_255_2_778
10
33.2801793
20
47.8428594
11
33.2801793
21
47.8502594
0
LINE
8
DEFAULT_255_2_778
10
33.2801793
20
47.8502594
11
33.2801793
21
47.8577594
0
LINE
8
DEFAULT_255_2_778
10
33.2801793
20
47.8577594
11
33.2801793
21
47.8727594
0
LINE
8
DEFAULT_255_2_778
10
33.2801793
20
47.8727594
11
33.2801793
21
47.8878594
0
LINE
8
DEFAULT_255_2_778
10
33.2801793
20
47.8878594
11
33.2801793
21
47.9103594
0
LINE
8
DEFAULT_255_2_778
10
33.2801793
20
47.9103594
11
33.2799793
21
47.9328594
0
LINE
8
DEFAULT_255_2_778
10
33.2799793
20
47.9328594
11
33.2796793
21
47.9553594
0
LINE
8
DEFAULT_255_2_778
10
33.2796793
20
47.9553594
11
33.2791793
21
47.9778594
0
LINE
8
DEFAULT_255_2_778
10
33.2791793
20
47.9778594
11
33.2788793
21
47.9929594
0
LINE
8
DEFAULT_255_2_778
10
33.2788793
20
47.9929594
11
33.2783793
21
48.0079594
0
LINE
8
DEFAULT_255_2_778
10
33.2783793
20
48.0079594
11
33.2778793
21
48.0230594
0
LINE
8
DEFAULT_255_2_778
10
33.2778793
20
48.0230594
11
33.2772793
21
48.0381594
0
LINE
8
DEFAULT_255_2_778
10
33.2772793
20
48.0381594
11
33.2764793
21
48.0532594
0
LINE
8
DEFAULT_255_2_778
10
33.2764793
20
48.0532594
11
33.2759793
21
48.0606594
0
LINE
8
DEFAULT_255_2_778
10
33.2759793
20
48.0606594
11
33.2748793
21
48.0757594
0
LINE
8
DEFAULT_255_2_778
10
33.2748793
20
48.0757594
11
33.2738793
21
48.0907594
0
LINE
8
DEFAULT_255_2_778
10
33.2738793
20
48.0907594
11
33.2725793
21
48.1058594
0
LINE
8
DEFAULT_255_2_778
10
33.2725793
20
48.1058594
11
33.2711793
21
48.1209594
0
LINE
8
DEFAULT_255_2_778
10
33.2711793
20
48.1209594
11
33.2704793
21
48.1283594
0
LINE
8
DEFAULT_255_2_778
10
33.2704793
20
48.1283594
11
33.2696793
21
48.1357594
0
LINE
8
DEFAULT_255_2_778
10
33.2696793
20
48.1357594
11
33.2688793
21
48.1431594
0
LINE
8
DEFAULT_255_2_778
10
33.2688793
20
48.1431594
11
33.2680793
21
48.1505594
0
LINE
8
DEFAULT_255_2_778
10
33.2680793
20
48.1505594
11
33.2672793
21
48.1580594
0
LINE
8
DEFAULT_255_2_778
10
33.2672793
20
48.1580594
11
33.2664793
21
48.1654594
0
LINE
8
DEFAULT_255_2_778
10
33.2664793
20
48.1654594
11
33.2653793
21
48.1728594
0
LINE
8
DEFAULT_255_2_778
10
33.2653793
20
48.1728594
11
33.2643793
21
48.1802594
0
LINE
8
DEFAULT_255_2_778
10
33.2643793
20
48.1802594
11
33.2632793
21
48.1876594
0
LINE
8
DEFAULT_255_2_778
10
33.2632793
20
48.1876594
11
33.2621793
21
48.1950594
0
LINE
8
DEFAULT_255_2_778
10
33.2621793
20
48.1950594
11
33.2611793
21
48.2024594
0
LINE
8
DEFAULT_255_2_778
10
33.2611793
20
48.2024594
11
33.2600793
21
48.2098594
0
LINE
8
DEFAULT_255_2_778
10
33.2600793
20
48.2098594
11
33.2587793
21
48.2172594
0
LINE
8
DEFAULT_255_2_778
10
33.2587793
20
48.2172594
11
33.2574793
21
48.2246594
0
LINE
8
DEFAULT_255_2_778
10
33.2574793
20
48.2246594
11
33.2561793
21
48.2320594
0
LINE
8
DEFAULT_255_2_778
10
33.2561793
20
48.2320594
11
33.2547793
21
48.2394594
0
LINE
8
DEFAULT_255_2_778
10
33.2547793
20
48.2394594
11
33.2534793
21
48.2469594
0
LINE
8
DEFAULT_255_2_778
10
33.2534793
20
48.2469594
11
33.2521793
21
48.2543594
0
LINE
8
DEFAULT_255_2_778
10
33.2521793
20
48.2543594
11
33.2508793
21
48.2617594
0
LINE
8
DEFAULT_255_2_778
10
33.2508793
20
48.2617594
11
33.2479793
21
48.2765594
0
LINE
8
DEFAULT_255_2_778
10
33.2479793
20
48.2765594
11
33.2463793
21
48.2839594
0
LINE
8
DEFAULT_255_2_778
10
33.2463793
20
48.2839594
11
33.2447793
21
48.2913594
0
LINE
8
DEFAULT_255_2_778
10
33.2447793
20
48.2913594
11
33.2431793
21
48.2987594
0
LINE
8
DEFAULT_255_2_778
10
33.2431793
20
48.2987594
11
33.2415793
21
48.3061594
0
LINE
8
DEFAULT_255_2_778
10
33.2415793
20
48.3061594
11
33.2397793
21
48.3135594
0
LINE
8
DEFAULT_255_2_778
10
33.2397793
20
48.3135594
11
33.2378793
21
48.3209594
0
LINE
8
DEFAULT_255_2_778
10
33.2378793
20
48.3209594
11
33.2360793
21
48.3283594
0
LINE
8
DEFAULT_255_2_778
10
33.2360793
20
48.3283594
11
33.2341793
21
48.3355594
0
LINE
8
DEFAULT_255_2_778
10
33.2341793
20
48.3355594
11
33.2320793
21
48.3426594
0
LINE
8
DEFAULT_255_2_778
10
33.2320793
20
48.3426594
11
33.2299793
21
48.3498594
0
LINE
8
DEFAULT_255_2_778
10
33.2299793
20
48.3498594
11
33.2278793
21
48.3569594
0
LINE
8
DEFAULT_255_2_778
10
33.2278793
20
48.3569594
11
33.2254793
21
48.3641594
0
LINE
8
DEFAULT_255_2_778
10
33.2254793
20
48.3641594
11
33.2230793
21
48.3712594
0
LINE
8
DEFAULT_255_2_778
10
33.2230793
20
48.3712594
11
33.2206793
21
48.3784594
0
LINE
8
DEFAULT_255_2_778
10
33.2206793
20
48.3784594
11
33.2180793
21
48.3855594
0
LINE
8
DEFAULT_255_2_778
10
33.2180793
20
48.3855594
11
33.2153793
21
48.3926594
0
LINE
8
DEFAULT_255_2_778
10
33.2153793
20
48.3926594
11
33.2127793
21
48.3998594
0
LINE
8
DEFAULT_255_2_778
10
33.2127793
20
48.3998594
11
33.2100793
21
48.4069594
0
LINE
8
DEFAULT_255_2_778
10
33.2100793
20
48.4069594
11
33.2071793
21
48.4138594
0
LINE
8
DEFAULT_255_2_778
10
33.2071793
20
48.4138594
11
33.2042793
21
48.4207594
0
LINE
8
DEFAULT_255_2_778
10
33.2042793
20
48.4207594
11
33.2013793
21
48.4276594
0
LINE
8
DEFAULT_255_2_778
10
33.2013793
20
48.4276594
11
33.1981793
21
48.4344594
0
LINE
8
DEFAULT_255_2_778
10
33.1981793
20
48.4344594
11
33.1949793
21
48.4413594
0
LINE
8
DEFAULT_255_2_778
10
33.1949793
20
48.4413594
11
33.1918793
21
48.4482594
0
LINE
8
DEFAULT_255_2_778
10
33.1918793
20
48.4482594
11
33.1883793
21
48.4548594
0
LINE
8
DEFAULT_255_2_778
10
33.1883793
20
48.4548594
11
33.1849793
21
48.4614594
0
LINE
8
DEFAULT_255_2_778
10
33.1849793
20
48.4614594
11
33.1815793
21
48.4680594
0
LINE
8
DEFAULT_255_2_778
10
33.1815793
20
48.4680594
11
33.1777793
21
48.4747594
0
LINE
8
DEFAULT_255_2_778
10
33.1777793
20
48.4747594
11
33.1740793
21
48.4813594
0
LINE
8
DEFAULT_255_2_778
10
33.1740793
20
48.4813594
11
33.1703793
21
48.4876594
0
LINE
8
DEFAULT_255_2_778
10
33.1703793
20
48.4876594
11
33.1664793
21
48.4940594
0
LINE
8
DEFAULT_255_2_778
10
33.1664793
20
48.4940594
11
33.1624793
21
48.5003594
0
LINE
8
DEFAULT_255_2_778
10
33.1624793
20
48.5003594
11
33.1582793
21
48.5067594
0
LINE
8
DEFAULT_255_2_778
10
33.1582793
20
48.5067594
11
33.1539793
21
48.5130594
0
LINE
8
DEFAULT_255_2_778
10
33.1539793
20
48.5130594
11
33.1497793
21
48.5191594
0
LINE
8
DEFAULT_255_2_778
10
33.1497793
20
48.5191594
11
33.1452793
21
48.5252594
0
LINE
8
DEFAULT_255_2_778
10
33.1452793
20
48.5252594
11
33.1407793
21
48.5313594
0
LINE
8
DEFAULT_255_2_778
10
33.1407793
20
48.5313594
11
33.1359793
21
48.5374594
0
LINE
8
DEFAULT_255_2_778
10
33.1359793
20
48.5374594
11
33.1312793
21
48.5432594
0
LINE
8
DEFAULT_255_2_778
10
33.1312793
20
48.5432594
11
33.1264793
21
48.5490594
0
LINE
8
DEFAULT_255_2_778
10
33.1264793
20
48.5490594
11
33.1214793
21
48.5546594
0
LINE
8
DEFAULT_255_2_778
10
33.1214793
20
48.5546594
11
33.1164793
21
48.5601594
0
LINE
8
DEFAULT_255_2_778
10
33.1164793
20
48.5601594
11
33.1111793
21
48.5654594
0
LINE
8
DEFAULT_255_2_778
10
33.1111793
20
48.5654594
11
33.1058793
21
48.5707594
0
LINE
8
DEFAULT_255_2_778
10
33.1058793
20
48.5707594
11
33.1002793
21
48.5757594
0
LINE
8
DEFAULT_255_2_778
10
33.1002793
20
48.5757594
11
33.0947793
21
48.5808594
0
LINE
8
DEFAULT_255_2_778
10
33.0947793
20
48.5808594
11
33.0888793
21
48.5855594
0
LINE
8
DEFAULT_255_2_778
10
33.0888793
20
48.5855594
11
33.0830793
21
48.5903594
0
LINE
8
DEFAULT_255_2_778
10
33.0830793
20
48.5903594
11
33.0769793
21
48.5948594
0
LINE
8
DEFAULT_255_2_778
10
33.0769793
20
48.5948594
11
33.0709793
21
48.5993594
0
LINE
8
DEFAULT_255_2_778
10
33.0709793
20
48.5993594
11
33.0645793
21
48.6035594
0
LINE
8
DEFAULT_255_2_778
10
33.0645793
20
48.6035594
11
33.0582793
21
48.6077594
0
LINE
8
DEFAULT_255_2_778
10
33.0582793
20
48.6077594
11
33.0518793
21
48.6117594
0
LINE
8
DEFAULT_255_2_778
10
33.0518793
20
48.6117594
11
33.0452793
21
48.6154594
0
LINE
8
DEFAULT_255_2_778
10
33.0452793
20
48.6154594
11
33.0386793
21
48.6191594
0
LINE
8
DEFAULT_255_2_778
10
33.0386793
20
48.6191594
11
33.0320793
21
48.6226594
0
LINE
8
DEFAULT_255_2_778
10
33.0320793
20
48.6226594
11
33.0253793
21
48.6260594
0
LINE
8
DEFAULT_255_2_778
10
33.0253793
20
48.6260594
11
33.0185793
21
48.6292594
0
LINE
8
DEFAULT_255_2_778
10
33.0185793
20
48.6292594
11
33.0116793
21
48.6321594
0
LINE
8
DEFAULT_255_2_778
10
33.0116793
20
48.6321594
11
33.0047793
21
48.6350594
0
LINE
8
DEFAULT_255_2_778
10
33.0047793
20
48.6350594
11
32.9976793
21
48.6376594
0
LINE
8
DEFAULT_255_2_778
10
32.9976793
20
48.6376594
11
32.9904793
21
48.6403594
0
LINE
8
DEFAULT_255_2_778
10
32.9904793
20
48.6403594
11
32.9833793
21
48.6427594
0
LINE
8
DEFAULT_255_2_778
10
32.9833793
20
48.6427594
11
32.9761793
21
48.6448594
0
LINE
8
DEFAULT_255_2_778
10
32.9761793
20
48.6448594
11
32.9687793
21
48.6469594
0
LINE
8
DEFAULT_255_2_778
10
32.9687793
20
48.6469594
11
32.9613793
21
48.6488594
0
LINE
8
DEFAULT_255_2_778
10
32.9613793
20
48.6488594
11
32.9539793
21
48.6506594
0
LINE
8
DEFAULT_255_2_778
10
32.9539793
20
48.6506594
11
32.9465793
21
48.6522594
0
LINE
8
DEFAULT_255_2_778
10
32.9465793
20
48.6522594
11
32.9391793
21
48.6535594
0
LINE
8
DEFAULT_255_2_778
10
32.9391793
20
48.6535594
11
32.9317793
21
48.6548594
0
LINE
8
DEFAULT_255_2_778
10
32.9317793
20
48.6548594
11
32.9243793
21
48.6559594
0
LINE
8
DEFAULT_255_2_778
10
32.9243793
20
48.6559594
11
32.9169793
21
48.6570594
0
LINE
8
DEFAULT_255_2_778
10
32.9169793
20
48.6570594
11
32.9095793
21
48.6578594
0
LINE
8
DEFAULT_255_2_778
10
32.9095793
20
48.6578594
11
32.9021793
21
48.6585594
0
LINE
8
DEFAULT_255_2_778
10
32.9021793
20
48.6585594
11
32.8946793
21
48.6593594
0
LINE
8
DEFAULT_255_2_778
10
32.8946793
20
48.6593594
11
32.8872793
21
48.6599594
0
LINE
8
DEFAULT_255_2_778
10
32.8872793
20
48.6599594
11
32.8798793
21
48.6604594
0
LINE
8
DEFAULT_255_2_778
10
32.8798793
20
48.6604594
11
32.8724793
21
48.6609594
0
LINE
8
DEFAULT_255_2_778
10
32.8724793
20
48.6609594
11
32.8650793
21
48.6615594
0
LINE
8
DEFAULT_255_2_778
10
32.8650793
20
48.6615594
11
32.8576793
21
48.6620594
0
LINE
8
DEFAULT_255_2_778
10
32.8576793
20
48.6620594
11
32.8502793
21
48.6622594
0
LINE
8
DEFAULT_255_2_778
10
32.8502793
20
48.6622594
11
32.8428793
21
48.6625594
0
LINE
8
DEFAULT_255_2_778
10
32.8428793
20
48.6625594
11
32.8351793
21
48.6628594
0
LINE
8
DEFAULT_255_2_778
10
32.8351793
20
48.6628594
11
32.8274793
21
48.6630594
0
LINE
8
DEFAULT_255_2_778
10
32.8274793
20
48.6630594
11
32.8198793
21
48.6633594
0
LINE
8
DEFAULT_255_2_778
10
32.8198793
20
48.6633594
11
32.8121793
21
48.6633594
0
LINE
8
DEFAULT_255_2_778
10
32.8121793
20
48.6633594
11
32.8044793
21
48.6633594
0
LINE
8
DEFAULT_255_2_778
10
32.8044793
20
48.6633594
11
32.6309793
21
48.6615594
0
LINE
8
DEFAULT_255_2_778
10
32.6309793
20
48.6615594
11
32.6309793
21
47.1671594
0
LINE
8
DEFAULT_255_2_778
10
32.6309793
20
47.1671594
11
32.6978793
21
47.1592594
0
LINE
8
DEFAULT_255_2_778
10
32.6978793
20
47.1592594
11
32.7033793
21
47.1584594
0
LINE
8
DEFAULT_255_2_778
10
32.7033793
20
47.1584594
11
32.7089793
21
47.1578594
0
LINE
8
DEFAULT_255_2_778
10
32.7089793
20
47.1578594
11
32.7145793
21
47.1573594
0
LINE
8
DEFAULT_255_2_778
10
32.7145793
20
47.1573594
11
32.7200793
21
47.1568594
0
LINE
8
DEFAULT_255_2_778
10
32.7200793
20
47.1568594
11
32.7256793
21
47.1565594
0
LINE
8
DEFAULT_255_2_778
10
32.7256793
20
47.1565594
11
32.7311793
21
47.1562594
0
LINE
8
DEFAULT_255_2_778
10
32.7311793
20
47.1562594
11
32.7367793
21
47.1560594
0
LINE
8
DEFAULT_255_2_778
10
32.7367793
20
47.1560594
11
32.7422793
21
47.1557594
0
LINE
8
DEFAULT_255_2_778
10
32.7422793
20
47.1557594
11
32.7478793
21
47.1554594
0
LINE
8
DEFAULT_255_2_778
10
32.7478793
20
47.1554594
11
32.7534793
21
47.1552594
0
LINE
8
DEFAULT_255_2_778
10
32.7534793
20
47.1552594
11
32.7589793
21
47.1552594
0
LINE
8
DEFAULT_255_2_778
10
32.7589793
20
47.1552594
11
32.7645793
21
47.1552594
0
LINE
8
DEFAULT_255_2_778
10
32.7645793
20
47.1552594
11
32.7700793
21
47.1552594
0
LINE
8
DEFAULT_255_2_778
10
32.7700793
20
47.1552594
11
32.7756793
21
47.1552594
0
LINE
8
DEFAULT_255_2_778
10
32.7756793
20
47.1552594
11
32.7811793
21
47.1552594
0
LINE
8
DEFAULT_255_2_778
10
32.7811793
20
47.1552594
11
32.7867793
21
47.1552594
0
LINE
8
DEFAULT_255_2_778
10
32.7867793
20
47.1552594
11
32.7922793
21
47.1552594
0
LINE
8
DEFAULT_255_2_778
10
32.7922793
20
47.1552594
11
32.7978793
21
47.1552594
0
LINE
8
DEFAULT_255_2_778
10
32.7978793
20
47.1552594
11
32.8034793
21
47.1554594
0
LINE
8
DEFAULT_255_2_778
10
32.8034793
20
47.1554594
11
32.8089793
21
47.1554594
0
LINE
8
DEFAULT_255_2_778
10
32.8089793
20
47.1554594
11
32.8145793
21
47.1557594
0
LINE
8
DEFAULT_255_2_778
10
32.8145793
20
47.1557594
11
32.8200793
21
47.1560594
0
LINE
8
DEFAULT_255_2_778
10
32.8200793
20
47.1560594
11
32.8256793
21
47.1562594
0
LINE
8
DEFAULT_255_2_778
10
32.8256793
20
47.1562594
11
32.8311793
21
47.1565594
0
LINE
8
DEFAULT_255_2_778
10
32.8311793
20
47.1565594
11
32.8367793
21
47.1568594
0
LINE
8
DEFAULT_255_2_778
10
32.8367793
20
47.1568594
11
32.8491793
21
47.1581594
0
LINE
8
DEFAULT_255_2_778
10
32.9920793
20
48.5300594
11
33.0986793
21
48.4387594
0
LINE
8
DEFAULT_255_2_778
10
33.0986793
20
48.4387594
11
33.1658793
21
48.2752594
0
LINE
8
DEFAULT_255_2_778
10
33.1658793
20
48.2752594
11
33.1902793
21
48.1357594
0
LINE
8
DEFAULT_255_2_778
10
33.1902793
20
48.1357594
11
33.1875793
21
47.6653594
0
LINE
8
DEFAULT_255_2_778
10
33.1875793
20
47.6653594
11
33.1584793
21
47.5195594
0
LINE
8
DEFAULT_255_2_778
10
33.1584793
20
47.5195594
11
33.1047793
21
47.3896594
0
LINE
8
DEFAULT_255_2_778
10
33.1047793
20
47.3896594
11
32.9841793
21
47.2925594
0
LINE
8
DEFAULT_255_2_778
10
32.9841793
20
47.2925594
11
32.7851793
21
47.2631594
0
LINE
8
DEFAULT_255_2_778
10
32.7851793
20
47.2631594
11
32.7110793
21
47.2650594
0
LINE
8
DEFAULT_255_2_778
10
32.7110793
20
47.2650594
11
32.7110793
21
48.5551594
0
LINE
8
DEFAULT_255_2_778
10
32.7110793
20
48.5551594
11
32.9920793
21
48.5300594
0
LINE
8
DEFAULT_255_2_778
10
27.3574793
20
48.6818594
11
26.7915793
21
48.6818594
0
LINE
8
DEFAULT_255_2_778
10
26.7915793
20
48.6818594
11
26.7915793
21
47.1856594
0
LINE
8
DEFAULT_255_2_778
10
26.7915793
20
47.1856594
11
27.3574793
21
47.1856594
0
LINE
8
DEFAULT_255_2_778
10
27.3574793
20
47.1856594
11
27.3574793
21
47.2896594
0
LINE
8
DEFAULT_255_2_778
10
27.3574793
20
47.2896594
11
26.8703793
21
47.2896594
0
LINE
8
DEFAULT_255_2_778
10
26.8703793
20
47.2896594
11
26.8703793
21
47.9219594
0
LINE
8
DEFAULT_255_2_778
10
26.8703793
20
47.9219594
11
27.3278793
21
47.9219594
0
LINE
8
DEFAULT_255_2_778
10
27.3278793
20
47.9219594
11
27.3278793
21
48.0259594
0
LINE
8
DEFAULT_255_2_778
10
27.3278793
20
48.0259594
11
26.8703793
21
48.0259594
0
LINE
8
DEFAULT_255_2_778
10
26.8703793
20
48.0259594
11
26.8703793
21
48.5752594
0
LINE
8
DEFAULT_255_2_778
10
26.8703793
20
48.5752594
11
27.3574793
21
48.5752594
0
LINE
8
DEFAULT_255_2_778
10
27.3574793
20
48.5752594
11
27.3574793
21
48.6816594
0
LINE
8
DEFAULT_255_2_778
10
27.7332793
20
47.3232594
11
27.6382793
21
47.4801594
0
LINE
8
DEFAULT_255_2_778
10
27.6382793
20
47.4801594
11
27.6339793
21
47.5023594
0
LINE
8
DEFAULT_255_2_778
10
27.6339793
20
47.5023594
11
27.5580793
21
47.4737594
0
LINE
8
DEFAULT_255_2_778
10
27.5580793
20
47.4737594
11
27.5781793
21
47.4023594
0
LINE
8
DEFAULT_255_2_778
10
27.5781793
20
47.4023594
11
27.6106793
21
47.3290594
0
LINE
8
DEFAULT_255_2_778
10
27.6106793
20
47.3290594
11
27.6810793
21
47.2428594
0
LINE
8
DEFAULT_255_2_778
10
27.6810793
20
47.2428594
11
27.8080793
21
47.1904594
0
LINE
8
DEFAULT_255_2_778
10
27.8080793
20
47.1904594
11
27.9573793
21
47.2176594
0
LINE
8
DEFAULT_255_2_778
10
27.9573793
20
47.2176594
11
28.0546793
21
47.2965594
0
LINE
8
DEFAULT_255_2_778
10
28.0546793
20
47.2965594
11
28.1136793
21
47.3901594
0
LINE
8
DEFAULT_255_2_778
10
28.1136793
20
47.3901594
11
28.1409793
21
47.4634594
0
LINE
8
DEFAULT_255_2_778
10
28.1409793
20
47.4634594
11
28.1533793
21
47.5155594
0
LINE
8
DEFAULT_255_2_778
10
28.1533793
20
47.5155594
11
28.1589793
21
47.5505594
0
LINE
8
DEFAULT_255_2_778
10
28.1589793
20
47.5505594
11
28.1567793
21
47.7000594
0
LINE
8
DEFAULT_255_2_778
10
28.1567793
20
47.7000594
11
28.1451793
21
47.7455594
0
LINE
8
DEFAULT_255_2_778
10
28.1451793
20
47.7455594
11
28.1179793
21
47.8042594
0
LINE
8
DEFAULT_255_2_778
10
28.1179793
20
47.8042594
11
28.0689793
21
47.8688594
0
LINE
8
DEFAULT_255_2_778
10
28.0689793
20
47.8688594
11
27.9752793
21
47.9455594
0
LINE
8
DEFAULT_255_2_778
10
27.9752793
20
47.9455594
11
27.7003793
21
48.1439594
0
LINE
8
DEFAULT_255_2_778
10
27.7003793
20
48.1439594
11
27.6601793
21
48.2013594
0
LINE
8
DEFAULT_255_2_778
10
27.6601793
20
48.2013594
11
27.6472793
21
48.2384594
0
LINE
8
DEFAULT_255_2_778
10
27.6472793
20
48.2384594
11
27.6480793
21
48.3799594
0
LINE
8
DEFAULT_255_2_778
10
27.6480793
20
48.3799594
11
27.6562793
21
48.4170594
0
LINE
8
DEFAULT_255_2_778
10
27.6562793
20
48.4170594
11
27.6736793
21
48.4614594
0
LINE
8
DEFAULT_255_2_778
10
27.6736793
20
48.4614594
11
27.7152793
21
48.5231594
0
LINE
8
DEFAULT_255_2_778
10
27.7152793
20
48.5231594
11
27.7908793
21
48.5723594
0
LINE
8
DEFAULT_255_2_778
10
27.7908793
20
48.5723594
11
27.9112793
21
48.5810594
0
LINE
8
DEFAULT_255_2_778
10
27.9112793
20
48.5810594
11
28.0287793
21
48.4662594
0
LINE
8
DEFAULT_255_2_778
10
28.0287793
20
48.4662594
11
28.0578793
21
48.3784594
0
LINE
8
DEFAULT_255_2_778
10
28.0578793
20
48.3784594
11
28.1337793
21
48.4069594
0
LINE
8
DEFAULT_255_2_778
10
28.1337793
20
48.4069594
11
28.1139793
21
48.4765594
0
LINE
8
DEFAULT_255_2_778
10
28.1139793
20
48.4765594
11
28.0763793
21
48.5599594
0
LINE
8
DEFAULT_255_2_778
10
28.0763793
20
48.5599594
11
28.0022793
21
48.6464594
0
LINE
8
DEFAULT_255_2_778
10
28.0022793
20
48.6464594
11
27.8752793
21
48.6895594
0
LINE
8
DEFAULT_255_2_778
10
27.8752793
20
48.6895594
11
27.7271793
21
48.6519594
0
LINE
8
DEFAULT_255_2_778
10
27.7271793
20
48.6519594
11
27.6474793
21
48.5818594
0
LINE
8
DEFAULT_255_2_778
10
27.6474793
20
48.5818594
11
27.6017793
21
48.5027594
0
LINE
8
DEFAULT_255_2_778
10
27.6017793
20
48.5027594
11
27.5778793
21
48.4307594
0
LINE
8
DEFAULT_255_2_778
10
27.5778793
20
48.4307594
11
27.5699793
21
48.3916594
0
LINE
8
DEFAULT_255_2_778
10
27.5699793
20
48.3916594
11
27.5649793
21
48.3506594
0
LINE
8
DEFAULT_255_2_778
10
27.5649793
20
48.3506594
11
27.5665793
21
48.2320594
0
LINE
8
DEFAULT_255_2_778
10
27.5665793
20
48.2320594
11
27.5731793
21
48.1995594
0
LINE
8
DEFAULT_255_2_778
10
27.5731793
20
48.1995594
11
27.5919793
21
48.1498594
0
LINE
8
DEFAULT_255_2_778
10
27.5919793
20
48.1498594
11
27.6408793
21
48.0765594
0
LINE
8
DEFAULT_255_2_778
10
27.6408793
20
48.0765594
11
27.7366793
21
47.9934594
0
LINE
8
DEFAULT_255_2_778
10
27.7366793
20
47.9934594
11
28.0075793
21
47.8008594
0
LINE
8
DEFAULT_255_2_778
10
28.0075793
20
47.8008594
11
28.0586793
21
47.7351594
0
LINE
8
DEFAULT_255_2_778
10
28.0586793
20
47.7351594
11
28.0750793
21
47.6955594
0
LINE
8
DEFAULT_255_2_778
10
28.0750793
20
47.6955594
11
28.0803793
21
47.6722594
0
LINE
8
DEFAULT_255_2_778
10
28.0803793
20
47.6722594
11
28.0784793
21
47.5531594
0
LINE
8
DEFAULT_255_2_778
10
28.0784793
20
47.5531594
11
28.0678793
21
47.5034594
0
LINE
8
DEFAULT_255_2_778
10
28.0678793
20
47.5034594
11
28.0462793
21
47.4430594
0
LINE
8
DEFAULT_255_2_778
10
28.0462793
20
47.4430594
11
28.0067793
21
47.3782594
0
LINE
8
DEFAULT_255_2_778
10
28.0067793
20
47.3782594
11
27.9266793
21
47.3116594
0
LINE
8
DEFAULT_255_2_778
10
27.9266793
20
47.3116594
11
27.7837793
21
47.2994594
0
LINE
8
DEFAULT_255_2_778
10
27.7837793
20
47.2994594
11
27.7329793
21
47.3221594
0
LINE
8
DEFAULT_255_2_778
10
28.6502793
20
47.8833594
11
28.4840793
21
47.2539594
0
LINE
8
DEFAULT_255_2_778
10
28.4840793
20
47.2539594
11
28.5639793
21
47.2224594
0
LINE
8
DEFAULT_255_2_778
10
28.5639793
20
47.2224594
11
28.9045793
21
48.5181594
0
LINE
8
DEFAULT_255_2_778
10
28.9045793
20
48.5181594
11
28.9045793
21
48.6633594
0
LINE
8
DEFAULT_255_2_778
10
28.9045793
20
48.6633594
11
28.3062793
21
48.6633594
0
LINE
8
DEFAULT_255_2_778
10
28.3062793
20
48.6633594
11
28.3062793
21
48.5524594
0
LINE
8
DEFAULT_255_2_778
10
28.3062793
20
48.5524594
11
28.8214793
21
48.5524594
0
LINE
8
DEFAULT_255_2_778
10
28.8214793
20
48.5524594
11
28.8214793
21
48.5247594
0
LINE
8
DEFAULT_255_2_778
10
28.8214793
20
48.5247594
11
28.6502793
21
47.8833594
0
ARC
8
DEFAULT_255_2_778
10
29.3759972
20
47.8739077
40
0.1837734
50
102.8405823
51
168.199706
0
ARC
8
DEFAULT_255_2_778
10
29.3590559
20
47.9131251
40
0.1419861
50
90.0041392
51
99.6906429
0
ARC
8
DEFAULT_255_2_778
10
29.3590192
20
47.9122326
40
0.1428786
50
82.2009878
51
89.9894086
0
ARC
8
DEFAULT_255_2_778
10
29.3184741
20
47.4597886
40
0.1466337
50
270.0129666
51
278.5630845
0
ARC
8
DEFAULT_255_2_778
10
29.3277835
20
47.4895858
40
0.1766746
50
196.4433178
51
266.9903301
0
ARC
8
DEFAULT_255_2_778
10
29.3904937
20
47.5231825
40
0.2467546
50
199.5799687
51
199.8054712
0
ARC
8
DEFAULT_255_2_778
10
29.3463806
20
47.491481
40
0.2956139
50
198.2940674
51
248.1231819
0
ARC
8
DEFAULT_255_2_778
10
29.3151007
20
47.4329695
40
0.2297744
50
249.9251509
51
269.9387125
0
ARC
8
DEFAULT_255_2_778
10
29.3148371
20
47.4312297
40
0.2280344
50
270.0044599
51
275.3521896
0
ARC
8
DEFAULT_255_2_778
10
29.2793393
20
47.535416
40
0.336056
50
279.725334
51
329.1699388
0
ARC
8
DEFAULT_255_2_778
10
29.1703182
20
47.6103796
40
0.4681669
50
328.1298745
51
0.3797416
0
ARC
8
DEFAULT_255_2_778
10
29.1438195
20
47.6134865
40
0.4946553
50
359.9995315
51
4.2415248
0
ARC
8
DEFAULT_255_2_778
10
29.1456436
20
47.6136196
40
0.4928264
50
4.2417824
51
6.9894013
0
ARC
8
DEFAULT_255_2_778
10
29.3735079
20
47.9464321
40
0.219028
50
85.8633373
51
89.998696
0
ARC
8
DEFAULT_255_2_778
10
29.3819653
20
47.9128671
40
0.2527344
50
91.9165444
51
152.3919244
0
LINE
8
DEFAULT_255_2_778
10
29.6282076
20
48.5524895
11
29.6282076
21
48.6633895
0
LINE
8
DEFAULT_255_2_778
10
29.6282076
20
48.6633895
11
29.0657076
21
48.6633895
0
LINE
8
DEFAULT_255_2_778
10
29.0657076
20
48.6633895
11
29.0657076
21
47.8690895
0
LINE
8
DEFAULT_255_2_778
10
29.0657076
20
47.8690895
11
29.1895076
21
47.8690895
0
LINE
8
DEFAULT_255_2_778
10
29.1895076
20
47.8690895
11
29.1961076
21
47.9114895
0
LINE
8
DEFAULT_255_2_778
10
29.3784076
20
48.0537895
11
29.4287076
21
48.0426895
0
LINE
8
DEFAULT_255_2_778
10
29.4287076
20
48.0426895
11
29.4597076
21
48.0182895
0
LINE
8
DEFAULT_255_2_778
10
29.4597076
20
48.0182895
11
29.4980076
21
47.9558895
0
LINE
8
DEFAULT_255_2_778
10
29.4980076
20
47.9558895
11
29.5316076
21
47.8330895
0
LINE
8
DEFAULT_255_2_778
10
29.5316076
20
47.8330895
11
29.5427076
21
47.6732895
0
LINE
8
DEFAULT_255_2_778
10
29.5427076
20
47.6732895
11
29.5203076
21
47.4994895
0
LINE
8
DEFAULT_255_2_778
10
29.5203076
20
47.4994895
11
29.4864076
21
47.4145895
0
LINE
8
DEFAULT_255_2_778
10
29.4864076
20
47.4145895
11
29.4414076
21
47.3560895
0
LINE
8
DEFAULT_255_2_778
10
29.4414076
20
47.3560895
11
29.3927076
21
47.3245895
0
LINE
8
DEFAULT_255_2_778
10
29.3927076
20
47.3245895
11
29.3403076
21
47.3147895
0
LINE
8
DEFAULT_255_2_778
10
29.1580076
20
47.4404895
11
29.0657076
21
47.3986895
0
LINE
8
DEFAULT_255_2_778
10
29.6348076
20
47.6735895
11
29.6012076
21
47.9577895
0
LINE
8
DEFAULT_255_2_778
10
29.6012076
20
47.9577895
11
29.5438076
21
48.0817895
0
LINE
8
DEFAULT_255_2_778
10
29.5438076
20
48.0817895
11
29.4930076
21
48.1328895
0
LINE
8
DEFAULT_255_2_778
10
29.4930076
20
48.1328895
11
29.4306076
21
48.1603895
0
LINE
8
DEFAULT_255_2_778
10
29.4306076
20
48.1603895
11
29.3893076
21
48.1648895
0
LINE
8
DEFAULT_255_2_778
10
29.1580076
20
48.0299895
11
29.1580076
21
48.5527895
0
LINE
8
DEFAULT_255_2_778
10
29.1580076
20
48.5527895
11
29.6282076
21
48.5527895
0
ARC
8
DEFAULT_255_2_778
10
33.8967359
20
47.7877037
40
0.9072138
50
2.9862533
51
9.0837573
0
ARC
8
DEFAULT_255_2_778
10
33.8971693
20
47.787733
40
0.9067795
50
359.9998094
51
2.9858334
0
ARC
8
DEFAULT_255_2_778
10
33.8974433
20
47.7876903
40
0.9065056
50
332.6438652
51
0.0025084
0
ARC
8
DEFAULT_255_2_778
10
34.5754237
20
47.4868706
40
0.1719357
50
269.9854558
51
317.6897284
0
ARC
8
DEFAULT_255_2_778
10
34.5753791
20
47.487391
40
0.172456
50
268.0702915
51
270.000312
0
ARC
8
DEFAULT_255_2_778
10
34.5585002
20
47.4715952
40
0.1569532
50
270.0033186
51
274.0450858
0
ARC
8
DEFAULT_255_2_778
10
34.5610903
20
47.484281
40
0.1696587
50
221.8294613
51
269.1283518
0
ARC
8
DEFAULT_255_2_778
10
35.4077959
20
47.8112688
40
1.0680308
50
179.9955725
51
204.3368413
0
ARC
8
DEFAULT_255_2_778
10
35.4088707
20
47.8113556
40
1.0691056
50
177.0574534
51
180.0002324
0
ARC
8
DEFAULT_255_2_778
10
35.4095369
20
47.8113254
40
1.0697724
50
173.5805348
51
177.0576665
0
ARC
8
DEFAULT_255_2_778
10
35.2798268
20
48.0974678
40
0.9444489
50
182.9983377
51
188.7906392
0
ARC
8
DEFAULT_255_2_778
10
35.2858431
20
48.0978641
40
0.9504777
50
179.9993296
51
183.0032271
0
ARC
8
DEFAULT_255_2_778
10
35.2511432
20
48.1014253
40
0.9157847
50
153.2910228
51
180.2221127
0
ARC
8
DEFAULT_255_2_778
10
34.5619577
20
48.3993301
40
0.1718717
50
90.0018888
51
138.5812949
0
ARC
8
DEFAULT_255_2_778
10
34.5619432
20
48.3987336
40
0.1724682
50
87.4648199
51
89.9970732
0
ARC
8
DEFAULT_255_2_778
10
34.5793427
20
48.412912
40
0.1584225
50
90.0001133
51
93.5359828
0
ARC
8
DEFAULT_255_2_778
10
34.5765034
20
48.3982773
40
0.1730805
50
41.5305198
51
89.0601639
0
ARC
8
DEFAULT_255_2_778
10
33.8596934
20
48.0971508
40
0.9430348
50
359.7822133
51
26.1679584
0
ARC
8
DEFAULT_255_2_778
10
33.8240742
20
48.0935577
40
0.978647
50
357.3677424
51
0.0005046
0
ARC
8
DEFAULT_255_2_778
10
33.8304074
20
48.0931773
40
0.9723031
50
351.7186741
51
357.372992
0
ARC
8
DEFAULT_255_2_778
10
33.7526935
20
48.0873933
40
1.1402106
50
353.2377062
51
356.4912224
0
ARC
8
DEFAULT_255_2_778
10
33.748685
20
48.08765
40
1.1442272
50
356.4906744
51
0.0003345
0
ARC
8
DEFAULT_255_2_778
10
33.793135
20
48.0921131
40
1.0997863
50
359.7678336
51
27.0893396
0
ARC
8
DEFAULT_255_2_778
10
34.5797977
20
48.4311571
40
0.2514314
50
40.0472689
51
88.9657818
0
ARC
8
DEFAULT_255_2_778
10
34.5843417
20
48.4535673
40
0.2289801
50
90.0014358
51
93.4475699
0
ARC
8
DEFAULT_255_2_778
10
34.5589352
20
48.4476756
40
0.2347459
50
87.1585857
51
89.9998092
0
ARC
8
DEFAULT_255_2_778
10
34.56318
20
48.4266085
40
0.2558482
50
90.9504834
51
139.4516016
0
ARC
8
DEFAULT_255_2_778
10
35.193215
20
48.1172422
40
0.951834
50
150.0157236
51
180.3109111
0
ARC
8
DEFAULT_255_2_778
10
35.2385775
20
48.1120692
40
0.9971826
50
179.9995461
51
183.3229654
0
ARC
8
DEFAULT_255_2_778
10
35.2313163
20
48.111561
40
0.9899043
50
183.3179609
51
189.2094406
0
ARC
8
DEFAULT_255_2_778
10
35.3527784
20
47.7976455
40
1.1066624
50
173.0824508
51
176.3998205
0
ARC
8
DEFAULT_255_2_778
10
35.3566244
20
47.7973934
40
1.1105165
50
176.3992992
51
180.0002775
0
ARC
8
DEFAULT_255_2_778
10
35.3093235
20
47.7925288
40
1.0632266
50
179.7381407
51
208.0025119
0
ARC
8
DEFAULT_255_2_778
10
34.5641864
20
47.458057
40
0.2542058
50
220.3906117
51
269.0345814
0
ARC
8
DEFAULT_255_2_778
10
34.5598985
20
47.4357469
40
0.2318596
50
270.0011805
51
272.6384908
0
ARC
8
DEFAULT_255_2_778
10
34.5820072
20
47.4305391
40
0.2266948
50
267.108587
51
270.0000003
0
ARC
8
DEFAULT_255_2_778
10
34.5775892
20
47.4527001
40
0.2488949
50
271.0170771
51
320.1859108
0
ARC
8
DEFAULT_255_2_778
10
33.9656037
20
47.7669991
40
0.932437
50
329.4701402
51
0.3464682
0
ARC
8
DEFAULT_255_2_778
10
33.9150455
20
47.7726406
40
0.9829782
50
359.9998241
51
3.48099
0
ARC
8
DEFAULT_255_2_778
10
33.920935
20
47.7730745
40
0.9770733
50
3.476564
51
9.297606
0
LINE
8
DEFAULT_255_2_778
10
34.3464719
20
47.9309329
11
34.3464719
21
47.9531329
0
LINE
8
DEFAULT_255_2_778
10
34.7925719
20
47.9531329
11
34.7925719
21
47.9309329
0
LINE
8
DEFAULT_255_2_778
10
34.8849719
20
47.9309329
11
34.8849719
21
47.9531329
0
LINE
8
DEFAULT_255_2_778
10
34.2541719
20
47.9531329
11
34.2541719
21
47.9309329
0
LINE
8
DEFAULT_255_2_778
10
34.8851719
20
47.9309329
11
34.8849719
21
47.9309329
0
ARC
8
DEFAULT_255_2_778
10
34.6350539
20
47.7876906
40
0.9072855
50
2.9868466
51
9.0838717
0
ARC
8
DEFAULT_255_2_778
10
34.6350149
20
47.7876959
40
0.907324
50
0.0003053
51
2.986383
0
ARC
8
DEFAULT_255_2_778
10
34.6350559
20
47.7876891
40
0.9072829
50
332.6693473
51
0.0007362
0
ARC
8
DEFAULT_255_2_778
10
35.3137477
20
47.4872431
40
0.1723082
50
270.0069409
51
317.6349618
0
ARC
8
DEFAULT_255_2_778
10
35.3137676
20
47.4873912
40
0.1724562
50
268.0702919
51
270.0003123
0
ARC
8
DEFAULT_255_2_778
10
35.2968887
20
47.4715952
40
0.1569532
50
270.0033186
51
274.0450858
0
ARC
8
DEFAULT_255_2_778
10
35.2994787
20
47.484281
40
0.1696587
50
221.8294613
51
269.1283518
0
ARC
8
DEFAULT_255_2_778
10
36.1461844
20
47.8112688
40
1.0680308
50
179.9955725
51
204.3368413
0
ARC
8
DEFAULT_255_2_778
10
36.1472592
20
47.8113556
40
1.0691056
50
177.0574534
51
180.0002324
0
ARC
8
DEFAULT_255_2_778
10
36.1479254
20
47.8113254
40
1.0697724
50
173.5805348
51
177.0576665
0
ARC
8
DEFAULT_255_2_778
10
36.0181656
20
48.0974628
40
0.9443991
50
182.9528541
51
188.7907998
0
ARC
8
DEFAULT_255_2_778
10
36.0245892
20
48.0978744
40
0.9508353
50
179.9996733
51
182.9576874
0
ARC
8
DEFAULT_255_2_778
10
35.9914095
20
48.1012811
40
0.9176619
50
153.3189424
51
180.2123638
0
ARC
8
DEFAULT_255_2_778
10
35.3003655
20
48.3992912
40
0.1721106
50
90.0086166
51
138.5009668
0
ARC
8
DEFAULT_255_2_778
10
35.3003308
20
48.3988973
40
0.1725045
50
87.4650854
51
89.9970737
0
ARC
8
DEFAULT_255_2_778
10
35.3179709
20
48.4148142
40
0.1567387
50
89.9997351
51
93.6618184
0
ARC
8
DEFAULT_255_2_778
10
35.3149817
20
48.3985428
40
0.1730361
50
41.5587938
51
89.0099369
0
ARC
8
DEFAULT_255_2_778
10
34.596833
20
48.0971618
40
0.9442831
50
359.7896826
51
26.1502812
0
ARC
8
DEFAULT_255_2_778
10
34.5612426
20
48.0936933
40
0.9798671
50
356.986925
51
0.0001321
0
ARC
8
DEFAULT_255_2_778
10
34.5662529
20
48.0933664
40
0.9748467
50
351.7292039
51
356.9906357
0
ARC
8
DEFAULT_255_2_778
10
34.491082
20
48.0873933
40
1.1402106
50
353.2377062
51
356.4912224
0
ARC
8
DEFAULT_255_2_778
10
34.4870735
20
48.08765
40
1.1442272
50
356.4906744
51
0.0003345
0
ARC
8
DEFAULT_255_2_778
10
34.5315235
20
48.0921131
40
1.0997863
50
359.7678336
51
27.0893396
0
ARC
8
DEFAULT_255_2_778
10
35.3181862
20
48.4311571
40
0.2514314
50
40.0472689
51
88.9657818
0
ARC
8
DEFAULT_255_2_778
10
35.3227302
20
48.4535673
40
0.2289801
50
90.0014358
51
93.4475699
0
ARC
8
DEFAULT_255_2_778
10
35.2973236
20
48.4476756
40
0.2347459
50
87.1585857
51
89.9998092
0
ARC
8
DEFAULT_255_2_778
10
35.3015685
20
48.4266085
40
0.2558482
50
90.9504834
51
139.4516016
0
ARC
8
DEFAULT_255_2_778
10
35.9316034
20
48.1172422
40
0.951834
50
150.0157236
51
180.3109111
0
ARC
8
DEFAULT_255_2_778
10
35.976966
20
48.1120692
40
0.9971826
50
179.9995461
51
183.3229654
0
ARC
8
DEFAULT_255_2_778
10
35.9697048
20
48.111561
40
0.9899043
50
183.3179609
51
189.2094406
0
ARC
8
DEFAULT_255_2_778
10
36.0911668
20
47.7976455
40
1.1066624
50
173.0824508
51
176.3998205
0
ARC
8
DEFAULT_255_2_778
10
36.0950129
20
47.7973934
40
1.1105165
50
176.3992992
51
180.0002775
0
ARC
8
DEFAULT_255_2_778
10
36.0477119
20
47.7925288
40
1.0632266
50
179.7381407
51
208.0025119
0
ARC
8
DEFAULT_255_2_778
10
35.3025748
20
47.458057
40
0.2542058
50
220.3906117
51
269.0345814
0
ARC
8
DEFAULT_255_2_778
10
35.298287
20
47.4357469
40
0.2318596
50
270.0011805
51
272.6384908
0
ARC
8
DEFAULT_255_2_778
10
35.3203951
20
47.4305199
40
0.2266755
50
267.108475
51
269.9999385
0
ARC
8
DEFAULT_255_2_778
10
35.3158987
20
47.452865
40
0.2490612
50
271.0343807
51
320.1683873
0
ARC
8
DEFAULT_255_2_778
10
34.7039922
20
47.7669991
40
0.932437
50
329.4701402
51
0.3464682
0
ARC
8
DEFAULT_255_2_778
10
34.653434
20
47.7726406
40
0.9829782
50
359.9998241
51
3.48099
0
ARC
8
DEFAULT_255_2_778
10
34.6593235
20
47.7730745
40
0.9770733
50
3.476564
51
9.297606
0
LINE
8
DEFAULT_255_2_778
10
35.0848604
20
47.9309329
11
35.0848604
21
47.9531329
0
LINE
8
DEFAULT_255_2_778
10
35.5309604
20
47.9531329
11
35.5309604
21
47.9309329
0
LINE
8
DEFAULT_255_2_778
10
35.6233604
20
47.9309329
11
35.6233604
21
47.9531329
0
LINE
8
DEFAULT_255_2_778
10
34.9925604
20
47.9531329
11
34.9925604
21
47.9309329
0
LINE
8
DEFAULT_255_2_778
10
35.6235604
20
47.9309329
11
35.6233604
21
47.9309329
0
ARC
8
DEFAULT_255_2_778
10
38.4506539
20
47.7876906
40
0.9072855
50
2.9868466
51
9.0838717
0
ARC
8
DEFAULT_255_2_778
10
38.4506149
20
47.7876959
40
0.907324
50
0.0003053
51
2.986383
0
ARC
8
DEFAULT_255_2_778
10
38.4506559
20
47.7876891
40
0.9072829
50
332.6693473
51
0.0007362
0
ARC
8
DEFAULT_255_2_778
10
39.1293477
20
47.4872431
40
0.1723082
50
270.0069409
51
317.6349618
0
ARC
8
DEFAULT_255_2_778
10
39.1293676
20
47.4873912
40
0.1724562
50
268.0702919
51
270.0003123
0
ARC
8
DEFAULT_255_2_778
10
39.1124887
20
47.4715952
40
0.1569532
50
270.0033186
51
274.0450858
0
ARC
8
DEFAULT_255_2_778
10
39.1150787
20
47.484281
40
0.1696587
50
221.8294613
51
269.1283518
0
ARC
8
DEFAULT_255_2_778
10
39.9617844
20
47.8112688
40
1.0680308
50
179.9955725
51
204.3368413
0
ARC
8
DEFAULT_255_2_778
10
39.9628592
20
47.8113556
40
1.0691056
50
177.0574534
51
180.0002324
0
ARC
8
DEFAULT_255_2_778
10
39.9635254
20
47.8113254
40
1.0697724
50
173.5805348
51
177.0576665
0
ARC
8
DEFAULT_255_2_778
10
39.8339185
20
48.0974824
40
0.9445533
50
182.9535668
51
188.7905615
0
ARC
8
DEFAULT_255_2_778
10
39.8404659
20
48.097901
40
0.9511135
50
179.9994418
51
182.958422
0
ARC
8
DEFAULT_255_2_778
10
39.8078343
20
48.1012814
40
0.9184882
50
153.3448636
51
180.2102959
0
ARC
8
DEFAULT_255_2_778
10
39.1160291
20
48.3989279
40
0.1724739
50
90.0297235
51
138.4465739
0
ARC
8
DEFAULT_255_2_778
10
39.1159308
20
48.398897
40
0.1725047
50
87.4650862
51
89.9970745
0
ARC
8
DEFAULT_255_2_778
10
39.1335709
20
48.4148142
40
0.1567387
50
89.9997351
51
93.6618184
0
ARC
8
DEFAULT_255_2_778
10
39.1305817
20
48.3985428
40
0.1730361
50
41.5587938
51
89.0099369
0
ARC
8
DEFAULT_255_2_778
10
38.412433
20
48.0971618
40
0.9442831
50
359.7896826
51
26.1502812
0
ARC
8
DEFAULT_255_2_778
10
38.3768426
20
48.0936933
40
0.9798671
50
356.986925
51
0.0001321
0
ARC
8
DEFAULT_255_2_778
10
38.3818529
20
48.0933664
40
0.9748467
50
351.7292039
51
356.9906357
0
ARC
8
DEFAULT_255_2_778
10
38.306682
20
48.0873933
40
1.1402106
50
353.2377062
51
356.4912224
0
ARC
8
DEFAULT_255_2_778
10
38.3026735
20
48.08765
40
1.1442272
50
356.4906744
51
0.0003345
0
ARC
8
DEFAULT_255_2_778
10
38.3471235
20
48.0921131
40
1.0997863
50
359.7678336
51
27.0893396
0
ARC
8
DEFAULT_255_2_778
10
39.1337166
20
48.4310104
40
0.251579
50
40.0626434
51
88.954241
0
ARC
8
DEFAULT_255_2_778
10
39.1383126
20
48.454152
40
0.2283954
50
90.0011135
51
93.4519936
0
ARC
8
DEFAULT_255_2_778
10
39.1129236
20
48.4476756
40
0.2347459
50
87.1585857
51
89.9998092
0
ARC
8
DEFAULT_255_2_778
10
39.1171685
20
48.4266085
40
0.2558482
50
90.9504834
51
139.4516016
0
ARC
8
DEFAULT_255_2_778
10
39.7472034
20
48.1172422
40
0.951834
50
150.0157236
51
180.3109111
0
ARC
8
DEFAULT_255_2_778
10
39.792566
20
48.1120692
40
0.9971826
50
179.9995461
51
183.3229654
0
ARC
8
DEFAULT_255_2_778
10
39.7853048
20
48.111561
40
0.9899043
50
183.3179609
51
189.2094406
0
ARC
8
DEFAULT_255_2_778
10
39.9067668
20
47.7976455
40
1.1066624
50
173.0824508
51
176.3998205
0
ARC
8
DEFAULT_255_2_778
10
39.9106129
20
47.7973934
40
1.1105165
50
176.3992992
51
180.0002775
0
ARC
8
DEFAULT_255_2_778
10
39.8633119
20
47.7925288
40
1.0632266
50
179.7381407
51
208.0025119
0
ARC
8
DEFAULT_255_2_778
10
39.1181748
20
47.458057
40
0.2542058
50
220.3906117
51
269.0345814
0
ARC
8
DEFAULT_255_2_778
10
39.113887
20
47.4357469
40
0.2318596
50
270.0011805
51
272.6384908
0
ARC
8
DEFAULT_255_2_778
10
39.1359956
20
47.4305391
40
0.2266948
50
267.108587
51
270.0000003
0
ARC
8
DEFAULT_255_2_778
10
39.1315776
20
47.4527001
40
0.2488949
50
271.0170771
51
320.1859108
0
ARC
8
DEFAULT_255_2_778
10
38.5195922
20
47.7669991
40
0.932437
50
329.4701402
51
0.3464682
0
ARC
8
DEFAULT_255_2_778
10
38.469034
20
47.7726406
40
0.9829782
50
359.9998241
51
3.48099
0
ARC
8
DEFAULT_255_2_778
10
38.4749235
20
47.7730745
40
0.9770733
50
3.476564
51
9.297606
0
LINE
8
DEFAULT_255_2_778
10
38.9004604
20
47.9309329
11
38.9004604
21
47.9531329
0
LINE
8
DEFAULT_255_2_778
10
39.3465604
20
47.9531329
11
39.3465604
21
47.9309329
0
LINE
8
DEFAULT_255_2_778
10
39.4389604
20
47.9309329
11
39.4389604
21
47.9531329
0
LINE
8
DEFAULT_255_2_778
10
38.8081604
20
47.9531329
11
38.8081604
21
47.9309329
0
LINE
8
DEFAULT_255_2_778
10
39.4391604
20
47.9309329
11
39.4389604
21
47.9309329
0
ARC
8
DEFAULT_255_2_778
10
35.9510773
20
48.0933737
40
0.9749226
50
351.7294202
51
356.9468842
0
ARC
8
DEFAULT_255_2_778
10
35.9461987
20
48.0936912
40
0.9798112
50
356.9435394
51
0.0000113
0
ARC
8
DEFAULT_255_2_778
10
35.9836607
20
48.0973084
40
0.942356
50
359.780081
51
26.17756
0
ARC
8
DEFAULT_255_2_778
10
36.6996532
20
48.3979742
40
0.1733853
50
41.57512
51
89.0272432
0
ARC
8
DEFAULT_255_2_778
10
36.7025946
20
48.4140982
40
0.1572363
50
89.9992067
51
93.5493366
0
ARC
8
DEFAULT_255_2_778
10
36.6852317
20
48.3987336
40
0.1724682
50
87.4648199
51
89.9970732
0
ARC
8
DEFAULT_255_2_778
10
36.6852461
20
48.3993301
40
0.1718717
50
90.0018888
51
138.5812949
0
ARC
8
DEFAULT_255_2_778
10
37.3761716
20
48.1010147
40
0.9175236
50
153.316949
51
180.2065479
0
ARC
8
DEFAULT_255_2_778
10
37.407322
20
48.0976925
40
0.9486681
50
179.9991242
51
182.7324439
0
ARC
8
DEFAULT_255_2_778
10
37.4004297
20
48.0972591
40
0.941763
50
182.7260915
51
188.8030613
0
ARC
8
DEFAULT_255_2_778
10
37.5328254
20
47.8113254
40
1.0697724
50
173.5805348
51
177.0576665
0
ARC
8
DEFAULT_255_2_778
10
37.5321592
20
47.8113556
40
1.0691056
50
177.0574534
51
180.0002324
0
ARC
8
DEFAULT_255_2_778
10
37.5310844
20
47.8112688
40
1.0680308
50
179.9955725
51
204.3368413
0
ARC
8
DEFAULT_255_2_778
10
36.6843787
20
47.484281
40
0.1696587
50
221.8294613
51
269.1283518
0
ARC
8
DEFAULT_255_2_778
10
36.6817887
20
47.4715952
40
0.1569533
50
270.0033186
51
274.0450858
0
ARC
8
DEFAULT_255_2_778
10
36.6986676
20
47.4873912
40
0.172456
50
268.0702919
51
270.0003123
0
ARC
8
DEFAULT_255_2_778
10
36.6986477
20
47.4872431
40
0.1723081
50
270.0069409
51
317.6349618
0
ARC
8
DEFAULT_255_2_778
10
36.0338889
20
47.7836752
40
0.8930669
50
332.4877128
51
0.2596652
0
ARC
8
DEFAULT_255_2_778
10
35.9946242
20
47.7877309
40
0.9323223
50
359.9994898
51
2.7916043
0
ARC
8
DEFAULT_255_2_778
10
36.0003677
20
47.7881018
40
0.9265676
50
2.7859948
51
8.8675511
0
ARC
8
DEFAULT_255_2_778
10
35.875982
20
48.0873933
40
1.1402106
50
353.2377062
51
356.4912224
0
ARC
8
DEFAULT_255_2_778
10
35.8719735
20
48.08765
40
1.1442272
50
356.4906744
51
0.0003345
0
ARC
8
DEFAULT_255_2_778
10
35.9164235
20
48.0921131
40
1.0997863
50
359.7678336
51
27.0893396
0
ARC
8
DEFAULT_255_2_778
10
36.7030862
20
48.4311571
40
0.2514314
50
40.0472689
51
88.9657818
0
ARC
8
DEFAULT_255_2_778
10
36.7076302
20
48.4535673
40
0.2289801
50
90.0014358
51
93.4475699
0
ARC
8
DEFAULT_255_2_778
10
36.6822236
20
48.4476756
40
0.2347459
50
87.1585857
51
89.9998092
0
ARC
8
DEFAULT_255_2_778
10
36.6864685
20
48.4266085
40
0.2558482
50
90.9504834
51
139.4516016
0
ARC
8
DEFAULT_255_2_778
10
37.3165034
20
48.1172422
40
0.951834
50
150.0157236
51
180.3109111
0
ARC
8
DEFAULT_255_2_778
10
37.361866
20
48.1120692
40
0.9971826
50
179.9995461
51
183.3229654
0
ARC
8
DEFAULT_255_2_778
10
37.3546048
20
48.111561
40
0.9899043
50
183.3179609
51
189.2094406
0
ARC
8
DEFAULT_255_2_778
10
37.4760668
20
47.7976455
40
1.1066624
50
173.0824508
51
176.3998205
0
ARC
8
DEFAULT_255_2_778
10
37.4799129
20
47.7973934
40
1.1105165
50
176.3992992
51
180.0002775
0
ARC
8
DEFAULT_255_2_778
10
37.4326119
20
47.7925288
40
1.0632266
50
179.7381407
51
208.0025119
0
ARC
8
DEFAULT_255_2_778
10
36.6874748
20
47.458057
40
0.2542058
50
220.3906117
51
269.0345814
0
ARC
8
DEFAULT_255_2_778
10
36.683187
20
47.4357469
40
0.2318596
50
270.0011805
51
272.6384908
0
ARC
8
DEFAULT_255_2_778
10
36.7052956
20
47.4305391
40
0.2266948
50
267.108587
51
270.0000003
0
ARC
8
DEFAULT_255_2_778
10
36.7008776
20
47.4527001
40
0.2488949
50
271.0170771
51
320.1859108
0
ARC
8
DEFAULT_255_2_778
10
36.0888922
20
47.7669991
40
0.932437
50
329.4701402
51
0.3464682
0
ARC
8
DEFAULT_255_2_778
10
36.038334
20
47.7726406
40
0.9829782
50
359.9998241
51
3.48099
0
ARC
8
DEFAULT_255_2_778
10
36.0442235
20
47.7730745
40
0.9770733
50
3.476564
51
9.297606
0
LINE
8
DEFAULT_255_2_778
10
36.9158604
20
47.9309329
11
36.9158604
21
47.9531329
0
LINE
8
DEFAULT_255_2_778
10
36.4697604
20
47.9531329
11
36.4697604
21
47.9309329
0
LINE
8
DEFAULT_255_2_778
10
36.9158604
20
47.9309329
11
36.9158604
21
47.9309329
0
LINE
8
DEFAULT_255_2_778
10
37.0082604
20
47.9309329
11
37.0082604
21
47.9531329
0
LINE
8
DEFAULT_255_2_778
10
36.3774604
20
47.9531329
11
36.3774604
21
47.9309329
0
LINE
8
DEFAULT_255_2_778
10
37.0084604
20
47.9309329
11
37.0082604
21
47.9309329
0
LINE
8
DEFAULT_255_2_778
10
5.2402568
20
105.2537411
11
1.8403568
21
105.2537411
0
LINE
8
DEFAULT_255_2_778
10
5.2402568
20
89.9037411
11
1.8403568
21
89.9037411
0
LINE
8
DEFAULT_255_2_778
10
1.8403568
20
89.9037411
11
1.8403568
21
108.2538411
0
LINE
8
DEFAULT_255_2_778
10
1.8403568
20
108.2538411
11
5.2402568
21
108.2538411
0
LINE
8
DEFAULT_255_2_778
10
20.1815568
20
113.7127411
11
20.1815568
21
116.9126411
0
LINE
8
DEFAULT_255_2_778
10
20.1815568
20
116.9126411
11
40.0816568
21
116.9126411
0
LINE
8
DEFAULT_255_2_778
10
40.0816568
20
116.9126411
11
40.0816568
21
-0.1874589
0
LINE
8
DEFAULT_255_2_778
10
40.0816568
20
-0.1874589
11
5.0814568
21
-0.1874589
0
LINE
8
DEFAULT_255_2_778
10
5.0814568
20
-0.1874589
11
5.0814568
21
116.9126411
0
LINE
8
DEFAULT_255_2_778
10
5.0814568
20
116.9126411
11
20.0815568
21
116.9126411
0
LINE
8
DEFAULT_255_2_778
10
20.0815568
20
116.9126411
11
20.0815568
21
113.7125411
0
ARC
8
DEFAULT_255_2_778
10
0.7905953
20
29.8286054
40
0.5502433
50
90.014901
51
179.985076
0
ARC
8
DEFAULT_255_2_778
10
0.7906595
20
27.3289561
40
0.5503074
50
180.0215909
51
269.9784113
0
ARC
8
DEFAULT_255_2_778
10
0.7906594
20
17.8286415
40
0.5503073
50
90.0215746
51
179.9784254
0
ARC
8
DEFAULT_255_2_778
10
0.7906595
20
15.329056
40
0.5503074
50
180.0215798
51
269.9784128
0
LINE
8
DEFAULT_255_2_778
10
5.2404522
20
27.3287487
11
0.2403522
21
27.3287487
0
LINE
8
DEFAULT_255_2_778
10
0.2403522
20
27.3287487
11
0.2403522
21
29.8287487
0
LINE
8
DEFAULT_255_2_778
10
0.2403522
20
29.8287487
11
5.2404522
21
29.8287487
0
LINE
8
DEFAULT_255_2_778
10
5.2404522
20
26.7786487
11
0.7904522
21
26.7786487
0
LINE
8
DEFAULT_255_2_778
10
0.7904522
20
26.7786487
11
0.7904522
21
30.3785487
0
LINE
8
DEFAULT_255_2_778
10
0.7904522
20
30.3785487
11
5.2404522
21
30.3785487
0
LINE
8
DEFAULT_255_2_778
10
5.2404522
20
15.3288487
11
0.2403522
21
15.3288487
0
LINE
8
DEFAULT_255_2_778
10
0.2403522
20
15.3288487
11
0.2403522
21
17.8288487
0
LINE
8
DEFAULT_255_2_778
10
0.2403522
20
17.8288487
11
5.2404522
21
17.8288487
0
LINE
8
DEFAULT_255_2_778
10
5.2404522
20
14.7787487
11
0.7904522
21
14.7787487
0
LINE
8
DEFAULT_255_2_778
10
0.7904522
20
14.7787487
11
0.7904522
21
18.3786487
0
LINE
8
DEFAULT_255_2_778
10
0.7904522
20
18.3786487
11
5.2404522
21
18.3786487
0
ENDSEC
0
EOF