0
SECTION
2
HEADER
9
$MEASUREMENT
70
1
0
ENDSEC
0
SECTION
2
TABLES
0
TABLE
2
LTYPE
0
LTYPE
72
65
70
64
2
CONTINUOUS
3
______
73
0
40
0
0
ENDTAB
0
TABLE
2
LAYER
0
LAYER
2
DEFAULT_255_2_778
70
0
62
255
6
CONTINUOUS
0
ENDTAB
0
ENDSEC
0
SECTION
2
ENTITIES
0
ARC
8
DEFAULT_255_2_778
10
17.6547699
20
98.9896401
40
14.8856242
50
89.9266419
51
90.0005943
0
ARC
8
DEFAULT_255_2_778
10
17.6543577
20
98.8749373
40
15.0003271
50
89.9990152
51
107.1726516
0
ARC
8
DEFAULT_255_2_778
10
17.6531055
20
98.8777173
40
14.9973015
50
107.1712168
51
124.8768672
0
ARC
8
DEFAULT_255_2_778
10
17.6552308
20
98.8745784
40
15.0010917
50
124.8766715
51
125.452273
0
ARC
8
DEFAULT_255_2_778
10
2.1754521
20
35.1163713
40
0.9962817
50
48.352397
51
90.0818679
0
ARC
8
DEFAULT_255_2_778
10
2.1763479
20
35.1136064
40
0.9977557
50
1.7308645
51
48.4963478
0
ARC
8
DEFAULT_255_2_778
10
2.1550048
20
35.1124618
40
1.0191238
50
359.9994553
51
1.7589451
0
ARC
8
DEFAULT_255_2_778
10
17.6737621
20
96.3956818
40
15.0171037
50
89.6182068
51
89.9998419
0
ARC
8
DEFAULT_255_2_778
10
17.6735794
20
96.4132796
40
14.9995058
50
89.9991437
51
120.8856929
0
LINE
8
DEFAULT_255_2_778
10
10.0543286
20
58.0753521
11
10.0543286
21
59.7324521
0
LINE
8
DEFAULT_255_2_778
10
10.0543286
20
59.7324521
11
10.0543286
21
59.8203521
0
LINE
8
DEFAULT_255_2_778
10
10.0543286
20
59.8203521
11
8.3544286
21
59.8203521
0
LINE
8
DEFAULT_255_2_778
10
8.3544286
20
59.8203521
11
8.3544286
21
58.0753521
0
LINE
8
DEFAULT_255_2_778
10
8.3544286
20
55.5753521
11
8.3544286
21
55.0752521
0
LINE
8
DEFAULT_255_2_778
10
8.3544286
20
55.0752521
11
10.0543286
21
55.0752521
0
LINE
8
DEFAULT_255_2_778
10
10.0543286
20
55.0752521
11
10.0543286
21
55.5753521
0
LINE
8
DEFAULT_255_2_778
10
10.0543286
20
55.5753521
11
10.0543286
21
58.0753521
0
LINE
8
DEFAULT_255_2_778
10
10.0543286
20
58.0753521
11
8.3544286
21
58.0753521
0
LINE
8
DEFAULT_255_2_778
10
8.3544286
20
58.0753521
11
8.3544286
21
55.5753521
0
LINE
8
DEFAULT_255_2_778
10
8.9542286
20
111.0944521
11
8.9542286
21
86.4752521
0
LINE
8
DEFAULT_255_2_778
10
8.9542286
20
86.4752521
11
10.1739286
21
86.4752521
0
LINE
8
DEFAULT_255_2_778
10
0.1740286
20
-0.1874479
11
0.1740286
21
35.6017521
0
LINE
8
DEFAULT_255_2_778
10
0.1740286
20
35.6017521
11
0.4121286
21
36.1126521
0
LINE
8
DEFAULT_255_2_778
10
0.4121286
20
36.1126521
11
2.1740286
21
36.1126521
0
LINE
8
DEFAULT_255_2_778
10
3.1741286
20
35.1124521
11
3.1741286
21
31.2125521
0
LINE
8
DEFAULT_255_2_778
10
3.1741286
20
31.2125521
11
10.1742286
21
31.2125521
0
LINE
8
DEFAULT_255_2_778
10
10.1742286
20
31.2125521
11
10.1742286
21
92.5090521
0
LINE
8
DEFAULT_255_2_778
10
10.1742286
20
92.5090521
11
15.5741286
21
92.4148521
0
LINE
8
DEFAULT_255_2_778
10
15.5741286
20
92.4148521
11
15.5741286
21
91.1126521
0
LINE
8
DEFAULT_255_2_778
10
15.5741286
20
91.1126521
11
16.7591286
21
91.1126521
0
LINE
8
DEFAULT_255_2_778
10
16.7591286
20
91.1126521
11
16.7591286
21
89.5126521
0
LINE
8
DEFAULT_255_2_778
10
16.7591286
20
89.5126521
11
19.0742286
21
89.5126521
0
LINE
8
DEFAULT_255_2_778
10
19.0742286
20
89.5126521
11
19.0742286
21
25.9126521
0
LINE
8
DEFAULT_255_2_778
10
19.0742286
20
25.9126521
11
15.3740286
21
25.9126521
0
LINE
8
DEFAULT_255_2_778
10
15.3740286
20
25.9126521
11
15.3740286
21
-0.1874479
0
LINE
8
DEFAULT_255_2_778
10
15.3740286
20
-0.1874479
11
0.1740286
21
-0.1874479
0
LINE
8
DEFAULT_255_2_778
10
9.9739286
20
108.1877521
11
9.9739286
21
108.9127521
0
LINE
8
DEFAULT_255_2_778
10
9.9739286
20
108.9127521
11
15.5738286
21
108.9127521
0
LINE
8
DEFAULT_255_2_778
10
15.5738286
20
108.9127521
11
15.5738286
21
110.2126521
0
LINE
8
DEFAULT_255_2_778
10
15.5738286
20
110.2126521
11
19.0737286
21
110.2126521
0
LINE
8
DEFAULT_255_2_778
10
19.0737286
20
110.2126521
11
19.0737286
21
113.7127521
0
LINE
8
DEFAULT_255_2_778
10
19.0737286
20
113.7127521
11
17.7738286
21
113.7127521
0
LINE
8
DEFAULT_255_2_778
10
17.7738286
20
113.7127521
11
17.7738286
21
111.4124521
0
LINE
8
DEFAULT_255_2_778
10
9.9739286
20
109.2857521
11
9.9739286
21
108.9129521
0
LINE
8
DEFAULT_255_2_778
10
24.4241286
20
105.9128521
11
24.4241286
21
89.5129521
0
LINE
8
DEFAULT_255_2_778
10
24.4241286
20
89.5129521
11
19.3740286
21
89.5129521
0
LINE
8
DEFAULT_255_2_778
10
19.3740286
20
89.5129521
11
19.3740286
21
25.7202521
0
LINE
8
DEFAULT_255_2_778
10
19.3740286
20
25.7202521
11
15.6741286
21
25.6872521
0
LINE
8
DEFAULT_255_2_778
10
15.6741286
20
25.6872521
11
15.6741286
21
-0.1871479
0
LINE
8
DEFAULT_255_2_778
10
15.6741286
20
-0.1871479
11
16.9740286
21
-0.1871479
0
LINE
8
DEFAULT_255_2_778
10
16.9740286
20
-0.1871479
11
16.9740286
21
24.3127521
0
LINE
8
DEFAULT_255_2_778
10
16.9740286
20
24.3127521
11
23.6740286
21
24.6053521
0
LINE
8
DEFAULT_255_2_778
10
23.6740286
20
24.6053521
11
23.6740286
21
31.3127521
0
LINE
8
DEFAULT_255_2_778
10
23.6740286
20
31.3127521
11
31.4739286
21
31.6533521
0
LINE
8
DEFAULT_255_2_778
10
31.4739286
20
31.6533521
11
31.4739286
21
113.7127521
0
LINE
8
DEFAULT_255_2_778
10
31.4739286
20
113.7127521
11
19.1740286
21
113.7127521
0
LINE
8
DEFAULT_255_2_778
10
19.1740286
20
113.7127521
11
19.1740286
21
111.6127521
0
LINE
8
DEFAULT_255_2_778
10
19.1740286
20
111.6127521
11
19.3740286
21
111.6127521
0
LINE
8
DEFAULT_255_2_778
10
19.3740286
20
111.6127521
11
19.3740286
21
105.9128521
0
LINE
8
DEFAULT_255_2_778
10
19.3740286
20
105.9128521
11
24.4241286
21
105.9128521
0
LINE
8
DEFAULT_255_2_778
10
16.7589286
20
91.1126521
11
16.7589286
21
91.6925521
0
LINE
8
DEFAULT_255_2_778
10
16.7589286
20
91.6925521
11
16.7589286
21
109.7329521
0
LINE
8
DEFAULT_255_2_778
10
16.7589286
20
109.7329521
11
16.0490286
21
109.7329521
0
LINE
8
DEFAULT_255_2_778
10
16.0490286
20
109.7329521
11
16.0490286
21
108.6126521
0
LINE
8
DEFAULT_255_2_778
10
16.0490286
20
108.6126521
11
16.0490286
21
91.6925521
0
LINE
8
DEFAULT_255_2_778
10
16.0490286
20
91.6925521
11
16.7589286
21
91.6925521
0
LINE
8
DEFAULT_255_2_778
10
19.3740286
20
105.9126521
11
17.3740286
21
105.9126521
0
LINE
8
DEFAULT_255_2_778
10
17.3740286
20
105.9126521
11
17.3740286
21
110.2126521
0
LINE
8
DEFAULT_255_2_778
10
19.1739961
20
112.8626333
11
19.0739961
21
112.8626333
0
LINE
8
DEFAULT_255_2_778
10
10.1543961
20
78.9126333
11
10.1738961
21
78.9126333
0
LINE
8
DEFAULT_255_2_778
10
3.2542961
20
36.1125333
11
2.1739961
21
36.1125333
0
LINE
8
DEFAULT_255_2_778
10
8.9544961
20
91.8094333
11
9.2740961
21
91.8179333
0
LINE
8
DEFAULT_255_2_778
10
9.2740961
20
91.8179333
11
9.2740961
21
111.3158333
0
LINE
8
DEFAULT_255_2_778
10
10.2363961
20
111.9125333
11
17.7740961
21
111.9125333
0
LINE
8
DEFAULT_255_2_778
10
8.9544911
20
110.9127307
11
9.2741911
21
110.9127307
0
LINE
8
DEFAULT_255_2_778
10
16.7591911
20
109.7329307
11
16.7591911
21
110.2126307
0
LINE
8
DEFAULT_255_2_778
10
16.5951911
20
112.3541307
11
17.7741911
21
112.3541307
0
LINE
8
DEFAULT_255_2_778
10
15.1118911
20
111.9125307
11
15.8270911
21
112.5126307
0
LINE
8
DEFAULT_255_2_778
10
15.8270911
20
112.5126307
11
16.5951911
21
112.5126307
0
LINE
8
DEFAULT_255_2_778
10
16.5951911
20
112.5126307
11
16.5951911
21
111.9125307
0
LINE
8
DEFAULT_255_2_778
10
2.0644911
20
38.8754307
11
1.5241911
21
38.4970307
0
LINE
8
DEFAULT_255_2_778
10
1.5241911
20
38.4970307
11
0.4121911
21
36.1126307
0
LINE
8
DEFAULT_255_2_778
10
16.9740911
20
-0.1874693
11
31.4739911
21
-0.1874693
0
LINE
8
DEFAULT_255_2_778
10
31.4739911
20
-0.1874693
11
31.4739911
21
1.0825307
0
ARC
8
DEFAULT_255_2_778
10
7.8213085
20
43.3119145
40
0.997193
50
192.391292
51
214.5552666
0
ARC
8
DEFAULT_255_2_778
10
7.8230145
20
43.311924
40
0.9988613
50
181.8631423
51
192.3708233
0
ARC
8
DEFAULT_255_2_778
10
7.8264788
20
43.3121383
40
1.0023306
50
179.9996803
51
181.868949
0
ARC
8
DEFAULT_255_2_778
10
7.8235187
20
43.3130148
40
0.9993708
50
136.9580914
51
180.0499318
0
ARC
8
DEFAULT_255_2_778
10
7.8289943
20
43.306826
40
1.0075971
50
130.5352752
51
136.913406
0
ARC
8
DEFAULT_255_2_778
10
37.1740506
20
-277.7667001
40
391.4795058
50
84.6810094
51
90.0000161
0
ARC
8
DEFAULT_255_2_778
10
71.6348365
20
105.2128109
40
2.2990017
50
359.9932092
51
26.4021635
0
ARC
8
DEFAULT_255_2_778
10
71.6336167
20
105.2125389
40
2.3002216
50
359.3861785
51
359.999988
0
ARC
8
DEFAULT_255_2_778
10
71.6338729
20
105.2123985
40
2.299964
50
337.5637638
51
359.3896069
0
ARC
8
DEFAULT_255_2_778
10
-675.8211333
20
79.4140924
40
749.9950125
50
0.059721
51
1.9041501
0
ARC
8
DEFAULT_255_2_778
10
-675.7720154
20
79.4142046
40
749.9458945
50
359.980036
51
0.0597164
0
ARC
8
DEFAULT_255_2_778
10
-675.7538205
20
79.413987
40
749.9276995
50
357.705923
51
359.9800521
0
ARC
8
DEFAULT_255_2_778
10
-323.3450865
20
45.6428084
40
391.5189273
50
353.277735
51
359.9998972
0
LINE
8
DEFAULT_255_2_778
10
31.4740408
20
23.1827057
11
31.4740408
21
31.6533057
0
LINE
8
DEFAULT_255_2_778
10
15.3741408
20
-0.1873943
11
15.6741408
21
-0.1873943
0
LINE
8
DEFAULT_255_2_778
10
7.1741408
20
42.4928057
11
7.0000408
21
42.7463057
0
LINE
8
DEFAULT_255_2_778
10
31.4740408
20
113.7128057
11
37.1739408
21
113.7128057
0
LINE
8
DEFAULT_255_2_778
10
73.4644408
20
112.0271057
11
73.6940408
21
106.2351057
0
LINE
8
DEFAULT_255_2_778
10
73.5728408
20
49.3955057
11
72.2034408
21
49.3955057
0
LINE
8
DEFAULT_255_2_778
10
72.2034408
20
49.3955057
11
72.2034408
21
47.2706057
0
LINE
8
DEFAULT_255_2_778
10
72.2034408
20
47.2706057
11
69.5433408
21
47.0333057
0
LINE
8
DEFAULT_255_2_778
10
69.5433408
20
47.0333057
11
69.5433408
21
45.7532057
0
LINE
8
DEFAULT_255_2_778
10
69.5433408
20
45.7532057
11
68.1738408
21
45.6421057
0
LINE
8
DEFAULT_255_2_778
10
65.4822408
20
-0.1870943
11
31.4740408
21
-0.1870943
0
LINE
8
DEFAULT_255_2_778
10
69.5435408
20
45.7532057
11
73.4334408
21
46.0956057
0
LINE
8
DEFAULT_255_2_778
10
73.4334408
20
46.0956057
11
73.5728408
21
49.3955057
0
LINE
8
DEFAULT_255_2_778
10
7.2545408
20
52.3125057
11
7.1741408
21
52.3125057
0
LINE
8
DEFAULT_255_2_778
10
7.1741408
20
52.3125057
11
7.1741408
21
41.3752057
0
LINE
8
DEFAULT_255_2_778
10
7.2545627
20
58.6127389
11
7.1741627
21
58.6127389
0
LINE
8
DEFAULT_255_2_778
10
7.1741627
20
58.6127389
11
7.1741627
21
70.9627389
0
LINE
8
DEFAULT_255_2_778
10
21.3290627
20
92.8575389
11
21.3290627
21
92.5574389
0
LINE
8
DEFAULT_255_2_778
10
21.3290627
20
92.5574389
11
21.6291627
21
92.5574389
0
LINE
8
DEFAULT_255_2_778
10
21.6291627
20
92.5574389
11
21.6291627
21
92.8575389
0
LINE
8
DEFAULT_255_2_778
10
21.6291627
20
92.8575389
11
21.3290627
21
92.8575389
0
LINE
8
DEFAULT_255_2_778
10
21.3290627
20
93.5576389
11
21.6291627
21
93.5576389
0
LINE
8
DEFAULT_255_2_778
10
21.6291627
20
93.5576389
11
21.6291627
21
93.8576389
0
LINE
8
DEFAULT_255_2_778
10
21.6291627
20
93.8576389
11
21.3290627
21
93.8576389
0
LINE
8
DEFAULT_255_2_778
10
21.3290627
20
93.8576389
11
21.3290627
21
93.5576389
0
LINE
8
DEFAULT_255_2_778
10
21.3290627
20
91.8576389
11
21.3290627
21
91.5576389
0
LINE
8
DEFAULT_255_2_778
10
21.3290627
20
91.5576389
11
21.6291627
21
91.5576389
0
LINE
8
DEFAULT_255_2_778
10
21.6291627
20
91.5576389
11
21.6291627
21
91.8576389
0
LINE
8
DEFAULT_255_2_778
10
21.6291627
20
91.8576389
11
21.3290627
21
91.8576389
0
LINE
8
DEFAULT_255_2_778
10
21.6291627
20
101.5575389
11
21.6291627
21
101.8575389
0
LINE
8
DEFAULT_255_2_778
10
21.6291627
20
101.8575389
11
21.3290627
21
101.8575389
0
LINE
8
DEFAULT_255_2_778
10
21.3290627
20
101.8575389
11
21.3290627
21
101.5575389
0
LINE
8
DEFAULT_255_2_778
10
21.3290627
20
101.5575389
11
21.6291627
21
101.5575389
0
LINE
8
DEFAULT_255_2_778
10
21.3290627
20
96.5574389
11
21.6291627
21
96.5574389
0
LINE
8
DEFAULT_255_2_778
10
21.6291627
20
96.5574389
11
21.6291627
21
96.8574389
0
LINE
8
DEFAULT_255_2_778
10
21.6291627
20
96.8574389
11
21.3290627
21
96.8574389
0
LINE
8
DEFAULT_255_2_778
10
21.3290627
20
96.8574389
11
21.3290627
21
96.5574389
0
LINE
8
DEFAULT_255_2_778
10
21.3290627
20
94.5574389
11
21.6291627
21
94.5574389
0
LINE
8
DEFAULT_255_2_778
10
21.6291627
20
94.5574389
11
21.6291627
21
94.8575389
0
LINE
8
DEFAULT_255_2_778
10
21.6291627
20
94.8575389
11
21.3290627
21
94.8575389
0
LINE
8
DEFAULT_255_2_778
10
21.3290627
20
94.8575389
11
21.3290627
21
94.5574389
0
LINE
8
DEFAULT_255_2_778
10
21.6291627
20
97.5575389
11
21.6291627
21
97.8576389
0
LINE
8
DEFAULT_255_2_778
10
21.6291627
20
97.8576389
11
21.3290627
21
97.8576389
0
LINE
8
DEFAULT_255_2_778
10
21.3290627
20
97.8576389
11
21.3290627
21
97.5575389
0
LINE
8
DEFAULT_255_2_778
10
21.3290627
20
97.5575389
11
21.6291627
21
97.5575389
0
LINE
8
DEFAULT_255_2_778
10
21.6291627
20
102.5576389
11
21.6291627
21
102.8577389
0
LINE
8
DEFAULT_255_2_778
10
21.6291627
20
102.8577389
11
21.3290627
21
102.8577389
0
LINE
8
DEFAULT_255_2_778
10
21.3290627
20
102.8577389
11
21.3290627
21
102.5576389
0
LINE
8
DEFAULT_255_2_778
10
21.3290627
20
102.5576389
11
21.6291627
21
102.5576389
0
LINE
8
DEFAULT_255_2_778
10
21.6291627
20
95.5576389
11
21.6291627
21
95.8576389
0
LINE
8
DEFAULT_255_2_778
10
21.6291627
20
95.8576389
11
21.3290627
21
95.8576389
0
LINE
8
DEFAULT_255_2_778
10
21.3290627
20
95.8576389
11
21.3290627
21
95.5576389
0
LINE
8
DEFAULT_255_2_778
10
21.3290627
20
95.5576389
11
21.6291627
21
95.5576389
0
LINE
8
DEFAULT_255_2_778
10
21.6291627
20
99.5575389
11
21.6291627
21
99.8576389
0
LINE
8
DEFAULT_255_2_778
10
21.6291627
20
99.8576389
11
21.3290627
21
99.8576389
0
LINE
8
DEFAULT_255_2_778
10
21.3290627
20
99.8576389
11
21.3290627
21
99.5575389
0
LINE
8
DEFAULT_255_2_778
10
21.3290627
20
99.5575389
11
21.6291627
21
99.5575389
0
LINE
8
DEFAULT_255_2_778
10
21.6291627
20
98.5574389
11
21.6291627
21
98.8574389
0
LINE
8
DEFAULT_255_2_778
10
21.6291627
20
98.8574389
11
21.3290627
21
98.8574389
0
LINE
8
DEFAULT_255_2_778
10
21.3290627
20
98.8574389
11
21.3290627
21
98.5574389
0
LINE
8
DEFAULT_255_2_778
10
21.3290627
20
98.5574389
11
21.6291627
21
98.5574389
0
LINE
8
DEFAULT_255_2_778
10
21.6291627
20
100.5574389
11
21.6291627
21
100.8577389
0
LINE
8
DEFAULT_255_2_778
10
21.6291627
20
100.8577389
11
21.3290627
21
100.8577389
0
LINE
8
DEFAULT_255_2_778
10
21.3290627
20
100.8577389
11
21.3290627
21
100.5576389
0
LINE
8
DEFAULT_255_2_778
10
21.3290627
20
100.5576389
11
21.6291627
21
100.5576389
0
LINE
8
DEFAULT_255_2_778
10
21.3290627
20
103.5578389
11
21.6291627
21
103.5578389
0
LINE
8
DEFAULT_255_2_778
10
21.6291627
20
103.5578389
11
21.6291627
21
103.8578389
0
LINE
8
DEFAULT_255_2_778
10
21.6291627
20
103.8578389
11
21.3290627
21
103.8578389
0
LINE
8
DEFAULT_255_2_778
10
21.3290627
20
103.8578389
11
21.3290627
21
103.5578389
0
LINE
8
DEFAULT_255_2_778
10
20.1289627
20
97.8576389
11
19.8289627
21
97.8576389
0
LINE
8
DEFAULT_255_2_778
10
19.8289627
20
97.8576389
11
19.8289627
21
97.5575389
0
LINE
8
DEFAULT_255_2_778
10
19.8289627
20
97.5575389
11
20.1289627
21
97.5575389
0
LINE
8
DEFAULT_255_2_778
10
20.1289627
20
97.5575389
11
20.1289627
21
97.8576389
0
LINE
8
DEFAULT_255_2_778
10
20.1289627
20
96.8574389
11
19.8289627
21
96.8574389
0
LINE
8
DEFAULT_255_2_778
10
19.8289627
20
96.8574389
11
19.8289627
21
96.5574389
0
LINE
8
DEFAULT_255_2_778
10
19.8289627
20
96.5574389
11
20.1289627
21
96.5574389
0
LINE
8
DEFAULT_255_2_778
10
20.1289627
20
96.5574389
11
20.1289627
21
96.8574389
0
LINE
8
DEFAULT_255_2_778
10
20.1289627
20
102.5574389
11
20.1289627
21
102.8574389
0
LINE
8
DEFAULT_255_2_778
10
20.1289627
20
102.8574389
11
19.8289627
21
102.8574389
0
LINE
8
DEFAULT_255_2_778
10
19.8289627
20
102.8574389
11
19.8289627
21
102.5574389
0
LINE
8
DEFAULT_255_2_778
10
19.8289627
20
102.5574389
11
20.1289627
21
102.5574389
0
LINE
8
DEFAULT_255_2_778
10
20.1289627
20
98.5574389
11
20.1289627
21
98.8574389
0
LINE
8
DEFAULT_255_2_778
10
20.1289627
20
98.8574389
11
19.8289627
21
98.8574389
0
LINE
8
DEFAULT_255_2_778
10
19.8289627
20
98.8574389
11
19.8289627
21
98.5574389
0
LINE
8
DEFAULT_255_2_778
10
19.8289627
20
98.5574389
11
20.1289627
21
98.5574389
0
LINE
8
DEFAULT_255_2_778
10
19.8289627
20
101.8573389
11
19.8289627
21
101.5572389
0
LINE
8
DEFAULT_255_2_778
10
19.8289627
20
101.5572389
11
20.1289627
21
101.5572389
0
LINE
8
DEFAULT_255_2_778
10
20.1289627
20
101.5572389
11
20.1289627
21
101.8573389
0
LINE
8
DEFAULT_255_2_778
10
20.1289627
20
101.8573389
11
19.8289627
21
101.8573389
0
LINE
8
DEFAULT_255_2_778
10
20.1289627
20
99.5573389
11
20.1289627
21
99.8576389
0
LINE
8
DEFAULT_255_2_778
10
20.1289627
20
99.8576389
11
19.8289627
21
99.8576389
0
LINE
8
DEFAULT_255_2_778
10
19.8289627
20
99.8576389
11
19.8289627
21
99.5575389
0
LINE
8
DEFAULT_255_2_778
10
19.8289627
20
99.5575389
11
20.1289627
21
99.5575389
0
LINE
8
DEFAULT_255_2_778
10
20.1289627
20
94.5574389
11
20.1289627
21
94.8575389
0
LINE
8
DEFAULT_255_2_778
10
20.1289627
20
94.8575389
11
19.8289627
21
94.8575389
0
LINE
8
DEFAULT_255_2_778
10
19.8289627
20
94.8575389
11
19.8289627
21
94.5574389
0
LINE
8
DEFAULT_255_2_778
10
19.8289627
20
94.5574389
11
20.1289627
21
94.5574389
0
LINE
8
DEFAULT_255_2_778
10
20.1289627
20
103.8575389
11
19.8289627
21
103.8575389
0
LINE
8
DEFAULT_255_2_778
10
19.8289627
20
103.8575389
11
19.8289627
21
103.5575389
0
LINE
8
DEFAULT_255_2_778
10
19.8289627
20
103.5575389
11
20.1289627
21
103.5575389
0
LINE
8
DEFAULT_255_2_778
10
20.1289627
20
103.5575389
11
20.1289627
21
103.8575389
0
LINE
8
DEFAULT_255_2_778
10
19.8289627
20
100.8577389
11
19.8289627
21
100.5576389
0
LINE
8
DEFAULT_255_2_778
10
19.8289627
20
100.5576389
11
20.1289627
21
100.5576389
0
LINE
8
DEFAULT_255_2_778
10
20.1289627
20
100.5576389
11
20.1289627
21
100.8577389
0
LINE
8
DEFAULT_255_2_778
10
20.1289627
20
100.8577389
11
19.8289627
21
100.8577389
0
LINE
8
DEFAULT_255_2_778
10
18.4038627
20
104.7828389
11
18.4038627
21
90.6329389
0
LINE
8
DEFAULT_255_2_778
10
17.5037627
20
104.7828389
11
17.5037627
21
90.6329389
0
LINE
8
DEFAULT_255_2_778
10
23.9537627
20
104.4327389
11
23.9537627
21
90.9826389
0
LINE
8
DEFAULT_255_2_778
10
20.1289627
20
95.5576389
11
20.1289627
21
95.8576389
0
LINE
8
DEFAULT_255_2_778
10
20.1289627
20
95.8576389
11
19.8289627
21
95.8576389
0
LINE
8
DEFAULT_255_2_778
10
19.8289627
20
95.8576389
11
19.8289627
21
95.5576389
0
LINE
8
DEFAULT_255_2_778
10
19.8289627
20
95.5576389
11
20.1289627
21
95.5576389
0
LINE
8
DEFAULT_255_2_778
10
19.8289627
20
92.5577389
11
20.1289627
21
92.5577389
0
LINE
8
DEFAULT_255_2_778
10
20.1289627
20
92.5577389
11
20.1289627
21
92.8577389
0
LINE
8
DEFAULT_255_2_778
10
20.1289627
20
92.8577389
11
19.8289627
21
92.8577389
0
LINE
8
DEFAULT_255_2_778
10
19.8289627
20
92.8577389
11
19.8289627
21
92.5577389
0
LINE
8
DEFAULT_255_2_778
10
20.1289627
20
93.5578389
11
20.1289627
21
93.8579389
0
LINE
8
DEFAULT_255_2_778
10
20.1289627
20
93.8579389
11
19.8289627
21
93.8579389
0
LINE
8
DEFAULT_255_2_778
10
19.8289627
20
93.8579389
11
19.8289627
21
93.5578389
0
LINE
8
DEFAULT_255_2_778
10
19.8289627
20
93.5578389
11
20.1289627
21
93.5578389
0
LINE
8
DEFAULT_255_2_778
10
20.1289627
20
91.5578389
11
20.1289627
21
91.8579389
0
LINE
8
DEFAULT_255_2_778
10
20.1289627
20
91.8579389
11
19.8289627
21
91.8579389
0
LINE
8
DEFAULT_255_2_778
10
19.8289627
20
91.8579389
11
19.8289627
21
91.5578389
0
LINE
8
DEFAULT_255_2_778
10
19.8289627
20
91.5578389
11
20.1289627
21
91.5578389
0
LINE
8
DEFAULT_255_2_778
10
23.0539627
20
90.9829389
11
23.0539627
21
104.6576389
0
LINE
8
DEFAULT_255_2_778
10
20.8787627
20
104.7825389
11
20.8787627
21
104.4325389
0
LINE
8
DEFAULT_255_2_778
10
20.8787627
20
90.9824389
11
20.8787627
21
90.6323389
0
LINE
8
DEFAULT_255_2_778
10
17.5040627
20
104.9325389
11
17.5040627
21
105.4826389
0
LINE
8
DEFAULT_255_2_778
10
17.5040627
20
105.4826389
11
23.9540627
21
105.4826389
0
LINE
8
DEFAULT_255_2_778
10
23.9540627
20
105.4826389
11
23.9540627
21
104.9325389
0
LINE
8
DEFAULT_255_2_778
10
23.9540627
20
104.9325389
11
23.9540627
21
104.4325389
0
LINE
8
DEFAULT_255_2_778
10
23.9540627
20
104.4325389
11
23.5190627
21
104.4325389
0
LINE
8
DEFAULT_255_2_778
10
23.5190627
20
104.4325389
11
23.5190627
21
104.6574389
0
LINE
8
DEFAULT_255_2_778
10
23.5190627
20
104.6574389
11
22.6541627
21
104.6574389
0
LINE
8
DEFAULT_255_2_778
10
22.6541627
20
104.6574389
11
22.6541627
21
104.4325389
0
LINE
8
DEFAULT_255_2_778
10
22.6541627
20
104.4325389
11
20.8790627
21
104.4325389
0
LINE
8
DEFAULT_255_2_778
10
20.8790627
20
104.4325389
11
21.2290627
21
104.7825389
0
LINE
8
DEFAULT_255_2_778
10
21.2290627
20
104.7825389
11
17.5040627
21
104.7825389
0
LINE
8
DEFAULT_255_2_778
10
17.5040627
20
104.7825389
11
17.5040627
21
104.9325389
0
LINE
8
DEFAULT_255_2_778
10
17.5040627
20
90.4826389
11
17.5040627
21
89.9325389
0
LINE
8
DEFAULT_255_2_778
10
17.5040627
20
89.9325389
11
23.9540627
21
89.9325389
0
LINE
8
DEFAULT_255_2_778
10
23.9540627
20
89.9325389
11
23.9540627
21
90.4826389
0
LINE
8
DEFAULT_255_2_778
10
23.9540627
20
90.4826389
11
23.9540627
21
90.9826389
0
LINE
8
DEFAULT_255_2_778
10
23.9540627
20
90.9826389
11
23.5190627
21
90.9826389
0
LINE
8
DEFAULT_255_2_778
10
23.5190627
20
90.9826389
11
20.8790627
21
90.9826389
0
LINE
8
DEFAULT_255_2_778
10
20.8790627
20
90.9826389
11
21.2290627
21
90.6326389
0
LINE
8
DEFAULT_255_2_778
10
21.2290627
20
90.6326389
11
17.5040627
21
90.6326389
0
LINE
8
DEFAULT_255_2_778
10
17.5040627
20
90.6326389
11
17.5040627
21
90.4826389
0
ARC
8
DEFAULT_255_2_778
10
34.7443409
20
8.0628575
40
0.2496065
50
282.448682
51
0.0371586
0
ARC
8
DEFAULT_255_2_778
10
34.7939171
20
8.1778891
40
0.2000302
50
359.9800103
51
89.9913489
0
ARC
8
DEFAULT_255_2_778
10
34.7942384
20
6.5779284
40
0.200009
50
270.0025728
51
359.9974129
0
ARC
8
DEFAULT_255_2_778
10
34.7443859
20
6.6927766
40
0.2498615
50
359.9868729
51
77.5043258
0
ARC
8
DEFAULT_255_2_778
10
34.7941529
20
13.4280138
40
0.2000945
50
270.027031
51
0.0015954
0
ARC
8
DEFAULT_255_2_778
10
34.74458
20
13.5429324
40
0.2496673
50
359.9740539
51
77.5400947
0
ARC
8
DEFAULT_255_2_778
10
34.7445302
20
14.9129464
40
0.2497172
50
282.4690905
51
0.0396804
0
ARC
8
DEFAULT_255_2_778
10
34.7942383
20
15.0279104
40
0.200009
50
0.0025728
51
89.9974129
0
LINE
8
DEFAULT_255_2_778
10
10.1742473
20
92.5090193
11
9.9741473
21
92.5124193
0
LINE
8
DEFAULT_255_2_778
10
9.9741473
20
92.5124193
11
9.9741473
21
93.2374193
0
LINE
8
DEFAULT_255_2_778
10
16.0490473
20
108.6126193
11
15.3740473
21
108.6126193
0
LINE
8
DEFAULT_255_2_778
10
15.3740473
20
108.6126193
11
15.3740473
21
92.8125193
0
LINE
8
DEFAULT_255_2_778
10
15.3740473
20
92.8125193
11
16.0490473
21
92.8125193
0
LINE
8
DEFAULT_255_2_778
10
9.4241473
20
108.1874193
11
15.2740473
21
108.1874193
0
LINE
8
DEFAULT_255_2_778
10
15.2740473
20
108.1874193
11
15.2740473
21
93.2377193
0
LINE
8
DEFAULT_255_2_778
10
15.2740473
20
93.2377193
11
9.4241473
21
93.2377193
0
LINE
8
DEFAULT_255_2_778
10
9.4241473
20
93.2377193
11
9.4241473
21
108.1877193
0
LINE
8
DEFAULT_255_2_778
10
14.6742473
20
107.5228193
11
14.6742473
21
93.9028193
0
LINE
8
DEFAULT_255_2_778
10
14.6742473
20
93.9028193
11
14.6742473
21
93.4628193
0
LINE
8
DEFAULT_255_2_778
10
14.6742473
20
93.4628193
11
14.2742473
21
93.4628193
0
LINE
8
DEFAULT_255_2_778
10
14.2742473
20
93.4628193
11
14.2742473
21
93.9878193
0
LINE
8
DEFAULT_255_2_778
10
14.2742473
20
93.9878193
11
12.4991473
21
93.9878193
0
LINE
8
DEFAULT_255_2_778
10
12.4991473
20
93.9878193
11
12.8491473
21
93.6377193
0
LINE
8
DEFAULT_255_2_778
10
12.8491473
20
93.6377193
11
10.4242473
21
93.6377193
0
LINE
8
DEFAULT_255_2_778
10
10.4242473
20
93.6377193
11
10.4242473
21
93.4628193
0
LINE
8
DEFAULT_255_2_778
10
10.4242473
20
93.4628193
11
10.0242473
21
93.4628193
0
LINE
8
DEFAULT_255_2_778
10
10.0242473
20
93.4628193
11
10.0242473
21
93.9028193
0
LINE
8
DEFAULT_255_2_778
10
10.0242473
20
93.9028193
11
10.0242473
21
107.5225193
0
LINE
8
DEFAULT_255_2_778
10
10.0242473
20
107.5225193
11
10.0242473
21
107.9625193
0
LINE
8
DEFAULT_255_2_778
10
10.0242473
20
107.9625193
11
10.4242473
21
107.9625193
0
LINE
8
DEFAULT_255_2_778
10
10.4242473
20
107.9625193
11
10.4242473
21
107.7876193
0
LINE
8
DEFAULT_255_2_778
10
10.4242473
20
107.7876193
11
12.8491473
21
107.7876193
0
LINE
8
DEFAULT_255_2_778
10
12.8491473
20
107.7876193
11
12.4991473
21
107.4376193
0
LINE
8
DEFAULT_255_2_778
10
12.4991473
20
107.4376193
11
14.2742473
21
107.4376193
0
LINE
8
DEFAULT_255_2_778
10
14.2742473
20
107.4376193
11
14.2742473
21
107.9625193
0
LINE
8
DEFAULT_255_2_778
10
14.2742473
20
107.9625193
11
14.6742473
21
107.9625193
0
LINE
8
DEFAULT_255_2_778
10
14.6742473
20
107.9625193
11
14.6742473
21
107.5225193
0
LINE
8
DEFAULT_255_2_778
10
13.2492473
20
106.5626193
11
13.2492473
21
106.8626193
0
LINE
8
DEFAULT_255_2_778
10
13.2492473
20
106.8626193
11
12.9491473
21
106.8626193
0
LINE
8
DEFAULT_255_2_778
10
12.9491473
20
106.8626193
11
12.9491473
21
106.5626193
0
LINE
8
DEFAULT_255_2_778
10
12.9491473
20
106.5626193
11
13.2492473
21
106.5626193
0
LINE
8
DEFAULT_255_2_778
10
13.2492473
20
99.8626193
11
12.9491473
21
99.8626193
0
LINE
8
DEFAULT_255_2_778
10
12.9491473
20
99.8626193
11
12.9491473
21
99.5625193
0
LINE
8
DEFAULT_255_2_778
10
12.9491473
20
99.5625193
11
13.2492473
21
99.5625193
0
LINE
8
DEFAULT_255_2_778
10
13.2492473
20
99.5625193
11
13.2492473
21
99.8626193
0
LINE
8
DEFAULT_255_2_778
10
13.2492473
20
96.8625193
11
12.9491473
21
96.8625193
0
LINE
8
DEFAULT_255_2_778
10
12.9491473
20
96.8625193
11
12.9491473
21
96.5624193
0
LINE
8
DEFAULT_255_2_778
10
12.9491473
20
96.5624193
11
13.2492473
21
96.5624193
0
LINE
8
DEFAULT_255_2_778
10
13.2492473
20
96.5624193
11
13.2492473
21
96.8625193
0
LINE
8
DEFAULT_255_2_778
10
13.2492473
20
95.8623193
11
12.9491473
21
95.8623193
0
LINE
8
DEFAULT_255_2_778
10
12.9491473
20
95.8623193
11
12.9491473
21
95.5623193
0
LINE
8
DEFAULT_255_2_778
10
12.9491473
20
95.5623193
11
13.2492473
21
95.5623193
0
LINE
8
DEFAULT_255_2_778
10
13.2492473
20
95.5623193
11
13.2492473
21
95.8623193
0
LINE
8
DEFAULT_255_2_778
10
13.2492473
20
94.5624193
11
13.2492473
21
94.8625193
0
LINE
8
DEFAULT_255_2_778
10
13.2492473
20
94.8625193
11
12.9491473
21
94.8625193
0
LINE
8
DEFAULT_255_2_778
10
12.9491473
20
94.8625193
11
12.9491473
21
94.5624193
0
LINE
8
DEFAULT_255_2_778
10
12.9491473
20
94.5624193
11
13.2492473
21
94.5624193
0
LINE
8
DEFAULT_255_2_778
10
13.2492473
20
103.8625193
11
12.9491473
21
103.8625193
0
LINE
8
DEFAULT_255_2_778
10
12.9491473
20
103.8625193
11
12.9491473
21
103.5625193
0
LINE
8
DEFAULT_255_2_778
10
12.9491473
20
103.5625193
11
13.2492473
21
103.5625193
0
LINE
8
DEFAULT_255_2_778
10
13.2492473
20
103.5625193
11
13.2492473
21
103.8625193
0
LINE
8
DEFAULT_255_2_778
10
13.2492473
20
102.8624193
11
12.9491473
21
102.8624193
0
LINE
8
DEFAULT_255_2_778
10
12.9491473
20
102.8624193
11
12.9491473
21
102.5624193
0
LINE
8
DEFAULT_255_2_778
10
12.9491473
20
102.5624193
11
13.2492473
21
102.5624193
0
LINE
8
DEFAULT_255_2_778
10
13.2492473
20
102.5624193
11
13.2492473
21
102.8624193
0
LINE
8
DEFAULT_255_2_778
10
12.9491473
20
97.5625193
11
13.2492473
21
97.5625193
0
LINE
8
DEFAULT_255_2_778
10
13.2492473
20
97.5625193
11
13.2492473
21
97.8626193
0
LINE
8
DEFAULT_255_2_778
10
13.2492473
20
97.8626193
11
12.9491473
21
97.8626193
0
LINE
8
DEFAULT_255_2_778
10
12.9491473
20
97.8626193
11
12.9491473
21
97.5625193
0
LINE
8
DEFAULT_255_2_778
10
12.9491473
20
98.5627193
11
13.2492473
21
98.5627193
0
LINE
8
DEFAULT_255_2_778
10
13.2492473
20
98.5627193
11
13.2492473
21
98.8627193
0
LINE
8
DEFAULT_255_2_778
10
13.2492473
20
98.8627193
11
12.9491473
21
98.8627193
0
LINE
8
DEFAULT_255_2_778
10
12.9491473
20
98.8627193
11
12.9491473
21
98.5627193
0
LINE
8
DEFAULT_255_2_778
10
13.2492473
20
101.8626193
11
12.9491473
21
101.8626193
0
LINE
8
DEFAULT_255_2_778
10
12.9491473
20
101.8626193
11
12.9491473
21
101.5625193
0
LINE
8
DEFAULT_255_2_778
10
12.9491473
20
101.5625193
11
13.2492473
21
101.5625193
0
LINE
8
DEFAULT_255_2_778
10
13.2492473
20
101.5625193
11
13.2492473
21
101.8626193
0
LINE
8
DEFAULT_255_2_778
10
13.2492473
20
100.8624193
11
12.9491473
21
100.8624193
0
LINE
8
DEFAULT_255_2_778
10
12.9491473
20
100.8624193
11
12.9491473
21
100.5624193
0
LINE
8
DEFAULT_255_2_778
10
12.9491473
20
100.5624193
11
13.2492473
21
100.5624193
0
LINE
8
DEFAULT_255_2_778
10
13.2492473
20
100.5624193
11
13.2492473
21
100.8624193
0
LINE
8
DEFAULT_255_2_778
10
12.9491473
20
104.5624193
11
13.2492473
21
104.5624193
0
LINE
8
DEFAULT_255_2_778
10
13.2492473
20
104.5624193
11
13.2492473
21
104.8624193
0
LINE
8
DEFAULT_255_2_778
10
13.2492473
20
104.8624193
11
12.9491473
21
104.8624193
0
LINE
8
DEFAULT_255_2_778
10
12.9491473
20
104.8624193
11
12.9491473
21
104.5624193
0
LINE
8
DEFAULT_255_2_778
10
13.2492473
20
105.8623193
11
12.9491473
21
105.8623193
0
LINE
8
DEFAULT_255_2_778
10
12.9491473
20
105.8623193
11
12.9491473
21
105.5622193
0
LINE
8
DEFAULT_255_2_778
10
12.9491473
20
105.5622193
11
13.2492473
21
105.5622193
0
LINE
8
DEFAULT_255_2_778
10
13.2492473
20
105.5622193
11
13.2492473
21
105.8623193
0
LINE
8
DEFAULT_255_2_778
10
11.4492473
20
99.8623193
11
11.4492473
21
99.5623193
0
LINE
8
DEFAULT_255_2_778
10
11.4492473
20
99.5623193
11
11.7492473
21
99.5623193
0
LINE
8
DEFAULT_255_2_778
10
11.7492473
20
99.5623193
11
11.7492473
21
99.8623193
0
LINE
8
DEFAULT_255_2_778
10
11.7492473
20
99.8623193
11
11.4492473
21
99.8623193
0
LINE
8
DEFAULT_255_2_778
10
11.7492473
20
98.8622193
11
11.4492473
21
98.8622193
0
LINE
8
DEFAULT_255_2_778
10
11.4492473
20
98.8622193
11
11.4492473
21
98.5621193
0
LINE
8
DEFAULT_255_2_778
10
11.4492473
20
98.5621193
11
11.7492473
21
98.5621193
0
LINE
8
DEFAULT_255_2_778
10
11.7492473
20
98.5621193
11
11.7492473
21
98.8627193
0
LINE
8
DEFAULT_255_2_778
10
11.7492473
20
104.8627193
11
11.4492473
21
104.8627193
0
LINE
8
DEFAULT_255_2_778
10
11.4492473
20
104.8627193
11
11.4492473
21
104.5626193
0
LINE
8
DEFAULT_255_2_778
10
11.4492473
20
104.5626193
11
11.7492473
21
104.5626193
0
LINE
8
DEFAULT_255_2_778
10
11.7492473
20
104.5626193
11
11.7492473
21
104.8627193
0
LINE
8
DEFAULT_255_2_778
10
11.7492473
20
103.5628193
11
11.7492473
21
103.8628193
0
LINE
8
DEFAULT_255_2_778
10
11.7492473
20
103.8628193
11
11.4492473
21
103.8628193
0
LINE
8
DEFAULT_255_2_778
10
11.4492473
20
103.8628193
11
11.4492473
21
103.5628193
0
LINE
8
DEFAULT_255_2_778
10
11.4492473
20
103.5628193
11
11.7492473
21
103.5628193
0
LINE
8
DEFAULT_255_2_778
10
11.7492473
20
102.5626193
11
11.7492473
21
102.8627193
0
LINE
8
DEFAULT_255_2_778
10
11.7492473
20
102.8627193
11
11.4492473
21
102.8627193
0
LINE
8
DEFAULT_255_2_778
10
11.4492473
20
102.8627193
11
11.4492473
21
102.5626193
0
LINE
8
DEFAULT_255_2_778
10
11.4492473
20
102.5626193
11
11.7492473
21
102.5626193
0
LINE
8
DEFAULT_255_2_778
10
11.7492473
20
106.8626193
11
11.4492473
21
106.8626193
0
LINE
8
DEFAULT_255_2_778
10
11.4492473
20
106.8626193
11
11.4492473
21
106.5626193
0
LINE
8
DEFAULT_255_2_778
10
11.4492473
20
106.5626193
11
11.7492473
21
106.5626193
0
LINE
8
DEFAULT_255_2_778
10
11.7492473
20
106.5626193
11
11.7492473
21
106.8626193
0
LINE
8
DEFAULT_255_2_778
10
11.7492473
20
101.8626193
11
11.4492473
21
101.8626193
0
LINE
8
DEFAULT_255_2_778
10
11.4492473
20
101.8626193
11
11.4492473
21
101.5625193
0
LINE
8
DEFAULT_255_2_778
10
11.4492473
20
101.5625193
11
11.7492473
21
101.5625193
0
LINE
8
DEFAULT_255_2_778
10
11.7492473
20
101.5625193
11
11.7492473
21
101.8626193
0
LINE
8
DEFAULT_255_2_778
10
11.4492473
20
105.5625193
11
11.7492473
21
105.5625193
0
LINE
8
DEFAULT_255_2_778
10
11.7492473
20
105.5625193
11
11.7492473
21
105.8625193
0
LINE
8
DEFAULT_255_2_778
10
11.7492473
20
105.8625193
11
11.4492473
21
105.8625193
0
LINE
8
DEFAULT_255_2_778
10
11.4492473
20
105.8625193
11
11.4492473
21
105.5625193
0
LINE
8
DEFAULT_255_2_778
10
11.7492473
20
100.8624193
11
11.4492473
21
100.8624193
0
LINE
8
DEFAULT_255_2_778
10
11.4492473
20
100.8624193
11
11.4492473
21
100.5624193
0
LINE
8
DEFAULT_255_2_778
10
11.4492473
20
100.5624193
11
11.7492473
21
100.5624193
0
LINE
8
DEFAULT_255_2_778
10
11.7492473
20
100.5624193
11
11.7492473
21
100.8624193
0
LINE
8
DEFAULT_255_2_778
10
11.4492473
20
95.8623193
11
11.4492473
21
95.5623193
0
LINE
8
DEFAULT_255_2_778
10
11.4492473
20
95.5623193
11
11.7492473
21
95.5623193
0
LINE
8
DEFAULT_255_2_778
10
11.7492473
20
95.5623193
11
11.7492473
21
95.8623193
0
LINE
8
DEFAULT_255_2_778
10
11.7492473
20
95.8623193
11
11.4492473
21
95.8623193
0
LINE
8
DEFAULT_255_2_778
10
11.7492473
20
94.5624193
11
11.7492473
21
94.8625193
0
LINE
8
DEFAULT_255_2_778
10
11.7492473
20
94.8625193
11
11.4492473
21
94.8625193
0
LINE
8
DEFAULT_255_2_778
10
11.4492473
20
94.8625193
11
11.4492473
21
94.5624193
0
LINE
8
DEFAULT_255_2_778
10
11.4492473
20
94.5624193
11
11.7492473
21
94.5624193
0
LINE
8
DEFAULT_255_2_778
10
11.7492473
20
97.8623193
11
11.4492473
21
97.8623193
0
LINE
8
DEFAULT_255_2_778
10
11.4492473
20
97.8623193
11
11.4492473
21
97.5623193
0
LINE
8
DEFAULT_255_2_778
10
11.4492473
20
97.5623193
11
11.7492473
21
97.5623193
0
LINE
8
DEFAULT_255_2_778
10
11.7492473
20
97.5623193
11
11.7492473
21
97.8626193
0
LINE
8
DEFAULT_255_2_778
10
11.7492473
20
96.8625193
11
11.4492473
21
96.8625193
0
LINE
8
DEFAULT_255_2_778
10
11.4492473
20
96.8625193
11
11.4492473
21
96.5624193
0
LINE
8
DEFAULT_255_2_778
10
11.4492473
20
96.5624193
11
11.7492473
21
96.5624193
0
LINE
8
DEFAULT_255_2_778
10
11.7492473
20
96.5624193
11
11.7492473
21
96.8625193
0
LINE
8
DEFAULT_255_2_778
10
12.4993473
20
107.4373193
11
12.4993473
21
107.7874193
0
LINE
8
DEFAULT_255_2_778
10
12.4993473
20
93.6374193
11
12.4993473
21
93.9875193
0
LINE
8
DEFAULT_255_2_778
10
6.1369473
20
18.6127193
11
6.2242473
21
18.6127193
0
LINE
8
DEFAULT_255_2_778
10
6.2242473
20
18.6127193
11
6.2242473
21
14.9628193
0
LINE
8
DEFAULT_255_2_778
10
6.2242473
20
14.9628193
11
1.1241473
21
14.9628193
0
LINE
8
DEFAULT_255_2_778
10
1.1241473
20
14.9628193
11
1.1241473
21
18.6127193
0
LINE
8
DEFAULT_255_2_778
10
1.1241473
20
18.6127193
11
2.0369473
21
18.6127193
0
LINE
8
DEFAULT_255_2_778
10
2.0369473
20
18.6127193
11
2.1242473
21
18.6127193
0
LINE
8
DEFAULT_255_2_778
10
2.1242473
20
18.6127193
11
2.1242473
21
15.9627193
0
LINE
8
DEFAULT_255_2_778
10
2.1242473
20
15.9627193
11
5.2243473
21
15.9627193
0
LINE
8
DEFAULT_255_2_778
10
5.2243473
20
15.9627193
11
5.2243473
21
18.6127193
0
LINE
8
DEFAULT_255_2_778
10
5.2243473
20
18.6127193
11
6.1369473
21
18.6127193
0
LINE
8
DEFAULT_255_2_778
10
5.2241473
20
27.1127193
11
5.3114473
21
27.1127193
0
LINE
8
DEFAULT_255_2_778
10
5.3114473
20
27.1127193
11
6.1369473
21
27.1127193
0
LINE
8
DEFAULT_255_2_778
10
6.1369473
20
27.1127193
11
6.2242473
21
27.1127193
0
LINE
8
DEFAULT_255_2_778
10
6.2242473
20
27.1127193
11
6.2242473
21
30.7627193
0
LINE
8
DEFAULT_255_2_778
10
6.2242473
20
30.7627193
11
1.1241473
21
30.7627193
0
LINE
8
DEFAULT_255_2_778
10
1.1241473
20
30.7627193
11
1.1241473
21
27.1127193
0
LINE
8
DEFAULT_255_2_778
10
1.1241473
20
27.1127193
11
2.0369473
21
27.1127193
0
LINE
8
DEFAULT_255_2_778
10
2.0369473
20
27.1127193
11
2.1242473
21
27.1127193
0
LINE
8
DEFAULT_255_2_778
10
2.1242473
20
27.1127193
11
2.1242473
21
29.7628193
0
LINE
8
DEFAULT_255_2_778
10
2.1242473
20
29.7628193
11
5.2243473
21
29.7628193
0
LINE
8
DEFAULT_255_2_778
10
5.2243473
20
29.7628193
11
5.2241473
21
27.1127193
0
LINE
8
DEFAULT_255_2_778
10
16.9740473
20
3.8826193
11
17.4740473
21
3.8826193
0
LINE
8
DEFAULT_255_2_778
10
17.4740473
20
3.8826193
11
17.4740473
21
11.9825193
0
LINE
8
DEFAULT_255_2_778
10
17.4740473
20
11.9825193
11
16.9740473
21
12.1646193
0
LINE
8
DEFAULT_255_2_778
10
18.0741473
20
11.8833193
11
17.5740473
21
11.8833193
0
LINE
8
DEFAULT_255_2_778
10
17.5740473
20
11.8833193
11
17.5740473
21
10.6826193
0
LINE
8
DEFAULT_255_2_778
10
16.9740473
20
12.4487193
11
18.0738473
21
12.4969193
0
LINE
8
DEFAULT_255_2_778
10
18.0738473
20
14.5921193
11
16.9740473
21
14.3392193
0
LINE
8
DEFAULT_255_2_778
10
34.2740473
20
7.7029193
11
34.7981473
21
7.8191193
0
LINE
8
DEFAULT_255_2_778
10
34.9939473
20
8.0630193
11
34.9939473
21
8.1778193
0
LINE
8
DEFAULT_255_2_778
10
34.7939473
20
8.3779193
11
34.2740473
21
8.3779193
0
LINE
8
DEFAULT_255_2_778
10
34.0105473
20
6.3779193
11
34.7942473
21
6.3779193
0
LINE
8
DEFAULT_255_2_778
10
34.9942473
20
6.5779193
11
34.9942473
21
6.6927193
0
LINE
8
DEFAULT_255_2_778
10
34.7984473
20
6.9367193
11
34.2743473
21
7.0528193
0
LINE
8
DEFAULT_255_2_778
10
34.2743473
20
13.2279193
11
34.7942473
21
13.2279193
0
LINE
8
DEFAULT_255_2_778
10
34.9942473
20
13.4280193
11
34.9942473
21
13.5428193
0
LINE
8
DEFAULT_255_2_778
10
34.7984473
20
13.7867193
11
34.2743473
21
13.9029193
0
LINE
8
DEFAULT_255_2_778
10
34.2743473
20
14.5530193
11
34.7984473
21
14.6691193
0
LINE
8
DEFAULT_255_2_778
10
34.9942473
20
14.9131193
11
34.9942473
21
15.0279193
0
LINE
8
DEFAULT_255_2_778
10
34.7942473
20
15.2279193
11
34.0105473
21
15.2279193
0
LINE
8
DEFAULT_255_2_778
10
17.4740473
20
10.6829193
11
17.5740473
21
10.6829193
0
LINE
8
DEFAULT_255_2_778
10
17.5740473
20
10.6829193
11
18.0741473
21
11.5489193
0
LINE
8
DEFAULT_255_2_778
10
18.0741473
20
11.5489193
11
18.0741473
21
21.2829193
0
LINE
8
DEFAULT_255_2_778
10
18.0741473
20
21.2829193
11
31.9740473
21
21.2829193
0
LINE
8
DEFAULT_255_2_778
10
31.9740473
20
21.2829193
11
31.9740473
21
23.1829193
0
LINE
8
DEFAULT_255_2_778
10
31.9740473
20
23.1829193
11
24.5739473
21
23.1829193
0
LINE
8
DEFAULT_255_2_778
10
24.5739473
20
23.1829193
11
24.5739473
21
22.9291193
0
LINE
8
DEFAULT_255_2_778
10
24.5739473
20
22.9291193
11
23.9203473
21
22.9291193
0
LINE
8
DEFAULT_255_2_778
10
23.9203473
20
22.9291193
11
23.8047473
21
22.8135193
0
LINE
8
DEFAULT_255_2_778
10
23.8047473
20
22.8135193
11
23.5092473
21
22.5180193
0
LINE
8
DEFAULT_255_2_778
10
23.5092473
20
22.5180193
11
23.1451473
21
22.1539193
0
LINE
8
DEFAULT_255_2_778
10
23.1451473
20
22.1539193
11
22.7276473
21
21.7364193
0
LINE
8
DEFAULT_255_2_778
10
22.7276473
20
21.7364193
11
22.2741473
21
21.2829193
0
LINE
8
DEFAULT_255_2_778
10
17.4740473
20
5.7828193
11
17.5740473
21
5.7828193
0
LINE
8
DEFAULT_255_2_778
10
17.5740473
20
5.7828193
11
17.5740473
21
1.0828193
0
LINE
8
DEFAULT_255_2_778
10
17.5740473
20
1.0828193
11
32.7741473
21
1.0828193
0
LINE
8
DEFAULT_255_2_778
10
32.7741473
20
1.0828193
11
32.7741473
21
5.9278193
0
LINE
8
DEFAULT_255_2_778
10
32.7741473
20
5.9278193
11
34.2740473
21
6.4736193
0
LINE
8
DEFAULT_255_2_778
10
34.2740473
20
6.4736193
11
34.2740473
21
15.1316193
0
LINE
8
DEFAULT_255_2_778
10
34.2740473
20
15.1316193
11
32.7741473
21
15.6774193
0
LINE
8
DEFAULT_255_2_778
10
32.7741473
20
15.6774193
11
32.7741473
21
23.1823193
0
LINE
8
DEFAULT_255_2_778
10
32.7741473
20
23.1823193
11
31.9740473
21
23.1823193
0
ARC
8
DEFAULT_255_2_778
10
8.1736622
20
86.90758
40
30.0050696
50
71.5409378
51
90.0007503
0
ARC
8
DEFAULT_255_2_778
10
8.1732726
20
86.8971268
40
30.0155228
50
90.0000063
51
90.5243653
0
ARC
8
DEFAULT_255_2_778
10
1.9259961
20
80.4753284
40
1.0007105
50
171.0105166
51
174.623846
0
ARC
8
DEFAULT_255_2_778
10
1.9247067
20
80.4754452
40
0.9994159
50
174.6235884
51
179.9996772
0
ARC
8
DEFAULT_255_2_778
10
1.9258257
20
80.475546
40
1.0005347
50
180.0054465
51
220.4968436
0
ARC
8
DEFAULT_255_2_778
10
1.9256161
20
80.4756084
40
1.0004159
50
220.5073563
51
269.9805984
0
ARC
8
DEFAULT_255_2_778
10
6.4545244
20
78.4750976
40
1.000095
50
45.0017048
51
90.0026977
0
ARC
8
DEFAULT_255_2_778
10
6.4540623
20
78.4749658
40
1.000515
50
0.0072593
51
44.9883271
0
ARC
8
DEFAULT_255_2_778
10
5.4223726
20
42.5752655
40
0.3001178
50
14.9902985
51
61.6517719
0
ARC
8
DEFAULT_255_2_778
10
5.4229463
20
42.5772288
40
0.2981178
50
61.5696421
51
90.0388277
0
ARC
8
DEFAULT_255_2_778
10
5.4227528
20
42.5739698
40
0.3013768
50
90.0016196
51
91.5606785
0
ARC
8
DEFAULT_255_2_778
10
5.4228297
20
42.5734701
40
0.3018783
50
91.5726786
51
108.2929802
0
ARC
8
DEFAULT_255_2_778
10
2.2561473
20
37.878882
40
0.9965117
50
48.3612403
51
90.08452
0
ARC
8
DEFAULT_255_2_778
10
2.2573052
20
37.876472
40
0.9975466
50
1.729783
51
48.5029145
0
ARC
8
DEFAULT_255_2_778
10
2.2357766
20
37.8753024
40
1.0191008
50
359.999446
51
1.7589697
0
ARC
8
DEFAULT_255_2_778
10
7.3741075
20
116.7126624
40
0.2000302
50
89.9800103
51
179.9913489
0
ARC
8
DEFAULT_255_2_778
10
7.6215387
20
73.065258
40
0.9965417
50
116.6804539
51
152.5955921
0
ARC
8
DEFAULT_255_2_778
10
7.6264996
20
73.0617644
40
1.0025543
50
152.5488321
51
179.9674687
0
ARC
8
DEFAULT_255_2_778
10
7.6180783
20
73.062319
40
0.9941328
50
179.9991535
51
186.6356279
0
ARC
8
DEFAULT_255_2_778
10
7.6234938
20
73.0632427
40
0.9996187
50
186.6523535
51
200.2672517
0
ARC
8
DEFAULT_255_2_778
10
7.6382606
20
73.0681786
40
1.0151812
50
200.239883
51
201.276999
0
ARC
8
DEFAULT_255_2_778
10
7.6249833
20
73.0627359
40
0.6007419
50
138.6408053
51
180.0101003
0
ARC
8
DEFAULT_255_2_778
10
7.6248419
20
73.0626317
40
0.6006005
50
180.0001627
51
183.0378496
0
ARC
8
DEFAULT_255_2_778
10
7.6247418
20
73.0626582
40
0.600502
50
183.0408847
51
201.2521351
0
ARC
8
DEFAULT_255_2_778
10
2.4742291
20
76.2630049
40
2.0001517
50
180.0032159
51
211.6727074
0
ARC
8
DEFAULT_255_2_778
10
4.1745642
20
77.3113077
40
3.9976697
50
211.6638394
51
236.2212581
0
ARC
8
DEFAULT_255_2_778
10
4.1763567
20
77.3122059
40
3.9994131
50
236.2070687
51
267.1760323
0
ARC
8
DEFAULT_255_2_778
10
4.1766325
20
77.3231002
40
4.0103078
50
267.1797639
51
270.0006397
0
ARC
8
DEFAULT_255_2_778
10
4.4315441
20
74.3130061
40
1.0002135
50
270.0076304
51
343.9930098
0
LINE
8
DEFAULT_255_2_778
10
17.7740773
20
113.7127926
11
17.6740773
21
113.7127926
0
LINE
8
DEFAULT_255_2_778
10
17.6740773
20
113.7127926
11
17.6740773
21
115.3688926
0
LINE
8
DEFAULT_255_2_778
10
7.8985773
20
116.9113926
11
7.7879773
21
116.2130926
0
LINE
8
DEFAULT_255_2_778
10
7.7879773
20
116.2130926
11
6.6025773
21
116.4006926
0
LINE
8
DEFAULT_255_2_778
10
6.6025773
20
116.4006926
11
0.9375773
21
80.6316926
0
LINE
8
DEFAULT_255_2_778
10
1.9252773
20
79.4751926
11
6.4544773
21
79.4751926
0
LINE
8
DEFAULT_255_2_778
10
7.4545773
20
78.4750926
11
7.4545773
21
75.0214926
0
LINE
8
DEFAULT_255_2_778
10
7.4545773
20
75.0214926
11
7.2545773
21
74.2750926
0
LINE
8
DEFAULT_255_2_778
10
7.2545773
20
74.2750926
11
7.2545773
21
41.3751926
0
LINE
8
DEFAULT_255_2_778
10
7.2545773
20
41.3751926
11
6.0546773
21
41.3751926
0
LINE
8
DEFAULT_255_2_778
10
6.0546773
20
41.3751926
11
5.7122773
21
42.6528926
0
LINE
8
DEFAULT_255_2_778
10
5.3280773
20
42.8600926
11
4.9552773
21
42.7364926
0
LINE
8
DEFAULT_255_2_778
10
4.9552773
20
42.7364926
11
1.3686773
21
40.2250926
0
LINE
8
DEFAULT_255_2_778
10
1.3686773
20
40.2250926
11
1.1548773
21
38.8753926
0
LINE
8
DEFAULT_255_2_778
10
1.1548773
20
38.8753926
11
2.2546773
21
38.8753926
0
LINE
8
DEFAULT_255_2_778
10
3.2548773
20
37.8752926
11
3.2548773
21
34.1753926
0
LINE
8
DEFAULT_255_2_778
10
3.2548773
20
34.1753926
11
3.5434773
21
33.6752926
0
LINE
8
DEFAULT_255_2_778
10
3.5434773
20
33.6752926
11
9.8656773
21
33.6752926
0
LINE
8
DEFAULT_255_2_778
10
9.8656773
20
33.6752926
11
10.1739773
21
34.2094926
0
LINE
8
DEFAULT_255_2_778
10
7.3741773
20
116.9126926
11
6.2880773
21
116.9126926
0
LINE
8
DEFAULT_255_2_778
10
6.2880773
20
116.9126926
11
1.3781773
21
85.9127926
0
LINE
8
DEFAULT_255_2_778
10
7.8985773
20
116.9113926
11
7.3741773
21
116.9126926
0
LINE
8
DEFAULT_255_2_778
10
7.1740773
20
116.7126926
11
7.1740773
21
116.3104926
0
LINE
8
DEFAULT_255_2_778
10
6.6922773
20
72.6997926
11
7.1740773
21
71.4633926
0
LINE
8
DEFAULT_255_2_778
10
7.0650773
20
72.8449926
11
7.1740773
21
72.5650926
0
LINE
8
DEFAULT_255_2_778
10
7.2741773
20
75.7614926
11
7.2741773
21
76.5126926
0
LINE
8
DEFAULT_255_2_778
10
0.4740773
20
79.6643926
11
0.4740773
21
80.2067926
0
LINE
8
DEFAULT_255_2_778
10
0.4740773
20
80.2067926
11
1.1561773
21
84.5125926
0
LINE
8
DEFAULT_255_2_778
10
1.5522773
20
84.5125926
11
1.1561773
21
84.5125926
0
LINE
8
DEFAULT_255_2_778
10
1.1561773
20
84.5125926
11
1.2193773
21
84.9126926
0
LINE
8
DEFAULT_255_2_778
10
1.2193773
20
84.9126926
11
1.3778773
21
85.9127926
0
LINE
8
DEFAULT_255_2_778
10
1.3778773
20
85.9127926
11
1.7739773
21
85.9127926
0
LINE
8
DEFAULT_255_2_778
10
1.3402773
20
79.6643926
11
0.4740773
21
79.6643926
0
LINE
8
DEFAULT_255_2_778
10
0.4740773
20
79.6643926
11
0.4740773
21
77.4127926
0
LINE
8
DEFAULT_255_2_778
10
4.7740773
20
79.4754926
11
4.7740773
21
78.9126926
0
LINE
8
DEFAULT_255_2_778
10
4.7740773
20
78.9126926
11
7.3537773
21
78.9126926
0
LINE
8
DEFAULT_255_2_778
10
3.8742773
20
79.4754926
11
3.8742773
21
77.4127926
0
LINE
8
DEFAULT_255_2_778
10
3.8742773
20
77.4127926
11
0.4740773
21
77.4127926
0
LINE
8
DEFAULT_255_2_778
10
0.4740773
20
77.4127926
11
0.4740773
21
76.2628926
0
LINE
8
DEFAULT_255_2_778
10
4.1766773
20
73.3127926
11
4.4316773
21
73.3127926
0
LINE
8
DEFAULT_255_2_778
10
5.3929773
20
74.0371926
11
6.1027773
21
76.5128926
0
LINE
8
DEFAULT_255_2_778
10
6.1027773
20
76.5128926
11
7.4545773
21
76.5128926
0
LINE
8
DEFAULT_255_2_778
10
7.4545773
20
76.3903926
11
7.1743773
21
75.4127926
0
LINE
8
DEFAULT_255_2_778
10
7.1743773
20
75.4127926
11
7.1743773
21
70.9627926
0
LINE
8
DEFAULT_255_2_778
10
7.1743773
20
70.9627926
11
7.2547773
21
70.6629926
0
ENDSEC
0
EOF