0
SECTION
2
HEADER
9
$MEASUREMENT
70
1
0
ENDSEC
0
SECTION
2
TABLES
0
TABLE
2
LTYPE
0
LTYPE
72
65
70
64
2
CONTINUOUS
3
______
73
0
40
0
0
ENDTAB
0
TABLE
2
LAYER
0
LAYER
2
DEFAULT_255_2_778
70
0
62
255
6
CONTINUOUS
0
ENDTAB
0
ENDSEC
0
SECTION
2
ENTITIES
0
LINE
8
DEFAULT_255_2_778
10
58.0821948
20
61.1528585
11
58.1818948
21
61.1512585
0
LINE
8
DEFAULT_255_2_778
10
58.1818948
20
61.1512585
11
58.0818948
21
61.1512585
0
LINE
8
DEFAULT_255_2_778
10
57.9606948
20
5.7110585
11
57.9609948
21
5.7150585
0
LINE
8
DEFAULT_255_2_778
10
58.1236948
20
59.8492585
11
58.2236948
21
59.8492585
0
LINE
8
DEFAULT_255_2_778
10
58.2236948
20
59.8492585
11
58.2236948
21
59.8455585
0
LINE
8
DEFAULT_255_2_778
10
58.2236948
20
59.8455585
11
58.1236948
21
59.8455585
0
LINE
8
DEFAULT_255_2_778
10
57.8736948
20
66.8173585
11
57.9736948
21
66.8173585
0
LINE
8
DEFAULT_255_2_778
10
57.9016948
20
4.2976585
11
57.8016948
21
4.2976585
0
LINE
8
DEFAULT_255_2_778
10
57.8016948
20
4.2976585
11
57.9016948
21
4.2976585
0
LINE
8
DEFAULT_255_2_778
10
58.1821948
20
61.1512585
11
58.2236948
21
59.8561585
0
LINE
8
DEFAULT_255_2_778
10
58.2236948
20
59.8561585
11
58.1236948
21
59.8561585
0
LINE
8
DEFAULT_255_2_778
10
58.1604948
20
11.0524585
11
58.1580948
21
10.9857585
0
LINE
8
DEFAULT_255_2_778
10
58.1580948
20
10.9857585
11
58.1567948
21
10.9487585
0
LINE
8
DEFAULT_255_2_778
10
58.1567948
20
10.9487585
11
58.1553948
21
10.9103585
0
LINE
8
DEFAULT_255_2_778
10
58.1553948
20
10.9103585
11
58.1527948
21
10.8320585
0
LINE
8
DEFAULT_255_2_778
10
58.1527948
20
10.8320585
11
58.1501948
21
10.7521585
0
LINE
8
DEFAULT_255_2_778
10
58.1501948
20
10.7521585
11
58.1487948
21
10.7121585
0
LINE
8
DEFAULT_255_2_778
10
58.1487948
20
10.7121585
11
58.1474948
21
10.6722585
0
LINE
8
DEFAULT_255_2_778
10
58.1474948
20
10.6722585
11
58.1448948
21
10.5920585
0
LINE
8
DEFAULT_255_2_778
10
58.1448948
20
10.5920585
11
58.1392948
21
10.4317585
0
LINE
8
DEFAULT_255_2_778
10
58.1392948
20
10.4317585
11
58.1379948
21
10.3917585
0
LINE
8
DEFAULT_255_2_778
10
58.1379948
20
10.3917585
11
58.1366948
21
10.3518585
0
LINE
8
DEFAULT_255_2_778
10
58.1366948
20
10.3518585
11
58.1339948
21
10.2724585
0
LINE
8
DEFAULT_255_2_778
10
58.1339948
20
10.2724585
11
58.1326948
21
10.2330585
0
LINE
8
DEFAULT_255_2_778
10
58.1326948
20
10.2330585
11
58.1313948
21
10.1938585
0
LINE
8
DEFAULT_255_2_778
10
58.1313948
20
10.1938585
11
58.1299948
21
10.1552585
0
LINE
8
DEFAULT_255_2_778
10
58.1299948
20
10.1552585
11
58.1286948
21
10.1176585
0
LINE
8
DEFAULT_255_2_778
10
58.1286948
20
10.1176585
11
58.1273948
21
10.0814585
0
LINE
8
DEFAULT_255_2_778
10
58.1273948
20
10.0814585
11
58.1260948
21
10.0475585
0
LINE
8
DEFAULT_255_2_778
10
58.1260948
20
10.0475585
11
58.1249948
21
10.0173585
0
LINE
8
DEFAULT_255_2_778
10
58.1249948
20
10.0173585
11
58.1244948
21
10.0039585
0
LINE
8
DEFAULT_255_2_778
10
58.1244948
20
10.0039585
11
58.1239948
21
9.9919585
0
LINE
8
DEFAULT_255_2_778
10
58.1239948
20
9.9919585
11
58.1231948
21
9.9718585
0
LINE
8
DEFAULT_255_2_778
10
58.1231948
20
9.9718585
11
58.1225948
21
9.9568585
0
LINE
8
DEFAULT_255_2_778
10
58.1225948
20
9.9568585
11
58.1223948
21
9.9470585
0
LINE
8
DEFAULT_255_2_778
10
58.1223948
20
9.9470585
11
58.1220948
21
9.9417585
0
LINE
8
DEFAULT_255_2_778
10
58.1220948
20
9.9417585
11
58.0220948
21
9.9417585
0
LINE
8
DEFAULT_255_2_778
10
58.0636188
20
11.1540523
11
58.1639188
21
11.1540523
0
LINE
8
DEFAULT_255_2_778
10
58.1639188
20
11.1540523
11
58.1639188
21
11.1527523
0
LINE
8
DEFAULT_255_2_778
10
58.1639188
20
11.1527523
11
58.1633188
21
11.1400523
0
LINE
8
DEFAULT_255_2_778
10
58.1633188
20
11.1400523
11
58.1633188
21
11.1342523
0
LINE
8
DEFAULT_255_2_778
10
58.1633188
20
11.1342523
11
58.1631188
21
11.1270523
0
LINE
8
DEFAULT_255_2_778
10
58.1631188
20
11.1270523
11
58.1625188
21
11.1082523
0
LINE
8
DEFAULT_255_2_778
10
58.1625188
20
11.1082523
11
58.1623188
21
11.0966523
0
LINE
8
DEFAULT_255_2_778
10
58.1623188
20
11.0966523
11
58.1617188
21
11.0834523
0
LINE
8
DEFAULT_255_2_778
10
58.1617188
20
11.0834523
11
58.1607188
21
11.0524523
0
LINE
8
DEFAULT_255_2_778
10
58.1607188
20
11.0524523
11
58.0607188
21
11.0524523
0
LINE
8
DEFAULT_255_2_778
10
58.0607188
20
11.0524523
11
58.0625188
21
11.1077523
0
LINE
8
DEFAULT_255_2_778
10
58.0625188
20
11.1077523
11
58.0628188
21
11.1177523
0
LINE
8
DEFAULT_255_2_778
10
58.0628188
20
11.1177523
11
58.0631188
21
11.1265523
0
LINE
8
DEFAULT_255_2_778
10
58.0631188
20
11.1265523
11
58.0636188
21
11.1397523
0
LINE
8
DEFAULT_255_2_778
10
58.0636188
20
11.1397523
11
58.0641188
21
11.1540523
0
LINE
8
DEFAULT_255_2_778
10
57.9736188
20
66.8215523
11
57.9072188
21
68.4175523
0
LINE
8
DEFAULT_255_2_778
10
57.9072188
20
68.4175523
11
57.8072188
21
68.4175523
0
LINE
8
DEFAULT_255_2_778
10
57.8072188
20
68.4175523
11
57.8736188
21
66.8215523
0
LINE
8
DEFAULT_255_2_778
10
57.8736188
20
66.8215523
11
57.9736188
21
66.8215523
0
LINE
8
DEFAULT_255_2_778
10
58.3136188
20
20.1673523
11
58.4136188
21
20.1673523
0
LINE
8
DEFAULT_255_2_778
10
58.4136188
20
20.1673523
11
58.4978188
21
24.6673523
0
LINE
8
DEFAULT_255_2_778
10
58.4978188
20
24.6673523
11
58.3977188
21
24.6673523
0
LINE
8
DEFAULT_255_2_778
10
58.0493188
20
64.8954523
11
58.0271188
21
65.4769523
0
LINE
8
DEFAULT_255_2_778
10
58.0271188
20
65.4769523
11
58.0199188
21
65.6590523
0
LINE
8
DEFAULT_255_2_778
10
58.0199188
20
65.6590523
11
57.9199188
21
65.6590523
0
LINE
8
DEFAULT_255_2_778
10
57.9199188
20
65.6590523
11
57.9493188
21
64.8954523
0
LINE
8
DEFAULT_255_2_778
10
58.0099188
20
65.9071523
11
58.0175188
21
65.7095523
0
LINE
8
DEFAULT_255_2_778
10
58.0175188
20
65.7095523
11
57.9175188
21
65.7095523
0
LINE
8
DEFAULT_255_2_778
10
57.9175188
20
65.7095523
11
57.9138188
21
65.8024523
0
LINE
8
DEFAULT_255_2_778
10
57.9138188
20
65.8024523
11
57.9122188
21
65.8413523
0
LINE
8
DEFAULT_255_2_778
10
57.9122188
20
65.8413523
11
57.9109188
21
65.8725523
0
LINE
8
DEFAULT_255_2_778
10
57.9109188
20
65.8725523
11
57.9104188
21
65.8849523
0
LINE
8
DEFAULT_255_2_778
10
57.9104188
20
65.8849523
11
57.9099188
21
65.8952523
0
LINE
8
DEFAULT_255_2_778
10
57.9099188
20
65.8952523
11
57.9091188
21
65.9159523
0
LINE
8
DEFAULT_255_2_778
10
57.9199985
20
65.6564595
11
57.9207985
21
65.6394595
0
LINE
8
DEFAULT_255_2_778
10
57.9207985
20
65.6394595
11
57.9217985
21
65.6146595
0
LINE
8
DEFAULT_255_2_778
10
57.9217985
20
65.6146595
11
57.9228985
21
65.5892595
0
LINE
8
DEFAULT_255_2_778
10
57.9228985
20
65.5892595
11
57.9246985
21
65.5384595
0
LINE
8
DEFAULT_255_2_778
10
57.9246985
20
65.5384595
11
57.9265985
21
65.4876595
0
LINE
8
DEFAULT_255_2_778
10
57.9265985
20
65.4876595
11
57.9284985
21
65.4368595
0
LINE
8
DEFAULT_255_2_778
10
57.9284985
20
65.4368595
11
58.0284985
21
65.4368595
0
LINE
8
DEFAULT_255_2_778
10
58.0284985
20
65.4368595
11
58.0315985
21
65.3526595
0
LINE
8
DEFAULT_255_2_778
10
58.0315985
20
65.3526595
11
57.9315985
21
65.3526595
0
LINE
8
DEFAULT_255_2_778
10
57.9315985
20
65.3526595
11
57.9339985
21
65.2931595
0
LINE
8
DEFAULT_255_2_778
10
57.9339985
20
65.2931595
11
57.9360985
21
65.2370595
0
LINE
8
DEFAULT_255_2_778
10
57.9360985
20
65.2370595
11
57.9403985
21
65.1293595
0
LINE
8
DEFAULT_255_2_778
10
57.9403985
20
65.1293595
11
57.9442985
21
65.0251595
0
LINE
8
DEFAULT_255_2_778
10
57.9442985
20
65.0251595
11
57.9461985
21
64.9740595
0
LINE
8
DEFAULT_255_2_778
10
57.9461985
20
64.9740595
11
57.9479985
21
64.9237595
0
LINE
8
DEFAULT_255_2_778
10
57.9479985
20
64.9237595
11
57.9516985
21
64.8240595
0
LINE
8
DEFAULT_255_2_778
10
57.9516985
20
64.8240595
11
57.9553985
21
64.7245595
0
LINE
8
DEFAULT_255_2_778
10
57.9553985
20
64.7245595
11
57.9572985
21
64.6750595
0
LINE
8
DEFAULT_255_2_778
10
57.9572985
20
64.6750595
11
57.9590985
21
64.6258595
0
LINE
8
DEFAULT_255_2_778
10
57.9590985
20
64.6258595
11
57.9627985
21
64.5274595
0
LINE
8
DEFAULT_255_2_778
10
57.9627985
20
64.5274595
11
58.0628985
21
64.5274595
0
LINE
8
DEFAULT_255_2_778
10
58.0628985
20
64.5274595
11
58.0591985
21
64.6258595
0
LINE
8
DEFAULT_255_2_778
10
58.0591985
20
64.6258595
11
58.0572985
21
64.6750595
0
LINE
8
DEFAULT_255_2_778
10
58.0572985
20
64.6750595
11
58.0554985
21
64.7245595
0
LINE
8
DEFAULT_255_2_778
10
58.0554985
20
64.7245595
11
58.0516985
21
64.8240595
0
LINE
8
DEFAULT_255_2_778
10
58.0516985
20
64.8240595
11
58.0479985
21
64.9237595
0
LINE
8
DEFAULT_255_2_778
10
58.0479985
20
64.9237595
11
58.0461985
21
64.9740595
0
LINE
8
DEFAULT_255_2_778
10
58.0461985
20
64.9740595
11
58.0442985
21
65.0251595
0
LINE
8
DEFAULT_255_2_778
10
58.0442985
20
65.0251595
11
58.0403985
21
65.1293595
0
LINE
8
DEFAULT_255_2_778
10
58.0403985
20
65.1293595
11
58.0382985
21
65.1828595
0
LINE
8
DEFAULT_255_2_778
10
58.0382985
20
65.1828595
11
58.0315985
21
65.3529595
0
LINE
8
DEFAULT_255_2_778
10
58.0636985
20
64.5113595
11
58.0712985
21
64.3073595
0
LINE
8
DEFAULT_255_2_778
10
58.0712985
20
64.3073595
11
57.9712985
21
64.3073595
0
LINE
8
DEFAULT_255_2_778
10
57.9712985
20
64.3073595
11
57.9635985
21
64.5113595
0
LINE
8
DEFAULT_255_2_778
10
57.9635985
20
64.5113595
11
57.9630985
21
64.5271595
0
LINE
8
DEFAULT_255_2_778
10
57.8384985
20
5.1774595
11
57.9384985
21
5.1774595
0
LINE
8
DEFAULT_255_2_778
10
57.9384985
20
5.1774595
11
57.9440985
21
5.3081595
0
LINE
8
DEFAULT_255_2_778
10
57.9440985
20
5.3081595
11
57.9466985
21
5.3729595
0
LINE
8
DEFAULT_255_2_778
10
57.9466985
20
5.3729595
11
57.9493985
21
5.4372595
0
LINE
8
DEFAULT_255_2_778
10
57.9493985
20
5.4372595
11
57.9506985
21
5.4690595
0
LINE
8
DEFAULT_255_2_778
10
57.9506985
20
5.4690595
11
57.9519985
21
5.5004595
0
LINE
8
DEFAULT_255_2_778
10
57.9519985
20
5.5004595
11
57.9532985
21
5.5317595
0
LINE
8
DEFAULT_255_2_778
10
57.9532985
20
5.5317595
11
57.9545985
21
5.5623595
0
LINE
8
DEFAULT_255_2_778
10
57.9545985
20
5.5623595
11
57.9559985
21
5.5915595
0
LINE
8
DEFAULT_255_2_778
10
57.9559985
20
5.5915595
11
57.9569985
21
5.6190595
0
LINE
8
DEFAULT_255_2_778
10
57.9569985
20
5.6190595
11
57.9580985
21
5.6441595
0
LINE
8
DEFAULT_255_2_778
10
57.9580985
20
5.6441595
11
57.9588985
21
5.6658595
0
LINE
8
DEFAULT_255_2_778
10
57.9588985
20
5.6658595
11
57.9596985
21
5.6843595
0
LINE
8
DEFAULT_255_2_778
10
57.9596985
20
5.6843595
11
57.9598985
21
5.6923595
0
LINE
8
DEFAULT_255_2_778
10
57.9598985
20
5.6923595
11
57.9601985
21
5.6991595
0
LINE
8
DEFAULT_255_2_778
10
57.9601985
20
5.6991595
11
57.9609985
21
5.7155595
0
LINE
8
DEFAULT_255_2_778
10
57.9609985
20
5.7155595
11
57.9609985
21
5.7185595
0
LINE
8
DEFAULT_255_2_778
10
57.9609985
20
5.7185595
11
57.9609985
21
5.7190595
0
LINE
8
DEFAULT_255_2_778
10
57.9609985
20
5.7190595
11
57.8609985
21
5.7190595
0
LINE
8
DEFAULT_255_2_778
10
15.0259985
20
69.2314595
11
17.0896985
21
70.4231595
0
LINE
8
DEFAULT_255_2_778
10
17.0896985
20
70.4231595
11
17.2897985
21
70.4231595
0
LINE
8
DEFAULT_255_2_778
10
17.2897985
20
70.4231595
11
17.3921985
21
69.2521595
0
LINE
8
DEFAULT_255_2_778
10
58.0953985
20
9.1959595
11
58.0509985
21
7.9973595
0
LINE
8
DEFAULT_255_2_778
10
58.0509985
20
7.9973595
11
57.9508985
21
7.9973595
0
ARC
8
DEFAULT_255_2_778
10
32.9905495
20
25.8243534
40
26.0013773
50
247.6486644
51
269.9983847
0
ARC
8
DEFAULT_255_2_778
10
32.9906638
20
47.0199891
40
26.003187
50
90.0018671
51
112.3499684
0
LINE
8
DEFAULT_255_2_778
10
58.0954164
20
9.1958761
11
57.9954164
21
9.1958761
0
LINE
8
DEFAULT_255_2_778
10
58.0787164
20
64.1096761
11
58.0790164
21
64.1019761
0
LINE
8
DEFAULT_255_2_778
10
58.0790164
20
64.1019761
11
58.0792164
21
64.0942761
0
LINE
8
DEFAULT_255_2_778
10
58.0792164
20
64.0942761
11
58.0798164
21
64.0789761
0
LINE
8
DEFAULT_255_2_778
10
58.0798164
20
64.0789761
11
57.9797164
21
64.0789761
0
LINE
8
DEFAULT_255_2_778
10
57.9797164
20
64.0789761
11
57.9795164
21
64.0865761
0
LINE
8
DEFAULT_255_2_778
10
57.9795164
20
64.0865761
11
57.9792164
21
64.0942761
0
LINE
8
DEFAULT_255_2_778
10
57.9792164
20
64.0942761
11
57.9787164
21
64.1096761
0
LINE
8
DEFAULT_255_2_778
10
57.9787164
20
64.1096761
11
58.0787164
21
64.1096761
0
LINE
8
DEFAULT_255_2_778
10
58.0787164
20
64.1096761
11
58.0713164
21
64.3072761
0
LINE
8
DEFAULT_255_2_778
10
58.3658164
20
18.0908761
11
58.3642164
21
18.0273761
0
LINE
8
DEFAULT_255_2_778
10
58.3642164
20
18.0273761
11
58.2642164
21
18.0273761
0
LINE
8
DEFAULT_255_2_778
10
58.2636164
20
18.0059761
11
58.3637164
21
18.0059761
0
LINE
8
DEFAULT_255_2_778
10
57.9067164
20
68.4307761
11
57.8067164
21
68.4307761
0
LINE
8
DEFAULT_255_2_778
10
58.1851164
20
61.0661761
11
58.1848164
21
61.0661761
0
LINE
8
DEFAULT_255_2_778
10
33.1010164
20
1.9452761
11
32.9898164
21
-0.1770239
0
LINE
8
DEFAULT_255_2_778
10
57.9070164
20
68.4262761
11
57.8070164
21
68.4262761
0
LINE
8
DEFAULT_255_2_778
10
32.9898164
20
73.0231761
11
33.1010164
21
70.9009761
0
LINE
8
DEFAULT_255_2_778
10
4.9895164
20
32.7731761
11
2.0897164
21
32.7731761
0
LINE
8
DEFAULT_255_2_778
10
2.0897164
20
32.7731761
11
2.0897164
21
6.3230761
0
LINE
8
DEFAULT_255_2_778
10
2.0897164
20
6.3230761
11
4.9895164
21
6.3230761
0
LINE
8
DEFAULT_255_2_778
10
4.9895164
20
50.3981761
11
1.3896164
21
50.3981761
0
LINE
8
DEFAULT_255_2_778
10
1.3896164
20
50.3981761
11
1.3896164
21
65.7481761
0
LINE
8
DEFAULT_255_2_778
10
1.3896164
20
65.7481761
11
4.9895164
21
65.7481761
0
LINE
8
DEFAULT_255_2_778
10
58.1970164
20
62.1315761
11
58.3610164
21
62.1376761
0
LINE
8
DEFAULT_255_2_778
10
58.3610164
20
62.1376761
11
58.3203164
21
63.2362761
0
LINE
8
DEFAULT_255_2_778
10
58.3203164
20
63.2362761
11
58.1440164
21
63.2295761
0
ARC
8
DEFAULT_255_2_778
10
6.4897793
20
92.272106
40
28.2986549
50
269.9997992
51
284.7502624
0
ARC
8
DEFAULT_255_2_778
10
6.4902712
20
92.2710952
40
28.2975521
50
284.7498203
51
297.8716875
0
LINE
8
DEFAULT_255_2_778
10
21.4894801
20
71.0732511
11
21.4928161
21
71.0732512
0
ARC
8
DEFAULT_255_2_778
10
21.4916497
20
-320.403489
40
391.4767402
50
84.8508937
51
89.9998293
0
ARC
8
DEFAULT_255_2_778
10
-691.4314266
20
36.4213916
40
749.9208521
50
357.4806553
51
0.0000179
0
ARC
8
DEFAULT_255_2_778
10
-691.6324558
20
36.4214983
40
750.1218814
50
0.0000097
51
0.0901542
0
ARC
8
DEFAULT_255_2_778
10
-691.4864462
20
36.4214772
40
749.975872
50
0.0901734
51
1.9309037
0
ARC
8
DEFAULT_255_2_778
10
55.9405138
20
62.5730946
40
2.2988871
50
337.4461055
51
359.3812895
0
ARC
8
DEFAULT_255_2_778
10
55.9344404
20
62.5732169
40
2.3049615
50
359.3798804
51
359.999528
0
ARC
8
DEFAULT_255_2_778
10
55.9407896
20
62.5733788
40
2.2986124
50
359.9954914
51
26.5678862
0
LINE
8
DEFAULT_255_2_778
10
58.2916801
20
19.1842511
11
58.4157801
21
19.1807511
0
LINE
8
DEFAULT_255_2_778
10
58.4157801
20
19.1807511
11
58.3842801
21
18.0811511
0
LINE
8
DEFAULT_255_2_778
10
58.3842801
20
18.0811511
11
58.2657801
21
18.0846511
0
LINE
8
DEFAULT_255_2_778
10
19.7193801
20
69.2727511
11
4.9897801
21
69.1441511
0
LINE
8
DEFAULT_255_2_778
10
4.9897801
20
69.1441511
11
4.9897801
21
63.9734511
0
LINE
8
DEFAULT_255_2_778
10
4.9897801
20
63.9734511
11
6.4896801
21
63.9734511
0
LINE
8
DEFAULT_255_2_778
10
19.7191801
20
67.2561511
11
19.7191801
21
71.0732511
0
LINE
8
DEFAULT_255_2_778
10
19.7191801
20
71.0732511
11
21.4894801
21
71.0732511
0
LINE
8
DEFAULT_255_2_778
10
56.6258801
20
69.4934511
11
56.6258801
21
3.3531511
0
LINE
8
DEFAULT_255_2_778
10
56.6258801
20
3.3531511
11
57.7645801
21
3.4573511
0
LINE
8
DEFAULT_255_2_778
10
57.9966801
20
63.6014511
11
57.7643801
21
69.3891511
0
LINE
8
DEFAULT_255_2_778
10
57.7643801
20
69.3891511
11
56.6255801
21
69.4934511
0
LINE
8
DEFAULT_255_2_778
10
58.1821801
20
61.1582511
11
58.0818801
21
61.1582511
0
LINE
8
DEFAULT_255_2_778
10
58.0069801
20
65.9853511
11
57.9069801
21
65.9853511
0
LINE
8
DEFAULT_255_2_778
10
58.3924801
20
19.2210511
11
58.2924801
21
19.2210511
0
ARC
8
DEFAULT_255_2_778
10
21.4902594
20
393.285353
40
391.5120572
50
269.9999152
51
275.1488743
0
LINE
8
DEFAULT_255_2_778
10
21.4896799
20
1.773296
11
4.9897799
21
1.773296
0
LINE
8
DEFAULT_255_2_778
10
4.9897799
20
1.773296
11
4.9897799
21
63.973096
0
LINE
8
DEFAULT_255_2_778
10
57.9019799
20
4.311196
11
57.9603799
21
5.707696
0
LINE
8
DEFAULT_255_2_778
10
58.1334799
20
10.265096
11
58.1376799
21
10.388096
0
LINE
8
DEFAULT_255_2_778
10
58.1376799
20
10.388096
11
58.1485799
21
10.705096
0
LINE
8
DEFAULT_255_2_778
10
58.1485799
20
10.705096
11
58.1635799
21
11.146996
0
LINE
8
DEFAULT_255_2_778
10
58.1635799
20
11.146996
11
58.0635799
21
11.146996
0
LINE
8
DEFAULT_255_2_778
10
57.9101799
20
65.907196
11
57.9185799
21
65.689796
0
LINE
8
DEFAULT_255_2_778
10
58.0069799
20
65.985296
11
58.0096799
21
65.916196
0
LINE
8
DEFAULT_255_2_778
10
57.9715799
20
64.296496
11
57.9783799
21
64.109896
0
LINE
8
DEFAULT_255_2_778
10
57.9066667
20
65.9853273
11
57.9095667
21
65.9096273
0
LINE
8
DEFAULT_255_2_778
10
58.2236667
20
59.8562273
11
58.2236667
21
59.8544273
0
LINE
8
DEFAULT_255_2_778
10
58.2236667
20
59.8544273
11
58.2238667
21
59.8493273
0
LINE
8
DEFAULT_255_2_778
10
58.0193667
20
65.6691273
11
58.0196667
21
65.6646273
0
LINE
8
DEFAULT_255_2_778
10
58.0196667
20
65.6646273
11
58.0206667
21
65.6403273
0
LINE
8
DEFAULT_255_2_778
10
58.0206667
20
65.6403273
11
58.0217667
21
65.6154273
0
LINE
8
DEFAULT_255_2_778
10
58.0217667
20
65.6154273
11
58.0227667
21
65.5903273
0
LINE
8
DEFAULT_255_2_778
10
58.0227667
20
65.5903273
11
58.0288667
21
65.4368273
0
LINE
8
DEFAULT_255_2_778
10
58.0095667
20
65.9162273
11
58.0095667
21
65.9157273
0
LINE
8
DEFAULT_255_2_778
10
58.0095667
20
65.9157273
11
58.0098667
21
65.9099273
0
LINE
8
DEFAULT_255_2_778
10
58.0098667
20
65.9099273
11
58.0103667
21
65.8961273
0
LINE
8
DEFAULT_255_2_778
10
58.0103667
20
65.8961273
11
58.0108667
21
65.8858273
0
LINE
8
DEFAULT_255_2_778
10
58.0108667
20
65.8858273
11
58.0114667
21
65.8734273
0
LINE
8
DEFAULT_255_2_778
10
58.0114667
20
65.8734273
11
58.0127667
21
65.8422273
0
LINE
8
DEFAULT_255_2_778
10
58.0127667
20
65.8422273
11
58.0135667
21
65.8234273
0
LINE
8
DEFAULT_255_2_778
10
58.0135667
20
65.8234273
11
58.0143667
21
65.8030273
0
LINE
8
DEFAULT_255_2_778
10
58.0143667
20
65.8030273
11
58.0161667
21
65.7583273
0
LINE
8
DEFAULT_255_2_778
10
58.0161667
20
65.7583273
11
58.0180667
21
65.7091273
0
LINE
8
DEFAULT_255_2_778
10
58.0180667
20
65.7091273
11
58.0198667
21
65.6583273
0
LINE
8
DEFAULT_255_2_778
10
57.9315667
20
65.3527273
11
57.9283667
21
65.4368273
0
LINE
8
DEFAULT_255_2_778
10
57.9312667
20
5.0023273
11
57.9344667
21
5.0764273
0
LINE
8
DEFAULT_255_2_778
10
58.3924667
20
19.2210273
11
58.3916667
21
19.1842273
0
LINE
8
DEFAULT_255_2_778
10
57.9013667
20
4.2958273
11
57.9013667
21
4.2964273
0
LINE
8
DEFAULT_255_2_778
10
57.9013667
20
4.2964273
11
57.9013667
21
4.2993273
0
LINE
8
DEFAULT_255_2_778
10
57.9013667
20
4.2993273
11
57.9016667
21
4.3054273
0
LINE
8
DEFAULT_255_2_778
10
57.9016667
20
4.3054273
11
57.9026667
21
4.3292273
0
LINE
8
DEFAULT_255_2_778
10
57.9026667
20
4.3292273
11
57.9034667
21
4.3469273
0
LINE
8
DEFAULT_255_2_778
10
57.9034667
20
4.3469273
11
57.9042667
21
4.3675273
0
LINE
8
DEFAULT_255_2_778
10
57.9042667
20
4.3675273
11
57.9053667
21
4.3911273
0
LINE
8
DEFAULT_255_2_778
10
57.9053667
20
4.3911273
11
57.9063667
21
4.4170273
0
LINE
8
DEFAULT_255_2_778
10
57.9063667
20
4.4170273
11
57.9087667
21
4.4736273
0
LINE
8
DEFAULT_255_2_778
10
57.9087667
20
4.4736273
11
57.9100667
21
4.5038273
0
LINE
8
DEFAULT_255_2_778
10
57.9100667
20
4.5038273
11
57.9114667
21
4.5345273
0
LINE
8
DEFAULT_255_2_778
10
57.9114667
20
4.5345273
11
57.9127667
21
4.5657273
0
LINE
8
DEFAULT_255_2_778
10
57.9127667
20
4.5657273
11
57.9140667
21
4.5969273
0
LINE
8
DEFAULT_255_2_778
10
57.9140667
20
4.5969273
11
57.9166667
21
4.6602273
0
LINE
8
DEFAULT_255_2_778
10
57.9166667
20
4.6602273
11
57.9193667
21
4.7242273
0
LINE
8
DEFAULT_255_2_778
10
57.9193667
20
4.7242273
11
57.9219667
21
4.7888273
0
LINE
8
DEFAULT_255_2_778
10
57.9219667
20
4.7888273
11
57.9246667
21
4.8536273
0
LINE
8
DEFAULT_255_2_778
10
57.9246667
20
4.8536273
11
57.9272667
21
4.9184273
0
LINE
8
DEFAULT_255_2_778
10
57.9272667
20
4.9184273
11
57.9381667
21
5.1774273
0
LINE
8
DEFAULT_255_2_778
10
57.9178073
20
65.7098812
11
57.9197073
21
65.6590812
0
LINE
8
DEFAULT_255_2_778
10
58.0636073
20
64.5112812
11
58.0631073
21
64.5271812
0
LINE
8
DEFAULT_255_2_778
10
58.0553563
20
64.7311552
11
58.0635563
21
64.5112552
0
LINE
8
DEFAULT_255_2_778
10
58.0635563
20
64.5112552
11
57.9635563
21
64.5112552
0
LINE
8
DEFAULT_255_2_778
10
57.9635563
20
64.5112552
11
57.9553563
21
64.7311552
0
LINE
8
DEFAULT_255_2_778
10
57.9714563
20
64.2964552
11
58.0712563
21
64.2964552
0
LINE
8
DEFAULT_255_2_778
10
57.9715466
20
64.296368
11
57.9715466
21
64.299568
0
LINE
8
DEFAULT_255_2_778
10
57.9715466
20
64.299568
11
58.0715466
21
64.299568
0
LINE
8
DEFAULT_255_2_778
10
58.0956466
20
9.204068
11
57.9956466
21
9.204068
0
LINE
8
DEFAULT_255_2_778
10
58.0953466
20
9.199068
11
57.9953466
21
9.199068
0
LINE
8
DEFAULT_255_2_778
10
0.2397466
20
42.854268
11
0.2397466
21
45.373168
0
LINE
8
DEFAULT_255_2_778
10
0.2397466
20
45.373168
11
4.9898466
21
45.373168
0
LINE
8
DEFAULT_255_2_778
10
4.9898466
20
42.854268
11
0.2397466
21
42.854268
0
LINE
8
DEFAULT_255_2_778
10
0.2397466
20
42.854268
11
0.2397466
21
39.291968
0
LINE
8
DEFAULT_255_2_778
10
0.2397466
20
39.291968
11
4.9898466
21
39.291968
0
LINE
8
DEFAULT_255_2_778
10
0.2396678
20
39.2920166
11
0.2396678
21
36.7732166
0
LINE
8
DEFAULT_255_2_778
10
0.2396678
20
36.7732166
11
4.9897678
21
36.7732166
0
ENDSEC
0
EOF