0
SECTION
2
HEADER
9
$MEASUREMENT
70
1
0
ENDSEC
0
SECTION
2
TABLES
0
TABLE
2
LTYPE
0
LTYPE
72
65
70
64
2
CONTINUOUS
3
______
73
0
40
0
0
ENDTAB
0
TABLE
2
LAYER
0
LAYER
2
DEFAULT_255_2_778
70
0
62
255
6
CONTINUOUS
0
ENDTAB
0
ENDSEC
0
SECTION
2
ENTITIES
0
ARC
8
DEFAULT_255_2_778
10
41.6664456
20
37.6218357
40
0.5000758
50
0.008676
51
90.0027763
0
ARC
8
DEFAULT_255_2_778
10
6.8664243
20
60.873818
40
0.3001971
50
280.0326411
51
359.9796609
0
ARC
8
DEFAULT_255_2_778
10
0.6666141
20
58.9681078
40
0.5000928
50
99.9944721
51
179.9881251
0
ARC
8
DEFAULT_255_2_778
10
0.4671021
20
56.2693861
40
0.3005807
50
180.0332984
51
235.2846313
0
ARC
8
DEFAULT_255_2_778
10
4.3662516
20
55.6217812
40
0.2000302
50
90.0086511
51
180.0199897
0
ARC
8
DEFAULT_255_2_778
10
5.6681181
20
54.3282243
40
1.4935884
50
60.184754
51
90.0765939
0
ARC
8
DEFAULT_255_2_778
10
5.6652052
20
54.3212039
40
1.5011282
50
7.8872517
51
60.2215203
0
ARC
8
DEFAULT_255_2_778
10
5.6521161
20
54.3218613
40
1.5140054
50
359.9981122
51
7.7946378
0
LINE
8
DEFAULT_255_2_778
10
6.9615214
20
91.1172114
11
1.3915214
21
91.1172114
0
LINE
8
DEFAULT_255_2_778
10
1.3915214
20
91.1172114
11
1.3915214
21
111.7671114
0
LINE
8
DEFAULT_255_2_778
10
1.3915214
20
111.7671114
11
6.9615214
21
111.7671114
0
LINE
8
DEFAULT_255_2_778
10
7.1663214
20
111.1419114
11
1.9114214
21
111.1419114
0
LINE
8
DEFAULT_255_2_778
10
1.9114214
20
111.1419114
11
1.9114214
21
91.4818114
0
LINE
8
DEFAULT_255_2_778
10
1.9114214
20
91.4818114
11
7.1663214
21
91.4818114
0
LINE
8
DEFAULT_255_2_778
10
13.7846214
20
116.8413114
11
14.3701214
21
116.8413114
0
LINE
8
DEFAULT_255_2_778
10
14.3701214
20
116.8413114
11
14.3701214
21
116.6810114
0
LINE
8
DEFAULT_255_2_778
10
14.3701214
20
116.6810114
11
13.7846214
21
116.6810114
0
LINE
8
DEFAULT_255_2_778
10
13.7846214
20
116.6810114
11
13.7846214
21
116.8413114
0
LINE
8
DEFAULT_255_2_778
10
17.5163214
20
93.8720114
11
16.2164214
21
93.8720114
0
LINE
8
DEFAULT_255_2_778
10
16.2164214
20
93.8720114
11
16.2164214
21
91.7720114
0
LINE
8
DEFAULT_255_2_778
10
16.2164214
20
91.7720114
11
17.5163214
21
91.7720114
0
LINE
8
DEFAULT_255_2_778
10
17.5163214
20
91.7720114
11
17.5163214
21
93.8720114
0
LINE
8
DEFAULT_255_2_778
10
40.7665214
20
110.8220114
11
40.7665214
21
73.3221114
0
LINE
8
DEFAULT_255_2_778
10
41.6664214
20
38.1219114
11
21.7666214
21
38.1219114
0
LINE
8
DEFAULT_255_2_778
10
6.9187214
20
60.5782114
11
0.5798214
21
59.4606114
0
LINE
8
DEFAULT_255_2_778
10
0.1665214
20
58.9682114
11
0.1665214
21
56.2692114
0
LINE
8
DEFAULT_255_2_778
10
0.2959214
20
56.0223114
11
3.7664214
21
53.6218114
0
LINE
8
DEFAULT_255_2_778
10
3.7664214
20
53.6218114
11
4.0035214
21
53.6218114
0
LINE
8
DEFAULT_255_2_778
10
4.0035214
20
53.6218114
11
4.1662214
21
54.5452114
0
LINE
8
DEFAULT_255_2_778
10
4.1662214
20
54.5452114
11
4.1662214
21
55.6217114
0
LINE
8
DEFAULT_255_2_778
10
4.3662214
20
55.8218114
11
5.6661214
21
55.8218114
0
ARC
8
DEFAULT_255_2_778
10
41.6666484
20
72.8220556
40
0.5000969
50
359.9996485
51
90.0003515
0
ARC
8
DEFAULT_255_2_778
10
6.9665509
20
113.982047
40
0.2000945
50
269.9984046
51
359.972969
0
ARC
8
DEFAULT_255_2_778
10
1.5666475
20
113.2822051
40
0.4997474
50
89.9887792
51
135.0206486
0
ARC
8
DEFAULT_255_2_778
10
1.566741
20
113.2818062
40
0.5000956
50
134.9958871
51
179.9946851
0
ARC
8
DEFAULT_255_2_778
10
1.5663928
20
89.5817547
40
0.4997474
50
179.9887792
51
225.0206486
0
ARC
8
DEFAULT_255_2_778
10
1.5666475
20
89.5815
40
0.4997474
50
224.9793514
51
270.0112208
0
ARC
8
DEFAULT_255_2_778
10
6.9666269
20
88.8817293
40
0.2000232
50
30.0038429
51
90.0233598
0
LINE
8
DEFAULT_255_2_778
10
21.7665454
20
73.3221526
11
41.6666454
21
73.3221526
0
LINE
8
DEFAULT_255_2_778
10
6.9665454
20
113.7819526
11
1.5667454
21
113.7819526
0
LINE
8
DEFAULT_255_2_778
10
1.0666454
20
113.2818526
11
1.0666454
21
89.5818526
0
LINE
8
DEFAULT_255_2_778
10
1.5667454
20
89.0817526
11
6.9665454
21
89.0817526
0
ARC
8
DEFAULT_255_2_778
10
41.666663
20
111.3220841
40
0.5000969
50
269.9996485
51
0.0003515
0
ARC
8
DEFAULT_255_2_778
10
4.2954233
20
75.5372288
40
15.2547926
50
79.9314586
51
89.9991354
0
ARC
8
DEFAULT_255_2_778
10
4.2956485
20
75.5464695
40
15.245552
50
89.9999815
51
90.834497
0
ARC
8
DEFAULT_255_2_778
10
4.2955557
20
75.5497966
40
15.2422239
50
90.8343303
51
95.0099936
0
ARC
8
DEFAULT_255_2_778
10
3.0304947
20
89.984989
40
0.7517043
50
95.0397386
51
114.9958633
0
ARC
8
DEFAULT_255_2_778
10
3.029915
20
89.9857364
40
0.5009652
50
95.0106787
51
114.9669373
0
ARC
8
DEFAULT_255_2_778
10
4.2956574
20
75.5297905
40
15.0122187
50
90.9181798
51
95.0042006
0
ARC
8
DEFAULT_255_2_778
10
4.2954929
20
75.5378914
40
15.0041161
50
89.999949
51
90.9180475
0
ARC
8
DEFAULT_255_2_778
10
4.2960422
20
75.5531992
40
14.9888084
50
79.1688853
51
90.0020484
0
LINE
8
DEFAULT_255_2_778
10
21.7665599
20
110.8219872
11
41.6666599
21
110.8219872
0
LINE
8
DEFAULT_255_2_778
10
2.7128599
20
90.6662872
11
1.4608599
21
90.0823872
0
LINE
8
DEFAULT_255_2_778
10
1.4608599
20
90.0823872
11
1.5664599
21
89.8558872
0
LINE
8
DEFAULT_255_2_778
10
1.5664599
20
89.8558872
11
2.8184599
21
90.4398872
0
LINE
8
DEFAULT_255_2_778
10
7.1126599
20
90.2749872
11
7.1665599
21
90.2680872
0
ARC
8
DEFAULT_255_2_778
10
29.2054696
20
87.9632304
40
0.5488398
50
89.8682888
51
180.1317112
0
ARC
8
DEFAULT_255_2_778
10
29.2079782
20
87.9633154
40
0.5487547
50
359.8593896
51
90.1301939
0
ARC
8
DEFAULT_255_2_778
10
29.2080632
20
87.9606368
40
0.5486696
50
269.8609058
51
0.1390942
0
ARC
8
DEFAULT_255_2_778
10
29.2053846
20
87.9607218
40
0.5487547
50
179.8698061
51
270.1406104
0
LINE
8
DEFAULT_255_2_778
10
28.6566313
20
87.9619687
11
28.6566313
21
87.9619687
0
ARC
8
DEFAULT_255_2_778
10
4.2942593
20
127.353842
40
15.0115362
50
270.0008142
51
280.8216397
0
ARC
8
DEFAULT_255_2_778
10
4.2944716
20
127.3454294
40
15.0031235
50
269.0859827
51
270.000004
0
ARC
8
DEFAULT_255_2_778
10
4.294337
20
127.3400155
40
14.9977081
50
264.9961999
51
269.0861669
0
ARC
8
DEFAULT_255_2_778
10
3.0296485
20
112.8963283
40
0.4987587
50
244.9550808
51
265.003557
0
ARC
8
DEFAULT_255_2_778
10
3.0297614
20
112.8963427
40
0.7487267
50
244.9640126
51
265.0003165
0
ARC
8
DEFAULT_255_2_778
10
4.2952597
20
127.3392431
40
15.246963
50
264.9928716
51
269.0233629
0
ARC
8
DEFAULT_255_2_778
10
4.2952516
20
127.3393317
40
15.2470514
50
269.023399
51
270.0000352
0
ARC
8
DEFAULT_255_2_778
10
4.2952124
20
127.3410549
40
15.2487748
50
270.0001825
51
280.8277786
0
LINE
8
DEFAULT_255_2_778
10
7.1666096
20
112.6161648
11
7.1127096
21
112.6092648
0
LINE
8
DEFAULT_255_2_778
10
2.8185096
20
112.4444648
11
1.5665096
21
113.0283648
0
LINE
8
DEFAULT_255_2_778
10
1.5665096
20
113.0283648
11
1.4609096
21
112.8018648
0
LINE
8
DEFAULT_255_2_778
10
1.4609096
20
112.8018648
11
2.7129096
21
112.2179648
0
LINE
8
DEFAULT_255_2_778
10
7.1598096
20
112.3637648
11
7.1666096
21
112.3650648
0
LINE
8
DEFAULT_255_2_778
10
17.5163096
20
98.8720648
11
16.2164096
21
98.8720648
0
LINE
8
DEFAULT_255_2_778
10
16.2164096
20
98.8720648
11
16.2164096
21
96.7720648
0
LINE
8
DEFAULT_255_2_778
10
16.2164096
20
96.7720648
11
17.5163096
21
96.7720648
0
LINE
8
DEFAULT_255_2_778
10
17.5163096
20
96.7720648
11
17.5163096
21
98.8720648
0
LINE
8
DEFAULT_255_2_778
10
17.5163096
20
103.8719648
11
16.2164096
21
103.8719648
0
LINE
8
DEFAULT_255_2_778
10
16.2164096
20
103.8719648
11
16.2164096
21
101.7719648
0
LINE
8
DEFAULT_255_2_778
10
16.2164096
20
101.7719648
11
17.5163096
21
101.7719648
0
LINE
8
DEFAULT_255_2_778
10
17.5163096
20
101.7719648
11
17.5163096
21
103.8719648
0
LINE
8
DEFAULT_255_2_778
10
7.7164096
20
82.9219648
11
20.7165096
21
82.9219648
0
LINE
8
DEFAULT_255_2_778
10
20.7165096
20
82.9219648
11
20.7165096
21
79.9218648
0
LINE
8
DEFAULT_255_2_778
10
20.7165096
20
79.9218648
11
20.0164096
21
79.9218648
0
LINE
8
DEFAULT_255_2_778
10
20.0164096
20
79.9218648
11
20.0164096
21
54.4218648
0
LINE
8
DEFAULT_255_2_778
10
20.0164096
20
54.4218648
11
8.4165096
21
54.4218648
0
LINE
8
DEFAULT_255_2_778
10
8.4165096
20
54.4218648
11
8.4165096
21
79.9218648
0
LINE
8
DEFAULT_255_2_778
10
8.4165096
20
79.9218648
11
7.7164096
21
79.9218648
0
LINE
8
DEFAULT_255_2_778
10
7.7164096
20
79.9218648
11
7.7164096
21
82.9219648
0
LINE
8
DEFAULT_255_2_778
10
14.2164814
20
76.9720048
11
14.2164814
21
54.4221048
0
LINE
8
DEFAULT_255_2_778
10
20.7164814
20
82.0221048
11
7.7164814
21
82.0221048
0
LINE
8
DEFAULT_255_2_778
10
20.0166648
20
76.9719821
11
8.4164648
21
76.9719821
0
LINE
8
DEFAULT_255_2_778
10
7.1666648
20
91.0819821
11
6.9615648
21
91.0819821
0
ARC
8
DEFAULT_255_2_778
10
7.666355
20
118.8221963
40
0.4996515
50
134.9909954
51
180.0272389
0
ARC
8
DEFAULT_255_2_778
10
7.66675
20
118.8219631
40
0.5000956
50
90.0053149
51
135.0041129
0
ARC
8
DEFAULT_255_2_778
10
41.6667067
20
118.8219618
40
0.5000969
50
359.9996485
51
90.0003515
0
ARC
8
DEFAULT_255_2_778
10
41.666792
20
0.3219703
40
0.5000116
50
269.9898688
51
359.9986732
0
ARC
8
DEFAULT_255_2_778
10
7.6666298
20
0.321885
40
0.4999262
50
179.9915458
51
270.0084542
0
LINE
8
DEFAULT_255_2_778
10
7.1667036
20
90.5121588
11
6.9616036
21
90.5121588
0
LINE
8
DEFAULT_255_2_778
10
6.9616036
20
90.5121588
11
6.9616036
21
91.4820588
0
LINE
8
DEFAULT_255_2_778
10
7.1667036
20
111.5419588
11
6.9616036
21
111.5419588
0
LINE
8
DEFAULT_255_2_778
10
6.9616036
20
111.1421588
11
6.9616036
21
112.1121588
0
LINE
8
DEFAULT_255_2_778
10
6.9616036
20
112.1121588
11
7.1667036
21
112.1121588
0
LINE
8
DEFAULT_255_2_778
10
7.6667036
20
119.3220588
11
41.6667036
21
119.3220588
0
LINE
8
DEFAULT_255_2_778
10
42.1668036
20
118.8219588
11
42.1668036
21
0.3219588
0
LINE
8
DEFAULT_255_2_778
10
41.6667036
20
-0.1780412
11
7.6667036
21
-0.1780412
0
LINE
8
DEFAULT_255_2_778
10
7.1667036
20
0.3219588
11
7.1667036
21
118.8219588
0
LINE
8
DEFAULT_255_2_778
10
21.2744375
20
-0.1780412
11
21.3646375
21
-0.1696412
0
LINE
8
DEFAULT_255_2_778
10
21.3646375
20
-0.1696412
11
21.4580375
21
-0.1418412
0
LINE
8
DEFAULT_255_2_778
10
21.4580375
20
-0.1418412
11
21.5474375
21
-0.0939412
0
LINE
8
DEFAULT_255_2_778
10
21.5474375
20
-0.0939412
11
21.6255375
21
-0.0283412
0
LINE
8
DEFAULT_255_2_778
10
21.6255375
20
-0.0283412
11
21.6916375
21
0.0571588
0
LINE
8
DEFAULT_255_2_778
10
21.6916375
20
0.0571588
11
21.7448375
21
0.1751588
0
LINE
8
DEFAULT_255_2_778
10
21.7448375
20
0.1751588
11
21.7665375
21
0.3219588
0
LINE
8
DEFAULT_255_2_778
10
21.7665375
20
0.3219588
11
21.7665375
21
118.8219588
0
LINE
8
DEFAULT_255_2_778
10
21.7665375
20
118.8219588
11
21.7305375
21
119.0101588
0
LINE
8
DEFAULT_255_2_778
10
21.7305375
20
119.0101588
11
21.6446375
21
119.1519588
0
LINE
8
DEFAULT_255_2_778
10
21.6446375
20
119.1519588
11
21.5310375
21
119.2490588
0
LINE
8
DEFAULT_255_2_778
10
21.5310375
20
119.2490588
11
21.4038375
21
119.3045588
0
LINE
8
DEFAULT_255_2_778
10
21.4038375
20
119.3045588
11
21.2744375
21
119.3220588
0
ARC
8
DEFAULT_255_2_778
10
32.0454696
20
92.0733304
40
0.5488398
50
89.8682888
51
180.1317112
0
ARC
8
DEFAULT_255_2_778
10
32.0479782
20
92.0734154
40
0.5487547
50
359.8593896
51
90.1301939
0
ARC
8
DEFAULT_255_2_778
10
32.0480632
20
92.0707368
40
0.5486696
50
269.8609058
51
0.1390942
0
ARC
8
DEFAULT_255_2_778
10
32.0453846
20
92.0708218
40
0.5487547
50
179.8698061
51
270.1406104
0
LINE
8
DEFAULT_255_2_778
10
31.4966313
20
92.0720687
11
31.4966313
21
92.0720687
0
ARC
8
DEFAULT_255_2_778
10
32.0454696
20
94.8133304
40
0.5488398
50
89.8682888
51
180.1317112
0
ARC
8
DEFAULT_255_2_778
10
32.0479782
20
94.8134154
40
0.5487547
50
359.8593896
51
90.1301939
0
ARC
8
DEFAULT_255_2_778
10
32.0480632
20
94.8107368
40
0.5486696
50
269.8609058
51
0.1390942
0
ARC
8
DEFAULT_255_2_778
10
32.0453846
20
94.8108218
40
0.5487547
50
179.8698061
51
270.1406104
0
LINE
8
DEFAULT_255_2_778
10
31.4966313
20
94.8120687
11
31.4966313
21
94.8120687
0
ARC
8
DEFAULT_255_2_778
10
32.0454696
20
97.5531304
40
0.5488398
50
89.8682888
51
180.1317112
0
ARC
8
DEFAULT_255_2_778
10
32.0479782
20
97.5532154
40
0.5487547
50
359.8593896
51
90.1301939
0
ARC
8
DEFAULT_255_2_778
10
32.0480632
20
97.5505368
40
0.5486696
50
269.8609058
51
0.1390942
0
ARC
8
DEFAULT_255_2_778
10
32.0453846
20
97.5506218
40
0.5487547
50
179.8698061
51
270.1406104
0
LINE
8
DEFAULT_255_2_778
10
31.4966313
20
97.5518687
11
31.4966313
21
97.5518687
0
ARC
8
DEFAULT_255_2_778
10
28.6139404
20
97.5982647
40
1.9944318
50
99.9602081
51
127.7479789
0
ARC
8
DEFAULT_255_2_778
10
28.6169133
20
97.5926803
40
2.0006676
50
127.7173942
51
173.2234435
0
ARC
8
DEFAULT_255_2_778
10
28.6280098
20
97.5931274
40
2.0116346
50
173.2733823
51
180.0025857
0
ARC
8
DEFAULT_255_2_778
10
28.6106237
20
86.5491823
40
1.9942491
50
179.9553438
51
207.7458199
0
ARC
8
DEFAULT_255_2_778
10
28.6168726
20
86.5512904
40
2.0007613
50
207.7159366
51
253.219818
0
ARC
8
DEFAULT_255_2_778
10
28.6184033
20
86.5623735
40
2.0118151
50
253.2692069
51
259.997682
0
ARC
8
DEFAULT_255_2_778
10
32.6365159
20
85.8436542
40
2.0017013
50
260.0043885
51
264.8906339
0
ARC
8
DEFAULT_255_2_778
10
32.6362336
20
85.8407796
40
1.9988129
50
264.8913567
51
269.9997685
0
ARC
8
DEFAULT_255_2_778
10
32.6361315
20
85.8422367
40
2.0002699
50
270.0026912
51
309.9998065
0
ARC
8
DEFAULT_255_2_778
10
32.6364767
20
85.8420413
40
1.9998984
50
309.9958292
51
359.9941376
0
ARC
8
DEFAULT_255_2_778
10
32.6362723
20
98.3017367
40
2.0001028
50
0.0057279
51
50.0014399
0
ARC
8
DEFAULT_255_2_778
10
32.6361324
20
98.3012142
40
2.000593
50
50.0079882
51
89.9969432
0
ARC
8
DEFAULT_255_2_778
10
32.6362405
20
98.3029901
40
1.9988172
50
90.0000393
51
95.1088315
0
ARC
8
DEFAULT_255_2_778
10
32.6365159
20
98.3001189
40
2.0017014
50
95.1093661
51
99.9956115
0
LINE
8
DEFAULT_255_2_778
10
26.6163751
20
97.5930366
11
26.6163751
21
86.5507366
0
LINE
8
DEFAULT_255_2_778
10
28.2689751
20
84.5811366
11
32.2890751
21
83.8723366
0
LINE
8
DEFAULT_255_2_778
10
34.6363751
20
85.8418366
11
34.6363751
21
98.3019366
0
LINE
8
DEFAULT_255_2_778
10
32.2890751
20
100.2714366
11
28.2689751
21
99.5626366
0
ARC
8
DEFAULT_255_2_778
10
30.1237552
20
81.0847508
40
5.0128041
50
256.3071087
51
270.032994
0
ARC
8
DEFAULT_255_2_778
10
30.1184106
20
81.0482971
40
4.9761225
50
235.3777164
51
256.2675398
0
ARC
8
DEFAULT_255_2_778
10
30.137161
20
81.0820903
40
5.0145861
50
199.6277347
51
235.420793
0
ARC
8
DEFAULT_255_2_778
10
30.1034234
20
81.0632338
40
4.9764791
50
184.2987497
51
199.5537256
0
ARC
8
DEFAULT_255_2_778
10
30.197203
20
81.0721177
40
5.0706612
50
180.000794
51
184.3194223
0
ARC
8
DEFAULT_255_2_778
10
30.1395088
20
103.0750374
40
5.0129678
50
166.3076038
51
180.0330309
0
ARC
8
DEFAULT_255_2_778
10
30.1028971
20
103.0804263
40
4.9761222
50
145.3783814
51
166.2681036
0
ARC
8
DEFAULT_255_2_778
10
30.1365699
20
103.0617539
40
5.0144426
50
109.6274074
51
145.4214056
0
ARC
8
DEFAULT_255_2_778
10
30.1178066
20
103.0952442
40
4.9765999
50
94.2985434
51
109.5534522
0
ARC
8
DEFAULT_255_2_778
10
30.1267115
20
103.0012657
40
5.0709818
50
90.0007876
51
94.3192861
0
ARC
8
DEFAULT_255_2_778
10
31.1296318
20
103.0592805
40
5.0129678
50
76.3076038
51
90.0330309
0
ARC
8
DEFAULT_255_2_778
10
31.1350207
20
103.0958922
40
4.9761222
50
55.3783814
51
76.2681036
0
ARC
8
DEFAULT_255_2_778
10
31.1163483
20
103.0622194
40
5.0144426
50
19.6274074
51
55.4214056
0
ARC
8
DEFAULT_255_2_778
10
31.1498385
20
103.0809827
40
4.9765999
50
4.2985434
51
19.5534522
0
ARC
8
DEFAULT_255_2_778
10
31.05586
20
103.0720778
40
5.0709818
50
0.0007876
51
4.3192861
0
ARC
8
DEFAULT_255_2_778
10
31.1140964
20
81.0691632
40
5.0127463
50
346.3073002
51
0.0329678
0
ARC
8
DEFAULT_255_2_778
10
31.150434
20
81.0638441
40
4.9761836
50
325.3784247
51
346.2677637
0
ARC
8
DEFAULT_255_2_778
10
31.1167131
20
81.0825324
40
5.0145525
50
289.6281809
51
325.4216104
0
ARC
8
DEFAULT_255_2_778
10
31.1355681
20
81.0488181
40
4.9764678
50
274.2987602
51
289.5541008
0
ARC
8
DEFAULT_255_2_778
10
31.1266695
20
81.1427875
40
5.0708401
50
270.000817
51
274.3194365
0
LINE
8
DEFAULT_255_2_778
10
25.1265418
20
81.0720475
11
25.1265418
21
103.0721475
0
LINE
8
DEFAULT_255_2_778
10
30.1266418
20
108.0722475
11
31.1267418
21
108.0722475
0
LINE
8
DEFAULT_255_2_778
10
36.1268418
20
103.0721475
11
36.1268418
21
81.0720475
0
LINE
8
DEFAULT_255_2_778
10
31.1267418
20
76.0719475
11
30.1266418
21
76.0719475
0
ARC
8
DEFAULT_255_2_778
10
32.0454696
20
86.5932304
40
0.5488398
50
89.8682888
51
180.1317112
0
ARC
8
DEFAULT_255_2_778
10
32.0479782
20
86.5933154
40
0.5487547
50
359.8593896
51
90.1301939
0
ARC
8
DEFAULT_255_2_778
10
32.0480632
20
86.5906368
40
0.5486696
50
269.8609058
51
0.1390942
0
ARC
8
DEFAULT_255_2_778
10
32.0453846
20
86.5907218
40
0.5487547
50
179.8698061
51
270.1406104
0
LINE
8
DEFAULT_255_2_778
10
31.4966313
20
86.5919687
11
31.4966313
21
86.5919687
0
ARC
8
DEFAULT_255_2_778
10
32.0454696
20
89.3332304
40
0.5488398
50
89.8682888
51
180.1317112
0
ARC
8
DEFAULT_255_2_778
10
32.0479782
20
89.3333154
40
0.5487547
50
359.8593896
51
90.1301939
0
ARC
8
DEFAULT_255_2_778
10
32.0480632
20
89.3306368
40
0.5486696
50
269.8609058
51
0.1390942
0
ARC
8
DEFAULT_255_2_778
10
32.0453846
20
89.3307218
40
0.5487547
50
179.8698061
51
270.1406104
0
LINE
8
DEFAULT_255_2_778
10
31.4966313
20
89.3319687
11
31.4966313
21
89.3319687
0
ARC
8
DEFAULT_255_2_778
10
29.2054696
20
90.7033304
40
0.5488398
50
89.8682888
51
180.1317112
0
ARC
8
DEFAULT_255_2_778
10
29.2079782
20
90.7034154
40
0.5487547
50
359.8593896
51
90.1301939
0
ARC
8
DEFAULT_255_2_778
10
29.2080632
20
90.7007368
40
0.5486696
50
269.8609058
51
0.1390942
0
ARC
8
DEFAULT_255_2_778
10
29.2053846
20
90.7008218
40
0.5487547
50
179.8698061
51
270.1406104
0
LINE
8
DEFAULT_255_2_778
10
28.6566313
20
90.7020687
11
28.6566313
21
90.7020687
0
ARC
8
DEFAULT_255_2_778
10
29.2054696
20
93.4433304
40
0.5488398
50
89.8682888
51
180.1317112
0
ARC
8
DEFAULT_255_2_778
10
29.2079782
20
93.4434154
40
0.5487547
50
359.8593896
51
90.1301939
0
ARC
8
DEFAULT_255_2_778
10
29.2080632
20
93.4407368
40
0.5486696
50
269.8609058
51
0.1390942
0
ARC
8
DEFAULT_255_2_778
10
29.2053846
20
93.4408218
40
0.5487547
50
179.8698061
51
270.1406104
0
LINE
8
DEFAULT_255_2_778
10
28.6566313
20
93.4420687
11
28.6566313
21
93.4420687
0
ARC
8
DEFAULT_255_2_778
10
29.2054696
20
96.1830304
40
0.5488398
50
89.8682888
51
180.1317112
0
ARC
8
DEFAULT_255_2_778
10
29.2079782
20
96.1831154
40
0.5487547
50
359.8593896
51
90.1301939
0
ARC
8
DEFAULT_255_2_778
10
29.2080632
20
96.1804368
40
0.5486696
50
269.8609058
51
0.1390942
0
ARC
8
DEFAULT_255_2_778
10
29.2053846
20
96.1805218
40
0.5487547
50
179.8698061
51
270.1406104
0
LINE
8
DEFAULT_255_2_778
10
28.6566313
20
96.1817687
11
28.6566313
21
96.1817687
0
ARC
8
DEFAULT_255_2_778
10
30.6264939
20
79.5720586
40
0.9250773
50
120.0027624
51
179.998879
0
ARC
8
DEFAULT_255_2_778
10
30.6262548
20
79.5725098
40
0.9245669
50
89.9899654
51
120.0039082
0
ARC
8
DEFAULT_255_2_778
10
30.6265786
20
79.5725098
40
0.9245669
50
59.9960918
51
90.0100346
0
ARC
8
DEFAULT_255_2_778
10
30.6263394
20
79.5720586
40
0.9250773
50
0.001121
51
59.9972376
0
ARC
8
DEFAULT_255_2_778
10
30.626501
20
79.5721015
40
0.9249157
50
299.9969833
51
359.9984638
0
ARC
8
DEFAULT_255_2_778
10
30.6265639
20
79.571239
40
0.9241373
50
269.9908703
51
300.0203415
0
ARC
8
DEFAULT_255_2_778
10
30.6262694
20
79.571239
40
0.9241373
50
239.9796585
51
270.0091297
0
ARC
8
DEFAULT_255_2_778
10
30.6263323
20
79.5721015
40
0.9249157
50
180.0015362
51
240.0030167
0
LINE
8
DEFAULT_255_2_778
10
29.7014167
20
79.5720767
11
29.7014167
21
79.5720767
0
ARC
8
DEFAULT_255_2_778
10
30.6233354
20
79.5749627
40
1.1968243
50
146.3618776
51
180.1377463
0
ARC
8
DEFAULT_255_2_778
10
30.6231237
20
79.5754265
40
1.1963911
50
95.8706904
51
146.3747523
0
ARC
8
DEFAULT_255_2_778
10
30.6261818
20
79.5477535
40
1.2242317
50
89.9891034
51
95.880592
0
ARC
8
DEFAULT_255_2_778
10
30.6292148
20
79.5753547
40
1.196634
50
56.099833
51
90.1340763
0
ARC
8
DEFAULT_255_2_778
10
30.6296355
20
79.5752033
40
1.1965252
50
5.850581
51
56.1205944
0
ARC
8
DEFAULT_255_2_778
10
30.6026908
20
79.5723171
40
1.2236237
50
359.9891518
51
5.8564152
0
ARC
8
DEFAULT_255_2_778
10
30.6296839
20
79.5692852
40
1.196634
50
326.099833
51
0.1340763
0
ARC
8
DEFAULT_255_2_778
10
30.6295325
20
79.5688645
40
1.1965252
50
275.850581
51
326.1205944
0
ARC
8
DEFAULT_255_2_778
10
30.6266463
20
79.5958092
40
1.2236237
50
269.9891518
51
275.8564152
0
ARC
8
DEFAULT_255_2_778
10
30.6236144
20
79.5688161
40
1.196634
50
236.099833
51
270.1340763
0
ARC
8
DEFAULT_255_2_778
10
30.6231938
20
79.5689675
40
1.1965252
50
185.850581
51
236.1205944
0
ARC
8
DEFAULT_255_2_778
10
30.6501384
20
79.5718537
40
1.2236237
50
179.9891518
51
185.8564152
0
LINE
8
DEFAULT_255_2_778
10
29.4265146
20
79.5720854
11
29.4265146
21
79.5720854
0
LINE
8
DEFAULT_255_2_778
10
31.8967032
20
81.7721104
11
29.3565032
21
81.7721104
0
LINE
8
DEFAULT_255_2_778
10
29.3565032
20
81.7721104
11
28.0862032
21
79.5721104
0
LINE
8
DEFAULT_255_2_778
10
28.0862032
20
79.5721104
11
29.3565032
21
77.3721104
0
LINE
8
DEFAULT_255_2_778
10
29.3565032
20
77.3721104
11
31.8967032
21
77.3721104
0
LINE
8
DEFAULT_255_2_778
10
31.8967032
20
77.3721104
11
33.1670032
21
79.5721104
0
LINE
8
DEFAULT_255_2_778
10
33.1670032
20
79.5721104
11
31.8967032
21
81.7721104
0
LINE
8
DEFAULT_255_2_778
10
28.2661199
20
76.477
11
32.9871199
21
76.477
0
ARC
8
DEFAULT_255_2_778
10
30.6264939
20
104.5719586
40
0.9250773
50
120.0027624
51
179.998879
0
ARC
8
DEFAULT_255_2_778
10
30.6262548
20
104.5724098
40
0.9245669
50
89.9899654
51
120.0039082
0
ARC
8
DEFAULT_255_2_778
10
30.6265786
20
104.5724098
40
0.9245669
50
59.9960918
51
90.0100346
0
ARC
8
DEFAULT_255_2_778
10
30.6263394
20
104.5719586
40
0.9250773
50
0.001121
51
59.9972376
0
ARC
8
DEFAULT_255_2_778
10
30.626501
20
104.5720015
40
0.9249157
50
299.9969833
51
359.9984638
0
ARC
8
DEFAULT_255_2_778
10
30.6265639
20
104.571139
40
0.9241373
50
269.9908703
51
300.0203415
0
ARC
8
DEFAULT_255_2_778
10
30.6262694
20
104.571139
40
0.9241373
50
239.9796585
51
270.0091297
0
ARC
8
DEFAULT_255_2_778
10
30.6263323
20
104.5720015
40
0.9249157
50
180.0015362
51
240.0030167
0
LINE
8
DEFAULT_255_2_778
10
29.7014167
20
104.5719767
11
29.7014167
21
104.5719767
0
ARC
8
DEFAULT_255_2_778
10
30.6233354
20
104.5748627
40
1.1968243
50
146.3618776
51
180.1377463
0
ARC
8
DEFAULT_255_2_778
10
30.6231237
20
104.5753265
40
1.1963911
50
95.8706904
51
146.3747523
0
ARC
8
DEFAULT_255_2_778
10
30.6261818
20
104.5476535
40
1.2242317
50
89.9891034
51
95.880592
0
ARC
8
DEFAULT_255_2_778
10
30.6292148
20
104.5752547
40
1.196634
50
56.099833
51
90.1340763
0
ARC
8
DEFAULT_255_2_778
10
30.6296355
20
104.5751033
40
1.1965252
50
5.850581
51
56.1205944
0
ARC
8
DEFAULT_255_2_778
10
30.6026908
20
104.5722171
40
1.2236237
50
359.9891518
51
5.8564152
0
ARC
8
DEFAULT_255_2_778
10
30.6296839
20
104.5691852
40
1.196634
50
326.099833
51
0.1340763
0
ARC
8
DEFAULT_255_2_778
10
30.6295325
20
104.5687645
40
1.1965252
50
275.850581
51
326.1205944
0
ARC
8
DEFAULT_255_2_778
10
30.6266463
20
104.5957092
40
1.2236237
50
269.9891518
51
275.8564152
0
ARC
8
DEFAULT_255_2_778
10
30.6236144
20
104.5687161
40
1.196634
50
236.099833
51
270.1340763
0
ARC
8
DEFAULT_255_2_778
10
30.6231938
20
104.5688675
40
1.1965252
50
185.850581
51
236.1205944
0
ARC
8
DEFAULT_255_2_778
10
30.6501384
20
104.5717537
40
1.2236237
50
179.9891518
51
185.8564152
0
LINE
8
DEFAULT_255_2_778
10
29.4265146
20
104.5719854
11
29.4265146
21
104.5719854
0
LINE
8
DEFAULT_255_2_778
10
31.8967032
20
106.7720104
11
29.3565032
21
106.7720104
0
LINE
8
DEFAULT_255_2_778
10
29.3565032
20
106.7720104
11
28.0862032
21
104.5720104
0
LINE
8
DEFAULT_255_2_778
10
28.0862032
20
104.5720104
11
29.3565032
21
102.3720104
0
LINE
8
DEFAULT_255_2_778
10
29.3565032
20
102.3720104
11
31.8967032
21
102.3720104
0
LINE
8
DEFAULT_255_2_778
10
31.8967032
20
102.3720104
11
33.1670032
21
104.5720104
0
LINE
8
DEFAULT_255_2_778
10
33.1670032
20
104.5720104
11
31.8967032
21
106.7720104
0
LINE
8
DEFAULT_255_2_778
10
32.987043
20
107.6670863
11
28.266143
21
107.6670863
0
LINE
8
DEFAULT_255_2_778
10
11.332543
20
116.1239863
11
10.666543
21
116.1221863
0
LINE
8
DEFAULT_255_2_778
10
10.666543
20
116.1221863
11
10.666543
21
117.8220863
0
LINE
8
DEFAULT_255_2_778
10
10.666543
20
117.8220863
11
11.368243
21
117.8141863
0
LINE
8
DEFAULT_255_2_778
10
11.368243
20
117.8141863
11
11.555243
21
117.7768863
0
LINE
8
DEFAULT_255_2_778
10
11.555243
20
117.7768863
11
11.700243
21
117.7135863
0
LINE
8
DEFAULT_255_2_778
10
11.700243
20
117.7135863
11
11.811443
21
117.6320863
0
LINE
8
DEFAULT_255_2_778
10
11.811443
20
117.6320863
11
11.890543
21
117.5482863
0
LINE
8
DEFAULT_255_2_778
10
11.890543
20
117.5482863
11
11.943143
21
117.4730863
0
LINE
8
DEFAULT_255_2_778
10
11.943143
20
117.4730863
11
11.978343
21
117.4071863
0
LINE
8
DEFAULT_255_2_778
10
11.978343
20
117.4071863
11
12.000843
21
117.3534863
0
LINE
8
DEFAULT_255_2_778
10
12.000843
20
117.3534863
11
12.019043
21
117.2984863
0
LINE
8
DEFAULT_255_2_778
10
12.019043
20
117.2984863
11
12.033343
21
117.2420863
0
LINE
8
DEFAULT_255_2_778
10
12.033343
20
117.2420863
11
12.044243
21
117.1844863
0
LINE
8
DEFAULT_255_2_778
10
12.044243
20
117.1844863
11
12.048443
21
117.1553863
0
LINE
8
DEFAULT_255_2_778
10
12.048443
20
117.1553863
11
12.051943
21
117.1259863
0
LINE
8
DEFAULT_255_2_778
10
12.051943
20
117.1259863
11
12.054843
21
117.0965863
0
LINE
8
DEFAULT_255_2_778
10
12.054843
20
117.0965863
11
12.054843
21
116.8068863
0
LINE
8
DEFAULT_255_2_778
10
12.054843
20
116.8068863
11
12.052143
21
116.7790863
0
LINE
8
DEFAULT_255_2_778
10
12.052143
20
116.7790863
11
12.044743
21
116.7237863
0
LINE
8
DEFAULT_255_2_778
10
12.044743
20
116.7237863
11
12.034443
21
116.6695863
0
LINE
8
DEFAULT_255_2_778
10
12.034443
20
116.6695863
11
12.020943
21
116.6163863
0
LINE
8
DEFAULT_255_2_778
10
12.020943
20
116.6163863
11
12.003743
21
116.5642863
0
LINE
8
DEFAULT_255_2_778
10
12.003743
20
116.5642863
11
11.982543
21
116.5136863
0
LINE
8
DEFAULT_255_2_778
10
11.982543
20
116.5136863
11
11.947943
21
116.4493863
0
LINE
8
DEFAULT_255_2_778
10
11.947943
20
116.4493863
11
11.894443
21
116.3745863
0
LINE
8
DEFAULT_255_2_778
10
11.894443
20
116.3745863
11
11.813743
21
116.2919863
0
LINE
8
DEFAULT_255_2_778
10
11.813743
20
116.2919863
11
11.700543
21
116.2139863
0
LINE
8
DEFAULT_255_2_778
10
11.700543
20
116.2139863
11
11.574843
21
116.1625863
0
LINE
8
DEFAULT_255_2_778
10
11.574843
20
116.1625863
11
11.359443
21
116.1258863
0
LINE
8
DEFAULT_255_2_778
10
11.359443
20
116.1258863
11
11.332543
21
116.1239863
0
LINE
8
DEFAULT_255_2_778
10
11.300243
20
116.3157863
11
10.899143
21
116.3147863
0
LINE
8
DEFAULT_255_2_778
10
10.899143
20
116.3147863
11
10.899143
21
117.6291863
0
LINE
8
DEFAULT_255_2_778
10
10.899143
20
117.6291863
11
11.352043
21
117.6196863
0
LINE
8
DEFAULT_255_2_778
10
11.352043
20
117.6196863
11
11.494443
21
117.5833863
0
LINE
8
DEFAULT_255_2_778
10
11.494443
20
117.5833863
11
11.621143
21
117.5101863
0
LINE
8
DEFAULT_255_2_778
10
11.621143
20
117.5101863
11
11.704543
21
117.4257863
0
LINE
8
DEFAULT_255_2_778
10
11.704543
20
117.4257863
11
11.759043
21
117.3405863
0
LINE
8
DEFAULT_255_2_778
10
11.759043
20
117.3405863
11
11.784643
21
117.2807863
0
LINE
8
DEFAULT_255_2_778
10
11.784643
20
117.2807863
11
11.803443
21
117.2185863
0
LINE
8
DEFAULT_255_2_778
10
11.803443
20
117.2185863
11
11.812443
21
117.1759863
0
LINE
8
DEFAULT_255_2_778
10
11.812443
20
117.1759863
11
11.819043
21
117.1328863
0
LINE
8
DEFAULT_255_2_778
10
11.819043
20
117.1328863
11
11.818243
21
116.8094863
0
LINE
8
DEFAULT_255_2_778
10
11.818243
20
116.8094863
11
11.810643
21
116.7578863
0
LINE
8
DEFAULT_255_2_778
10
11.810643
20
116.7578863
11
11.801043
21
116.7113863
0
LINE
8
DEFAULT_255_2_778
10
11.801043
20
116.7113863
11
11.788943
21
116.6652863
0
LINE
8
DEFAULT_255_2_778
10
11.788943
20
116.6652863
11
11.767243
21
116.6036863
0
LINE
8
DEFAULT_255_2_778
10
11.767243
20
116.6036863
11
11.735743
21
116.5398863
0
LINE
8
DEFAULT_255_2_778
10
11.735743
20
116.5398863
11
11.684443
21
116.4700863
0
LINE
8
DEFAULT_255_2_778
10
11.684443
20
116.4700863
11
11.593943
21
116.3954863
0
LINE
8
DEFAULT_255_2_778
10
11.593943
20
116.3954863
11
11.442543
21
116.3350863
0
LINE
8
DEFAULT_255_2_778
10
11.442543
20
116.3350863
11
11.300243
21
116.3157863
0
LINE
8
DEFAULT_255_2_778
10
13.0903595
20
116.8446958
11
12.6593595
21
116.8436958
0
LINE
8
DEFAULT_255_2_778
10
12.6593595
20
116.8436958
11
12.6593595
21
116.1218958
0
LINE
8
DEFAULT_255_2_778
10
12.6593595
20
116.1218958
11
12.4268595
21
116.1218958
0
LINE
8
DEFAULT_255_2_778
10
12.4268595
20
116.1218958
11
12.4268595
21
117.8220958
0
LINE
8
DEFAULT_255_2_778
10
12.4268595
20
117.8220958
11
13.1792595
21
117.8130958
0
LINE
8
DEFAULT_255_2_778
10
13.1792595
20
117.8130958
11
13.3655595
21
117.7588958
0
LINE
8
DEFAULT_255_2_778
10
13.3655595
20
117.7588958
11
13.4835595
21
117.6799958
0
LINE
8
DEFAULT_255_2_778
10
13.4835595
20
117.6799958
11
13.5510595
21
117.6000958
0
LINE
8
DEFAULT_255_2_778
10
13.5510595
20
117.6000958
11
13.5878595
21
117.5267958
0
LINE
8
DEFAULT_255_2_778
10
13.5878595
20
117.5267958
11
13.6050595
21
117.4714958
0
LINE
8
DEFAULT_255_2_778
10
13.6050595
20
117.4714958
11
13.6116595
21
117.4384958
0
LINE
8
DEFAULT_255_2_778
10
13.6116595
20
117.4384958
11
13.6161595
21
117.4050958
0
LINE
8
DEFAULT_255_2_778
10
13.6161595
20
117.4050958
11
13.6142595
21
117.2524958
0
LINE
8
DEFAULT_255_2_778
10
13.6142595
20
117.2524958
11
13.6087595
21
117.2188958
0
LINE
8
DEFAULT_255_2_778
10
13.6087595
20
117.2188958
11
13.5965595
21
117.1709958
0
LINE
8
DEFAULT_255_2_778
10
13.5965595
20
117.1709958
11
13.5745595
21
117.1134958
0
LINE
8
DEFAULT_255_2_778
10
13.5745595
20
117.1134958
11
13.5359595
21
117.0476958
0
LINE
8
DEFAULT_255_2_778
10
13.5359595
20
117.0476958
11
13.4510595
21
116.9608958
0
LINE
8
DEFAULT_255_2_778
10
13.4510595
20
116.9608958
11
13.3227595
21
116.8893958
0
LINE
8
DEFAULT_255_2_778
10
13.3227595
20
116.8893958
11
13.1359595
21
116.8481958
0
LINE
8
DEFAULT_255_2_778
10
13.1359595
20
116.8481958
11
13.0903595
21
116.8446958
0
LINE
8
DEFAULT_255_2_778
10
13.0724595
20
117.0370958
11
12.6593595
21
117.0365958
0
LINE
8
DEFAULT_255_2_778
10
12.6593595
20
117.0365958
11
12.6593595
21
117.6291958
0
LINE
8
DEFAULT_255_2_778
10
12.6593595
20
117.6291958
11
13.1909595
21
117.6093958
0
LINE
8
DEFAULT_255_2_778
10
13.1909595
20
117.6093958
11
13.3142595
21
117.5363958
0
LINE
8
DEFAULT_255_2_778
10
13.3142595
20
117.5363958
11
13.3605595
21
117.4690958
0
LINE
8
DEFAULT_255_2_778
10
13.3605595
20
117.4690958
11
13.3785595
21
117.4161958
0
LINE
8
DEFAULT_255_2_778
10
13.3785595
20
117.4161958
11
13.3840595
21
117.3860958
0
LINE
8
DEFAULT_255_2_778
10
13.3840595
20
117.3860958
11
13.3827595
21
117.2735958
0
LINE
8
DEFAULT_255_2_778
10
13.3827595
20
117.2735958
11
13.3711595
21
117.2256958
0
LINE
8
DEFAULT_255_2_778
10
13.3711595
20
117.2256958
11
13.3433595
21
117.1674958
0
LINE
8
DEFAULT_255_2_778
10
13.3433595
20
117.1674958
11
13.2647595
21
117.0904958
0
LINE
8
DEFAULT_255_2_778
10
13.2647595
20
117.0904958
11
13.1271595
21
117.0420958
0
LINE
8
DEFAULT_255_2_778
10
13.1271595
20
117.0420958
11
13.0724595
21
117.0370958
0
LINE
8
DEFAULT_255_2_778
10
18.1465595
20
114.6364958
11
18.2508595
21
114.6338958
0
LINE
8
DEFAULT_255_2_778
10
18.2508595
20
114.6338958
11
18.2508595
21
114.8375958
0
LINE
8
DEFAULT_255_2_778
10
18.2508595
20
114.8375958
11
17.9851595
21
114.7920958
0
LINE
8
DEFAULT_255_2_778
10
17.9851595
20
114.7920958
11
17.8605595
21
114.6856958
0
LINE
8
DEFAULT_255_2_778
10
17.8605595
20
114.6856958
11
17.8605595
21
114.8060958
0
LINE
8
DEFAULT_255_2_778
10
17.8605595
20
114.8060958
11
17.6425595
21
114.8060958
0
LINE
8
DEFAULT_255_2_778
10
17.6425595
20
114.8060958
11
17.6425595
21
113.6217958
0
LINE
8
DEFAULT_255_2_778
10
17.6425595
20
113.6217958
11
17.8605595
21
113.6217958
0
LINE
8
DEFAULT_255_2_778
10
17.8605595
20
113.6217958
11
17.8626595
21
114.2940958
0
LINE
8
DEFAULT_255_2_778
10
17.8626595
20
114.2940958
11
17.8658595
21
114.3290958
0
LINE
8
DEFAULT_255_2_778
10
17.8658595
20
114.3290958
11
17.8730595
21
114.3750958
0
LINE
8
DEFAULT_255_2_778
10
17.8730595
20
114.3750958
11
17.8878595
21
114.4316958
0
LINE
8
DEFAULT_255_2_778
10
17.8878595
20
114.4316958
11
17.9343595
21
114.5245958
0
LINE
8
DEFAULT_255_2_778
10
17.9343595
20
114.5245958
11
18.0296595
21
114.6070958
0
LINE
8
DEFAULT_255_2_778
10
18.0296595
20
114.6070958
11
18.1465595
21
114.6362958
0
LINE
8
DEFAULT_255_2_778
10
12.0942595
20
115.3220958
11
12.4712595
21
115.3220958
0
LINE
8
DEFAULT_255_2_778
10
12.4712595
20
115.3220958
11
12.4712595
21
113.6220958
0
LINE
8
DEFAULT_255_2_778
10
12.4712595
20
113.6220958
11
12.2387595
21
113.6220958
0
LINE
8
DEFAULT_255_2_778
10
12.2387595
20
113.6220958
11
12.2387595
21
115.1460958
0
LINE
8
DEFAULT_255_2_778
10
12.2387595
20
115.1460958
11
11.6928595
21
113.6220958
0
LINE
8
DEFAULT_255_2_778
10
11.6928595
20
113.6220958
11
11.4592595
21
113.6220958
0
LINE
8
DEFAULT_255_2_778
10
11.4592595
20
113.6220958
11
10.8991595
21
115.1436958
0
LINE
8
DEFAULT_255_2_778
10
10.8991595
20
115.1436958
11
10.8991595
21
113.6220958
0
LINE
8
DEFAULT_255_2_778
10
10.8991595
20
113.6220958
11
10.6665595
21
113.6220958
0
LINE
8
DEFAULT_255_2_778
10
10.6665595
20
113.6220958
11
10.6665595
21
115.3220958
0
LINE
8
DEFAULT_255_2_778
10
10.6665595
20
115.3220958
11
11.0435595
21
115.3220958
0
LINE
8
DEFAULT_255_2_778
10
11.0435595
20
115.3220958
11
11.5772595
21
113.8990958
0
LINE
8
DEFAULT_255_2_778
10
11.5772595
20
113.8990958
11
12.0942595
21
115.3220958
0
LINE
8
DEFAULT_255_2_778
10
15.9256595
20
113.7535958
11
16.0434595
21
113.7675958
0
LINE
8
DEFAULT_255_2_778
10
16.0434595
20
113.7675958
11
16.0434595
21
113.6048958
0
LINE
8
DEFAULT_255_2_778
10
16.0434595
20
113.6048958
11
15.7155595
21
113.6051958
0
LINE
8
DEFAULT_255_2_778
10
15.7155595
20
113.6051958
11
15.5830595
21
113.6895958
0
LINE
8
DEFAULT_255_2_778
10
15.5830595
20
113.6895958
11
15.5457595
21
113.7535958
0
LINE
8
DEFAULT_255_2_778
10
15.5457595
20
113.7535958
11
15.5367595
21
113.7932958
0
LINE
8
DEFAULT_255_2_778
10
15.5367595
20
113.7932958
11
15.5351595
21
114.6481958
0
LINE
8
DEFAULT_255_2_778
10
15.5351595
20
114.6481958
11
15.2893595
21
114.6481958
0
LINE
8
DEFAULT_255_2_778
10
15.2893595
20
114.6481958
11
15.2893595
21
114.8060958
0
LINE
8
DEFAULT_255_2_778
10
15.2893595
20
114.8060958
11
15.5351595
21
114.8060958
0
LINE
8
DEFAULT_255_2_778
10
15.5351595
20
114.8060958
11
15.5351595
21
115.0193958
0
LINE
8
DEFAULT_255_2_778
10
15.5351595
20
115.0193958
11
15.7531595
21
115.1098958
0
LINE
8
DEFAULT_255_2_778
10
15.7531595
20
115.1098958
11
15.7531595
21
114.8060958
0
LINE
8
DEFAULT_255_2_778
10
15.7531595
20
114.8060958
11
16.0434595
21
114.8060958
0
LINE
8
DEFAULT_255_2_778
10
16.0434595
20
114.8060958
11
16.0434595
21
114.6481958
0
LINE
8
DEFAULT_255_2_778
10
16.0434595
20
114.6481958
11
15.7531595
21
114.6481958
0
LINE
8
DEFAULT_255_2_778
10
15.7531595
20
114.6481958
11
15.7550595
21
113.8424958
0
LINE
8
DEFAULT_255_2_778
10
15.7550595
20
113.8424958
11
15.7851595
21
113.7821958
0
LINE
8
DEFAULT_255_2_778
10
15.7851595
20
113.7821958
11
15.8843595
21
113.7517958
0
LINE
8
DEFAULT_255_2_778
10
15.8843595
20
113.7517958
11
15.9256595
21
113.7532958
0
LINE
8
DEFAULT_255_2_778
10
14.5855595
20
114.8394958
11
14.3744595
21
114.7970958
0
LINE
8
DEFAULT_255_2_778
10
14.3744595
20
114.7970958
11
14.2537595
21
114.7221958
0
LINE
8
DEFAULT_255_2_778
10
14.2537595
20
114.7221958
11
14.2032595
21
114.6581958
0
LINE
8
DEFAULT_255_2_778
10
14.2032595
20
114.6581958
11
14.1796595
21
114.6060958
0
LINE
8
DEFAULT_255_2_778
10
14.1796595
20
114.6060958
11
14.1701595
21
114.5700958
0
LINE
8
DEFAULT_255_2_778
10
14.1701595
20
114.5700958
11
14.1720595
21
114.4224958
0
LINE
8
DEFAULT_255_2_778
10
14.1720595
20
114.4224958
11
14.1976595
21
114.3538958
0
LINE
8
DEFAULT_255_2_778
10
14.1976595
20
114.3538958
11
14.3000595
21
114.2467958
0
LINE
8
DEFAULT_255_2_778
10
14.3000595
20
114.2467958
11
14.4707595
21
114.1739958
0
LINE
8
DEFAULT_255_2_778
10
14.4707595
20
114.1739958
11
14.8535595
21
114.0403958
0
LINE
8
DEFAULT_255_2_778
10
14.8535595
20
114.0403958
11
14.8882595
21
113.9832958
0
LINE
8
DEFAULT_255_2_778
10
14.8882595
20
113.9832958
11
14.8930595
21
113.9567958
0
LINE
8
DEFAULT_255_2_778
10
14.8930595
20
113.9567958
11
14.8914595
21
113.9101958
0
LINE
8
DEFAULT_255_2_778
10
14.8914595
20
113.9101958
11
14.8750595
21
113.8604958
0
LINE
8
DEFAULT_255_2_778
10
14.8750595
20
113.8604958
11
14.7710595
21
113.7744958
0
LINE
8
DEFAULT_255_2_778
10
14.7710595
20
113.7744958
11
14.5257595
21
113.7620958
0
LINE
8
DEFAULT_255_2_778
10
14.5257595
20
113.7620958
11
14.3720595
21
113.8742958
0
LINE
8
DEFAULT_255_2_778
10
14.3720595
20
113.8742958
11
14.3529595
21
113.9377958
0
LINE
8
DEFAULT_255_2_778
10
14.3529595
20
113.9377958
11
14.3503595
21
113.9776958
0
LINE
8
DEFAULT_255_2_778
10
14.3503595
20
113.9776958
11
14.1249595
21
113.9776958
0
LINE
8
DEFAULT_255_2_778
10
14.1249595
20
113.9776958
11
14.1265595
21
113.8837958
0
LINE
8
DEFAULT_255_2_778
10
14.1265595
20
113.8837958
11
14.1381595
21
113.8400958
0
LINE
8
DEFAULT_255_2_778
10
14.1381595
20
113.8400958
11
14.1733595
21
113.7704958
0
LINE
8
DEFAULT_255_2_778
10
14.1733595
20
113.7704958
11
14.2529595
21
113.6855958
0
LINE
8
DEFAULT_255_2_778
10
14.2529595
20
113.6855958
11
14.3601595
21
113.6249958
0
LINE
8
DEFAULT_255_2_778
10
14.3601595
20
113.6249958
11
14.6178595
21
113.5884958
0
LINE
8
DEFAULT_255_2_778
10
14.6178595
20
113.5884958
11
14.8284595
21
113.6159958
0
LINE
8
DEFAULT_255_2_778
10
14.8284595
20
113.6159958
11
14.9763595
21
113.6887958
0
LINE
8
DEFAULT_255_2_778
10
14.9763595
20
113.6887958
11
15.0483595
21
113.7612958
0
LINE
8
DEFAULT_255_2_778
10
15.0483595
20
113.7612958
11
15.0840595
21
113.8265958
0
LINE
8
DEFAULT_255_2_778
10
15.0840595
20
113.8265958
11
15.0964595
21
113.8633958
0
LINE
8
DEFAULT_255_2_778
10
15.0964595
20
113.8633958
11
15.1051595
21
113.9041958
0
LINE
8
DEFAULT_255_2_778
10
15.1051595
20
113.9041958
11
15.1036595
21
114.0353958
0
LINE
8
DEFAULT_255_2_778
10
15.1036595
20
114.0353958
11
15.0848595
21
114.0951958
0
LINE
8
DEFAULT_255_2_778
10
15.0848595
20
114.0951958
11
15.0096595
21
114.1930958
0
LINE
8
DEFAULT_255_2_778
10
15.0096595
20
114.1930958
11
14.8467595
21
114.2787958
0
LINE
8
DEFAULT_255_2_778
10
14.8467595
20
114.2787958
11
14.4172595
21
114.4263958
0
LINE
8
DEFAULT_255_2_778
10
14.4172595
20
114.4263958
11
14.3876595
21
114.4800958
0
LINE
8
DEFAULT_255_2_778
10
14.3876595
20
114.4800958
11
14.3895595
21
114.5634958
0
LINE
8
DEFAULT_255_2_778
10
14.3895595
20
114.5634958
11
14.4207595
21
114.6174958
0
LINE
8
DEFAULT_255_2_778
10
14.4207595
20
114.6174958
11
14.5805595
21
114.6753958
0
LINE
8
DEFAULT_255_2_778
10
14.5805595
20
114.6753958
11
14.8554595
21
114.5618958
0
LINE
8
DEFAULT_255_2_778
10
14.8554595
20
114.5618958
11
14.8660595
21
114.5171958
0
LINE
8
DEFAULT_255_2_778
10
14.8660595
20
114.5171958
11
14.8646595
21
114.4872958
0
LINE
8
DEFAULT_255_2_778
10
14.8646595
20
114.4872958
11
15.0901595
21
114.4872958
0
LINE
8
DEFAULT_255_2_778
10
15.0901595
20
114.4872958
11
15.0882595
21
114.5327958
0
LINE
8
DEFAULT_255_2_778
10
15.0882595
20
114.5327958
11
15.0827595
21
114.5666958
0
LINE
8
DEFAULT_255_2_778
10
15.0827595
20
114.5666958
11
15.0697595
21
114.6108958
0
LINE
8
DEFAULT_255_2_778
10
15.0697595
20
114.6108958
11
15.0382595
21
114.6729958
0
LINE
8
DEFAULT_255_2_778
10
15.0382595
20
114.6729958
11
14.9631595
21
114.7494958
0
LINE
8
DEFAULT_255_2_778
10
14.9631595
20
114.7494958
11
14.8242595
21
114.8153958
0
LINE
8
DEFAULT_255_2_778
10
14.8242595
20
114.8153958
11
14.6061595
21
114.8399958
0
LINE
8
DEFAULT_255_2_778
10
14.6061595
20
114.8399958
11
14.5860595
21
114.8394958
0
LINE
8
DEFAULT_255_2_778
10
13.3060595
20
114.6748958
11
13.5343595
21
114.6301958
0
LINE
8
DEFAULT_255_2_778
10
13.5343595
20
114.6301958
11
13.5923595
21
114.5676958
0
LINE
8
DEFAULT_255_2_778
10
13.5923595
20
114.5676958
11
13.6105595
21
114.5150958
0
LINE
8
DEFAULT_255_2_778
10
13.6105595
20
114.5150958
11
13.6145595
21
114.4869958
0
LINE
8
DEFAULT_255_2_778
10
13.6145595
20
114.4869958
11
13.6158595
21
114.3591958
0
LINE
8
DEFAULT_255_2_778
10
13.6158595
20
114.3591958
11
13.2128595
21
114.3409958
0
LINE
8
DEFAULT_255_2_778
10
13.2128595
20
114.3409958
11
13.0012595
21
114.2636958
0
LINE
8
DEFAULT_255_2_778
10
13.0012595
20
114.2636958
11
12.8993595
21
114.1779958
0
LINE
8
DEFAULT_255_2_778
10
12.8993595
20
114.1779958
11
12.8567595
21
114.1099958
0
LINE
8
DEFAULT_255_2_778
10
12.8567595
20
114.1099958
11
12.8403595
21
114.0657958
0
LINE
8
DEFAULT_255_2_778
10
12.8403595
20
114.0657958
11
12.8321595
21
114.0303958
0
LINE
8
DEFAULT_255_2_778
10
12.8321595
20
114.0303958
11
12.8340595
21
113.8683958
0
LINE
8
DEFAULT_255_2_778
10
12.8340595
20
113.8683958
11
12.8467595
21
113.8212958
0
LINE
8
DEFAULT_255_2_778
10
12.8467595
20
113.8212958
11
12.8760595
21
113.7585958
0
LINE
8
DEFAULT_255_2_778
10
12.8760595
20
113.7585958
11
12.9443595
21
113.6815958
0
LINE
8
DEFAULT_255_2_778
10
12.9443595
20
113.6815958
11
13.0517595
21
113.6207958
0
LINE
8
DEFAULT_255_2_778
10
13.0517595
20
113.6207958
11
13.2422595
21
113.5876958
0
LINE
8
DEFAULT_255_2_778
10
13.2422595
20
113.5876958
11
13.4870595
21
113.6458958
0
LINE
8
DEFAULT_255_2_778
10
13.4870595
20
113.6458958
11
13.6026595
21
113.7572958
0
LINE
8
DEFAULT_255_2_778
10
13.6026595
20
113.7572958
11
13.6306595
21
113.8022958
0
LINE
8
DEFAULT_255_2_778
10
13.6306595
20
113.8022958
11
13.6343595
21
113.7612958
0
LINE
8
DEFAULT_255_2_778
10
13.6343595
20
113.7612958
11
13.6372595
21
113.7043958
0
LINE
8
DEFAULT_255_2_778
10
13.6372595
20
113.7043958
11
13.6449595
21
113.6580958
0
LINE
8
DEFAULT_255_2_778
10
13.6449595
20
113.6580958
11
13.6595595
21
113.6217958
0
LINE
8
DEFAULT_255_2_778
10
13.6595595
20
113.6217958
11
13.8666595
21
113.6217958
0
LINE
8
DEFAULT_255_2_778
10
13.8666595
20
113.6217958
11
13.8502595
21
113.6874958
0
LINE
8
DEFAULT_255_2_778
10
13.8502595
20
113.6874958
11
13.8447595
21
113.7249958
0
LINE
8
DEFAULT_255_2_778
10
13.8447595
20
113.7249958
11
13.8410595
21
113.7675958
0
LINE
8
DEFAULT_255_2_778
10
13.8410595
20
113.7675958
11
13.8389595
21
113.8101958
0
LINE
8
DEFAULT_255_2_778
10
13.8389595
20
113.8101958
11
13.8367595
21
113.8734958
0
LINE
8
DEFAULT_255_2_778
10
13.8367595
20
113.8734958
11
13.8341595
21
114.4591958
0
LINE
8
DEFAULT_255_2_778
10
13.8341595
20
114.4591958
11
13.8325595
21
114.4983958
0
LINE
8
DEFAULT_255_2_778
10
13.8325595
20
114.4983958
11
13.8293595
21
114.5242958
0
LINE
8
DEFAULT_255_2_778
10
13.8293595
20
114.5242958
11
13.8211595
21
114.5626958
0
LINE
8
DEFAULT_255_2_778
10
13.8211595
20
114.5626958
11
13.8047595
21
114.6092958
0
LINE
8
DEFAULT_255_2_778
10
13.8047595
20
114.6092958
11
13.7677595
21
114.6719958
0
LINE
8
DEFAULT_255_2_778
10
13.7677595
20
114.6719958
11
13.6846595
21
114.7497958
0
LINE
8
DEFAULT_255_2_778
10
13.6846595
20
114.7497958
11
13.5449595
21
114.8155958
0
LINE
8
DEFAULT_255_2_778
10
13.5449595
20
114.8155958
11
13.2737595
21
114.8378958
0
LINE
8
DEFAULT_255_2_778
10
13.2737595
20
114.8378958
11
13.0835595
21
114.7912958
0
LINE
8
DEFAULT_255_2_778
10
13.0835595
20
114.7912958
11
12.9758595
21
114.7163958
0
LINE
8
DEFAULT_255_2_778
10
12.9758595
20
114.7163958
11
12.9152595
21
114.6340958
0
LINE
8
DEFAULT_255_2_778
10
12.9152595
20
114.6340958
11
12.8959595
21
114.5846958
0
LINE
8
DEFAULT_255_2_778
10
12.8959595
20
114.5846958
11
12.8890595
21
114.5528958
0
LINE
8
DEFAULT_255_2_778
10
12.8890595
20
114.5528958
11
12.8864595
21
114.5308958
0
LINE
8
DEFAULT_255_2_778
10
12.8864595
20
114.5308958
11
12.8858595
21
114.4967958
0
LINE
8
DEFAULT_255_2_778
10
12.8858595
20
114.4967958
11
13.1147595
21
114.4967958
0
LINE
8
DEFAULT_255_2_778
10
13.1147595
20
114.4967958
11
13.1165595
21
114.5269958
0
LINE
8
DEFAULT_255_2_778
10
13.1165595
20
114.5269958
11
13.1340595
21
114.5766958
0
LINE
8
DEFAULT_255_2_778
10
13.1340595
20
114.5766958
11
13.2224595
21
114.6563958
0
LINE
8
DEFAULT_255_2_778
10
13.2224595
20
114.6563958
11
13.3060595
21
114.6748958
0
LINE
8
DEFAULT_255_2_778
10
13.3393595
20
114.1954958
11
13.6155595
21
114.1977958
0
LINE
8
DEFAULT_255_2_778
10
13.6155595
20
114.1977958
11
13.6137595
21
114.0522958
0
LINE
8
DEFAULT_255_2_778
10
13.6137595
20
114.0522958
11
13.6103595
21
114.0184958
0
LINE
8
DEFAULT_255_2_778
10
13.6103595
20
114.0184958
11
13.6021595
21
113.9739958
0
LINE
8
DEFAULT_255_2_778
10
13.6021595
20
113.9739958
11
13.5846595
21
113.9205958
0
LINE
8
DEFAULT_255_2_778
10
13.5846595
20
113.9205958
11
13.5264595
21
113.8331958
0
LINE
8
DEFAULT_255_2_778
10
13.5264595
20
113.8331958
11
13.4272595
21
113.7707958
0
LINE
8
DEFAULT_255_2_778
10
13.4272595
20
113.7707958
11
13.1919595
21
113.7620958
0
LINE
8
DEFAULT_255_2_778
10
13.1919595
20
113.7620958
11
13.0864595
21
113.8252958
0
LINE
8
DEFAULT_255_2_778
10
13.0864595
20
113.8252958
11
13.0575595
21
113.8752958
0
LINE
8
DEFAULT_255_2_778
10
13.0575595
20
113.8752958
11
13.0485595
21
113.9112958
0
LINE
8
DEFAULT_255_2_778
10
13.0485595
20
113.9112958
11
13.0501595
21
114.0022958
0
LINE
8
DEFAULT_255_2_778
10
13.0501595
20
114.0022958
11
13.0673595
21
114.0578958
0
LINE
8
DEFAULT_255_2_778
10
13.0673595
20
114.0578958
11
13.1475595
21
114.1424958
0
LINE
8
DEFAULT_255_2_778
10
13.1475595
20
114.1424958
11
13.3393595
21
114.1954958
0
LINE
8
DEFAULT_255_2_778
10
16.787399
20
114.8392373
11
16.596399
21
114.7992373
0
LINE
8
DEFAULT_255_2_778
10
16.596399
20
114.7992373
11
16.476799
21
114.7283373
0
LINE
8
DEFAULT_255_2_778
10
16.476799
20
114.7283373
11
16.401699
21
114.6508373
0
LINE
8
DEFAULT_255_2_778
10
16.401699
20
114.6508373
11
16.351399
21
114.5738373
0
LINE
8
DEFAULT_255_2_778
10
16.351399
20
114.5738373
11
16.319899
21
114.5058373
0
LINE
8
DEFAULT_255_2_778
10
16.319899
20
114.5058373
11
16.300899
21
114.4495373
0
LINE
8
DEFAULT_255_2_778
10
16.300899
20
114.4495373
11
16.286599
21
114.3918373
0
LINE
8
DEFAULT_255_2_778
10
16.286599
20
114.3918373
11
16.278899
21
114.3489373
0
LINE
8
DEFAULT_255_2_778
10
16.278899
20
114.3489373
11
16.273099
21
114.3018373
0
LINE
8
DEFAULT_255_2_778
10
16.273099
20
114.3018373
11
16.273899
21
114.0883373
0
LINE
8
DEFAULT_255_2_778
10
16.273899
20
114.0883373
11
16.279699
21
114.0460373
0
LINE
8
DEFAULT_255_2_778
10
16.279699
20
114.0460373
11
16.287399
21
114.0063373
0
LINE
8
DEFAULT_255_2_778
10
16.287399
20
114.0063373
11
16.302199
21
113.9510373
0
LINE
8
DEFAULT_255_2_778
10
16.302199
20
113.9510373
11
16.329999
21
113.8798373
0
LINE
8
DEFAULT_255_2_778
10
16.329999
20
113.8798373
11
16.374699
21
113.8020373
0
LINE
8
DEFAULT_255_2_778
10
16.374699
20
113.8020373
11
16.453799
21
113.7129373
0
LINE
8
DEFAULT_255_2_778
10
16.453799
20
113.7129373
11
16.563799
21
113.6406373
0
LINE
8
DEFAULT_255_2_778
10
16.563799
20
113.6406373
11
16.699799
21
113.5988373
0
LINE
8
DEFAULT_255_2_778
10
16.699799
20
113.5988373
11
16.949299
21
113.5962373
0
LINE
8
DEFAULT_255_2_778
10
16.949299
20
113.5962373
11
17.109899
21
113.6475373
0
LINE
8
DEFAULT_255_2_778
10
17.109899
20
113.6475373
11
17.214499
21
113.7274373
0
LINE
8
DEFAULT_255_2_778
10
17.214499
20
113.7274373
11
17.276599
21
113.8086373
0
LINE
8
DEFAULT_255_2_778
10
17.276599
20
113.8086373
11
17.307899
21
113.8737373
0
LINE
8
DEFAULT_255_2_778
10
17.307899
20
113.8737373
11
17.320799
21
113.9153373
0
LINE
8
DEFAULT_255_2_778
10
17.320799
20
113.9153373
11
17.326899
21
113.9436373
0
LINE
8
DEFAULT_255_2_778
10
17.326899
20
113.9436373
11
17.330599
21
113.9724373
0
LINE
8
DEFAULT_255_2_778
10
17.330599
20
113.9724373
11
17.331899
21
114.0018373
0
LINE
8
DEFAULT_255_2_778
10
17.331899
20
114.0018373
11
17.106499
21
114.0018373
0
LINE
8
DEFAULT_255_2_778
10
17.106499
20
114.0018373
11
17.101499
21
113.9703373
0
LINE
8
DEFAULT_255_2_778
10
17.101499
20
113.9703373
11
17.086699
21
113.9198373
0
LINE
8
DEFAULT_255_2_778
10
17.086699
20
113.9198373
11
17.048599
21
113.8523373
0
LINE
8
DEFAULT_255_2_778
10
17.048599
20
113.8523373
11
16.959899
21
113.7817373
0
LINE
8
DEFAULT_255_2_778
10
16.959899
20
113.7817373
11
16.762599
21
113.7571373
0
LINE
8
DEFAULT_255_2_778
10
16.762599
20
113.7571373
11
16.632899
21
113.8108373
0
LINE
8
DEFAULT_255_2_778
10
16.632899
20
113.8108373
11
16.561199
21
113.8978373
0
LINE
8
DEFAULT_255_2_778
10
16.561199
20
113.8978373
11
16.527299
21
113.9759373
0
LINE
8
DEFAULT_255_2_778
10
16.527299
20
113.9759373
11
16.508799
21
114.0460373
0
LINE
8
DEFAULT_255_2_778
10
16.508799
20
114.0460373
11
16.499799
21
114.1039373
0
LINE
8
DEFAULT_255_2_778
10
16.499799
20
114.1039373
11
16.496899
21
114.1373373
0
LINE
8
DEFAULT_255_2_778
10
16.496899
20
114.1373373
11
16.495899
21
114.1791373
0
LINE
8
DEFAULT_255_2_778
10
16.495899
20
114.1791373
11
17.340399
21
114.1791373
0
LINE
8
DEFAULT_255_2_778
10
17.340399
20
114.1791373
11
17.338299
21
114.3804373
0
LINE
8
DEFAULT_255_2_778
10
17.338299
20
114.3804373
11
17.335599
21
114.4029373
0
LINE
8
DEFAULT_255_2_778
10
17.335599
20
114.4029373
11
17.328499
21
114.4476373
0
LINE
8
DEFAULT_255_2_778
10
17.328499
20
114.4476373
11
17.316299
21
114.4987373
0
LINE
8
DEFAULT_255_2_778
10
17.316299
20
114.4987373
11
17.292799
21
114.5646373
0
LINE
8
DEFAULT_255_2_778
10
17.292799
20
114.5646373
11
17.253599
21
114.6371373
0
LINE
8
DEFAULT_255_2_778
10
17.253599
20
114.6371373
11
17.182699
21
114.7201373
0
LINE
8
DEFAULT_255_2_778
10
17.182699
20
114.7201373
11
17.069699
21
114.7940373
0
LINE
8
DEFAULT_255_2_778
10
17.069699
20
114.7940373
11
16.923899
21
114.8342373
0
LINE
8
DEFAULT_255_2_778
10
16.923899
20
114.8342373
11
16.787399
21
114.8392373
0
LINE
8
DEFAULT_255_2_778
10
16.778699
20
114.6749373
11
16.969199
21
114.6453373
0
LINE
8
DEFAULT_255_2_778
10
16.969199
20
114.6453373
11
17.050399
21
114.5799373
0
LINE
8
DEFAULT_255_2_778
10
17.050399
20
114.5799373
11
17.080799
21
114.5259373
0
LINE
8
DEFAULT_255_2_778
10
17.080799
20
114.5259373
11
17.099899
21
114.4680373
0
LINE
8
DEFAULT_255_2_778
10
17.099899
20
114.4680373
11
17.108399
21
114.4270373
0
LINE
8
DEFAULT_255_2_778
10
17.108399
20
114.4270373
11
17.113099
21
114.3926373
0
LINE
8
DEFAULT_255_2_778
10
17.113099
20
114.3926373
11
17.118199
21
114.3413373
0
LINE
8
DEFAULT_255_2_778
10
17.118199
20
114.3413373
11
16.497699
21
114.3413373
0
LINE
8
DEFAULT_255_2_778
10
16.497699
20
114.3413373
11
16.499299
21
114.3698373
0
LINE
8
DEFAULT_255_2_778
10
16.499299
20
114.3698373
11
16.505099
21
114.4095373
0
LINE
8
DEFAULT_255_2_778
10
16.505099
20
114.4095373
11
16.521799
21
114.4696373
0
LINE
8
DEFAULT_255_2_778
10
16.521799
20
114.4696373
11
16.566799
21
114.5587373
0
LINE
8
DEFAULT_255_2_778
10
16.566799
20
114.5587373
11
16.650599
21
114.6389373
0
LINE
8
DEFAULT_255_2_778
10
16.650599
20
114.6389373
11
16.778699
21
114.6749373
0
LINE
8
DEFAULT_255_2_778
10
14.405099
20
103.7219373
11
15.242799
21
103.7219373
0
LINE
8
DEFAULT_255_2_778
10
15.242799
20
103.7219373
11
15.242799
21
103.5291373
0
LINE
8
DEFAULT_255_2_778
10
15.242799
20
103.5291373
11
14.591099
21
103.5291373
0
LINE
8
DEFAULT_255_2_778
10
14.591099
20
103.5291373
11
14.591099
21
102.9930373
0
LINE
8
DEFAULT_255_2_778
10
14.591099
20
102.9930373
11
15.208899
21
102.9930373
0
LINE
8
DEFAULT_255_2_778
10
15.208899
20
102.9930373
11
15.208899
21
102.8001373
0
LINE
8
DEFAULT_255_2_778
10
15.208899
20
102.8001373
11
14.591099
21
102.8001373
0
LINE
8
DEFAULT_255_2_778
10
14.591099
20
102.8001373
11
14.591099
21
102.0217373
0
LINE
8
DEFAULT_255_2_778
10
14.591099
20
102.0217373
11
14.405099
21
102.0217373
0
LINE
8
DEFAULT_255_2_778
10
14.405099
20
102.0217373
11
14.405099
21
103.7217373
0
LINE
8
DEFAULT_255_2_778
10
13.721999
20
102.0228373
11
13.166599
21
102.0220373
0
LINE
8
DEFAULT_255_2_778
10
13.166599
20
102.0220373
11
13.166599
21
103.7219373
0
LINE
8
DEFAULT_255_2_778
10
13.166599
20
103.7219373
11
13.772799
21
103.7092373
0
LINE
8
DEFAULT_255_2_778
10
13.772799
20
103.7092373
11
13.945299
21
103.6423373
0
LINE
8
DEFAULT_255_2_778
10
13.945299
20
103.6423373
11
14.037299
21
103.5558373
0
LINE
8
DEFAULT_255_2_778
10
14.037299
20
103.5558373
11
14.072799
21
103.4925373
0
LINE
8
DEFAULT_255_2_778
10
14.072799
20
103.4925373
11
14.088899
21
103.4449373
0
LINE
8
DEFAULT_255_2_778
10
14.088899
20
103.4449373
11
14.099299
21
103.3949373
0
LINE
8
DEFAULT_255_2_778
10
14.099299
20
103.3949373
11
14.097699
21
103.2028373
0
LINE
8
DEFAULT_255_2_778
10
14.097699
20
103.2028373
11
14.087899
21
103.1605373
0
LINE
8
DEFAULT_255_2_778
10
14.087899
20
103.1605373
11
14.065399
21
103.1004373
0
LINE
8
DEFAULT_255_2_778
10
14.065399
20
103.1004373
11
14.014599
21
103.0213373
0
LINE
8
DEFAULT_255_2_778
10
14.014599
20
103.0213373
11
13.917999
21
102.9412373
0
LINE
8
DEFAULT_255_2_778
10
13.917999
20
102.9412373
11
13.865399
21
102.9184373
0
LINE
8
DEFAULT_255_2_778
10
13.865399
20
102.9184373
11
13.988699
21
102.8605373
0
LINE
8
DEFAULT_255_2_778
10
13.988699
20
102.8605373
11
14.067999
21
102.7850373
0
LINE
8
DEFAULT_255_2_778
10
14.067999
20
102.7850373
11
14.109799
21
102.7168373
0
LINE
8
DEFAULT_255_2_778
10
14.109799
20
102.7168373
11
14.134199
21
102.6517373
0
LINE
8
DEFAULT_255_2_778
10
14.134199
20
102.6517373
11
14.144799
21
102.6072373
0
LINE
8
DEFAULT_255_2_778
10
14.144799
20
102.6072373
11
14.150299
21
102.5721373
0
LINE
8
DEFAULT_255_2_778
10
14.150299
20
102.5721373
11
14.149799
21
102.3794373
0
LINE
8
DEFAULT_255_2_778
10
14.149799
20
102.3794373
11
14.142099
21
102.3361373
0
LINE
8
DEFAULT_255_2_778
10
14.142099
20
102.3361373
11
14.130699
21
102.2937373
0
LINE
8
DEFAULT_255_2_778
10
14.130699
20
102.2937373
11
14.108999
21
102.2397373
0
LINE
8
DEFAULT_255_2_778
10
14.108999
20
102.2397373
11
14.059799
21
102.1657373
0
LINE
8
DEFAULT_255_2_778
10
14.059799
20
102.1657373
11
13.953699
21
102.0791373
0
LINE
8
DEFAULT_255_2_778
10
13.953699
20
102.0791373
11
13.782799
21
102.0278373
0
LINE
8
DEFAULT_255_2_778
10
13.782799
20
102.0278373
11
13.721999
21
102.0228373
0
LINE
8
DEFAULT_255_2_778
10
13.802099
20
102.2323373
11
13.659999
21
102.2146373
0
LINE
8
DEFAULT_255_2_778
10
13.659999
20
102.2146373
11
13.352599
21
102.2146373
0
LINE
8
DEFAULT_255_2_778
10
13.352599
20
102.2146373
11
13.352599
21
102.8062373
0
LINE
8
DEFAULT_255_2_778
10
13.352599
20
102.8062373
11
13.776199
21
102.7893373
0
LINE
8
DEFAULT_255_2_778
10
13.776199
20
102.7893373
11
13.901299
21
102.7157373
0
LINE
8
DEFAULT_255_2_778
10
13.901299
20
102.7157373
11
13.944499
21
102.6514373
0
LINE
8
DEFAULT_255_2_778
10
13.944499
20
102.6514373
11
13.961099
21
102.5980373
0
LINE
8
DEFAULT_255_2_778
10
13.961099
20
102.5980373
11
13.966999
21
102.5607373
0
LINE
8
DEFAULT_255_2_778
10
13.966999
20
102.5607373
11
13.965399
21
102.4440373
0
LINE
8
DEFAULT_255_2_778
10
13.965399
20
102.4440373
11
13.957199
21
102.4006373
0
LINE
8
DEFAULT_255_2_778
10
13.957199
20
102.4006373
11
13.938099
21
102.3461373
0
LINE
8
DEFAULT_255_2_778
10
13.938099
20
102.3461373
11
13.884899
21
102.2752373
0
LINE
8
DEFAULT_255_2_778
10
13.884899
20
102.2752373
11
13.802099
21
102.2323373
0
LINE
8
DEFAULT_255_2_778
10
13.627999
20
103.0039373
11
13.352899
21
103.0036373
0
LINE
8
DEFAULT_255_2_778
10
13.352899
20
103.0036373
11
13.352899
21
103.5291373
0
LINE
8
DEFAULT_255_2_778
10
13.352899
20
103.5291373
11
13.753199
21
103.5097373
0
LINE
8
DEFAULT_255_2_778
10
13.753199
20
103.5097373
11
13.866999
21
103.4335373
0
LINE
8
DEFAULT_255_2_778
10
13.866999
20
103.4335373
11
13.899999
21
103.3780373
0
LINE
8
DEFAULT_255_2_778
10
13.899999
20
103.3780373
11
13.913999
21
103.3282373
0
LINE
8
DEFAULT_255_2_778
10
13.913999
20
103.3282373
11
13.911699
21
103.1838373
0
LINE
8
DEFAULT_255_2_778
10
13.911699
20
103.1838373
11
13.896299
21
103.1377373
0
LINE
8
DEFAULT_255_2_778
10
13.896299
20
103.1377373
11
13.833599
21
103.0623373
0
LINE
8
DEFAULT_255_2_778
10
13.833599
20
103.0623373
11
13.648899
21
103.0047373
0
LINE
8
DEFAULT_255_2_778
10
13.648899
20
103.0047373
11
13.627999
21
103.0039373
0
LINE
8
DEFAULT_255_2_778
10
33.3484731
20
67.0332583
11
33.4902731
21
67.0790583
0
LINE
8
DEFAULT_255_2_778
10
33.4902731
20
67.0790583
11
33.5828731
21
67.1491583
0
LINE
8
DEFAULT_255_2_778
10
33.5828731
20
67.1491583
11
33.6469731
21
67.2321583
0
LINE
8
DEFAULT_255_2_778
10
33.6469731
20
67.2321583
11
33.6887731
21
67.3136583
0
LINE
8
DEFAULT_255_2_778
10
33.6887731
20
67.3136583
11
33.7143731
21
67.3848583
0
LINE
8
DEFAULT_255_2_778
10
33.7143731
20
67.3848583
11
33.7302731
21
67.4449583
0
LINE
8
DEFAULT_255_2_778
10
33.7302731
20
67.4449583
11
33.7419731
21
67.5060583
0
LINE
8
DEFAULT_255_2_778
10
33.7419731
20
67.5060583
11
33.7482731
21
67.5536583
0
LINE
8
DEFAULT_255_2_778
10
33.7482731
20
67.5536583
11
33.7511731
21
67.5809583
0
LINE
8
DEFAULT_255_2_778
10
33.7511731
20
67.5809583
11
33.7532731
21
67.6081583
0
LINE
8
DEFAULT_255_2_778
10
33.7532731
20
67.6081583
11
33.7548731
21
67.6354583
0
LINE
8
DEFAULT_255_2_778
10
33.7548731
20
67.6354583
11
33.7569731
21
69.0221583
0
LINE
8
DEFAULT_255_2_778
10
33.7569731
20
69.0221583
11
34.0115731
21
69.0221583
0
LINE
8
DEFAULT_255_2_778
10
34.0115731
20
69.0221583
11
34.0104731
21
67.5872583
0
LINE
8
DEFAULT_255_2_778
10
34.0104731
20
67.5872583
11
34.0088731
21
67.5549583
0
LINE
8
DEFAULT_255_2_778
10
34.0088731
20
67.5549583
11
34.0067731
21
67.5227583
0
LINE
8
DEFAULT_255_2_778
10
34.0067731
20
67.5227583
11
34.0038731
21
67.4906583
0
LINE
8
DEFAULT_255_2_778
10
34.0038731
20
67.4906583
11
34.0001731
21
67.4586583
0
LINE
8
DEFAULT_255_2_778
10
34.0001731
20
67.4586583
11
33.9956731
21
67.4266583
0
LINE
8
DEFAULT_255_2_778
10
33.9956731
20
67.4266583
11
33.9847731
21
67.3671583
0
LINE
8
DEFAULT_255_2_778
10
33.9847731
20
67.3671583
11
33.9718731
21
67.3123583
0
LINE
8
DEFAULT_255_2_778
10
33.9718731
20
67.3123583
11
33.9557731
21
67.2583583
0
LINE
8
DEFAULT_255_2_778
10
33.9557731
20
67.2583583
11
33.9252731
21
67.1798583
0
LINE
8
DEFAULT_255_2_778
10
33.9252731
20
67.1798583
11
33.8834731
21
67.0991583
0
LINE
8
DEFAULT_255_2_778
10
33.8834731
20
67.0991583
11
33.8173731
21
67.0067583
0
LINE
8
DEFAULT_255_2_778
10
33.8173731
20
67.0067583
11
33.7236731
21
66.9168583
0
LINE
8
DEFAULT_255_2_778
10
33.7236731
20
66.9168583
11
33.6119731
21
66.8482583
0
LINE
8
DEFAULT_255_2_778
10
33.6119731
20
66.8482583
11
33.4873731
21
66.8035583
0
LINE
8
DEFAULT_255_2_778
10
33.4873731
20
66.8035583
11
33.2968731
21
66.7784583
0
LINE
8
DEFAULT_255_2_778
10
33.2968731
20
66.7784583
11
33.1050731
21
66.7919583
0
LINE
8
DEFAULT_255_2_778
10
33.1050731
20
66.7919583
11
32.9468731
21
66.8390583
0
LINE
8
DEFAULT_255_2_778
10
32.9468731
20
66.8390583
11
32.8325731
21
66.9038583
0
LINE
8
DEFAULT_255_2_778
10
32.8325731
20
66.9038583
11
32.7356731
21
66.9903583
0
LINE
8
DEFAULT_255_2_778
10
32.7356731
20
66.9903583
11
32.6674731
21
67.0797583
0
LINE
8
DEFAULT_255_2_778
10
32.6674731
20
67.0797583
11
32.6232731
21
67.1591583
0
LINE
8
DEFAULT_255_2_778
10
32.6232731
20
67.1591583
11
32.5925731
21
67.2319583
0
LINE
8
DEFAULT_255_2_778
10
32.5925731
20
67.2319583
11
32.5748731
21
67.2853583
0
LINE
8
DEFAULT_255_2_778
10
32.5748731
20
67.2853583
11
32.5602731
21
67.3396583
0
LINE
8
DEFAULT_255_2_778
10
32.5602731
20
67.3396583
11
32.5486731
21
67.3946583
0
LINE
8
DEFAULT_255_2_778
10
32.5486731
20
67.3946583
11
32.5433731
21
67.4263583
0
LINE
8
DEFAULT_255_2_778
10
32.5433731
20
67.4263583
11
32.5388731
21
67.4584583
0
LINE
8
DEFAULT_255_2_778
10
32.5388731
20
67.4584583
11
32.5351731
21
67.4904583
0
LINE
8
DEFAULT_255_2_778
10
32.5351731
20
67.4904583
11
32.5322731
21
67.5224583
0
LINE
8
DEFAULT_255_2_778
10
32.5322731
20
67.5224583
11
32.5301731
21
67.5547583
0
LINE
8
DEFAULT_255_2_778
10
32.5301731
20
67.5547583
11
32.5277731
21
67.6190583
0
LINE
8
DEFAULT_255_2_778
10
32.5277731
20
67.6190583
11
32.5274731
21
69.0218583
0
LINE
8
DEFAULT_255_2_778
10
32.5274731
20
69.0218583
11
32.7833731
21
69.0218583
0
LINE
8
DEFAULT_255_2_778
10
32.7833731
20
69.0218583
11
32.7854731
21
67.6354583
0
LINE
8
DEFAULT_255_2_778
10
32.7854731
20
67.6354583
11
32.7870731
21
67.6081583
0
LINE
8
DEFAULT_255_2_778
10
32.7870731
20
67.6081583
11
32.7894731
21
67.5811583
0
LINE
8
DEFAULT_255_2_778
10
32.7894731
20
67.5811583
11
32.7923731
21
67.5541583
0
LINE
8
DEFAULT_255_2_778
10
32.7923731
20
67.5541583
11
32.7989731
21
67.5065583
0
LINE
8
DEFAULT_255_2_778
10
32.7989731
20
67.5065583
11
32.8105731
21
67.4454583
0
LINE
8
DEFAULT_255_2_778
10
32.8105731
20
67.4454583
11
32.8264731
21
67.3853583
0
LINE
8
DEFAULT_255_2_778
10
32.8264731
20
67.3853583
11
32.8523731
21
67.3139583
0
LINE
8
DEFAULT_255_2_778
10
32.8523731
20
67.3139583
11
32.9026731
21
67.2194583
0
LINE
8
DEFAULT_255_2_778
10
32.9026731
20
67.2194583
11
32.9698731
21
67.1385583
0
LINE
8
DEFAULT_255_2_778
10
32.9698731
20
67.1385583
11
33.0778731
21
67.0663583
0
LINE
8
DEFAULT_255_2_778
10
33.0778731
20
67.0663583
11
33.2399731
21
67.0287583
0
LINE
8
DEFAULT_255_2_778
10
33.2399731
20
67.0287583
11
33.3490731
21
67.0332583
0
LINE
8
DEFAULT_255_2_778
10
36.1213731
20
67.7528583
11
36.7653731
21
67.7528583
0
LINE
8
DEFAULT_255_2_778
10
36.7653731
20
67.7528583
11
36.7653731
21
67.5454583
0
LINE
8
DEFAULT_255_2_778
10
36.7653731
20
67.5454583
11
36.1213731
21
67.5454583
0
LINE
8
DEFAULT_255_2_778
10
36.1213731
20
67.5454583
11
36.1213731
21
67.7528583
0
LINE
8
DEFAULT_255_2_778
10
30.0911731
20
69.0221583
11
30.3470731
21
69.0221583
0
LINE
8
DEFAULT_255_2_778
10
30.3470731
20
69.0221583
11
30.3470731
21
66.8220583
0
LINE
8
DEFAULT_255_2_778
10
30.3470731
20
66.8220583
11
30.0911731
21
66.8220583
0
LINE
8
DEFAULT_255_2_778
10
30.0911731
20
66.8220583
11
30.0911731
21
69.0221583
0
LINE
8
DEFAULT_255_2_778
10
35.0179731
20
69.0580583
11
34.8502731
21
69.0205583
0
LINE
8
DEFAULT_255_2_778
10
34.8502731
20
69.0205583
11
34.7012731
21
68.9482583
0
LINE
8
DEFAULT_255_2_778
10
34.7012731
20
68.9482583
11
34.6023731
21
68.8659583
0
LINE
8
DEFAULT_255_2_778
10
34.6023731
20
68.8659583
11
34.5462731
21
68.7964583
0
LINE
8
DEFAULT_255_2_778
10
34.5462731
20
68.7964583
11
34.5068731
21
68.7262583
0
LINE
8
DEFAULT_255_2_778
10
34.5068731
20
68.7262583
11
34.4843731
21
68.6702583
0
LINE
8
DEFAULT_255_2_778
10
34.4843731
20
68.6702583
11
34.4671731
21
68.6098583
0
LINE
8
DEFAULT_255_2_778
10
34.4671731
20
68.6098583
11
34.4584731
21
68.5656583
0
LINE
8
DEFAULT_255_2_778
10
34.4584731
20
68.5656583
11
34.4525731
21
68.5209583
0
LINE
8
DEFAULT_255_2_778
10
34.4525731
20
68.5209583
11
34.4533731
21
68.3384583
0
LINE
8
DEFAULT_255_2_778
10
34.4533731
20
68.3384583
11
34.4602731
21
68.2926583
0
LINE
8
DEFAULT_255_2_778
10
34.4602731
20
68.2926583
11
34.4761731
21
68.2288583
0
LINE
8
DEFAULT_255_2_778
10
34.4761731
20
68.2288583
11
34.5092731
21
68.1476583
0
LINE
8
DEFAULT_255_2_778
10
34.5092731
20
68.1476583
11
34.5774731
21
68.0500583
0
LINE
8
DEFAULT_255_2_778
10
34.5774731
20
68.0500583
11
34.7134731
21
67.9476583
0
LINE
8
DEFAULT_255_2_778
10
34.7134731
20
67.9476583
11
34.9222731
21
67.8650583
0
LINE
8
DEFAULT_255_2_778
10
34.9222731
20
67.8650583
11
35.4103731
21
67.7174583
0
LINE
8
DEFAULT_255_2_778
10
35.4103731
20
67.7174583
11
35.5217731
21
67.6364583
0
LINE
8
DEFAULT_255_2_778
10
35.5217731
20
67.6364583
11
35.5603731
21
67.5827583
0
LINE
8
DEFAULT_255_2_778
10
35.5603731
20
67.5827583
11
35.5781731
21
67.5393583
0
LINE
8
DEFAULT_255_2_778
10
35.5781731
20
67.5393583
11
35.5865731
21
67.5049583
0
LINE
8
DEFAULT_255_2_778
10
35.5865731
20
67.5049583
11
35.5916731
21
67.4695583
0
LINE
8
DEFAULT_255_2_778
10
35.5916731
20
67.4695583
11
35.5897731
21
67.3560583
0
LINE
8
DEFAULT_255_2_778
10
35.5897731
20
67.3560583
11
35.5831731
21
67.3184583
0
LINE
8
DEFAULT_255_2_778
10
35.5831731
20
67.3184583
11
35.5691731
21
67.2700583
0
LINE
8
DEFAULT_255_2_778
10
35.5691731
20
67.2700583
11
35.5363731
21
67.2028583
0
LINE
8
DEFAULT_255_2_778
10
35.5363731
20
67.2028583
11
35.4630731
21
67.1205583
0
LINE
8
DEFAULT_255_2_778
10
35.4630731
20
67.1205583
11
35.3635731
21
67.0615583
0
LINE
8
DEFAULT_255_2_778
10
35.3635731
20
67.0615583
11
35.0910731
21
67.0287583
0
LINE
8
DEFAULT_255_2_778
10
35.0910731
20
67.0287583
11
34.8563731
21
67.0967583
0
LINE
8
DEFAULT_255_2_778
10
34.8563731
20
67.0967583
11
34.7362731
21
67.2266583
0
LINE
8
DEFAULT_255_2_778
10
34.7362731
20
67.2266583
11
34.6962731
21
67.3192583
0
LINE
8
DEFAULT_255_2_778
10
34.6962731
20
67.3192583
11
34.6854731
21
67.3681583
0
LINE
8
DEFAULT_255_2_778
10
34.6854731
20
67.3681583
11
34.6838731
21
67.4592583
0
LINE
8
DEFAULT_255_2_778
10
34.6838731
20
67.4592583
11
34.4266731
21
67.4592583
0
LINE
8
DEFAULT_255_2_778
10
34.4266731
20
67.4592583
11
34.4285731
21
67.3771583
0
LINE
8
DEFAULT_255_2_778
10
34.4285731
20
67.3771583
11
34.4306731
21
67.3565583
0
LINE
8
DEFAULT_255_2_778
10
34.4306731
20
67.3565583
11
34.4372731
21
67.3155583
0
LINE
8
DEFAULT_255_2_778
10
34.4372731
20
67.3155583
11
34.4464731
21
67.2747583
0
LINE
8
DEFAULT_255_2_778
10
34.4464731
20
67.2747583
11
34.4650731
21
67.2144583
0
LINE
8
DEFAULT_255_2_778
10
34.4650731
20
67.2144583
11
34.4983731
21
67.1366583
0
LINE
8
DEFAULT_255_2_778
10
34.4983731
20
67.1366583
11
34.5523731
21
67.0459583
0
LINE
8
DEFAULT_255_2_778
10
34.5523731
20
67.0459583
11
34.6335731
21
66.9506583
0
LINE
8
DEFAULT_255_2_778
10
34.6335731
20
66.9506583
11
34.7306731
21
66.8744583
0
LINE
8
DEFAULT_255_2_778
10
34.7306731
20
66.8744583
11
34.8481731
21
66.8194583
0
LINE
8
DEFAULT_255_2_778
10
34.8481731
20
66.8194583
11
35.0701731
21
66.7800583
0
LINE
8
DEFAULT_255_2_778
10
35.0701731
20
66.7800583
11
35.2767731
21
66.7871583
0
LINE
8
DEFAULT_255_2_778
10
35.2767731
20
66.7871583
11
35.4569731
21
66.8321583
0
LINE
8
DEFAULT_255_2_778
10
35.4569731
20
66.8321583
11
35.5863731
21
66.9001583
0
LINE
8
DEFAULT_255_2_778
10
35.5863731
20
66.9001583
11
35.6797731
21
66.9797583
0
LINE
8
DEFAULT_255_2_778
10
35.6797731
20
66.9797583
11
35.7429731
21
67.0599583
0
LINE
8
DEFAULT_255_2_778
10
35.7429731
20
67.0599583
11
35.7834731
21
67.1340583
0
LINE
8
DEFAULT_255_2_778
10
35.7834731
20
67.1340583
11
35.8069731
21
67.1935583
0
LINE
8
DEFAULT_255_2_778
10
35.8069731
20
67.1935583
11
35.8249731
21
67.2552583
0
LINE
8
DEFAULT_255_2_778
10
35.8249731
20
67.2552583
11
35.8350731
21
67.3025583
0
LINE
8
DEFAULT_255_2_778
10
35.8350731
20
67.3025583
11
35.8421731
21
67.3504583
0
LINE
8
DEFAULT_255_2_778
10
35.8421731
20
67.3504583
11
35.8411731
21
67.5817583
0
LINE
8
DEFAULT_255_2_778
10
35.8411731
20
67.5817583
11
35.8326731
21
67.6285583
0
LINE
8
DEFAULT_255_2_778
10
35.8326731
20
67.6285583
11
35.8151731
21
67.6907583
0
LINE
8
DEFAULT_255_2_778
10
35.8151731
20
67.6907583
11
35.7781731
21
67.7724583
0
LINE
8
DEFAULT_255_2_778
10
35.7781731
20
67.7724583
11
35.7032731
21
67.8703583
0
LINE
8
DEFAULT_255_2_778
10
35.7032731
20
67.8703583
11
35.5569731
21
67.9732583
0
LINE
8
DEFAULT_255_2_778
10
35.5569731
20
67.9732583
11
35.3545731
21
68.0497583
0
LINE
8
DEFAULT_255_2_778
10
35.3545731
20
68.0497583
11
34.8753731
21
68.1944583
0
LINE
8
DEFAULT_255_2_778
10
34.8753731
20
68.1944583
11
34.7732731
21
68.2709583
0
LINE
8
DEFAULT_255_2_778
10
34.7732731
20
68.2709583
11
34.7333731
21
68.3312583
0
LINE
8
DEFAULT_255_2_778
10
34.7333731
20
68.3312583
11
34.7166731
21
68.3804583
0
LINE
8
DEFAULT_255_2_778
10
34.7166731
20
68.3804583
11
34.7110731
21
68.4114583
0
LINE
8
DEFAULT_255_2_778
10
34.7110731
20
68.4114583
11
34.7131731
21
68.5252583
0
LINE
8
DEFAULT_255_2_778
10
34.7131731
20
68.5252583
11
34.7208731
21
68.5601583
0
LINE
8
DEFAULT_255_2_778
10
34.7208731
20
68.5601583
11
34.7446731
21
68.6215583
0
LINE
8
DEFAULT_255_2_778
10
34.7446731
20
68.6215583
11
34.7952731
21
68.6913583
0
LINE
8
DEFAULT_255_2_778
10
34.7952731
20
68.6913583
11
34.9023731
21
68.7638583
0
LINE
8
DEFAULT_255_2_778
10
34.9023731
20
68.7638583
11
35.1023731
21
68.8093583
0
LINE
8
DEFAULT_255_2_778
10
35.1023731
20
68.8093583
11
35.2643731
21
68.7979583
0
LINE
8
DEFAULT_255_2_778
10
35.2643731
20
68.7979583
11
35.4585731
21
68.6850583
0
LINE
8
DEFAULT_255_2_778
10
35.4585731
20
68.6850583
11
35.5193731
21
68.5823583
0
LINE
8
DEFAULT_255_2_778
10
35.5193731
20
68.5823583
11
35.5357731
21
68.5204583
0
LINE
8
DEFAULT_255_2_778
10
35.5357731
20
68.5204583
11
35.5397731
21
68.4884583
0
LINE
8
DEFAULT_255_2_778
10
35.5397731
20
68.4884583
11
35.5408731
21
68.4722583
0
LINE
8
DEFAULT_255_2_778
10
35.5408731
20
68.4722583
11
35.8006731
21
68.4722583
0
LINE
8
DEFAULT_255_2_778
10
35.8006731
20
68.4722583
11
35.7995731
21
68.5633583
0
LINE
8
DEFAULT_255_2_778
10
35.7995731
20
68.5633583
11
35.7942731
21
68.5992583
0
LINE
8
DEFAULT_255_2_778
10
35.7942731
20
68.5992583
11
35.7866731
21
68.6350583
0
LINE
8
DEFAULT_255_2_778
10
35.7866731
20
68.6350583
11
35.7704731
21
68.6874583
0
LINE
8
DEFAULT_255_2_778
10
35.7704731
20
68.6874583
11
35.7411731
21
68.7546583
0
LINE
8
DEFAULT_255_2_778
10
35.7411731
20
68.7546583
11
35.6924731
21
68.8331583
0
LINE
8
DEFAULT_255_2_778
10
35.6924731
20
68.8331583
11
35.6178731
21
68.9165583
0
LINE
8
DEFAULT_255_2_778
10
35.6178731
20
68.9165583
11
35.5132731
21
68.9919583
0
LINE
8
DEFAULT_255_2_778
10
35.5132731
20
68.9919583
11
35.3728731
21
69.0445583
0
LINE
8
DEFAULT_255_2_778
10
35.3728731
20
69.0445583
11
35.1510731
21
69.0665583
0
LINE
8
DEFAULT_255_2_778
10
35.1510731
20
69.0665583
11
35.0190731
21
69.0588583
0
LINE
8
DEFAULT_255_2_778
10
28.5790731
20
69.0221583
11
29.7308731
21
69.0221583
0
LINE
8
DEFAULT_255_2_778
10
29.7308731
20
69.0221583
11
29.7308731
21
68.7725583
0
LINE
8
DEFAULT_255_2_778
10
29.7308731
20
68.7725583
11
28.8349731
21
68.7725583
0
LINE
8
DEFAULT_255_2_778
10
28.8349731
20
68.7725583
11
28.8349731
21
68.0788583
0
LINE
8
DEFAULT_255_2_778
10
28.8349731
20
68.0788583
11
29.6845731
21
68.0788583
0
LINE
8
DEFAULT_255_2_778
10
29.6845731
20
68.0788583
11
29.6845731
21
67.8293583
0
LINE
8
DEFAULT_255_2_778
10
29.6845731
20
67.8293583
11
28.8349731
21
67.8293583
0
LINE
8
DEFAULT_255_2_778
10
28.8349731
20
67.8293583
11
28.8349731
21
66.8220583
0
LINE
8
DEFAULT_255_2_778
10
28.8349731
20
66.8220583
11
28.5790731
21
66.8220583
0
LINE
8
DEFAULT_255_2_778
10
28.5790731
20
66.8220583
11
28.5790731
21
69.0221583
0
LINE
8
DEFAULT_255_2_778
10
23.9713731
20
67.7642583
11
23.8462731
21
67.7560583
0
LINE
8
DEFAULT_255_2_778
10
23.8462731
20
67.7560583
11
23.4221731
21
67.7560583
0
LINE
8
DEFAULT_255_2_778
10
23.4221731
20
67.7560583
11
23.4221731
21
66.8220583
0
LINE
8
DEFAULT_255_2_778
10
23.4221731
20
66.8220583
11
23.1662731
21
66.8220583
0
LINE
8
DEFAULT_255_2_778
10
23.1662731
20
66.8220583
11
23.1662731
21
69.0221583
0
LINE
8
DEFAULT_255_2_778
10
23.1662731
20
69.0221583
11
23.9451731
21
69.0170583
0
LINE
8
DEFAULT_255_2_778
10
23.9451731
20
69.0170583
11
24.1309731
21
68.9726583
0
LINE
8
DEFAULT_255_2_778
10
24.1309731
20
68.9726583
11
24.2613731
21
68.8990583
0
LINE
8
DEFAULT_255_2_778
10
24.2613731
20
68.8990583
11
24.3415731
21
68.8236583
0
LINE
8
DEFAULT_255_2_778
10
24.3415731
20
68.8236583
11
24.3947731
21
68.7495583
0
LINE
8
DEFAULT_255_2_778
10
24.3947731
20
68.7495583
11
24.4285731
21
68.6807583
0
LINE
8
DEFAULT_255_2_778
10
24.4285731
20
68.6807583
11
24.4476731
21
68.6265583
0
LINE
8
DEFAULT_255_2_778
10
24.4476731
20
68.6265583
11
24.4574731
21
68.5895583
0
LINE
8
DEFAULT_255_2_778
10
24.4574731
20
68.5895583
11
24.4669731
21
68.5416583
0
LINE
8
DEFAULT_255_2_778
10
24.4669731
20
68.5416583
11
24.4706731
21
68.5175583
0
LINE
8
DEFAULT_255_2_778
10
24.4706731
20
68.5175583
11
24.4735731
21
68.4931583
0
LINE
8
DEFAULT_255_2_778
10
24.4735731
20
68.4931583
11
24.4735731
21
68.2963583
0
LINE
8
DEFAULT_255_2_778
10
24.4735731
20
68.2963583
11
24.4706731
21
68.2717583
0
LINE
8
DEFAULT_255_2_778
10
24.4706731
20
68.2717583
11
24.4627731
21
68.2227583
0
LINE
8
DEFAULT_255_2_778
10
24.4627731
20
68.2227583
11
24.4478731
21
68.1608583
0
LINE
8
DEFAULT_255_2_778
10
24.4478731
20
68.1608583
11
24.4291731
21
68.1058583
0
LINE
8
DEFAULT_255_2_778
10
24.4291731
20
68.1058583
11
24.3957731
21
68.0359583
0
LINE
8
DEFAULT_255_2_778
10
24.3957731
20
68.0359583
11
24.3433731
21
67.9605583
0
LINE
8
DEFAULT_255_2_778
10
24.3433731
20
67.9605583
11
24.2640731
21
67.8833583
0
LINE
8
DEFAULT_255_2_778
10
24.2640731
20
67.8833583
11
24.1515731
21
67.8150583
0
LINE
8
DEFAULT_255_2_778
10
24.1515731
20
67.8150583
11
24.0205731
21
67.7730583
0
LINE
8
DEFAULT_255_2_778
10
24.0205731
20
67.7730583
11
23.9713731
21
67.7642583
0
LINE
8
DEFAULT_255_2_778
10
23.9253731
20
68.0111583
11
23.8462731
21
68.0055583
0
LINE
8
DEFAULT_255_2_778
10
23.8462731
20
68.0055583
11
23.4221731
21
68.0055583
0
LINE
8
DEFAULT_255_2_778
10
23.4221731
20
68.0055583
11
23.4221731
21
68.7725583
0
LINE
8
DEFAULT_255_2_778
10
23.4221731
20
68.7725583
11
23.9734731
21
68.7572583
0
LINE
8
DEFAULT_255_2_778
10
23.9734731
20
68.7572583
11
24.1041731
21
68.6908583
0
LINE
8
DEFAULT_255_2_778
10
24.1041731
20
68.6908583
11
24.1682731
21
68.6162583
0
LINE
8
DEFAULT_255_2_778
10
24.1682731
20
68.6162583
11
24.1975731
21
68.5540583
0
LINE
8
DEFAULT_255_2_778
10
24.1975731
20
68.5540583
11
24.2105731
21
68.5096583
0
LINE
8
DEFAULT_255_2_778
10
24.2105731
20
68.5096583
11
24.2161731
21
68.4804583
0
LINE
8
DEFAULT_255_2_778
10
24.2161731
20
68.4804583
11
24.2137731
21
68.2878583
0
LINE
8
DEFAULT_255_2_778
10
24.2137731
20
68.2878583
11
24.2015731
21
68.2394583
0
LINE
8
DEFAULT_255_2_778
10
24.2015731
20
68.2394583
11
24.1743731
21
68.1751583
0
LINE
8
DEFAULT_255_2_778
10
24.1743731
20
68.1751583
11
24.1139731
21
68.0973583
0
LINE
8
DEFAULT_255_2_778
10
24.1139731
20
68.0973583
11
23.9970731
21
68.0280583
0
LINE
8
DEFAULT_255_2_778
10
23.9970731
20
68.0280583
11
23.9253731
21
68.0111583
0
LINE
8
DEFAULT_255_2_778
10
25.5831734
20
68.0632063
11
25.4778734
21
68.0569063
0
LINE
8
DEFAULT_255_2_778
10
25.4778734
20
68.0569063
11
25.0325734
21
68.0569063
0
LINE
8
DEFAULT_255_2_778
10
25.0325734
20
68.0569063
11
25.0325734
21
68.7726063
0
LINE
8
DEFAULT_255_2_778
10
25.0325734
20
68.7726063
11
25.6014734
21
68.7556063
0
LINE
8
DEFAULT_255_2_778
10
25.6014734
20
68.7556063
11
25.7530734
21
68.6916063
0
LINE
8
DEFAULT_255_2_778
10
25.7530734
20
68.6916063
11
25.8202734
21
68.6170063
0
LINE
8
DEFAULT_255_2_778
10
25.8202734
20
68.6170063
11
25.8506734
21
68.5506063
0
LINE
8
DEFAULT_255_2_778
10
25.8506734
20
68.5506063
11
25.8631734
21
68.5046063
0
LINE
8
DEFAULT_255_2_778
10
25.8631734
20
68.5046063
11
25.8694734
21
68.4646063
0
LINE
8
DEFAULT_255_2_778
10
25.8694734
20
68.4646063
11
25.8681734
21
68.3270063
0
LINE
8
DEFAULT_255_2_778
10
25.8681734
20
68.3270063
11
25.8620734
21
68.2929063
0
LINE
8
DEFAULT_255_2_778
10
25.8620734
20
68.2929063
11
25.8488734
21
68.2490063
0
LINE
8
DEFAULT_255_2_778
10
25.8488734
20
68.2490063
11
25.8125734
21
68.1841063
0
LINE
8
DEFAULT_255_2_778
10
25.8125734
20
68.1841063
11
25.7062734
21
68.0990063
0
LINE
8
DEFAULT_255_2_778
10
25.7062734
20
68.0990063
11
25.5831734
21
68.0632063
0
LINE
8
DEFAULT_255_2_778
10
25.6371734
20
69.0152063
11
25.5215734
21
69.0221063
0
LINE
8
DEFAULT_255_2_778
10
25.5215734
20
69.0221063
11
24.7767734
21
69.0221063
0
LINE
8
DEFAULT_255_2_778
10
24.7767734
20
69.0221063
11
24.7767734
21
66.8221063
0
LINE
8
DEFAULT_255_2_778
10
24.7767734
20
66.8221063
11
25.0325734
21
66.8221063
0
LINE
8
DEFAULT_255_2_778
10
25.0325734
20
66.8221063
11
25.0325734
21
67.8074063
0
LINE
8
DEFAULT_255_2_778
10
25.0325734
20
67.8074063
11
25.6170734
21
67.7825063
0
LINE
8
DEFAULT_255_2_778
10
25.6170734
20
67.7825063
11
25.7226734
21
67.7053063
0
LINE
8
DEFAULT_255_2_778
10
25.7226734
20
67.7053063
11
25.7689734
21
67.6150063
0
LINE
8
DEFAULT_255_2_778
10
25.7689734
20
67.6150063
11
25.7895734
21
67.5391063
0
LINE
8
DEFAULT_255_2_778
10
25.7895734
20
67.5391063
11
25.7998734
21
67.4767063
0
LINE
8
DEFAULT_255_2_778
10
25.7998734
20
67.4767063
11
25.8310734
21
67.2428063
0
LINE
8
DEFAULT_255_2_778
10
25.8310734
20
67.2428063
11
25.8551734
21
67.0859063
0
LINE
8
DEFAULT_255_2_778
10
25.8551734
20
67.0859063
11
25.8826734
21
66.9382063
0
LINE
8
DEFAULT_255_2_778
10
25.8826734
20
66.9382063
11
25.9099734
21
66.8234063
0
LINE
8
DEFAULT_255_2_778
10
25.9099734
20
66.8234063
11
26.1816734
21
66.8234063
0
LINE
8
DEFAULT_255_2_778
10
26.1816734
20
66.8234063
11
26.1451734
21
66.9388063
0
LINE
8
DEFAULT_255_2_778
10
26.1451734
20
66.9388063
11
26.1218734
21
67.0594063
0
LINE
8
DEFAULT_255_2_778
10
26.1218734
20
67.0594063
11
26.1049734
21
67.1711063
0
LINE
8
DEFAULT_255_2_778
10
26.1049734
20
67.1711063
11
26.0903734
21
67.2716063
0
LINE
8
DEFAULT_255_2_778
10
26.0903734
20
67.2716063
11
26.0536734
21
67.5510063
0
LINE
8
DEFAULT_255_2_778
10
26.0536734
20
67.5510063
11
26.0425734
21
67.6153063
0
LINE
8
DEFAULT_255_2_778
10
26.0425734
20
67.6153063
11
26.0255734
21
67.6865063
0
LINE
8
DEFAULT_255_2_778
10
26.0255734
20
67.6865063
11
26.0006734
21
67.7568063
0
LINE
8
DEFAULT_255_2_778
10
26.0006734
20
67.7568063
11
25.9631734
21
67.8233063
0
LINE
8
DEFAULT_255_2_778
10
25.9631734
20
67.8233063
11
25.8961734
21
67.8812063
0
LINE
8
DEFAULT_255_2_778
10
25.8961734
20
67.8812063
11
25.7588734
21
67.9227063
0
LINE
8
DEFAULT_255_2_778
10
25.7588734
20
67.9227063
11
25.8961734
21
67.9899063
0
LINE
8
DEFAULT_255_2_778
10
25.8961734
20
67.9899063
11
25.9909734
21
68.0698063
0
LINE
8
DEFAULT_255_2_778
10
25.9909734
20
68.0698063
11
26.0514734
21
68.1498063
0
LINE
8
DEFAULT_255_2_778
10
26.0514734
20
68.1498063
11
26.0888734
21
68.2260063
0
LINE
8
DEFAULT_255_2_778
10
26.0888734
20
68.2260063
11
26.1094734
21
68.2905063
0
LINE
8
DEFAULT_255_2_778
10
26.1094734
20
68.2905063
11
26.1173734
21
68.3270063
0
LINE
8
DEFAULT_255_2_778
10
26.1173734
20
68.3270063
11
26.1231734
21
68.3641063
0
LINE
8
DEFAULT_255_2_778
10
26.1231734
20
68.3641063
11
26.1229734
21
68.5569063
0
LINE
8
DEFAULT_255_2_778
10
26.1229734
20
68.5569063
11
26.1165734
21
68.5964063
0
LINE
8
DEFAULT_255_2_778
10
26.1165734
20
68.5964063
11
26.1036734
21
68.6506063
0
LINE
8
DEFAULT_255_2_778
10
26.1036734
20
68.6506063
11
26.0821734
21
68.7107063
0
LINE
8
DEFAULT_255_2_778
10
26.0821734
20
68.7107063
11
26.0451734
21
68.7810063
0
LINE
8
DEFAULT_255_2_778
10
26.0451734
20
68.7810063
11
25.9758734
21
68.8649063
0
LINE
8
DEFAULT_255_2_778
10
25.9758734
20
68.8649063
11
25.8689734
21
68.9430063
0
LINE
8
DEFAULT_255_2_778
10
25.8689734
20
68.9430063
11
25.7009734
21
69.0041063
0
LINE
8
DEFAULT_255_2_778
10
25.7009734
20
69.0041063
11
25.6371734
21
69.0152063
0
LINE
8
DEFAULT_255_2_778
10
27.2180734
20
69.0620063
11
27.0754734
21
69.0374063
0
LINE
8
DEFAULT_255_2_778
10
27.0754734
20
69.0374063
11
26.9484734
21
68.9901063
0
LINE
8
DEFAULT_255_2_778
10
26.9484734
20
68.9901063
11
26.8346734
21
68.9202063
0
LINE
8
DEFAULT_255_2_778
10
26.8346734
20
68.9202063
11
26.7526734
21
68.8464063
0
LINE
8
DEFAULT_255_2_778
10
26.7526734
20
68.8464063
11
26.6822734
21
68.7612063
0
LINE
8
DEFAULT_255_2_778
10
26.6822734
20
68.7612063
11
26.6253734
21
68.6710063
0
LINE
8
DEFAULT_255_2_778
10
26.6253734
20
68.6710063
11
26.5809734
21
68.5802063
0
LINE
8
DEFAULT_255_2_778
10
26.5809734
20
68.5802063
11
26.5560734
21
68.5175063
0
LINE
8
DEFAULT_255_2_778
10
26.5560734
20
68.5175063
11
26.5317734
21
68.4426063
0
LINE
8
DEFAULT_255_2_778
10
26.5317734
20
68.4426063
11
26.5118734
21
68.3662063
0
LINE
8
DEFAULT_255_2_778
10
26.5118734
20
68.3662063
11
26.4962734
21
68.2889063
0
LINE
8
DEFAULT_255_2_778
10
26.4962734
20
68.2889063
11
26.4899734
21
68.2500063
0
LINE
8
DEFAULT_255_2_778
10
26.4899734
20
68.2500063
11
26.4827734
21
68.1979063
0
LINE
8
DEFAULT_255_2_778
10
26.4827734
20
68.1979063
11
26.4772734
21
68.1455063
0
LINE
8
DEFAULT_255_2_778
10
26.4772734
20
68.1455063
11
26.4729734
21
68.0931063
0
LINE
8
DEFAULT_255_2_778
10
26.4729734
20
68.0931063
11
26.4700734
21
68.0407063
0
LINE
8
DEFAULT_255_2_778
10
26.4700734
20
68.0407063
11
26.4698734
21
67.8288063
0
LINE
8
DEFAULT_255_2_778
10
26.4698734
20
67.8288063
11
26.4727734
21
67.7754063
0
LINE
8
DEFAULT_255_2_778
10
26.4727734
20
67.7754063
11
26.4769734
21
67.7222063
0
LINE
8
DEFAULT_255_2_778
10
26.4769734
20
67.7222063
11
26.4825734
21
67.6690063
0
LINE
8
DEFAULT_255_2_778
10
26.4825734
20
67.6690063
11
26.4893734
21
67.6161063
0
LINE
8
DEFAULT_255_2_778
10
26.4893734
20
67.6161063
11
26.4957734
21
67.5764063
0
LINE
8
DEFAULT_255_2_778
10
26.4957734
20
67.5764063
11
26.5110734
21
67.4976063
0
LINE
8
DEFAULT_255_2_778
10
26.5110734
20
67.4976063
11
26.5303734
21
67.4198063
0
LINE
8
DEFAULT_255_2_778
10
26.5303734
20
67.4198063
11
26.5542734
21
67.3433063
0
LINE
8
DEFAULT_255_2_778
10
26.5542734
20
67.3433063
11
26.5796734
21
67.2764063
0
LINE
8
DEFAULT_255_2_778
10
26.5796734
20
67.2764063
11
26.6092734
21
67.2110063
0
LINE
8
DEFAULT_255_2_778
10
26.6092734
20
67.2110063
11
26.6433734
21
67.1478063
0
LINE
8
DEFAULT_255_2_778
10
26.6433734
20
67.1478063
11
26.6941734
21
67.0708063
0
LINE
8
DEFAULT_255_2_778
10
26.6941734
20
67.0708063
11
26.7671734
21
66.9853063
0
LINE
8
DEFAULT_255_2_778
10
26.7671734
20
66.9853063
11
26.8515734
21
66.9131063
0
LINE
8
DEFAULT_255_2_778
10
26.8515734
20
66.9131063
11
26.9685734
21
66.8456063
0
LINE
8
DEFAULT_255_2_778
10
26.9685734
20
66.8456063
11
27.1008734
21
66.8009063
0
LINE
8
DEFAULT_255_2_778
10
27.1008734
20
66.8009063
11
27.2754734
21
66.7792063
0
LINE
8
DEFAULT_255_2_778
10
27.2754734
20
66.7792063
11
27.4508734
21
66.7898063
0
LINE
8
DEFAULT_255_2_778
10
27.4508734
20
66.7898063
11
27.5903734
21
66.8252063
0
LINE
8
DEFAULT_255_2_778
10
27.5903734
20
66.8252063
11
27.7122734
21
66.8837063
0
LINE
8
DEFAULT_255_2_778
10
27.7122734
20
66.8837063
11
27.8006734
21
66.9477063
0
LINE
8
DEFAULT_255_2_778
10
27.8006734
20
66.9477063
11
27.8800734
21
67.0279063
0
LINE
8
DEFAULT_255_2_778
10
27.8800734
20
67.0279063
11
27.9475734
21
67.1187063
0
LINE
8
DEFAULT_255_2_778
10
27.9475734
20
67.1187063
11
28.0006734
21
67.2121063
0
LINE
8
DEFAULT_255_2_778
10
28.0006734
20
67.2121063
11
28.0305734
21
67.2772063
0
LINE
8
DEFAULT_255_2_778
10
28.0305734
20
67.2772063
11
28.0562734
21
67.3441063
0
LINE
8
DEFAULT_255_2_778
10
28.0562734
20
67.3441063
11
28.0803734
21
67.4206063
0
LINE
8
DEFAULT_255_2_778
10
28.0803734
20
67.4206063
11
28.0999734
21
67.4983063
0
LINE
8
DEFAULT_255_2_778
10
28.0999734
20
67.4983063
11
28.1152734
21
67.5769063
0
LINE
8
DEFAULT_255_2_778
10
28.1152734
20
67.5769063
11
28.1215734
21
67.6166063
0
LINE
8
DEFAULT_255_2_778
10
28.1215734
20
67.6166063
11
28.1287734
21
67.6695063
0
LINE
8
DEFAULT_255_2_778
10
28.1287734
20
67.6695063
11
28.1342734
21
67.7227063
0
LINE
8
DEFAULT_255_2_778
10
28.1342734
20
67.7227063
11
28.1385734
21
67.7759063
0
LINE
8
DEFAULT_255_2_778
10
28.1385734
20
67.7759063
11
28.1414734
21
67.8293063
0
LINE
8
DEFAULT_255_2_778
10
28.1414734
20
67.8293063
11
28.1414734
21
68.0407063
0
LINE
8
DEFAULT_255_2_778
10
28.1414734
20
68.0407063
11
28.1385734
21
68.0929063
0
LINE
8
DEFAULT_255_2_778
10
28.1385734
20
68.0929063
11
28.1342734
21
68.1450063
0
LINE
8
DEFAULT_255_2_778
10
28.1342734
20
68.1450063
11
28.1287734
21
68.1971063
0
LINE
8
DEFAULT_255_2_778
10
28.1287734
20
68.1971063
11
28.1215734
21
68.2490063
0
LINE
8
DEFAULT_255_2_778
10
28.1215734
20
68.2490063
11
28.1152734
21
68.2879063
0
LINE
8
DEFAULT_255_2_778
10
28.1152734
20
68.2879063
11
28.0993734
21
68.3651063
0
LINE
8
DEFAULT_255_2_778
10
28.0993734
20
68.3651063
11
28.0792734
21
68.4413063
0
LINE
8
DEFAULT_255_2_778
10
28.0792734
20
68.4413063
11
28.0546734
21
68.5162063
0
LINE
8
DEFAULT_255_2_778
10
28.0546734
20
68.5162063
11
28.0281734
21
68.5821063
0
LINE
8
DEFAULT_255_2_778
10
28.0281734
20
68.5821063
11
27.9975734
21
68.6461063
0
LINE
8
DEFAULT_255_2_778
10
27.9975734
20
68.6461063
11
27.9430734
21
68.7377063
0
LINE
8
DEFAULT_255_2_778
10
27.9430734
20
68.7377063
11
27.8752734
21
68.8258063
0
LINE
8
DEFAULT_255_2_778
10
27.8752734
20
68.8258063
11
27.7958734
21
68.9033063
0
LINE
8
DEFAULT_255_2_778
10
27.7958734
20
68.9033063
11
27.6847734
21
68.9784063
0
LINE
8
DEFAULT_255_2_778
10
27.6847734
20
68.9784063
11
27.5620734
21
69.0303063
0
LINE
8
DEFAULT_255_2_778
10
27.5620734
20
69.0303063
11
27.3924734
21
69.0631063
0
LINE
8
DEFAULT_255_2_778
10
27.3924734
20
69.0631063
11
27.2180734
21
69.0620063
0
LINE
8
DEFAULT_255_2_778
10
27.2206734
20
68.8107063
11
27.3900734
21
68.8107063
0
LINE
8
DEFAULT_255_2_778
10
27.3900734
20
68.8107063
11
27.5112734
21
68.7787063
0
LINE
8
DEFAULT_255_2_778
10
27.5112734
20
68.7787063
11
27.6143734
21
68.7197063
0
LINE
8
DEFAULT_255_2_778
10
27.6143734
20
68.7197063
11
27.6897734
21
68.6482063
0
LINE
8
DEFAULT_255_2_778
10
27.6897734
20
68.6482063
11
27.7517734
21
68.5606063
0
LINE
8
DEFAULT_255_2_778
10
27.7517734
20
68.5606063
11
27.7919734
21
68.4818063
0
LINE
8
DEFAULT_255_2_778
10
27.7919734
20
68.4818063
11
27.8234734
21
68.4000063
0
LINE
8
DEFAULT_255_2_778
10
27.8234734
20
68.4000063
11
27.8416734
21
68.3389063
0
LINE
8
DEFAULT_255_2_778
10
27.8416734
20
68.3389063
11
27.8575734
21
68.2715063
0
LINE
8
DEFAULT_255_2_778
10
27.8575734
20
68.2715063
11
27.8694734
21
68.2032063
0
LINE
8
DEFAULT_255_2_778
10
27.8694734
20
68.2032063
11
27.8742734
21
68.1688063
0
LINE
8
DEFAULT_255_2_778
10
27.8742734
20
68.1688063
11
27.8787734
21
68.1294063
0
LINE
8
DEFAULT_255_2_778
10
27.8787734
20
68.1294063
11
27.8821734
21
68.0900063
0
LINE
8
DEFAULT_255_2_778
10
27.8821734
20
68.0900063
11
27.8824734
21
67.7706063
0
LINE
8
DEFAULT_255_2_778
10
27.8824734
20
67.7706063
11
27.8789734
21
67.7304063
0
LINE
8
DEFAULT_255_2_778
10
27.8789734
20
67.7304063
11
27.8744734
21
67.6902063
0
LINE
8
DEFAULT_255_2_778
10
27.8744734
20
67.6902063
11
27.8697734
21
67.6552063
0
LINE
8
DEFAULT_255_2_778
10
27.8697734
20
67.6552063
11
27.8580734
21
67.5859063
0
LINE
8
DEFAULT_255_2_778
10
27.8580734
20
67.5859063
11
27.8427734
21
67.5174063
0
LINE
8
DEFAULT_255_2_778
10
27.8427734
20
67.5174063
11
27.8257734
21
67.4581063
0
LINE
8
DEFAULT_255_2_778
10
27.8257734
20
67.4581063
11
27.7988734
21
67.3835063
0
LINE
8
DEFAULT_255_2_778
10
27.7988734
20
67.3835063
11
27.7546734
21
67.2922063
0
LINE
8
DEFAULT_255_2_778
10
27.7546734
20
67.2922063
11
27.7064734
21
67.2189063
0
LINE
8
DEFAULT_255_2_778
10
27.7064734
20
67.2189063
11
27.6326734
21
67.1406063
0
LINE
8
DEFAULT_255_2_778
10
27.6326734
20
67.1406063
11
27.5313734
21
67.0750063
0
LINE
8
DEFAULT_255_2_778
10
27.5313734
20
67.0750063
11
27.4119734
21
67.0369063
0
LINE
8
DEFAULT_255_2_778
10
27.4119734
20
67.0369063
11
27.2410734
21
67.0308063
0
LINE
8
DEFAULT_255_2_778
10
27.2410734
20
67.0308063
11
27.1164734
21
67.0591063
0
LINE
8
DEFAULT_255_2_778
10
27.1164734
20
67.0591063
11
27.0103734
21
67.1158063
0
LINE
8
DEFAULT_255_2_778
10
27.0103734
20
67.1158063
11
26.9330734
21
67.1851063
0
LINE
8
DEFAULT_255_2_778
10
26.9330734
20
67.1851063
11
26.8799734
21
67.2547063
0
LINE
8
DEFAULT_255_2_778
10
26.8799734
20
67.2547063
11
26.8346734
21
67.3354063
0
LINE
8
DEFAULT_255_2_778
10
26.8346734
20
67.3354063
11
26.8031734
21
67.4087063
0
LINE
8
DEFAULT_255_2_778
10
26.8031734
20
67.4087063
11
26.7780734
21
67.4843063
0
LINE
8
DEFAULT_255_2_778
10
26.7780734
20
67.4843063
11
26.7605734
21
67.5526063
0
LINE
8
DEFAULT_255_2_778
10
26.7605734
20
67.5526063
11
26.7470734
21
67.6216063
0
LINE
8
DEFAULT_255_2_778
10
26.7470734
20
67.6216063
11
26.7415734
21
67.6563063
0
LINE
8
DEFAULT_255_2_778
10
26.7415734
20
67.6563063
11
26.7367734
21
67.6912063
0
LINE
8
DEFAULT_255_2_778
10
26.7367734
20
67.6912063
11
26.7322734
21
67.7312063
0
LINE
8
DEFAULT_255_2_778
10
26.7322734
20
67.7312063
11
26.7288734
21
67.7711063
0
LINE
8
DEFAULT_255_2_778
10
26.7288734
20
67.7711063
11
26.7288734
21
68.0900063
0
LINE
8
DEFAULT_255_2_778
10
26.7288734
20
68.0900063
11
26.7322734
21
68.1294063
0
LINE
8
DEFAULT_255_2_778
10
26.7322734
20
68.1294063
11
26.7367734
21
68.1688063
0
LINE
8
DEFAULT_255_2_778
10
26.7367734
20
68.1688063
11
26.7415734
21
68.2032063
0
LINE
8
DEFAULT_255_2_778
10
26.7415734
20
68.2032063
11
26.7534734
21
68.2715063
0
LINE
8
DEFAULT_255_2_778
10
26.7534734
20
68.2715063
11
26.7693734
21
68.3389063
0
LINE
8
DEFAULT_255_2_778
10
26.7693734
20
68.3389063
11
26.7865734
21
68.3971063
0
LINE
8
DEFAULT_255_2_778
10
26.7865734
20
68.3971063
11
26.8142734
21
68.4707063
0
LINE
8
DEFAULT_255_2_778
10
26.8142734
20
68.4707063
11
26.8592734
21
68.5604063
0
LINE
8
DEFAULT_255_2_778
10
26.8592734
20
68.5604063
11
26.9074734
21
68.6316063
0
LINE
8
DEFAULT_255_2_778
10
26.9074734
20
68.6316063
11
26.9807734
21
68.7072063
0
LINE
8
DEFAULT_255_2_778
10
26.9807734
20
68.7072063
11
27.0809734
21
68.7707063
0
LINE
8
DEFAULT_255_2_778
10
27.0809734
20
68.7707063
11
27.1989734
21
68.8075063
0
LINE
8
DEFAULT_255_2_778
10
27.1989734
20
68.8075063
11
27.2206734
21
68.8107063
0
LINE
8
DEFAULT_255_2_778
10
31.7379734
20
66.8385063
11
31.5302734
21
66.8221063
0
LINE
8
DEFAULT_255_2_778
10
31.5302734
20
66.8221063
11
30.8290734
21
66.8221063
0
LINE
8
DEFAULT_255_2_778
10
30.8290734
20
66.8221063
11
30.8290734
21
69.0221063
0
LINE
8
DEFAULT_255_2_778
10
30.8290734
20
69.0221063
11
31.6167734
21
69.0126063
0
LINE
8
DEFAULT_255_2_778
10
31.6167734
20
69.0126063
11
31.7940734
21
68.9708063
0
LINE
8
DEFAULT_255_2_778
10
31.7940734
20
68.9708063
11
31.9501734
21
68.8837063
0
LINE
8
DEFAULT_255_2_778
10
31.9501734
20
68.8837063
11
32.0260734
21
68.8075063
0
LINE
8
DEFAULT_255_2_778
10
32.0260734
20
68.8075063
11
32.0675734
21
68.7403063
0
LINE
8
DEFAULT_255_2_778
10
32.0675734
20
68.7403063
11
32.0916734
21
68.6797063
0
LINE
8
DEFAULT_255_2_778
10
32.0916734
20
68.6797063
11
32.1043734
21
68.6321063
0
LINE
8
DEFAULT_255_2_778
10
32.1043734
20
68.6321063
11
32.1131734
21
68.5829063
0
LINE
8
DEFAULT_255_2_778
10
32.1131734
20
68.5829063
11
32.1104734
21
68.3598063
0
LINE
8
DEFAULT_255_2_778
10
32.1104734
20
68.3598063
11
32.0993734
21
68.3088063
0
LINE
8
DEFAULT_255_2_778
10
32.0993734
20
68.3088063
11
32.0773734
21
68.2450063
0
LINE
8
DEFAULT_255_2_778
10
32.0773734
20
68.2450063
11
32.0326734
21
68.1638063
0
LINE
8
DEFAULT_255_2_778
10
32.0326734
20
68.1638063
11
31.9503734
21
68.0712063
0
LINE
8
DEFAULT_255_2_778
10
31.9503734
20
68.0712063
11
31.8334734
21
67.9976063
0
LINE
8
DEFAULT_255_2_778
10
31.8334734
20
67.9976063
11
31.7897734
21
67.9820063
0
LINE
8
DEFAULT_255_2_778
10
31.7897734
20
67.9820063
11
31.9247734
21
67.9278063
0
LINE
8
DEFAULT_255_2_778
10
31.9247734
20
67.9278063
11
32.0326734
21
67.8481063
0
LINE
8
DEFAULT_255_2_778
10
32.0326734
20
67.8481063
11
32.0985734
21
67.7677063
0
LINE
8
DEFAULT_255_2_778
10
32.0985734
20
67.7677063
11
32.1332734
21
67.7047063
0
LINE
8
DEFAULT_255_2_778
10
32.1332734
20
67.7047063
11
32.1588734
21
67.6367063
0
LINE
8
DEFAULT_255_2_778
10
32.1588734
20
67.6367063
11
32.1728734
21
67.5817063
0
LINE
8
DEFAULT_255_2_778
10
32.1728734
20
67.5817063
11
32.1800734
21
67.5412063
0
LINE
8
DEFAULT_255_2_778
10
32.1800734
20
67.5412063
11
32.1800734
21
67.2835063
0
LINE
8
DEFAULT_255_2_778
10
32.1800734
20
67.2835063
11
32.1736734
21
67.2457063
0
LINE
8
DEFAULT_255_2_778
10
32.1736734
20
67.2457063
11
32.1599734
21
67.1904063
0
LINE
8
DEFAULT_255_2_778
10
32.1599734
20
67.1904063
11
32.1408734
21
67.1372063
0
LINE
8
DEFAULT_255_2_778
10
32.1408734
20
67.1372063
11
32.1072734
21
67.0726063
0
LINE
8
DEFAULT_255_2_778
10
32.1072734
20
67.0726063
11
32.0453734
21
66.9948063
0
LINE
8
DEFAULT_255_2_778
10
32.0453734
20
66.9948063
11
31.9257734
21
66.9036063
0
LINE
8
DEFAULT_255_2_778
10
31.9257734
20
66.9036063
11
31.7786734
21
66.8469063
0
LINE
8
DEFAULT_255_2_778
10
31.7786734
20
66.8469063
11
31.7379734
21
66.8385063
0
LINE
8
DEFAULT_255_2_778
10
31.6453734
20
67.0819063
11
31.5077734
21
67.0716063
0
LINE
8
DEFAULT_255_2_778
10
31.5077734
20
67.0716063
11
31.0849734
21
67.0716063
0
LINE
8
DEFAULT_255_2_778
10
31.0849734
20
67.0716063
11
31.0849734
21
67.8370063
0
LINE
8
DEFAULT_255_2_778
10
31.0849734
20
67.8370063
11
31.6365734
21
67.8225063
0
LINE
8
DEFAULT_255_2_778
10
31.6365734
20
67.8225063
11
31.7953734
21
67.7563063
0
LINE
8
DEFAULT_255_2_778
10
31.7953734
20
67.7563063
11
31.8752734
21
67.6777063
0
LINE
8
DEFAULT_255_2_778
10
31.8752734
20
67.6777063
11
31.9032734
21
67.6259063
0
LINE
8
DEFAULT_255_2_778
10
31.9032734
20
67.6259063
11
31.9183734
21
67.5798063
0
LINE
8
DEFAULT_255_2_778
10
31.9183734
20
67.5798063
11
31.9260734
21
67.5439063
0
LINE
8
DEFAULT_255_2_778
10
31.9260734
20
67.5439063
11
31.9308734
21
67.5071063
0
LINE
8
DEFAULT_255_2_778
10
31.9308734
20
67.5071063
11
31.9294734
21
67.3827063
0
LINE
8
DEFAULT_255_2_778
10
31.9294734
20
67.3827063
11
31.9252734
21
67.3531063
0
LINE
8
DEFAULT_255_2_778
10
31.9252734
20
67.3531063
11
31.9136734
21
67.3018063
0
LINE
8
DEFAULT_255_2_778
10
31.9136734
20
67.3018063
11
31.8889734
21
67.2385063
0
LINE
8
DEFAULT_255_2_778
10
31.8889734
20
67.2385063
11
31.8397734
21
67.1697063
0
LINE
8
DEFAULT_255_2_778
10
31.8397734
20
67.1697063
11
31.7310734
21
67.1028063
0
LINE
8
DEFAULT_255_2_778
10
31.7310734
20
67.1028063
11
31.6453734
21
67.0819063
0
LINE
8
DEFAULT_255_2_778
10
31.5630734
20
68.1005063
11
31.4349734
21
68.0929063
0
LINE
8
DEFAULT_255_2_778
10
31.4349734
20
68.0929063
11
31.0851734
21
68.0929063
0
LINE
8
DEFAULT_255_2_778
10
31.0851734
20
68.0929063
11
31.0851734
21
68.7726063
0
LINE
8
DEFAULT_255_2_778
10
31.0851734
20
68.7726063
11
31.5916734
21
68.7591063
0
LINE
8
DEFAULT_255_2_778
10
31.5916734
20
68.7591063
11
31.7580734
21
68.6818063
0
LINE
8
DEFAULT_255_2_778
10
31.7580734
20
68.6818063
11
31.8220734
21
68.6075063
0
LINE
8
DEFAULT_255_2_778
10
31.8220734
20
68.6075063
11
31.8471734
21
68.5498063
0
LINE
8
DEFAULT_255_2_778
10
31.8471734
20
68.5498063
11
31.8572734
21
68.5083063
0
LINE
8
DEFAULT_255_2_778
10
31.8572734
20
68.5083063
11
31.8553734
21
68.3355063
0
LINE
8
DEFAULT_255_2_778
10
31.8553734
20
68.3355063
11
31.8403734
21
68.2850063
0
LINE
8
DEFAULT_255_2_778
10
31.8403734
20
68.2850063
11
31.8045734
21
68.2228063
0
LINE
8
DEFAULT_255_2_778
10
31.8045734
20
68.2228063
11
31.6826734
21
68.1331063
0
LINE
8
DEFAULT_255_2_778
10
31.6826734
20
68.1331063
11
31.5630734
21
68.1005063
0
LINE
8
DEFAULT_255_2_778
10
38.0302734
20
66.8448063
11
37.7884734
21
66.8223063
0
LINE
8
DEFAULT_255_2_778
10
37.7884734
20
66.8223063
11
37.1457734
21
66.8223063
0
LINE
8
DEFAULT_255_2_778
10
37.1457734
20
66.8223063
11
37.1457734
21
69.0223063
0
LINE
8
DEFAULT_255_2_778
10
37.1457734
20
69.0223063
11
37.8892734
21
69.0144063
0
LINE
8
DEFAULT_255_2_778
10
37.8892734
20
69.0144063
11
38.0686734
21
68.9800063
0
LINE
8
DEFAULT_255_2_778
10
38.0686734
20
68.9800063
11
38.2088734
21
68.9258063
0
LINE
8
DEFAULT_255_2_778
10
38.2088734
20
68.9258063
11
38.3062734
21
68.8657063
0
LINE
8
DEFAULT_255_2_778
10
38.3062734
20
68.8657063
11
38.3892734
21
68.7937063
0
LINE
8
DEFAULT_255_2_778
10
38.3892734
20
68.7937063
11
38.4620734
21
68.7101063
0
LINE
8
DEFAULT_255_2_778
10
38.4620734
20
68.7101063
11
38.5239734
21
68.6178063
0
LINE
8
DEFAULT_255_2_778
10
38.5239734
20
68.6178063
11
38.5744734
21
68.5191063
0
LINE
8
DEFAULT_255_2_778
10
38.5744734
20
68.5191063
11
38.6038734
21
68.4445063
0
LINE
8
DEFAULT_255_2_778
10
38.6038734
20
68.4445063
11
38.6274734
21
68.3683063
0
LINE
8
DEFAULT_255_2_778
10
38.6274734
20
68.3683063
11
38.6371734
21
68.3297063
0
LINE
8
DEFAULT_255_2_778
10
38.6371734
20
68.3297063
11
38.6456734
21
68.2908063
0
LINE
8
DEFAULT_255_2_778
10
38.6456734
20
68.2908063
11
38.6530734
21
68.2516063
0
LINE
8
DEFAULT_255_2_778
10
38.6530734
20
68.2516063
11
38.6594734
21
68.2122063
0
LINE
8
DEFAULT_255_2_778
10
38.6594734
20
68.2122063
11
38.6647734
21
68.1725063
0
LINE
8
DEFAULT_255_2_778
10
38.6647734
20
68.1725063
11
38.6689734
21
68.1326063
0
LINE
8
DEFAULT_255_2_778
10
38.6689734
20
68.1326063
11
38.6723734
21
68.0923063
0
LINE
8
DEFAULT_255_2_778
10
38.6723734
20
68.0923063
11
38.6723734
21
67.6994063
0
LINE
8
DEFAULT_255_2_778
10
38.6723734
20
67.6994063
11
38.6692734
21
67.6616063
0
LINE
8
DEFAULT_255_2_778
10
38.6692734
20
67.6616063
11
38.6652734
21
67.6240063
0
LINE
8
DEFAULT_255_2_778
10
38.6652734
20
67.6240063
11
38.6602734
21
67.5865063
0
LINE
8
DEFAULT_255_2_778
10
38.6602734
20
67.5865063
11
38.6543734
21
67.5491063
0
LINE
8
DEFAULT_255_2_778
10
38.6543734
20
67.5491063
11
38.6475734
21
67.5121063
0
LINE
8
DEFAULT_255_2_778
10
38.6475734
20
67.5121063
11
38.6303734
21
67.4388063
0
LINE
8
DEFAULT_255_2_778
10
38.6303734
20
67.4388063
11
38.6080734
21
67.3668063
0
LINE
8
DEFAULT_255_2_778
10
38.6080734
20
67.3668063
11
38.5803734
21
67.2965063
0
LINE
8
DEFAULT_255_2_778
10
38.5803734
20
67.2965063
11
38.5432734
21
67.2221063
0
LINE
8
DEFAULT_255_2_778
10
38.5432734
20
67.2221063
11
38.4832734
21
67.1285063
0
LINE
8
DEFAULT_255_2_778
10
38.4832734
20
67.1285063
11
38.4115734
21
67.0438063
0
LINE
8
DEFAULT_255_2_778
10
38.4115734
20
67.0438063
11
38.3286734
21
66.9713063
0
LINE
8
DEFAULT_255_2_778
10
38.3286734
20
66.9713063
11
38.2310734
21
66.9112063
0
LINE
8
DEFAULT_255_2_778
10
38.2310734
20
66.9112063
11
38.0897734
21
66.8583063
0
LINE
8
DEFAULT_255_2_778
10
38.0897734
20
66.8583063
11
38.0302734
21
66.8448063
0
LINE
8
DEFAULT_255_2_778
10
37.9479734
20
67.0856063
11
37.7897734
21
67.0716063
0
LINE
8
DEFAULT_255_2_778
10
37.7897734
20
67.0716063
11
37.4013734
21
67.0716063
0
LINE
8
DEFAULT_255_2_778
10
37.4013734
20
67.0716063
11
37.4013734
21
68.7726063
0
LINE
8
DEFAULT_255_2_778
10
37.4013734
20
68.7726063
11
37.8701734
21
68.7638063
0
LINE
8
DEFAULT_255_2_778
10
37.8701734
20
68.7638063
11
38.0207734
21
68.7271063
0
LINE
8
DEFAULT_255_2_778
10
38.0207734
20
68.7271063
11
38.1366734
21
68.6673063
0
LINE
8
DEFAULT_255_2_778
10
38.1366734
20
68.6673063
11
38.2175734
21
68.5977063
0
LINE
8
DEFAULT_255_2_778
10
38.2175734
20
68.5977063
11
38.2850734
21
68.5133063
0
LINE
8
DEFAULT_255_2_778
10
38.2850734
20
68.5133063
11
38.3286734
21
68.4381063
0
LINE
8
DEFAULT_255_2_778
10
38.3286734
20
68.4381063
11
38.3583734
21
68.3712063
0
LINE
8
DEFAULT_255_2_778
10
38.3583734
20
68.3712063
11
38.3776734
21
68.3149063
0
LINE
8
DEFAULT_255_2_778
10
38.3776734
20
68.3149063
11
38.3927734
21
68.2574063
0
LINE
8
DEFAULT_255_2_778
10
38.3927734
20
68.2574063
11
38.4043734
21
68.1992063
0
LINE
8
DEFAULT_255_2_778
10
38.4043734
20
68.1992063
11
38.4088734
21
68.1699063
0
LINE
8
DEFAULT_255_2_778
10
38.4088734
20
68.1699063
11
38.4125734
21
68.1402063
0
LINE
8
DEFAULT_255_2_778
10
38.4125734
20
68.1402063
11
38.4157734
21
68.1106063
0
LINE
8
DEFAULT_255_2_778
10
38.4157734
20
68.1106063
11
38.4167734
21
67.7603063
0
LINE
8
DEFAULT_255_2_778
10
38.4167734
20
67.7603063
11
38.4130734
21
67.7177063
0
LINE
8
DEFAULT_255_2_778
10
38.4130734
20
67.7177063
11
38.4083734
21
67.6751063
0
LINE
8
DEFAULT_255_2_778
10
38.4083734
20
67.6751063
11
38.3993734
21
67.6148063
0
LINE
8
DEFAULT_255_2_778
10
38.3993734
20
67.6148063
11
38.3876734
21
67.5547063
0
LINE
8
DEFAULT_255_2_778
10
38.3876734
20
67.5547063
11
38.3726734
21
67.4954063
0
LINE
8
DEFAULT_255_2_778
10
38.3726734
20
67.4954063
11
38.3490734
21
67.4240063
0
LINE
8
DEFAULT_255_2_778
10
38.3490734
20
67.4240063
11
38.3223734
21
67.3629063
0
LINE
8
DEFAULT_255_2_778
10
38.3223734
20
67.3629063
11
38.2781734
21
67.2885063
0
LINE
8
DEFAULT_255_2_778
10
38.2781734
20
67.2885063
11
38.2125734
21
67.2131063
0
LINE
8
DEFAULT_255_2_778
10
38.2125734
20
67.2131063
11
38.1318734
21
67.1525063
0
LINE
8
DEFAULT_255_2_778
10
38.1318734
20
67.1525063
11
37.9995734
21
67.0970063
0
LINE
8
DEFAULT_255_2_778
10
37.9995734
20
67.0970063
11
37.9479734
21
67.0856063
0
LINE
8
DEFAULT_255_2_778
10
39.9363734
20
67.7727063
11
39.7616734
21
67.7558063
0
LINE
8
DEFAULT_255_2_778
10
39.7616734
20
67.7558063
11
39.3375734
21
67.7558063
0
LINE
8
DEFAULT_255_2_778
10
39.3375734
20
67.7558063
11
39.3375734
21
66.8218063
0
LINE
8
DEFAULT_255_2_778
10
39.3375734
20
66.8218063
11
39.0816734
21
66.8218063
0
LINE
8
DEFAULT_255_2_778
10
39.0816734
20
66.8218063
11
39.0816734
21
69.0218063
0
LINE
8
DEFAULT_255_2_778
10
39.0816734
20
69.0218063
11
39.8606734
21
69.0168063
0
LINE
8
DEFAULT_255_2_778
10
39.8606734
20
69.0168063
11
40.0463734
21
68.9723063
0
LINE
8
DEFAULT_255_2_778
10
40.0463734
20
68.9723063
11
40.1768734
21
68.8988063
0
LINE
8
DEFAULT_255_2_778
10
40.1768734
20
68.8988063
11
40.2569734
21
68.8234063
0
LINE
8
DEFAULT_255_2_778
10
40.2569734
20
68.8234063
11
40.3101734
21
68.7493063
0
LINE
8
DEFAULT_255_2_778
10
40.3101734
20
68.7493063
11
40.3440734
21
68.6805063
0
LINE
8
DEFAULT_255_2_778
10
40.3440734
20
68.6805063
11
40.3630734
21
68.6263063
0
LINE
8
DEFAULT_255_2_778
10
40.3630734
20
68.6263063
11
40.3728734
21
68.5892063
0
LINE
8
DEFAULT_255_2_778
10
40.3728734
20
68.5892063
11
40.3823734
21
68.5413063
0
LINE
8
DEFAULT_255_2_778
10
40.3823734
20
68.5413063
11
40.3860734
21
68.5173063
0
LINE
8
DEFAULT_255_2_778
10
40.3860734
20
68.5173063
11
40.3890734
21
68.4929063
0
LINE
8
DEFAULT_255_2_778
10
40.3890734
20
68.4929063
11
40.3890734
21
68.2961063
0
LINE
8
DEFAULT_255_2_778
10
40.3890734
20
68.2961063
11
40.3860734
21
68.2715063
0
LINE
8
DEFAULT_255_2_778
10
40.3860734
20
68.2715063
11
40.3781734
21
68.2225063
0
LINE
8
DEFAULT_255_2_778
10
40.3781734
20
68.2225063
11
40.3633734
21
68.1606063
0
LINE
8
DEFAULT_255_2_778
10
40.3633734
20
68.1606063
11
40.3445734
21
68.1056063
0
LINE
8
DEFAULT_255_2_778
10
40.3445734
20
68.1056063
11
40.3112734
21
68.0357063
0
LINE
8
DEFAULT_255_2_778
10
40.3112734
20
68.0357063
11
40.2588734
21
67.9603063
0
LINE
8
DEFAULT_255_2_778
10
40.2588734
20
67.9603063
11
40.1794734
21
67.8831063
0
LINE
8
DEFAULT_255_2_778
10
40.1794734
20
67.8831063
11
40.0670734
21
67.8148063
0
LINE
8
DEFAULT_255_2_778
10
40.0670734
20
67.8148063
11
39.9363734
21
67.7727063
0
LINE
8
DEFAULT_255_2_778
10
39.8540734
20
68.0130063
11
39.7619734
21
68.0053063
0
LINE
8
DEFAULT_255_2_778
10
39.7619734
20
68.0053063
11
39.3378734
21
68.0053063
0
LINE
8
DEFAULT_255_2_778
10
39.3378734
20
68.0053063
11
39.3378734
21
68.7723063
0
LINE
8
DEFAULT_255_2_778
10
39.3378734
20
68.7723063
11
39.8892734
21
68.7570063
0
LINE
8
DEFAULT_255_2_778
10
39.8892734
20
68.7570063
11
40.0199734
21
68.6906063
0
LINE
8
DEFAULT_255_2_778
10
40.0199734
20
68.6906063
11
40.0839734
21
68.6159063
0
LINE
8
DEFAULT_255_2_778
10
40.0839734
20
68.6159063
11
40.1133734
21
68.5538063
0
LINE
8
DEFAULT_255_2_778
10
40.1133734
20
68.5538063
11
40.1262734
21
68.5093063
0
LINE
8
DEFAULT_255_2_778
10
40.1262734
20
68.5093063
11
40.1318734
21
68.4802063
0
LINE
8
DEFAULT_255_2_778
10
40.1318734
20
68.4802063
11
40.1294734
21
68.2876063
0
LINE
8
DEFAULT_255_2_778
10
40.1294734
20
68.2876063
11
40.1172734
21
68.2392063
0
LINE
8
DEFAULT_255_2_778
10
40.1172734
20
68.2392063
11
40.0900734
21
68.1749063
0
LINE
8
DEFAULT_255_2_778
10
40.0900734
20
68.1749063
11
40.0296734
21
68.0971063
0
LINE
8
DEFAULT_255_2_778
10
40.0296734
20
68.0971063
11
39.9127734
21
68.0278063
0
LINE
8
DEFAULT_255_2_778
10
39.9127734
20
68.0278063
11
39.8540734
21
68.0130063
0
LINE
8
DEFAULT_255_2_778
10
30.2999734
20
72.1185063
11
30.6584734
21
72.1185063
0
LINE
8
DEFAULT_255_2_778
10
30.6584734
20
72.1185063
11
29.8913734
21
71.0644063
0
LINE
8
DEFAULT_255_2_778
10
29.8913734
20
71.0644063
11
30.7348734
21
69.9185063
0
LINE
8
DEFAULT_255_2_778
10
30.7348734
20
69.9185063
11
30.3496734
21
69.9185063
0
LINE
8
DEFAULT_255_2_778
10
30.3496734
20
69.9185063
11
29.6932734
21
70.8556063
0
LINE
8
DEFAULT_255_2_778
10
29.6932734
20
70.8556063
11
29.0524734
21
69.9185063
0
LINE
8
DEFAULT_255_2_778
10
29.0524734
20
69.9185063
11
28.6843734
21
69.9185063
0
LINE
8
DEFAULT_255_2_778
10
28.6843734
20
69.9185063
11
29.5154734
21
71.0708063
0
LINE
8
DEFAULT_255_2_778
10
29.5154734
20
71.0708063
11
28.7576734
21
72.1185063
0
LINE
8
DEFAULT_255_2_778
10
28.7576734
20
72.1185063
11
29.1333734
21
72.1185063
0
LINE
8
DEFAULT_255_2_778
10
29.1333734
20
72.1185063
11
29.7180734
21
71.2642063
0
LINE
8
DEFAULT_255_2_778
10
29.7180734
20
71.2642063
11
30.2996734
21
72.1185063
0
LINE
8
DEFAULT_255_2_778
10
32.1117734
20
72.1061063
11
31.8622734
21
72.1061063
0
LINE
8
DEFAULT_255_2_778
10
31.8622734
20
72.1061063
11
31.5974734
21
71.8989063
0
LINE
8
DEFAULT_255_2_778
10
31.5974734
20
71.8989063
11
31.3352734
21
71.7677063
0
LINE
8
DEFAULT_255_2_778
10
31.3352734
20
71.7677063
11
31.3352734
21
71.4933063
0
LINE
8
DEFAULT_255_2_778
10
31.3352734
20
71.4933063
11
31.7119734
21
71.6851063
0
LINE
8
DEFAULT_255_2_778
10
31.7119734
20
71.6851063
11
31.8170734
21
71.7661063
0
LINE
8
DEFAULT_255_2_778
10
31.8170734
20
71.7661063
11
31.8170734
21
69.9185063
0
LINE
8
DEFAULT_255_2_778
10
31.8170734
20
69.9185063
11
32.1117734
21
69.9185063
0
LINE
8
DEFAULT_255_2_778
10
32.1117734
20
69.9185063
11
32.1117734
21
72.1061063
0
LINE
8
DEFAULT_255_2_778
10
14.1740734
20
5.5123063
11
14.3283734
21
5.5123063
0
LINE
8
DEFAULT_255_2_778
10
14.3283734
20
5.5123063
11
14.3283734
21
3.8219063
0
LINE
8
DEFAULT_255_2_778
10
14.3283734
20
3.8219063
11
14.1460734
21
3.8219063
0
LINE
8
DEFAULT_255_2_778
10
14.1460734
20
3.8219063
11
14.1460734
21
5.2496063
0
LINE
8
DEFAULT_255_2_778
10
14.1460734
20
5.2496063
11
13.9317734
21
5.0826063
0
LINE
8
DEFAULT_255_2_778
10
13.9317734
20
5.0826063
11
13.8481734
21
5.0389063
0
LINE
8
DEFAULT_255_2_778
10
13.8481734
20
5.0389063
11
13.8481734
21
5.2509063
0
LINE
8
DEFAULT_255_2_778
10
13.8481734
20
5.2509063
11
14.0849734
21
5.4168063
0
LINE
8
DEFAULT_255_2_778
10
14.0849734
20
5.4168063
11
14.1738734
21
5.5126063
0
LINE
8
DEFAULT_255_2_778
10
14.7535734
20
2.0412063
11
15.2218734
21
2.0412063
0
LINE
8
DEFAULT_255_2_778
10
15.2218734
20
2.0412063
11
15.2218734
21
1.8809063
0
LINE
8
DEFAULT_255_2_778
10
15.2218734
20
1.8809063
11
14.7535734
21
1.8809063
0
LINE
8
DEFAULT_255_2_778
10
14.7535734
20
1.8809063
11
14.7535734
21
2.0412063
0
LINE
8
DEFAULT_255_2_778
10
17.3530734
20
4.5413063
11
17.8213734
21
4.5413063
0
LINE
8
DEFAULT_255_2_778
10
17.8213734
20
4.5413063
11
17.8213734
21
4.3809063
0
LINE
8
DEFAULT_255_2_778
10
17.8213734
20
4.3809063
11
17.3530734
21
4.3809063
0
LINE
8
DEFAULT_255_2_778
10
17.3530734
20
4.3809063
11
17.3530734
21
4.5413063
0
LINE
8
DEFAULT_255_2_778
10
15.3565734
20
5.3602063
11
15.5377734
21
5.3371063
0
LINE
8
DEFAULT_255_2_778
10
15.5377734
20
5.3371063
11
15.6308734
21
5.2575063
0
LINE
8
DEFAULT_255_2_778
10
15.6308734
20
5.2575063
11
15.6642734
21
5.1895063
0
LINE
8
DEFAULT_255_2_778
10
15.6642734
20
5.1895063
11
15.6748734
21
5.1456063
0
LINE
8
DEFAULT_255_2_778
10
15.6748734
20
5.1456063
11
15.6724734
21
5.0075063
0
LINE
8
DEFAULT_255_2_778
10
15.6724734
20
5.0075063
11
15.6449734
21
4.9360063
0
LINE
8
DEFAULT_255_2_778
10
15.6449734
20
4.9360063
11
15.5213734
21
4.8212063
0
LINE
8
DEFAULT_255_2_778
10
15.5213734
20
4.8212063
11
15.3715734
21
4.7863063
0
LINE
8
DEFAULT_255_2_778
10
15.3715734
20
4.7863063
11
15.3107734
21
4.7863063
0
LINE
8
DEFAULT_255_2_778
10
15.3107734
20
4.7863063
11
15.3107734
21
4.5960063
0
LINE
8
DEFAULT_255_2_778
10
15.3107734
20
4.5960063
11
15.5369734
21
4.5693063
0
LINE
8
DEFAULT_255_2_778
10
15.5369734
20
4.5693063
11
15.6494734
21
4.4913063
0
LINE
8
DEFAULT_255_2_778
10
15.6494734
20
4.4913063
11
15.6906734
21
4.4198063
0
LINE
8
DEFAULT_255_2_778
10
15.6906734
20
4.4198063
11
15.7007734
21
4.3846063
0
LINE
8
DEFAULT_255_2_778
10
15.7007734
20
4.3846063
11
15.7054734
21
4.3547063
0
LINE
8
DEFAULT_255_2_778
10
15.7054734
20
4.3547063
11
15.7044734
21
4.2518063
0
LINE
8
DEFAULT_255_2_778
10
15.7044734
20
4.2518063
11
15.6959734
21
4.2050063
0
LINE
8
DEFAULT_255_2_778
10
15.6959734
20
4.2050063
11
15.6777734
21
4.1486063
0
LINE
8
DEFAULT_255_2_778
10
15.6777734
20
4.1486063
11
15.6274734
21
4.0695063
0
LINE
8
DEFAULT_255_2_778
10
15.6274734
20
4.0695063
11
15.5271734
21
3.9983063
0
LINE
8
DEFAULT_255_2_778
10
15.5271734
20
3.9983063
11
15.3014734
21
4.0002063
0
LINE
8
DEFAULT_255_2_778
10
15.3014734
20
4.0002063
11
15.1845734
21
4.1037063
0
LINE
8
DEFAULT_255_2_778
10
15.1845734
20
4.1037063
11
15.1358734
21
4.1994063
0
LINE
8
DEFAULT_255_2_778
10
15.1358734
20
4.1994063
11
15.1112734
21
4.2867063
0
LINE
8
DEFAULT_255_2_778
10
15.1112734
20
4.2867063
11
14.9252734
21
4.2867063
0
LINE
8
DEFAULT_255_2_778
10
14.9252734
20
4.2867063
11
14.9313734
21
4.2455063
0
LINE
8
DEFAULT_255_2_778
10
14.9313734
20
4.2455063
11
14.9395734
21
4.2042063
0
LINE
8
DEFAULT_255_2_778
10
14.9395734
20
4.2042063
11
14.9559734
21
4.1433063
0
LINE
8
DEFAULT_255_2_778
10
14.9559734
20
4.1433063
11
14.9863734
21
4.0656063
0
LINE
8
DEFAULT_255_2_778
10
14.9863734
20
4.0656063
11
15.0355734
21
3.9811063
0
LINE
8
DEFAULT_255_2_778
10
15.0355734
20
3.9811063
11
15.1194734
21
3.8891063
0
LINE
8
DEFAULT_255_2_778
10
15.1194734
20
3.8891063
11
15.2326734
21
3.8184063
0
LINE
8
DEFAULT_255_2_778
10
15.2326734
20
3.8184063
11
15.4073734
21
3.7846063
0
LINE
8
DEFAULT_255_2_778
10
15.4073734
20
3.7846063
11
15.5951734
21
3.8150063
0
LINE
8
DEFAULT_255_2_778
10
15.5951734
20
3.8150063
11
15.7121734
21
3.8787063
0
LINE
8
DEFAULT_255_2_778
10
15.7121734
20
3.8787063
11
15.7943734
21
3.9624063
0
LINE
8
DEFAULT_255_2_778
10
15.7943734
20
3.9624063
11
15.8399734
21
4.0394063
0
LINE
8
DEFAULT_255_2_778
10
15.8399734
20
4.0394063
11
15.8621734
21
4.0970063
0
LINE
8
DEFAULT_255_2_778
10
15.8621734
20
4.0970063
11
15.8742734
21
4.1418063
0
LINE
8
DEFAULT_255_2_778
10
15.8742734
20
4.1418063
11
15.8817734
21
4.1801063
0
LINE
8
DEFAULT_255_2_778
10
15.8817734
20
4.1801063
11
15.8795734
21
4.4167063
0
LINE
8
DEFAULT_255_2_778
10
15.8795734
20
4.4167063
11
15.8565734
21
4.4931063
0
LINE
8
DEFAULT_255_2_778
10
15.8565734
20
4.4931063
11
15.7679734
21
4.6201063
0
LINE
8
DEFAULT_255_2_778
10
15.7679734
20
4.6201063
11
15.6380734
21
4.6926063
0
LINE
8
DEFAULT_255_2_778
10
15.6380734
20
4.6926063
11
15.7372734
21
4.7672063
0
LINE
8
DEFAULT_255_2_778
10
15.7372734
20
4.7672063
11
15.7991734
21
4.8477063
0
LINE
8
DEFAULT_255_2_778
10
15.7991734
20
4.8477063
11
15.8306734
21
4.9143063
0
LINE
8
DEFAULT_255_2_778
10
15.8306734
20
4.9143063
11
15.8475734
21
4.9712063
0
LINE
8
DEFAULT_255_2_778
10
15.8475734
20
4.9712063
11
15.8539734
21
5.0030063
0
LINE
8
DEFAULT_255_2_778
10
15.8539734
20
5.0030063
11
15.8528734
21
5.2019063
0
LINE
8
DEFAULT_255_2_778
10
15.8528734
20
5.2019063
11
15.8420734
21
5.2485063
0
LINE
8
DEFAULT_255_2_778
10
15.8420734
20
5.2485063
11
15.8179734
21
5.3128063
0
LINE
8
DEFAULT_255_2_778
10
15.8179734
20
5.3128063
11
15.7753734
21
5.3826063
0
LINE
8
DEFAULT_255_2_778
10
15.7753734
20
5.3826063
11
15.6959734
21
5.4610063
0
LINE
8
DEFAULT_255_2_778
10
15.6959734
20
5.4610063
11
15.5737734
21
5.5239063
0
LINE
8
DEFAULT_255_2_778
10
15.5737734
20
5.5239063
11
15.3951734
21
5.5475063
0
LINE
8
DEFAULT_255_2_778
10
15.3951734
20
5.5475063
11
15.2131734
21
5.5102063
0
LINE
8
DEFAULT_255_2_778
10
15.2131734
20
5.5102063
11
15.0588734
21
5.3922063
0
LINE
8
DEFAULT_255_2_778
10
15.0588734
20
5.3922063
11
15.0032734
21
5.2980063
0
LINE
8
DEFAULT_255_2_778
10
15.0032734
20
5.2980063
11
14.9794734
21
5.2231063
0
LINE
8
DEFAULT_255_2_778
10
14.9794734
20
5.2231063
11
14.9696734
21
5.1683063
0
LINE
8
DEFAULT_255_2_778
10
14.9696734
20
5.1683063
11
14.9662734
21
5.1353063
0
LINE
8
DEFAULT_255_2_778
10
14.9662734
20
5.1353063
11
14.9643734
21
5.0802063
0
LINE
8
DEFAULT_255_2_778
10
14.9643734
20
5.0802063
11
15.1408734
21
5.0802063
0
LINE
8
DEFAULT_255_2_778
10
15.1408734
20
5.0802063
11
15.1435734
21
5.1276063
0
LINE
8
DEFAULT_255_2_778
10
15.1435734
20
5.1276063
11
15.1501734
21
5.1652063
0
LINE
8
DEFAULT_255_2_778
10
15.1501734
20
5.1652063
11
15.1699734
21
5.2215063
0
LINE
8
DEFAULT_255_2_778
10
15.1699734
20
5.2215063
11
15.2363734
21
5.3057063
0
LINE
8
DEFAULT_255_2_778
10
15.2363734
20
5.3057063
11
15.3575734
21
5.3602063
0
LINE
8
DEFAULT_255_2_778
10
11.8155734
20
5.5221063
11
12.7400734
21
5.5221063
0
LINE
8
DEFAULT_255_2_778
10
12.7400734
20
5.5221063
11
12.7400734
21
5.3136063
0
LINE
8
DEFAULT_255_2_778
10
12.7400734
20
5.3136063
11
12.2185734
21
3.8221063
0
LINE
8
DEFAULT_255_2_778
10
12.2185734
20
3.8221063
11
11.9997734
21
3.8221063
0
LINE
8
DEFAULT_255_2_778
10
11.9997734
20
3.8221063
11
12.5482734
21
5.3318063
0
LINE
8
DEFAULT_255_2_778
10
12.5482734
20
5.3318063
11
11.8155734
21
5.3318063
0
LINE
8
DEFAULT_255_2_778
10
11.8155734
20
5.3318063
11
11.8155734
21
5.5221063
0
LINE
8
DEFAULT_255_2_778
10
9.4319734
20
5.5221063
11
10.2608734
21
5.5221063
0
LINE
8
DEFAULT_255_2_778
10
10.2608734
20
5.5221063
11
10.2608734
21
5.3292063
0
LINE
8
DEFAULT_255_2_778
10
10.2608734
20
5.3292063
11
9.6179734
21
5.3292063
0
LINE
8
DEFAULT_255_2_778
10
9.6179734
20
5.3292063
11
9.6179734
21
4.7932063
0
LINE
8
DEFAULT_255_2_778
10
9.6179734
20
4.7932063
11
10.2357734
21
4.7932063
0
LINE
8
DEFAULT_255_2_778
10
10.2357734
20
4.7932063
11
10.2357734
21
4.6003063
0
LINE
8
DEFAULT_255_2_778
10
10.2357734
20
4.6003063
11
9.6179734
21
4.6003063
0
LINE
8
DEFAULT_255_2_778
10
9.6179734
20
4.6003063
11
9.6179734
21
4.0148063
0
LINE
8
DEFAULT_255_2_778
10
9.6179734
20
4.0148063
11
10.2780734
21
4.0148063
0
LINE
8
DEFAULT_255_2_778
10
10.2780734
20
4.0148063
11
10.2780734
21
3.8219063
0
LINE
8
DEFAULT_255_2_778
10
10.2780734
20
3.8219063
11
9.4319734
21
3.8219063
0
LINE
8
DEFAULT_255_2_778
10
9.4319734
20
3.8219063
11
9.4319734
21
5.5218063
0
LINE
8
DEFAULT_255_2_778
10
10.9445734
20
5.5499063
11
10.7638734
21
5.4951063
0
LINE
8
DEFAULT_255_2_778
10
10.7638734
20
5.4951063
11
10.6511734
21
5.4112063
0
LINE
8
DEFAULT_255_2_778
10
10.6511734
20
5.4112063
11
10.5934734
21
5.3348063
0
LINE
8
DEFAULT_255_2_778
10
10.5934734
20
5.3348063
11
10.5612734
21
5.2649063
0
LINE
8
DEFAULT_255_2_778
10
10.5612734
20
5.2649063
11
10.5477734
21
5.2207063
0
LINE
8
DEFAULT_255_2_778
10
10.5477734
20
5.2207063
11
10.5402734
21
5.1869063
0
LINE
8
DEFAULT_255_2_778
10
10.5402734
20
5.1869063
11
10.5350734
21
5.1525063
0
LINE
8
DEFAULT_255_2_778
10
10.5350734
20
5.1525063
11
10.5368734
21
4.9707063
0
LINE
8
DEFAULT_255_2_778
10
10.5368734
20
4.9707063
11
10.5485734
21
4.9162063
0
LINE
8
DEFAULT_255_2_778
10
10.5485734
20
4.9162063
11
10.5828734
21
4.8307063
0
LINE
8
DEFAULT_255_2_778
10
10.5828734
20
4.8307063
11
10.6638734
21
4.7331063
0
LINE
8
DEFAULT_255_2_778
10
10.6638734
20
4.7331063
11
10.8749734
21
4.6286063
0
LINE
8
DEFAULT_255_2_778
10
10.8749734
20
4.6286063
11
11.2493734
21
4.5037063
0
LINE
8
DEFAULT_255_2_778
10
11.2493734
20
4.5037063
11
11.3308734
21
4.4251063
0
LINE
8
DEFAULT_255_2_778
10
11.3308734
20
4.4251063
11
11.3517734
21
4.3770063
0
LINE
8
DEFAULT_255_2_778
10
11.3517734
20
4.3770063
11
11.3591734
21
4.3412063
0
LINE
8
DEFAULT_255_2_778
10
11.3591734
20
4.3412063
11
11.3581734
21
4.2217063
0
LINE
8
DEFAULT_255_2_778
10
11.3581734
20
4.2217063
11
11.3491734
21
4.1817063
0
LINE
8
DEFAULT_255_2_778
10
11.3491734
20
4.1817063
11
11.3210734
21
4.1171063
0
LINE
8
DEFAULT_255_2_778
10
11.3210734
20
4.1171063
11
11.2464734
21
4.0367063
0
LINE
8
DEFAULT_255_2_778
10
11.2464734
20
4.0367063
11
11.0993734
21
3.9846063
0
LINE
8
DEFAULT_255_2_778
10
11.0993734
20
3.9846063
11
10.8958734
21
4.0002063
0
LINE
8
DEFAULT_255_2_778
10
10.8958734
20
4.0002063
11
10.7527734
21
4.1129063
0
LINE
8
DEFAULT_255_2_778
10
10.7527734
20
4.1129063
11
10.7091734
21
4.2111063
0
LINE
8
DEFAULT_255_2_778
10
10.7091734
20
4.2111063
11
10.7009734
21
4.2568063
0
LINE
8
DEFAULT_255_2_778
10
10.7009734
20
4.2568063
11
10.7011734
21
4.3153063
0
LINE
8
DEFAULT_255_2_778
10
10.7011734
20
4.3153063
11
10.5141734
21
4.3153063
0
LINE
8
DEFAULT_255_2_778
10
10.5141734
20
4.3153063
11
10.5154734
21
4.2531063
0
LINE
8
DEFAULT_255_2_778
10
10.5154734
20
4.2531063
11
10.5191734
21
4.2217063
0
LINE
8
DEFAULT_255_2_778
10
10.5191734
20
4.2217063
11
10.5283734
21
4.1743063
0
LINE
8
DEFAULT_255_2_778
10
10.5283734
20
4.1743063
11
10.5471734
21
4.1119063
0
LINE
8
DEFAULT_255_2_778
10
10.5471734
20
4.1119063
11
10.5807734
21
4.0370063
0
LINE
8
DEFAULT_255_2_778
10
10.5807734
20
4.0370063
11
10.6395734
21
3.9494063
0
LINE
8
DEFAULT_255_2_778
10
10.6395734
20
3.9494063
11
10.7247734
21
3.8700063
0
LINE
8
DEFAULT_255_2_778
10
10.7247734
20
3.8700063
11
10.8517734
21
3.8108063
0
LINE
8
DEFAULT_255_2_778
10
10.8517734
20
3.8108063
11
11.0522734
21
3.7888063
0
LINE
8
DEFAULT_255_2_778
10
11.0522734
20
3.7888063
11
11.2488734
21
3.8243063
0
LINE
8
DEFAULT_255_2_778
10
11.2488734
20
3.8243063
11
11.3700734
21
3.8917063
0
LINE
8
DEFAULT_255_2_778
10
11.3700734
20
3.8917063
11
11.4454734
21
3.9679063
0
LINE
8
DEFAULT_255_2_778
10
11.4454734
20
3.9679063
11
11.4872734
21
4.0335063
0
LINE
8
DEFAULT_255_2_778
10
11.4872734
20
4.0335063
11
11.5131734
21
4.0936063
0
LINE
8
DEFAULT_255_2_778
10
11.5131734
20
4.0936063
11
11.5314734
21
4.1566063
0
LINE
8
DEFAULT_255_2_778
10
11.5314734
20
4.1566063
11
11.5385734
21
4.1931063
0
LINE
8
DEFAULT_255_2_778
10
11.5385734
20
4.1931063
11
11.5367734
21
4.4447063
0
LINE
8
DEFAULT_255_2_778
10
11.5367734
20
4.4447063
11
11.5174734
21
4.5114063
0
LINE
8
DEFAULT_255_2_778
10
11.5174734
20
4.5114063
11
11.4666734
21
4.6032063
0
LINE
8
DEFAULT_255_2_778
10
11.4666734
20
4.6032063
11
11.3570734
21
4.6992063
0
LINE
8
DEFAULT_255_2_778
10
11.3570734
20
4.6992063
11
11.1887734
21
4.7704063
0
LINE
8
DEFAULT_255_2_778
10
11.1887734
20
4.7704063
11
10.8226734
21
4.8926063
0
LINE
8
DEFAULT_255_2_778
10
10.8226734
20
4.8926063
11
10.7477734
21
4.9673063
0
LINE
8
DEFAULT_255_2_778
10
10.7477734
20
4.9673063
11
10.7265734
21
5.0186063
0
LINE
8
DEFAULT_255_2_778
10
10.7265734
20
5.0186063
11
10.7207734
21
5.0503063
0
LINE
8
DEFAULT_255_2_778
10
10.7207734
20
5.0503063
11
10.7223734
21
5.1381063
0
LINE
8
DEFAULT_255_2_778
10
10.7223734
20
5.1381063
11
10.7329734
21
5.1821063
0
LINE
8
DEFAULT_255_2_778
10
10.7329734
20
5.1821063
11
10.7614734
21
5.2411063
0
LINE
8
DEFAULT_255_2_778
10
10.7614734
20
5.2411063
11
10.8424734
21
5.3136063
0
LINE
8
DEFAULT_255_2_778
10
10.8424734
20
5.3136063
11
11.0289734
21
5.3588063
0
LINE
8
DEFAULT_255_2_778
10
11.0289734
20
5.3588063
11
11.2570734
21
5.2702063
0
LINE
8
DEFAULT_255_2_778
10
11.2570734
20
5.2702063
11
11.3105734
21
5.1768063
0
LINE
8
DEFAULT_255_2_778
10
11.3105734
20
5.1768063
11
11.3221734
21
5.1220063
0
LINE
8
DEFAULT_255_2_778
10
11.3221734
20
5.1220063
11
11.3239734
21
5.0974063
0
LINE
8
DEFAULT_255_2_778
10
11.3239734
20
5.0974063
11
11.5129734
21
5.0974063
0
LINE
8
DEFAULT_255_2_778
10
11.5129734
20
5.0974063
11
11.5105734
21
5.1802063
0
LINE
8
DEFAULT_255_2_778
10
11.5105734
20
5.1802063
11
11.5028734
21
5.2215063
0
LINE
8
DEFAULT_255_2_778
10
11.5028734
20
5.2215063
11
11.4864734
21
5.2755063
0
LINE
8
DEFAULT_255_2_778
10
11.4864734
20
5.2755063
11
11.4494734
21
5.3522063
0
LINE
8
DEFAULT_255_2_778
10
11.4494734
20
5.3522063
11
11.3803734
21
5.4400063
0
LINE
8
DEFAULT_255_2_778
10
11.3803734
20
5.4400063
11
11.2919734
21
5.5051063
0
LINE
8
DEFAULT_255_2_778
10
11.2919734
20
5.5051063
11
11.1170734
21
5.5530063
0
LINE
8
DEFAULT_255_2_778
10
11.1170734
20
5.5530063
11
10.9443734
21
5.5504063
0
LINE
8
DEFAULT_255_2_778
10
10.3717734
20
3.0220063
11
10.5577734
21
3.0220063
0
LINE
8
DEFAULT_255_2_778
10
10.5577734
20
3.0220063
11
10.5577734
21
1.3221063
0
LINE
8
DEFAULT_255_2_778
10
10.5577734
20
1.3221063
11
10.3717734
21
1.3221063
0
LINE
8
DEFAULT_255_2_778
10
10.3717734
20
1.3221063
11
10.3717734
21
2.0981063
0
LINE
8
DEFAULT_255_2_778
10
10.3717734
20
2.0981063
11
9.6711734
21
2.0981063
0
LINE
8
DEFAULT_255_2_778
10
9.6711734
20
2.0981063
11
9.6711734
21
1.3221063
0
LINE
8
DEFAULT_255_2_778
10
9.6711734
20
1.3221063
11
9.4851734
21
1.3221063
0
LINE
8
DEFAULT_255_2_778
10
9.4851734
20
1.3221063
11
9.4851734
21
3.0220063
0
LINE
8
DEFAULT_255_2_778
10
9.4851734
20
3.0220063
11
9.6711734
21
3.0220063
0
LINE
8
DEFAULT_255_2_778
10
9.6711734
20
3.0220063
11
9.6711734
21
2.2955063
0
LINE
8
DEFAULT_255_2_778
10
9.6711734
20
2.2955063
11
10.3717734
21
2.2955063
0
LINE
8
DEFAULT_255_2_778
10
10.3717734
20
2.2955063
11
10.3717734
21
3.0220063
0
LINE
8
DEFAULT_255_2_778
10
8.6596734
20
5.3562063
11
8.7903734
21
5.3430063
0
LINE
8
DEFAULT_255_2_778
10
8.7903734
20
5.3430063
11
8.8676734
21
5.2863063
0
LINE
8
DEFAULT_255_2_778
10
8.8676734
20
5.2863063
11
8.9012734
21
5.2318063
0
LINE
8
DEFAULT_255_2_778
10
8.9012734
20
5.2318063
11
8.9162734
21
5.1850063
0
LINE
8
DEFAULT_255_2_778
10
8.9162734
20
5.1850063
11
8.9223734
21
5.1493063
0
LINE
8
DEFAULT_255_2_778
10
8.9223734
20
5.1493063
11
8.9247734
21
5.1231063
0
LINE
8
DEFAULT_255_2_778
10
8.9247734
20
5.1231063
11
8.9255734
21
5.0969063
0
LINE
8
DEFAULT_255_2_778
10
8.9255734
20
5.0969063
11
9.1038734
21
5.0969063
0
LINE
8
DEFAULT_255_2_778
10
9.1038734
20
5.0969063
11
9.1017734
21
5.1556063
0
LINE
8
DEFAULT_255_2_778
10
9.1017734
20
5.1556063
11
9.0999734
21
5.1752063
0
LINE
8
DEFAULT_255_2_778
10
9.0999734
20
5.1752063
11
9.0946734
21
5.2144063
0
LINE
8
DEFAULT_255_2_778
10
9.0946734
20
5.2144063
11
9.0872734
21
5.2506063
0
LINE
8
DEFAULT_255_2_778
10
9.0872734
20
5.2506063
11
9.0723734
21
5.3001063
0
LINE
8
DEFAULT_255_2_778
10
9.0723734
20
5.3001063
11
9.0443734
21
5.3615063
0
LINE
8
DEFAULT_255_2_778
10
9.0443734
20
5.3615063
11
8.9980734
21
5.4263063
0
LINE
8
DEFAULT_255_2_778
10
8.9980734
20
5.4263063
11
8.9199734
21
5.4917063
0
LINE
8
DEFAULT_255_2_778
10
8.9199734
20
5.4917063
11
8.7953734
21
5.5388063
0
LINE
8
DEFAULT_255_2_778
10
8.7953734
20
5.5388063
11
8.6326734
21
5.5430063
0
LINE
8
DEFAULT_255_2_778
10
8.6326734
20
5.5430063
11
8.5077734
21
5.5057063
0
LINE
8
DEFAULT_255_2_778
10
8.5077734
20
5.5057063
11
8.4029734
21
5.4303063
0
LINE
8
DEFAULT_255_2_778
10
8.4029734
20
5.4303063
11
8.3347734
21
5.3472063
0
LINE
8
DEFAULT_255_2_778
10
8.3347734
20
5.3472063
11
8.2804734
21
5.2480063
0
LINE
8
DEFAULT_255_2_778
10
8.2804734
20
5.2480063
11
8.2527734
21
5.1800063
0
LINE
8
DEFAULT_255_2_778
10
8.2527734
20
5.1800063
11
8.2275734
21
5.1022063
0
LINE
8
DEFAULT_255_2_778
10
8.2275734
20
5.1022063
11
8.2069734
21
5.0191063
0
LINE
8
DEFAULT_255_2_778
10
8.2069734
20
5.0191063
11
8.1952734
21
4.9580063
0
LINE
8
DEFAULT_255_2_778
10
8.1952734
20
4.9580063
11
8.1857734
21
4.8966063
0
LINE
8
DEFAULT_255_2_778
10
8.1857734
20
4.8966063
11
8.1783734
21
4.8350063
0
LINE
8
DEFAULT_255_2_778
10
8.1783734
20
4.8350063
11
8.1746734
21
4.7937063
0
LINE
8
DEFAULT_255_2_778
10
8.1746734
20
4.7937063
11
8.1717734
21
4.7524063
0
LINE
8
DEFAULT_255_2_778
10
8.1717734
20
4.7524063
11
8.1717734
21
4.4410063
0
LINE
8
DEFAULT_255_2_778
10
8.1717734
20
4.4410063
11
8.1743734
21
4.4066063
0
LINE
8
DEFAULT_255_2_778
10
8.1743734
20
4.4066063
11
8.1778734
21
4.3722063
0
LINE
8
DEFAULT_255_2_778
10
8.1778734
20
4.3722063
11
8.1847734
21
4.3193063
0
LINE
8
DEFAULT_255_2_778
10
8.1847734
20
4.3193063
11
8.1937734
21
4.2666063
0
LINE
8
DEFAULT_255_2_778
10
8.1937734
20
4.2666063
11
8.2048734
21
4.2145063
0
LINE
8
DEFAULT_255_2_778
10
8.2048734
20
4.2145063
11
8.2288734
21
4.1304063
0
LINE
8
DEFAULT_255_2_778
10
8.2288734
20
4.1304063
11
8.2585734
21
4.0547063
0
LINE
8
DEFAULT_255_2_778
10
8.2585734
20
4.0547063
11
8.3006734
21
3.9761063
0
LINE
8
DEFAULT_255_2_778
10
8.3006734
20
3.9761063
11
8.3527734
21
3.9079063
0
LINE
8
DEFAULT_255_2_778
10
8.3527734
20
3.9079063
11
8.4543734
21
3.8287063
0
LINE
8
DEFAULT_255_2_778
10
8.4543734
20
3.8287063
11
8.5913734
21
3.7867063
0
LINE
8
DEFAULT_255_2_778
10
8.5913734
20
3.7867063
11
8.7530734
21
3.7925063
0
LINE
8
DEFAULT_255_2_778
10
8.7530734
20
3.7925063
11
8.8900734
21
3.8438063
0
LINE
8
DEFAULT_255_2_778
10
8.8900734
20
3.8438063
11
8.9792734
21
3.9142063
0
LINE
8
DEFAULT_255_2_778
10
8.9792734
20
3.9142063
11
9.0416734
21
3.9944063
0
LINE
8
DEFAULT_255_2_778
10
9.0416734
20
3.9944063
11
9.0742734
21
4.0552063
0
LINE
8
DEFAULT_255_2_778
10
9.0742734
20
4.0552063
11
9.1004734
21
4.1253063
0
LINE
8
DEFAULT_255_2_778
10
9.1004734
20
4.1253063
11
9.1144734
21
4.1799063
0
LINE
8
DEFAULT_255_2_778
10
9.1144734
20
4.1799063
11
9.1218734
21
4.2193063
0
LINE
8
DEFAULT_255_2_778
10
9.1218734
20
4.2193063
11
9.1274734
21
4.2613063
0
LINE
8
DEFAULT_255_2_778
10
9.1274734
20
4.2613063
11
9.1263734
21
4.4831063
0
LINE
8
DEFAULT_255_2_778
10
9.1263734
20
4.4831063
11
9.1205734
21
4.5246063
0
LINE
8
DEFAULT_255_2_778
10
9.1205734
20
4.5246063
11
9.1099734
21
4.5765063
0
LINE
8
DEFAULT_255_2_778
10
9.1099734
20
4.5765063
11
9.0898734
21
4.6439063
0
LINE
8
DEFAULT_255_2_778
10
9.0898734
20
4.6439063
11
9.0528734
21
4.7257063
0
LINE
8
DEFAULT_255_2_778
10
9.0528734
20
4.7257063
11
8.9821734
21
4.8236063
0
LINE
8
DEFAULT_255_2_778
10
8.9821734
20
4.8236063
11
8.8750734
21
4.9027063
0
LINE
8
DEFAULT_255_2_778
10
8.8750734
20
4.9027063
11
8.7077734
21
4.9384063
0
LINE
8
DEFAULT_255_2_778
10
8.7077734
20
4.9384063
11
8.5659734
21
4.9088063
0
LINE
8
DEFAULT_255_2_778
10
8.5659734
20
4.9088063
11
8.4590734
21
4.8365063
0
LINE
8
DEFAULT_255_2_778
10
8.4590734
20
4.8365063
11
8.3887734
21
4.7550063
0
LINE
8
DEFAULT_255_2_778
10
8.3887734
20
4.7550063
11
8.3453734
21
4.6839063
0
LINE
8
DEFAULT_255_2_778
10
8.3453734
20
4.6839063
11
8.3474734
21
4.7175063
0
LINE
8
DEFAULT_255_2_778
10
8.3474734
20
4.7175063
11
8.3500734
21
4.7511063
0
LINE
8
DEFAULT_255_2_778
10
8.3500734
20
4.7511063
11
8.3529734
21
4.7847063
0
LINE
8
DEFAULT_255_2_778
10
8.3529734
20
4.7847063
11
8.3606734
21
4.8516063
0
LINE
8
DEFAULT_255_2_778
10
8.3606734
20
4.8516063
11
8.3720734
21
4.9246063
0
LINE
8
DEFAULT_255_2_778
10
8.3720734
20
4.9246063
11
8.3873734
21
4.9969063
0
LINE
8
DEFAULT_255_2_778
10
8.3873734
20
4.9969063
11
8.4109734
21
5.0797063
0
LINE
8
DEFAULT_255_2_778
10
8.4109734
20
5.0797063
11
8.4532734
21
5.1832063
0
LINE
8
DEFAULT_255_2_778
10
8.4532734
20
5.1832063
11
8.5236734
21
5.2837063
0
LINE
8
DEFAULT_255_2_778
10
8.5236734
20
5.2837063
11
8.6141734
21
5.3438063
0
LINE
8
DEFAULT_255_2_778
10
8.6141734
20
5.3438063
11
8.6596734
21
5.3562063
0
LINE
8
DEFAULT_255_2_778
10
8.7181734
20
3.9809063
11
8.5540734
21
3.9983063
0
LINE
8
DEFAULT_255_2_778
10
8.5540734
20
3.9983063
11
8.4688734
21
4.0621063
0
LINE
8
DEFAULT_255_2_778
10
8.4688734
20
4.0621063
11
8.4164734
21
4.1446063
0
LINE
8
DEFAULT_255_2_778
10
8.4164734
20
4.1446063
11
8.3950734
21
4.2039063
0
LINE
8
DEFAULT_255_2_778
10
8.3950734
20
4.2039063
11
8.3831734
21
4.2576063
0
LINE
8
DEFAULT_255_2_778
10
8.3831734
20
4.2576063
11
8.3789734
21
4.2883063
0
LINE
8
DEFAULT_255_2_778
10
8.3789734
20
4.2883063
11
8.3797734
21
4.4447063
0
LINE
8
DEFAULT_255_2_778
10
8.3797734
20
4.4447063
11
8.3871734
21
4.4881063
0
LINE
8
DEFAULT_255_2_778
10
8.3871734
20
4.4881063
11
8.4045734
21
4.5471063
0
LINE
8
DEFAULT_255_2_778
10
8.4045734
20
4.5471063
11
8.4424734
21
4.6193063
0
LINE
8
DEFAULT_255_2_778
10
8.4424734
20
4.6193063
11
8.5180734
21
4.6963063
0
LINE
8
DEFAULT_255_2_778
10
8.5180734
20
4.6963063
11
8.6477734
21
4.7442063
0
LINE
8
DEFAULT_255_2_778
10
8.6477734
20
4.7442063
11
8.7951734
21
4.7244063
0
LINE
8
DEFAULT_255_2_778
10
8.7951734
20
4.7244063
11
8.8662734
21
4.6672063
0
LINE
8
DEFAULT_255_2_778
10
8.8662734
20
4.6672063
11
8.9125734
21
4.5915063
0
LINE
8
DEFAULT_255_2_778
10
8.9125734
20
4.5915063
11
8.9334734
21
4.5333063
0
LINE
8
DEFAULT_255_2_778
10
8.9334734
20
4.5333063
11
8.9448734
21
4.4822063
0
LINE
8
DEFAULT_255_2_778
10
8.9448734
20
4.4822063
11
8.9490734
21
4.4521063
0
LINE
8
DEFAULT_255_2_778
10
8.9490734
20
4.4521063
11
8.9480734
21
4.2725063
0
LINE
8
DEFAULT_255_2_778
10
8.9480734
20
4.2725063
11
8.9406734
21
4.2299063
0
LINE
8
DEFAULT_255_2_778
10
8.9406734
20
4.2299063
11
8.9258734
21
4.1767063
0
LINE
8
DEFAULT_255_2_778
10
8.9258734
20
4.1767063
11
8.8919734
21
4.1050063
0
LINE
8
DEFAULT_255_2_778
10
8.8919734
20
4.1050063
11
8.8295734
21
4.0319063
0
LINE
8
DEFAULT_255_2_778
10
8.8295734
20
4.0319063
11
8.7286734
21
3.9835063
0
LINE
8
DEFAULT_255_2_778
10
8.7286734
20
3.9835063
11
8.7181734
21
3.9809063
0
LINE
8
DEFAULT_255_2_778
10
16.5624734
20
5.5419063
11
16.3931734
21
5.4840063
0
LINE
8
DEFAULT_255_2_778
10
16.3931734
20
5.4840063
11
16.2870734
21
5.3956063
0
LINE
8
DEFAULT_255_2_778
10
16.2870734
20
5.3956063
11
16.2346734
21
5.3144063
0
LINE
8
DEFAULT_255_2_778
10
16.2346734
20
5.3144063
11
16.2097734
21
5.2459063
0
LINE
8
DEFAULT_255_2_778
10
16.2097734
20
5.2459063
11
16.2013734
21
5.2067063
0
LINE
8
DEFAULT_255_2_778
10
16.2013734
20
5.2067063
11
16.2018734
21
5.0173063
0
LINE
8
DEFAULT_255_2_778
10
16.2018734
20
5.0173063
11
16.2142734
21
4.9657063
0
LINE
8
DEFAULT_255_2_778
10
16.2142734
20
4.9657063
11
16.2373734
21
4.9061063
0
LINE
8
DEFAULT_255_2_778
10
16.2373734
20
4.9061063
11
16.2923734
21
4.8212063
0
LINE
8
DEFAULT_255_2_778
10
16.2923734
20
4.8212063
11
16.3965734
21
4.7328063
0
LINE
8
DEFAULT_255_2_778
10
16.3965734
20
4.7328063
11
16.4397734
21
4.7114063
0
LINE
8
DEFAULT_255_2_778
10
16.4397734
20
4.7114063
11
16.3153734
21
4.6360063
0
LINE
8
DEFAULT_255_2_778
10
16.3153734
20
4.6360063
11
16.2444734
21
4.5579063
0
LINE
8
DEFAULT_255_2_778
10
16.2444734
20
4.5579063
11
16.2055734
21
4.4915063
0
LINE
8
DEFAULT_255_2_778
10
16.2055734
20
4.4915063
11
16.1833734
21
4.4339063
0
LINE
8
DEFAULT_255_2_778
10
16.1833734
20
4.4339063
11
16.1714734
21
4.3875063
0
LINE
8
DEFAULT_255_2_778
10
16.1714734
20
4.3875063
11
16.1658734
21
4.3545063
0
LINE
8
DEFAULT_255_2_778
10
16.1658734
20
4.3545063
11
16.1663734
21
4.1785063
0
LINE
8
DEFAULT_255_2_778
10
16.1663734
20
4.1785063
11
16.1730734
21
4.1423063
0
LINE
8
DEFAULT_255_2_778
10
16.1730734
20
4.1423063
11
16.1854734
21
4.0957063
0
LINE
8
DEFAULT_255_2_778
10
16.1854734
20
4.0957063
11
16.2134734
21
4.0269063
0
LINE
8
DEFAULT_255_2_778
10
16.2134734
20
4.0269063
11
16.2616734
21
3.9534063
0
LINE
8
DEFAULT_255_2_778
10
16.2616734
20
3.9534063
11
16.3587734
21
3.8653063
0
LINE
8
DEFAULT_255_2_778
10
16.3587734
20
3.8653063
11
16.4873734
21
3.8052063
0
LINE
8
DEFAULT_255_2_778
10
16.4873734
20
3.8052063
11
16.6812734
21
3.7848063
0
LINE
8
DEFAULT_255_2_778
10
16.6812734
20
3.7848063
11
16.8458734
21
3.8195063
0
LINE
8
DEFAULT_255_2_778
10
16.8458734
20
3.8195063
11
16.9876734
21
3.9084063
0
LINE
8
DEFAULT_255_2_778
10
16.9876734
20
3.9084063
11
17.0630734
21
3.9997063
0
LINE
8
DEFAULT_255_2_778
10
17.0630734
20
3.9997063
11
17.0982734
21
4.0722063
0
LINE
8
DEFAULT_255_2_778
10
17.0982734
20
4.0722063
11
17.1144734
21
4.1235063
0
LINE
8
DEFAULT_255_2_778
10
17.1144734
20
4.1235063
11
17.1233734
21
4.1672063
0
LINE
8
DEFAULT_255_2_778
10
17.1233734
20
4.1672063
11
17.1226734
21
4.3746063
0
LINE
8
DEFAULT_255_2_778
10
17.1226734
20
4.3746063
11
17.1130734
21
4.4172063
0
LINE
8
DEFAULT_255_2_778
10
17.1130734
20
4.4172063
11
17.0903734
21
4.4820063
0
LINE
8
DEFAULT_255_2_778
10
17.0903734
20
4.4820063
11
17.0421734
21
4.5643063
0
LINE
8
DEFAULT_255_2_778
10
17.0421734
20
4.5643063
11
16.9638734
21
4.6453063
0
LINE
8
DEFAULT_255_2_778
10
16.9638734
20
4.6453063
11
16.8508734
21
4.7106063
0
LINE
8
DEFAULT_255_2_778
10
16.8508734
20
4.7106063
11
16.9477734
21
4.7701063
0
LINE
8
DEFAULT_255_2_778
10
16.9477734
20
4.7701063
11
17.0183734
21
4.8466063
0
LINE
8
DEFAULT_255_2_778
10
17.0183734
20
4.8466063
11
17.0543734
21
4.9085063
0
LINE
8
DEFAULT_255_2_778
10
17.0543734
20
4.9085063
11
17.0749734
21
4.9622063
0
LINE
8
DEFAULT_255_2_778
10
17.0749734
20
4.9622063
11
17.0860734
21
5.0054063
0
LINE
8
DEFAULT_255_2_778
10
17.0860734
20
5.0054063
11
17.0913734
21
5.0360063
0
LINE
8
DEFAULT_255_2_778
10
17.0913734
20
5.0360063
11
17.0897734
21
5.2027063
0
LINE
8
DEFAULT_255_2_778
10
17.0897734
20
5.2027063
11
17.0805734
21
5.2461063
0
LINE
8
DEFAULT_255_2_778
10
17.0805734
20
5.2461063
11
17.0633734
21
5.2972063
0
LINE
8
DEFAULT_255_2_778
10
17.0633734
20
5.2972063
11
17.0247734
21
5.3681063
0
LINE
8
DEFAULT_255_2_778
10
17.0247734
20
5.3681063
11
16.9514734
21
5.4464063
0
LINE
8
DEFAULT_255_2_778
10
16.9514734
20
5.4464063
11
16.8339734
21
5.5147063
0
LINE
8
DEFAULT_255_2_778
10
16.8339734
20
5.5147063
11
16.6622734
21
5.5475063
0
LINE
8
DEFAULT_255_2_778
10
16.6622734
20
5.5475063
11
16.5624734
21
5.5419063
0
LINE
8
DEFAULT_255_2_778
10
16.5749734
20
4.6066063
11
16.7572734
21
4.5958063
0
LINE
8
DEFAULT_255_2_778
10
16.7572734
20
4.5958063
11
16.8770734
21
4.5185063
0
LINE
8
DEFAULT_255_2_778
10
16.8770734
20
4.5185063
11
16.9231734
21
4.4489063
0
LINE
8
DEFAULT_255_2_778
10
16.9231734
20
4.4489063
11
16.9413734
21
4.3944063
0
LINE
8
DEFAULT_255_2_778
10
16.9413734
20
4.3944063
11
16.9479734
21
4.3587063
0
LINE
8
DEFAULT_255_2_778
10
16.9479734
20
4.3587063
11
16.9461734
21
4.2245063
0
LINE
8
DEFAULT_255_2_778
10
16.9461734
20
4.2245063
11
16.9363734
21
4.1814063
0
LINE
8
DEFAULT_255_2_778
10
16.9363734
20
4.1814063
11
16.9101734
21
4.1187063
0
LINE
8
DEFAULT_255_2_778
10
16.9101734
20
4.1187063
11
16.8368734
21
4.0357063
0
LINE
8
DEFAULT_255_2_778
10
16.8368734
20
4.0357063
11
16.7146734
21
3.9827063
0
LINE
8
DEFAULT_255_2_778
10
16.7146734
20
3.9827063
11
16.5167734
21
3.9991063
0
LINE
8
DEFAULT_255_2_778
10
16.5167734
20
3.9991063
11
16.4108734
21
4.0738063
0
LINE
8
DEFAULT_255_2_778
10
16.4108734
20
4.0738063
11
16.3658734
21
4.1452063
0
LINE
8
DEFAULT_255_2_778
10
16.3658734
20
4.1452063
11
16.3479734
21
4.2005063
0
LINE
8
DEFAULT_255_2_778
10
16.3479734
20
4.2005063
11
16.3412734
21
4.2367063
0
LINE
8
DEFAULT_255_2_778
10
16.3412734
20
4.2367063
11
16.3431734
21
4.3704063
0
LINE
8
DEFAULT_255_2_778
10
16.3431734
20
4.3704063
11
16.3558734
21
4.4217063
0
LINE
8
DEFAULT_255_2_778
10
16.3558734
20
4.4217063
11
16.3891734
21
4.4897063
0
LINE
8
DEFAULT_255_2_778
10
16.3891734
20
4.4897063
11
16.4648734
21
4.5640063
0
LINE
8
DEFAULT_255_2_778
10
16.4648734
20
4.5640063
11
16.5749734
21
4.6066063
0
LINE
8
DEFAULT_255_2_778
10
16.5828734
20
5.3498063
11
16.7617734
21
5.3345063
0
LINE
8
DEFAULT_255_2_778
10
16.7617734
20
5.3345063
11
16.8662734
21
5.2564063
0
LINE
8
DEFAULT_255_2_778
10
16.8662734
20
5.2564063
11
16.9006734
21
5.1911063
0
LINE
8
DEFAULT_255_2_778
10
16.9006734
20
5.1911063
11
16.9101734
21
5.1564063
0
LINE
8
DEFAULT_255_2_778
10
16.9101734
20
5.1564063
11
16.9149734
21
5.1249063
0
LINE
8
DEFAULT_255_2_778
10
16.9149734
20
5.1249063
11
16.9135734
21
5.0289063
0
LINE
8
DEFAULT_255_2_778
10
16.9135734
20
5.0289063
11
16.9056734
21
4.9889063
0
LINE
8
DEFAULT_255_2_778
10
16.9056734
20
4.9889063
11
16.8839734
21
4.9339063
0
LINE
8
DEFAULT_255_2_778
10
16.8839734
20
4.9339063
11
16.8074734
21
4.8506063
0
LINE
8
DEFAULT_255_2_778
10
16.8074734
20
4.8506063
11
16.6648734
21
4.8059063
0
LINE
8
DEFAULT_255_2_778
10
16.6648734
20
4.8059063
11
16.4876734
21
4.8460063
0
LINE
8
DEFAULT_255_2_778
10
16.4876734
20
4.8460063
11
16.4087734
21
4.9265063
0
LINE
8
DEFAULT_255_2_778
10
16.4087734
20
4.9265063
11
16.3828734
21
4.9889063
0
LINE
8
DEFAULT_255_2_778
10
16.3828734
20
4.9889063
11
16.3748734
21
5.0289063
0
LINE
8
DEFAULT_255_2_778
10
16.3748734
20
5.0289063
11
16.3764734
21
5.1458063
0
LINE
8
DEFAULT_255_2_778
10
16.3764734
20
5.1458063
11
16.3878734
21
5.1908063
0
LINE
8
DEFAULT_255_2_778
10
16.3878734
20
5.1908063
11
16.4227734
21
5.2567063
0
LINE
8
DEFAULT_255_2_778
10
16.4227734
20
5.2567063
11
16.5095734
21
5.3268063
0
LINE
8
DEFAULT_255_2_778
10
16.5095734
20
5.3268063
11
16.5828734
21
5.3498063
0
LINE
8
DEFAULT_255_2_778
10
17.1795323
20
3.0220739
11
17.3837323
21
3.0220739
0
LINE
8
DEFAULT_255_2_778
10
17.3837323
20
3.0220739
11
17.9417323
21
1.3221739
0
LINE
8
DEFAULT_255_2_778
10
17.9417323
20
1.3221739
11
17.7393323
21
1.3221739
0
LINE
8
DEFAULT_255_2_778
10
17.7393323
20
1.3221739
11
17.6025323
21
1.7655739
0
LINE
8
DEFAULT_255_2_778
10
17.6025323
20
1.7655739
11
16.9625323
21
1.7655739
0
LINE
8
DEFAULT_255_2_778
10
16.9625323
20
1.7655739
11
16.8276323
21
1.3221739
0
LINE
8
DEFAULT_255_2_778
10
16.8276323
20
1.3221739
11
16.6212323
21
1.3221739
0
LINE
8
DEFAULT_255_2_778
10
16.6212323
20
1.3221739
11
17.1795323
21
3.0220739
0
LINE
8
DEFAULT_255_2_778
10
17.0223323
20
1.9581739
11
17.5438323
21
1.9581739
0
LINE
8
DEFAULT_255_2_778
10
17.5438323
20
1.9581739
11
17.2827323
21
2.8027739
0
LINE
8
DEFAULT_255_2_778
10
17.2827323
20
2.8027739
11
17.0223323
21
1.9581739
0
LINE
8
DEFAULT_255_2_778
10
18.8619719
20
1.338001
11
19.0045719
21
1.398501
0
LINE
8
DEFAULT_255_2_778
10
19.0045719
20
1.398501
11
19.0945719
21
1.484801
0
LINE
8
DEFAULT_255_2_778
10
19.0945719
20
1.484801
11
19.1342719
21
1.552501
0
LINE
8
DEFAULT_255_2_778
10
19.1342719
20
1.552501
11
19.1537719
21
1.607301
0
LINE
8
DEFAULT_255_2_778
10
19.1537719
20
1.607301
11
19.1638719
21
1.650201
0
LINE
8
DEFAULT_255_2_778
10
19.1638719
20
1.650201
11
19.1701719
21
1.693801
0
LINE
8
DEFAULT_255_2_778
10
19.1701719
20
1.693801
11
19.1688719
21
1.871901
0
LINE
8
DEFAULT_255_2_778
10
19.1688719
20
1.871901
11
19.1633719
21
1.907101
0
LINE
8
DEFAULT_255_2_778
10
19.1633719
20
1.907101
11
19.1527719
21
1.951501
0
LINE
8
DEFAULT_255_2_778
10
19.1527719
20
1.951501
11
19.1283719
21
2.016601
0
LINE
8
DEFAULT_255_2_778
10
19.1283719
20
2.016601
11
19.0865719
21
2.084901
0
LINE
8
DEFAULT_255_2_778
10
19.0865719
20
2.084901
11
19.0193719
21
2.151501
0
LINE
8
DEFAULT_255_2_778
10
19.0193719
20
2.151501
11
18.8989719
21
2.213701
0
LINE
8
DEFAULT_255_2_778
10
18.8989719
20
2.213701
11
18.8841719
21
2.218201
0
LINE
8
DEFAULT_255_2_778
10
18.8841719
20
2.218201
11
19.0011719
21
2.287601
0
LINE
8
DEFAULT_255_2_778
10
19.0011719
20
2.287601
11
19.0670719
21
2.369001
0
LINE
8
DEFAULT_255_2_778
10
19.0670719
20
2.369001
11
19.0971719
21
2.432501
0
LINE
8
DEFAULT_255_2_778
10
19.0971719
20
2.432501
11
19.1098719
21
2.474101
0
LINE
8
DEFAULT_255_2_778
10
19.1098719
20
2.474101
11
19.1180719
21
2.516901
0
LINE
8
DEFAULT_255_2_778
10
19.1180719
20
2.516901
11
19.1172719
21
2.694701
0
LINE
8
DEFAULT_255_2_778
10
19.1172719
20
2.694701
11
19.1101719
21
2.732301
0
LINE
8
DEFAULT_255_2_778
10
19.1101719
20
2.732301
11
19.0955719
21
2.780701
0
LINE
8
DEFAULT_255_2_778
10
19.0955719
20
2.780701
11
19.0622719
21
2.846301
0
LINE
8
DEFAULT_255_2_778
10
19.0622719
20
2.846301
11
18.9730719
21
2.935801
0
LINE
8
DEFAULT_255_2_778
10
18.9730719
20
2.935801
11
18.8556719
21
2.993401
0
LINE
8
DEFAULT_255_2_778
10
18.8556719
20
2.993401
11
18.6256719
21
3.022001
0
LINE
8
DEFAULT_255_2_778
10
18.6256719
20
3.022001
11
18.1851719
21
3.022001
0
LINE
8
DEFAULT_255_2_778
10
18.1851719
20
3.022001
11
18.1851719
21
1.322101
0
LINE
8
DEFAULT_255_2_778
10
18.1851719
20
1.322101
11
18.8463719
21
1.334801
0
LINE
8
DEFAULT_255_2_778
10
18.8463719
20
1.334801
11
18.8619719
21
1.338001
0
LINE
8
DEFAULT_255_2_778
10
18.8003719
20
1.526901
11
18.6791719
21
1.514701
0
LINE
8
DEFAULT_255_2_778
10
18.6791719
20
1.514701
11
18.3716719
21
1.514701
0
LINE
8
DEFAULT_255_2_778
10
18.3716719
20
1.514701
11
18.3716719
21
2.106301
0
LINE
8
DEFAULT_255_2_778
10
18.3716719
20
2.106301
11
18.7952719
21
2.089401
0
LINE
8
DEFAULT_255_2_778
10
18.7952719
20
2.089401
11
18.9204719
21
2.015801
0
LINE
8
DEFAULT_255_2_778
10
18.9204719
20
2.015801
11
18.9635719
21
1.951501
0
LINE
8
DEFAULT_255_2_778
10
18.9635719
20
1.951501
11
18.9802719
21
1.898101
0
LINE
8
DEFAULT_255_2_778
10
18.9802719
20
1.898101
11
18.9860719
21
1.860801
0
LINE
8
DEFAULT_255_2_778
10
18.9860719
20
1.860801
11
18.9844719
21
1.744101
0
LINE
8
DEFAULT_255_2_778
10
18.9844719
20
1.744101
11
18.9762719
21
1.700701
0
LINE
8
DEFAULT_255_2_778
10
18.9762719
20
1.700701
11
18.9572719
21
1.646201
0
LINE
8
DEFAULT_255_2_778
10
18.9572719
20
1.646201
11
18.9040719
21
1.575301
0
LINE
8
DEFAULT_255_2_778
10
18.9040719
20
1.575301
11
18.8003719
21
1.526901
0
LINE
8
DEFAULT_255_2_778
10
18.7500719
20
2.315901
11
18.6259719
21
2.303901
0
LINE
8
DEFAULT_255_2_778
10
18.6259719
20
2.303901
11
18.3714719
21
2.303901
0
LINE
8
DEFAULT_255_2_778
10
18.3714719
20
2.303901
11
18.3714719
21
2.829201
0
LINE
8
DEFAULT_255_2_778
10
18.3714719
20
2.829201
11
18.7717719
21
2.809901
0
LINE
8
DEFAULT_255_2_778
10
18.7717719
20
2.809901
11
18.8855719
21
2.733601
0
LINE
8
DEFAULT_255_2_778
10
18.8855719
20
2.733601
11
18.9185719
21
2.678101
0
LINE
8
DEFAULT_255_2_778
10
18.9185719
20
2.678101
11
18.9325719
21
2.628301
0
LINE
8
DEFAULT_255_2_778
10
18.9325719
20
2.628301
11
18.9302719
21
2.483901
0
LINE
8
DEFAULT_255_2_778
10
18.9302719
20
2.483901
11
18.9148719
21
2.437801
0
LINE
8
DEFAULT_255_2_778
10
18.9148719
20
2.437801
11
18.8521719
21
2.362401
0
LINE
8
DEFAULT_255_2_778
10
18.8521719
20
2.362401
11
18.7500719
21
2.315901
0
LINE
8
DEFAULT_255_2_778
10
19.7782719
20
3.037901
11
19.6755719
21
2.999801
0
LINE
8
DEFAULT_255_2_778
10
19.6755719
20
2.999801
11
19.5869719
21
2.934201
0
LINE
8
DEFAULT_255_2_778
10
19.5869719
20
2.934201
11
19.5197719
21
2.855101
0
LINE
8
DEFAULT_255_2_778
10
19.5197719
20
2.855101
11
19.4617719
21
2.755601
0
LINE
8
DEFAULT_255_2_778
10
19.4617719
20
2.755601
11
19.4265719
21
2.674401
0
LINE
8
DEFAULT_255_2_778
10
19.4265719
20
2.674401
11
19.3985719
21
2.590501
0
LINE
8
DEFAULT_255_2_778
10
19.3985719
20
2.590501
11
19.3818719
21
2.526001
0
LINE
8
DEFAULT_255_2_778
10
19.3818719
20
2.526001
11
19.3686719
21
2.460601
0
LINE
8
DEFAULT_255_2_778
10
19.3686719
20
2.460601
11
19.3585719
21
2.394701
0
LINE
8
DEFAULT_255_2_778
10
19.3585719
20
2.394701
11
19.3543719
21
2.358201
0
LINE
8
DEFAULT_255_2_778
10
19.3543719
20
2.358201
11
19.3509719
21
2.321701
0
LINE
8
DEFAULT_255_2_778
10
19.3509719
20
2.321701
11
19.3509719
21
2.026101
0
LINE
8
DEFAULT_255_2_778
10
19.3509719
20
2.026101
11
19.3543719
21
1.989101
0
LINE
8
DEFAULT_255_2_778
10
19.3543719
20
1.989101
11
19.3585719
21
1.952001
0
LINE
8
DEFAULT_255_2_778
10
19.3585719
20
1.952001
11
19.3683719
21
1.885101
0
LINE
8
DEFAULT_255_2_778
10
19.3683719
20
1.885101
11
19.3813719
21
1.818701
0
LINE
8
DEFAULT_255_2_778
10
19.3813719
20
1.818701
11
19.3977719
21
1.753101
0
LINE
8
DEFAULT_255_2_778
10
19.3977719
20
1.753101
11
19.4162719
21
1.693601
0
LINE
8
DEFAULT_255_2_778
10
19.4162719
20
1.693601
11
19.4503719
21
1.606501
0
LINE
8
DEFAULT_255_2_778
10
19.4503719
20
1.606501
11
19.4943719
21
1.520201
0
LINE
8
DEFAULT_255_2_778
10
19.4943719
20
1.520201
11
19.5435719
21
1.448001
0
LINE
8
DEFAULT_255_2_778
10
19.5435719
20
1.448001
11
19.6128719
21
1.376301
0
LINE
8
DEFAULT_255_2_778
10
19.6128719
20
1.376301
11
19.7072719
21
1.316801
0
LINE
8
DEFAULT_255_2_778
10
19.7072719
20
1.316801
11
19.8358719
21
1.285301
0
LINE
8
DEFAULT_255_2_778
10
19.8358719
20
1.285301
11
19.9687719
21
1.295601
0
LINE
8
DEFAULT_255_2_778
10
19.9687719
20
1.295601
11
20.0650719
21
1.333501
0
LINE
8
DEFAULT_255_2_778
10
20.0650719
20
1.333501
11
20.1539719
21
1.401501
0
LINE
8
DEFAULT_255_2_778
10
20.1539719
20
1.401501
11
20.2086719
21
1.465201
0
LINE
8
DEFAULT_255_2_778
10
20.2086719
20
1.465201
11
20.2653719
21
1.558301
0
LINE
8
DEFAULT_255_2_778
10
20.2653719
20
1.558301
11
20.3004719
21
1.635101
0
LINE
8
DEFAULT_255_2_778
10
20.3004719
20
1.635101
11
20.3224719
21
1.693801
0
LINE
8
DEFAULT_255_2_778
10
20.3224719
20
1.693801
11
20.3409719
21
1.753601
0
LINE
8
DEFAULT_255_2_778
10
20.3409719
20
1.753601
11
20.3573719
21
1.819201
0
LINE
8
DEFAULT_255_2_778
10
20.3573719
20
1.819201
11
20.3703719
21
1.885601
0
LINE
8
DEFAULT_255_2_778
10
20.3703719
20
1.885601
11
20.3801719
21
1.952601
0
LINE
8
DEFAULT_255_2_778
10
20.3801719
20
1.952601
11
20.3843719
21
1.989601
0
LINE
8
DEFAULT_255_2_778
10
20.3843719
20
1.989601
11
20.3878719
21
2.026701
0
LINE
8
DEFAULT_255_2_778
10
20.3878719
20
2.026701
11
20.3878719
21
2.322001
0
LINE
8
DEFAULT_255_2_778
10
20.3878719
20
2.322001
11
20.3843719
21
2.358401
0
LINE
8
DEFAULT_255_2_778
10
20.3843719
20
2.358401
11
20.3801719
21
2.395001
0
LINE
8
DEFAULT_255_2_778
10
20.3801719
20
2.395001
11
20.3700719
21
2.460801
0
LINE
8
DEFAULT_255_2_778
10
20.3700719
20
2.460801
11
20.3568719
21
2.526201
0
LINE
8
DEFAULT_255_2_778
10
20.3568719
20
2.526201
11
20.3401719
21
2.590801
0
LINE
8
DEFAULT_255_2_778
10
20.3401719
20
2.590801
11
20.3213719
21
2.649501
0
LINE
8
DEFAULT_255_2_778
10
20.3213719
20
2.649501
11
20.2867719
21
2.735201
0
LINE
8
DEFAULT_255_2_778
10
20.2867719
20
2.735201
11
20.2425719
21
2.819401
0
LINE
8
DEFAULT_255_2_778
10
20.2425719
20
2.819401
11
20.1938719
21
2.889201
0
LINE
8
DEFAULT_255_2_778
10
20.1938719
20
2.889201
11
20.1248719
21
2.958501
0
LINE
8
DEFAULT_255_2_778
10
20.1248719
20
2.958501
11
20.0308719
21
3.015901
0
LINE
8
DEFAULT_255_2_778
10
20.0308719
20
3.015901
11
19.9062719
21
3.046101
0
LINE
8
DEFAULT_255_2_778
10
19.9062719
20
3.046101
11
19.7782719
21
3.037901
0
LINE
8
DEFAULT_255_2_778
10
19.8112719
20
2.847901
11
19.9279719
21
2.847901
0
LINE
8
DEFAULT_255_2_778
10
19.9279719
20
2.847901
11
20.0136719
21
2.808501
0
LINE
8
DEFAULT_255_2_778
10
20.0136719
20
2.808501
11
20.0748719
21
2.747901
0
LINE
8
DEFAULT_255_2_778
10
20.0748719
20
2.747901
11
20.1192719
21
2.676501
0
LINE
8
DEFAULT_255_2_778
10
20.1192719
20
2.676501
11
20.1483719
21
2.609001
0
LINE
8
DEFAULT_255_2_778
10
20.1483719
20
2.609001
11
20.1721719
21
2.534901
0
LINE
8
DEFAULT_255_2_778
10
20.1721719
20
2.534901
11
20.1846719
21
2.484701
0
LINE
8
DEFAULT_255_2_778
10
20.1846719
20
2.484701
11
20.1959719
21
2.426201
0
LINE
8
DEFAULT_255_2_778
10
20.1959719
20
2.426201
11
20.2044719
21
2.367201
0
LINE
8
DEFAULT_255_2_778
10
20.2044719
20
2.367201
11
20.2076719
21
2.337501
0
LINE
8
DEFAULT_255_2_778
10
20.2076719
20
2.337501
11
20.2105719
21
2.304701
0
LINE
8
DEFAULT_255_2_778
10
20.2105719
20
2.304701
11
20.2105719
21
2.039101
0
LINE
8
DEFAULT_255_2_778
10
20.2105719
20
2.039101
11
20.2076719
21
2.005801
0
LINE
8
DEFAULT_255_2_778
10
20.2076719
20
2.005801
11
20.2044719
21
1.975601
0
LINE
8
DEFAULT_255_2_778
10
20.2044719
20
1.975601
11
20.1959719
21
1.915601
0
LINE
8
DEFAULT_255_2_778
10
20.1959719
20
1.915601
11
20.1848719
21
1.856001
0
LINE
8
DEFAULT_255_2_778
10
20.1848719
20
1.856001
11
20.1682719
21
1.789101
0
LINE
8
DEFAULT_255_2_778
10
20.1682719
20
1.789101
11
20.1406719
21
1.707301
0
LINE
8
DEFAULT_255_2_778
10
20.1406719
20
1.707301
11
20.1039719
21
1.629501
0
LINE
8
DEFAULT_255_2_778
10
20.1039719
20
1.629501
11
20.0425719
21
1.548601
0
LINE
8
DEFAULT_255_2_778
10
20.0425719
20
1.548601
11
19.9615719
21
1.494101
0
LINE
8
DEFAULT_255_2_778
10
19.9615719
20
1.494101
11
19.8456719
21
1.477701
0
LINE
8
DEFAULT_255_2_778
10
19.8456719
20
1.477701
11
19.7451719
21
1.510201
0
LINE
8
DEFAULT_255_2_778
10
19.7451719
20
1.510201
11
19.6710719
21
1.576601
0
LINE
8
DEFAULT_255_2_778
10
19.6710719
20
1.576601
11
19.6265719
21
1.644901
0
LINE
8
DEFAULT_255_2_778
10
19.6265719
20
1.644901
11
19.5919719
21
1.723701
0
LINE
8
DEFAULT_255_2_778
10
19.5919719
20
1.723701
11
19.5705719
21
1.789301
0
LINE
8
DEFAULT_255_2_778
10
19.5705719
20
1.789301
11
19.5538719
21
1.856301
0
LINE
8
DEFAULT_255_2_778
10
19.5538719
20
1.856301
11
19.5427719
21
1.915801
0
LINE
8
DEFAULT_255_2_778
10
19.5427719
20
1.915801
11
19.5342719
21
1.975901
0
LINE
8
DEFAULT_255_2_778
10
19.5342719
20
1.975901
11
19.5310719
21
2.006001
0
LINE
8
DEFAULT_255_2_778
10
19.5310719
20
2.006001
11
19.5281719
21
2.039401
0
LINE
8
DEFAULT_255_2_778
10
19.5281719
20
2.039401
11
19.5281719
21
2.305001
0
LINE
8
DEFAULT_255_2_778
10
19.5281719
20
2.305001
11
19.5310719
21
2.337801
0
LINE
8
DEFAULT_255_2_778
10
19.5310719
20
2.337801
11
19.5342719
21
2.367501
0
LINE
8
DEFAULT_255_2_778
10
19.5342719
20
2.367501
11
19.5427719
21
2.426401
0
LINE
8
DEFAULT_255_2_778
10
19.5427719
20
2.426401
11
19.5541719
21
2.484901
0
LINE
8
DEFAULT_255_2_778
10
19.5541719
20
2.484901
11
19.5710719
21
2.550501
0
LINE
8
DEFAULT_255_2_778
10
19.5710719
20
2.550501
11
19.6054719
21
2.646101
0
LINE
8
DEFAULT_255_2_778
10
19.6054719
20
2.646101
11
19.6445719
21
2.720401
0
LINE
8
DEFAULT_255_2_778
10
19.6445719
20
2.720401
11
19.7059719
21
2.793201
0
LINE
8
DEFAULT_255_2_778
10
19.7059719
20
2.793201
11
19.7885719
21
2.841601
0
LINE
8
DEFAULT_255_2_778
10
19.7885719
20
2.841601
11
19.8112719
21
2.847901
0
LINE
8
DEFAULT_255_2_778
10
15.864549
20
3.041401
11
15.760249
21
3.008301
0
LINE
8
DEFAULT_255_2_778
10
15.760249
20
3.008301
11
15.668949
21
2.946701
0
LINE
8
DEFAULT_255_2_778
10
15.668949
20
2.946701
11
15.600749
21
2.872601
0
LINE
8
DEFAULT_255_2_778
10
15.600749
20
2.872601
11
15.543849
21
2.782401
0
LINE
8
DEFAULT_255_2_778
10
15.543849
20
2.782401
11
15.505949
21
2.702201
0
LINE
8
DEFAULT_255_2_778
10
15.505949
20
2.702201
11
15.475549
21
2.619101
0
LINE
8
DEFAULT_255_2_778
10
15.475549
20
2.619101
11
15.458149
21
2.558801
0
LINE
8
DEFAULT_255_2_778
10
15.458149
20
2.558801
11
15.443049
21
2.493701
0
LINE
8
DEFAULT_255_2_778
10
15.443049
20
2.493701
11
15.431349
21
2.428101
0
LINE
8
DEFAULT_255_2_778
10
15.431349
20
2.428101
11
15.426649
21
2.395001
0
LINE
8
DEFAULT_255_2_778
10
15.426649
20
2.395001
11
15.422349
21
2.358501
0
LINE
8
DEFAULT_255_2_778
10
15.422349
20
2.358501
11
15.418949
21
2.322001
0
LINE
8
DEFAULT_255_2_778
10
15.418949
20
2.322001
11
15.418949
21
2.026401
0
LINE
8
DEFAULT_255_2_778
10
15.418949
20
2.026401
11
15.422349
21
1.989401
0
LINE
8
DEFAULT_255_2_778
10
15.422349
20
1.989401
11
15.426649
21
1.952401
0
LINE
8
DEFAULT_255_2_778
10
15.426649
20
1.952401
11
15.436449
21
1.885401
0
LINE
8
DEFAULT_255_2_778
10
15.436449
20
1.885401
11
15.449349
21
1.819001
0
LINE
8
DEFAULT_255_2_778
10
15.449349
20
1.819001
11
15.465749
21
1.753401
0
LINE
8
DEFAULT_255_2_778
10
15.465749
20
1.753401
11
15.484349
21
1.693901
0
LINE
8
DEFAULT_255_2_778
10
15.484349
20
1.693901
11
15.518449
21
1.606801
0
LINE
8
DEFAULT_255_2_778
10
15.518449
20
1.606801
11
15.562349
21
1.520501
0
LINE
8
DEFAULT_255_2_778
10
15.562349
20
1.520501
11
15.611549
21
1.448301
0
LINE
8
DEFAULT_255_2_778
10
15.611549
20
1.448301
11
15.680849
21
1.376601
0
LINE
8
DEFAULT_255_2_778
10
15.680849
20
1.376601
11
15.775349
21
1.317101
0
LINE
8
DEFAULT_255_2_778
10
15.775349
20
1.317101
11
15.903949
21
1.285601
0
LINE
8
DEFAULT_255_2_778
10
15.903949
20
1.285601
11
16.036749
21
1.295901
0
LINE
8
DEFAULT_255_2_778
10
16.036749
20
1.295901
11
16.133049
21
1.333801
0
LINE
8
DEFAULT_255_2_778
10
16.133049
20
1.333801
11
16.221949
21
1.401801
0
LINE
8
DEFAULT_255_2_778
10
16.221949
20
1.401801
11
16.276749
21
1.465501
0
LINE
8
DEFAULT_255_2_778
10
16.276749
20
1.465501
11
16.333349
21
1.558701
0
LINE
8
DEFAULT_255_2_778
10
16.333349
20
1.558701
11
16.368549
21
1.635401
0
LINE
8
DEFAULT_255_2_778
10
16.368549
20
1.635401
11
16.390449
21
1.694101
0
LINE
8
DEFAULT_255_2_778
10
16.390449
20
1.694101
11
16.409049
21
1.753901
0
LINE
8
DEFAULT_255_2_778
10
16.409049
20
1.753901
11
16.425449
21
1.819501
0
LINE
8
DEFAULT_255_2_778
10
16.425449
20
1.819501
11
16.438349
21
1.885901
0
LINE
8
DEFAULT_255_2_778
10
16.438349
20
1.885901
11
16.448149
21
1.952901
0
LINE
8
DEFAULT_255_2_778
10
16.448149
20
1.952901
11
16.452449
21
1.989901
0
LINE
8
DEFAULT_255_2_778
10
16.452449
20
1.989901
11
16.455849
21
2.027001
0
LINE
8
DEFAULT_255_2_778
10
16.455849
20
2.027001
11
16.455849
21
2.322301
0
LINE
8
DEFAULT_255_2_778
10
16.455849
20
2.322301
11
16.452449
21
2.358701
0
LINE
8
DEFAULT_255_2_778
10
16.452449
20
2.358701
11
16.448149
21
2.395301
0
LINE
8
DEFAULT_255_2_778
10
16.448149
20
2.395301
11
16.438149
21
2.461201
0
LINE
8
DEFAULT_255_2_778
10
16.438149
20
2.461201
11
16.424849
21
2.526501
0
LINE
8
DEFAULT_255_2_778
10
16.424849
20
2.526501
11
16.408249
21
2.591101
0
LINE
8
DEFAULT_255_2_778
10
16.408249
20
2.591101
11
16.389449
21
2.649801
0
LINE
8
DEFAULT_255_2_778
10
16.389449
20
2.649801
11
16.354749
21
2.735501
0
LINE
8
DEFAULT_255_2_778
10
16.354749
20
2.735501
11
16.310549
21
2.819701
0
LINE
8
DEFAULT_255_2_778
10
16.310549
20
2.819701
11
16.261949
21
2.889501
0
LINE
8
DEFAULT_255_2_778
10
16.261949
20
2.889501
11
16.192849
21
2.958801
0
LINE
8
DEFAULT_255_2_778
10
16.192849
20
2.958801
11
16.098949
21
3.016201
0
LINE
8
DEFAULT_255_2_778
10
16.098949
20
3.016201
11
15.974349
21
3.046401
0
LINE
8
DEFAULT_255_2_778
10
15.974349
20
3.046401
11
15.864549
21
3.041401
0
LINE
8
DEFAULT_255_2_778
10
15.879549
20
2.848001
11
15.996249
21
2.848001
0
LINE
8
DEFAULT_255_2_778
10
15.996249
20
2.848001
11
16.081949
21
2.808601
0
LINE
8
DEFAULT_255_2_778
10
16.081949
20
2.808601
11
16.143149
21
2.748001
0
LINE
8
DEFAULT_255_2_778
10
16.143149
20
2.748001
11
16.187549
21
2.676501
0
LINE
8
DEFAULT_255_2_778
10
16.187549
20
2.676501
11
16.216649
21
2.609001
0
LINE
8
DEFAULT_255_2_778
10
16.216649
20
2.609001
11
16.240449
21
2.535001
0
LINE
8
DEFAULT_255_2_778
10
16.240449
20
2.535001
11
16.252949
21
2.484701
0
LINE
8
DEFAULT_255_2_778
10
16.252949
20
2.484701
11
16.264249
21
2.426201
0
LINE
8
DEFAULT_255_2_778
10
16.264249
20
2.426201
11
16.272749
21
2.367201
0
LINE
8
DEFAULT_255_2_778
10
16.272749
20
2.367201
11
16.275949
21
2.337601
0
LINE
8
DEFAULT_255_2_778
10
16.275949
20
2.337601
11
16.278849
21
2.304801
0
LINE
8
DEFAULT_255_2_778
10
16.278849
20
2.304801
11
16.278849
21
2.039201
0
LINE
8
DEFAULT_255_2_778
10
16.278849
20
2.039201
11
16.275949
21
2.005801
0
LINE
8
DEFAULT_255_2_778
10
16.275949
20
2.005801
11
16.272749
21
1.975601
0
LINE
8
DEFAULT_255_2_778
10
16.272749
20
1.975601
11
16.264249
21
1.915601
0
LINE
8
DEFAULT_255_2_778
10
16.264249
20
1.915601
11
16.253149
21
1.856001
0
LINE
8
DEFAULT_255_2_778
10
16.253149
20
1.856001
11
16.236549
21
1.789101
0
LINE
8
DEFAULT_255_2_778
10
16.236549
20
1.789101
11
16.208949
21
1.707301
0
LINE
8
DEFAULT_255_2_778
10
16.208949
20
1.707301
11
16.172249
21
1.629601
0
LINE
8
DEFAULT_255_2_778
10
16.172249
20
1.629601
11
16.110849
21
1.548601
0
LINE
8
DEFAULT_255_2_778
10
16.110849
20
1.548601
11
16.029849
21
1.494101
0
LINE
8
DEFAULT_255_2_778
10
16.029849
20
1.494101
11
15.913949
21
1.477701
0
LINE
8
DEFAULT_255_2_778
10
15.913949
20
1.477701
11
15.813449
21
1.510201
0
LINE
8
DEFAULT_255_2_778
10
15.813449
20
1.510201
11
15.739349
21
1.576701
0
LINE
8
DEFAULT_255_2_778
10
15.739349
20
1.576701
11
15.694949
21
1.644901
0
LINE
8
DEFAULT_255_2_778
10
15.694949
20
1.644901
11
15.660249
21
1.723701
0
LINE
8
DEFAULT_255_2_778
10
15.660249
20
1.723701
11
15.638849
21
1.789401
0
LINE
8
DEFAULT_255_2_778
10
15.638849
20
1.789401
11
15.622149
21
1.856301
0
LINE
8
DEFAULT_255_2_778
10
15.622149
20
1.856301
11
15.611049
21
1.915901
0
LINE
8
DEFAULT_255_2_778
10
15.611049
20
1.915901
11
15.602549
21
1.975901
0
LINE
8
DEFAULT_255_2_778
10
15.602549
20
1.975901
11
15.599349
21
2.006101
0
LINE
8
DEFAULT_255_2_778
10
15.599349
20
2.006101
11
15.596449
21
2.039401
0
LINE
8
DEFAULT_255_2_778
10
15.596449
20
2.039401
11
15.596449
21
2.305001
0
LINE
8
DEFAULT_255_2_778
10
15.596449
20
2.305001
11
15.599349
21
2.337801
0
LINE
8
DEFAULT_255_2_778
10
15.599349
20
2.337801
11
15.602549
21
2.367501
0
LINE
8
DEFAULT_255_2_778
10
15.602549
20
2.367501
11
15.611049
21
2.426501
0
LINE
8
DEFAULT_255_2_778
10
15.611049
20
2.426501
11
15.622449
21
2.485001
0
LINE
8
DEFAULT_255_2_778
10
15.622449
20
2.485001
11
15.639349
21
2.550601
0
LINE
8
DEFAULT_255_2_778
10
15.639349
20
2.550601
11
15.673749
21
2.646101
0
LINE
8
DEFAULT_255_2_778
10
15.673749
20
2.646101
11
15.712949
21
2.720501
0
LINE
8
DEFAULT_255_2_778
10
15.712949
20
2.720501
11
15.774249
21
2.793201
0
LINE
8
DEFAULT_255_2_778
10
15.774249
20
2.793201
11
15.856849
21
2.841601
0
LINE
8
DEFAULT_255_2_778
10
15.856849
20
2.841601
11
15.879549
21
2.848001
0
LINE
8
DEFAULT_255_2_778
10
13.971749
20
3.041401
11
13.867449
21
3.008301
0
LINE
8
DEFAULT_255_2_778
10
13.867449
20
3.008301
11
13.776149
21
2.946701
0
LINE
8
DEFAULT_255_2_778
10
13.776149
20
2.946701
11
13.707949
21
2.872601
0
LINE
8
DEFAULT_255_2_778
10
13.707949
20
2.872601
11
13.651049
21
2.782401
0
LINE
8
DEFAULT_255_2_778
10
13.651049
20
2.782401
11
13.613149
21
2.702201
0
LINE
8
DEFAULT_255_2_778
10
13.613149
20
2.702201
11
13.582749
21
2.619101
0
LINE
8
DEFAULT_255_2_778
10
13.582749
20
2.619101
11
13.565349
21
2.558801
0
LINE
8
DEFAULT_255_2_778
10
13.565349
20
2.558801
11
13.550249
21
2.493701
0
LINE
8
DEFAULT_255_2_778
10
13.550249
20
2.493701
11
13.538549
21
2.428101
0
LINE
8
DEFAULT_255_2_778
10
13.538549
20
2.428101
11
13.533849
21
2.395001
0
LINE
8
DEFAULT_255_2_778
10
13.533849
20
2.395001
11
13.529549
21
2.358501
0
LINE
8
DEFAULT_255_2_778
10
13.529549
20
2.358501
11
13.526149
21
2.322001
0
LINE
8
DEFAULT_255_2_778
10
13.526149
20
2.322001
11
13.526149
21
2.026401
0
LINE
8
DEFAULT_255_2_778
10
13.526149
20
2.026401
11
13.529549
21
1.989401
0
LINE
8
DEFAULT_255_2_778
10
13.529549
20
1.989401
11
13.533849
21
1.952401
0
LINE
8
DEFAULT_255_2_778
10
13.533849
20
1.952401
11
13.543649
21
1.885401
0
LINE
8
DEFAULT_255_2_778
10
13.543649
20
1.885401
11
13.556549
21
1.819001
0
LINE
8
DEFAULT_255_2_778
10
13.556549
20
1.819001
11
13.572949
21
1.753401
0
LINE
8
DEFAULT_255_2_778
10
13.572949
20
1.753401
11
13.591549
21
1.693901
0
LINE
8
DEFAULT_255_2_778
10
13.591549
20
1.693901
11
13.625649
21
1.606801
0
LINE
8
DEFAULT_255_2_778
10
13.625649
20
1.606801
11
13.669549
21
1.520501
0
LINE
8
DEFAULT_255_2_778
10
13.669549
20
1.520501
11
13.718749
21
1.448301
0
LINE
8
DEFAULT_255_2_778
10
13.718749
20
1.448301
11
13.788049
21
1.376601
0
LINE
8
DEFAULT_255_2_778
10
13.788049
20
1.376601
11
13.882549
21
1.317101
0
LINE
8
DEFAULT_255_2_778
10
13.882549
20
1.317101
11
14.011149
21
1.285601
0
LINE
8
DEFAULT_255_2_778
10
14.011149
20
1.285601
11
14.143949
21
1.295901
0
LINE
8
DEFAULT_255_2_778
10
14.143949
20
1.295901
11
14.240249
21
1.333801
0
LINE
8
DEFAULT_255_2_778
10
14.240249
20
1.333801
11
14.329149
21
1.401801
0
LINE
8
DEFAULT_255_2_778
10
14.329149
20
1.401801
11
14.383949
21
1.465501
0
LINE
8
DEFAULT_255_2_778
10
14.383949
20
1.465501
11
14.440549
21
1.558701
0
LINE
8
DEFAULT_255_2_778
10
14.440549
20
1.558701
11
14.475749
21
1.635401
0
LINE
8
DEFAULT_255_2_778
10
14.475749
20
1.635401
11
14.497649
21
1.694101
0
LINE
8
DEFAULT_255_2_778
10
14.497649
20
1.694101
11
14.516249
21
1.753901
0
LINE
8
DEFAULT_255_2_778
10
14.516249
20
1.753901
11
14.532649
21
1.819501
0
LINE
8
DEFAULT_255_2_778
10
14.532649
20
1.819501
11
14.545549
21
1.885901
0
LINE
8
DEFAULT_255_2_778
10
14.545549
20
1.885901
11
14.555349
21
1.952901
0
LINE
8
DEFAULT_255_2_778
10
14.555349
20
1.952901
11
14.559649
21
1.989901
0
LINE
8
DEFAULT_255_2_778
10
14.559649
20
1.989901
11
14.563049
21
2.027001
0
LINE
8
DEFAULT_255_2_778
10
14.563049
20
2.027001
11
14.563049
21
2.322301
0
LINE
8
DEFAULT_255_2_778
10
14.563049
20
2.322301
11
14.559649
21
2.358701
0
LINE
8
DEFAULT_255_2_778
10
14.559649
20
2.358701
11
14.555349
21
2.395301
0
LINE
8
DEFAULT_255_2_778
10
14.555349
20
2.395301
11
14.545349
21
2.461201
0
LINE
8
DEFAULT_255_2_778
10
14.545349
20
2.461201
11
14.532049
21
2.526501
0
LINE
8
DEFAULT_255_2_778
10
14.532049
20
2.526501
11
14.515449
21
2.591101
0
LINE
8
DEFAULT_255_2_778
10
14.515449
20
2.591101
11
14.496649
21
2.649801
0
LINE
8
DEFAULT_255_2_778
10
14.496649
20
2.649801
11
14.461949
21
2.735501
0
LINE
8
DEFAULT_255_2_778
10
14.461949
20
2.735501
11
14.417749
21
2.819701
0
LINE
8
DEFAULT_255_2_778
10
14.417749
20
2.819701
11
14.369149
21
2.889501
0
LINE
8
DEFAULT_255_2_778
10
14.369149
20
2.889501
11
14.300049
21
2.958801
0
LINE
8
DEFAULT_255_2_778
10
14.300049
20
2.958801
11
14.206149
21
3.016201
0
LINE
8
DEFAULT_255_2_778
10
14.206149
20
3.016201
11
14.081549
21
3.046401
0
LINE
8
DEFAULT_255_2_778
10
14.081549
20
3.046401
11
13.971749
21
3.041401
0
LINE
8
DEFAULT_255_2_778
10
13.986749
20
2.848001
11
14.103449
21
2.848001
0
LINE
8
DEFAULT_255_2_778
10
14.103449
20
2.848001
11
14.189149
21
2.808601
0
LINE
8
DEFAULT_255_2_778
10
14.189149
20
2.808601
11
14.250349
21
2.748001
0
LINE
8
DEFAULT_255_2_778
10
14.250349
20
2.748001
11
14.294749
21
2.676501
0
LINE
8
DEFAULT_255_2_778
10
14.294749
20
2.676501
11
14.323849
21
2.609001
0
LINE
8
DEFAULT_255_2_778
10
14.323849
20
2.609001
11
14.347649
21
2.535001
0
LINE
8
DEFAULT_255_2_778
10
14.347649
20
2.535001
11
14.360149
21
2.484701
0
LINE
8
DEFAULT_255_2_778
10
14.360149
20
2.484701
11
14.371449
21
2.426201
0
LINE
8
DEFAULT_255_2_778
10
14.371449
20
2.426201
11
14.379949
21
2.367201
0
LINE
8
DEFAULT_255_2_778
10
14.379949
20
2.367201
11
14.383149
21
2.337601
0
LINE
8
DEFAULT_255_2_778
10
14.383149
20
2.337601
11
14.386049
21
2.304801
0
LINE
8
DEFAULT_255_2_778
10
14.386049
20
2.304801
11
14.386049
21
2.039201
0
LINE
8
DEFAULT_255_2_778
10
14.386049
20
2.039201
11
14.383149
21
2.005801
0
LINE
8
DEFAULT_255_2_778
10
14.383149
20
2.005801
11
14.379949
21
1.975601
0
LINE
8
DEFAULT_255_2_778
10
14.379949
20
1.975601
11
14.371449
21
1.915601
0
LINE
8
DEFAULT_255_2_778
10
14.371449
20
1.915601
11
14.360349
21
1.856001
0
LINE
8
DEFAULT_255_2_778
10
14.360349
20
1.856001
11
14.343749
21
1.789101
0
LINE
8
DEFAULT_255_2_778
10
14.343749
20
1.789101
11
14.316149
21
1.707301
0
LINE
8
DEFAULT_255_2_778
10
14.316149
20
1.707301
11
14.279449
21
1.629601
0
LINE
8
DEFAULT_255_2_778
10
14.279449
20
1.629601
11
14.218049
21
1.548601
0
LINE
8
DEFAULT_255_2_778
10
14.218049
20
1.548601
11
14.137049
21
1.494101
0
LINE
8
DEFAULT_255_2_778
10
14.137049
20
1.494101
11
14.021149
21
1.477701
0
LINE
8
DEFAULT_255_2_778
10
14.021149
20
1.477701
11
13.920649
21
1.510201
0
LINE
8
DEFAULT_255_2_778
10
13.920649
20
1.510201
11
13.846549
21
1.576701
0
LINE
8
DEFAULT_255_2_778
10
13.846549
20
1.576701
11
13.802149
21
1.644901
0
LINE
8
DEFAULT_255_2_778
10
13.802149
20
1.644901
11
13.767449
21
1.723701
0
LINE
8
DEFAULT_255_2_778
10
13.767449
20
1.723701
11
13.746049
21
1.789401
0
LINE
8
DEFAULT_255_2_778
10
13.746049
20
1.789401
11
13.729349
21
1.856301
0
LINE
8
DEFAULT_255_2_778
10
13.729349
20
1.856301
11
13.718249
21
1.915901
0
LINE
8
DEFAULT_255_2_778
10
13.718249
20
1.915901
11
13.709749
21
1.975901
0
LINE
8
DEFAULT_255_2_778
10
13.709749
20
1.975901
11
13.706549
21
2.006101
0
LINE
8
DEFAULT_255_2_778
10
13.706549
20
2.006101
11
13.703649
21
2.039401
0
LINE
8
DEFAULT_255_2_778
10
13.703649
20
2.039401
11
13.703649
21
2.305001
0
LINE
8
DEFAULT_255_2_778
10
13.703649
20
2.305001
11
13.706549
21
2.337801
0
LINE
8
DEFAULT_255_2_778
10
13.706549
20
2.337801
11
13.709749
21
2.367501
0
LINE
8
DEFAULT_255_2_778
10
13.709749
20
2.367501
11
13.718249
21
2.426501
0
LINE
8
DEFAULT_255_2_778
10
13.718249
20
2.426501
11
13.729649
21
2.485001
0
LINE
8
DEFAULT_255_2_778
10
13.729649
20
2.485001
11
13.746549
21
2.550601
0
LINE
8
DEFAULT_255_2_778
10
13.746549
20
2.550601
11
13.780949
21
2.646101
0
LINE
8
DEFAULT_255_2_778
10
13.780949
20
2.646101
11
13.820149
21
2.720501
0
LINE
8
DEFAULT_255_2_778
10
13.820149
20
2.720501
11
13.881449
21
2.793201
0
LINE
8
DEFAULT_255_2_778
10
13.881449
20
2.793201
11
13.964049
21
2.841601
0
LINE
8
DEFAULT_255_2_778
10
13.964049
20
2.841601
11
13.986749
21
2.848001
0
LINE
8
DEFAULT_255_2_778
10
12.734049
20
3.041401
11
12.629749
21
3.008301
0
LINE
8
DEFAULT_255_2_778
10
12.629749
20
3.008301
11
12.538449
21
2.946701
0
LINE
8
DEFAULT_255_2_778
10
12.538449
20
2.946701
11
12.470249
21
2.872601
0
LINE
8
DEFAULT_255_2_778
10
12.470249
20
2.872601
11
12.413349
21
2.782401
0
LINE
8
DEFAULT_255_2_778
10
12.413349
20
2.782401
11
12.375449
21
2.702201
0
LINE
8
DEFAULT_255_2_778
10
12.375449
20
2.702201
11
12.345049
21
2.619101
0
LINE
8
DEFAULT_255_2_778
10
12.345049
20
2.619101
11
12.327649
21
2.558801
0
LINE
8
DEFAULT_255_2_778
10
12.327649
20
2.558801
11
12.312549
21
2.493701
0
LINE
8
DEFAULT_255_2_778
10
12.312549
20
2.493701
11
12.300849
21
2.428101
0
LINE
8
DEFAULT_255_2_778
10
12.300849
20
2.428101
11
12.296149
21
2.395001
0
LINE
8
DEFAULT_255_2_778
10
12.296149
20
2.395001
11
12.291849
21
2.358501
0
LINE
8
DEFAULT_255_2_778
10
12.291849
20
2.358501
11
12.288449
21
2.322001
0
LINE
8
DEFAULT_255_2_778
10
12.288449
20
2.322001
11
12.288449
21
2.026401
0
LINE
8
DEFAULT_255_2_778
10
12.288449
20
2.026401
11
12.291849
21
1.989401
0
LINE
8
DEFAULT_255_2_778
10
12.291849
20
1.989401
11
12.296149
21
1.952401
0
LINE
8
DEFAULT_255_2_778
10
12.296149
20
1.952401
11
12.305949
21
1.885401
0
LINE
8
DEFAULT_255_2_778
10
12.305949
20
1.885401
11
12.318849
21
1.819001
0
LINE
8
DEFAULT_255_2_778
10
12.318849
20
1.819001
11
12.335249
21
1.753401
0
LINE
8
DEFAULT_255_2_778
10
12.335249
20
1.753401
11
12.353849
21
1.693901
0
LINE
8
DEFAULT_255_2_778
10
12.353849
20
1.693901
11
12.387949
21
1.606801
0
LINE
8
DEFAULT_255_2_778
10
12.387949
20
1.606801
11
12.431849
21
1.520501
0
LINE
8
DEFAULT_255_2_778
10
12.431849
20
1.520501
11
12.481049
21
1.448301
0
LINE
8
DEFAULT_255_2_778
10
12.481049
20
1.448301
11
12.550349
21
1.376601
0
LINE
8
DEFAULT_255_2_778
10
12.550349
20
1.376601
11
12.644849
21
1.317101
0
LINE
8
DEFAULT_255_2_778
10
12.644849
20
1.317101
11
12.773449
21
1.285601
0
LINE
8
DEFAULT_255_2_778
10
12.773449
20
1.285601
11
12.906249
21
1.295901
0
LINE
8
DEFAULT_255_2_778
10
12.906249
20
1.295901
11
13.002549
21
1.333801
0
LINE
8
DEFAULT_255_2_778
10
13.002549
20
1.333801
11
13.091449
21
1.401801
0
LINE
8
DEFAULT_255_2_778
10
13.091449
20
1.401801
11
13.146249
21
1.465501
0
LINE
8
DEFAULT_255_2_778
10
13.146249
20
1.465501
11
13.202849
21
1.558701
0
LINE
8
DEFAULT_255_2_778
10
13.202849
20
1.558701
11
13.238049
21
1.635401
0
LINE
8
DEFAULT_255_2_778
10
13.238049
20
1.635401
11
13.259949
21
1.694101
0
LINE
8
DEFAULT_255_2_778
10
13.259949
20
1.694101
11
13.278549
21
1.753901
0
LINE
8
DEFAULT_255_2_778
10
13.278549
20
1.753901
11
13.294949
21
1.819501
0
LINE
8
DEFAULT_255_2_778
10
13.294949
20
1.819501
11
13.307849
21
1.885901
0
LINE
8
DEFAULT_255_2_778
10
13.307849
20
1.885901
11
13.317649
21
1.952901
0
LINE
8
DEFAULT_255_2_778
10
13.317649
20
1.952901
11
13.321949
21
1.989901
0
LINE
8
DEFAULT_255_2_778
10
13.321949
20
1.989901
11
13.325349
21
2.027001
0
LINE
8
DEFAULT_255_2_778
10
13.325349
20
2.027001
11
13.325349
21
2.322301
0
LINE
8
DEFAULT_255_2_778
10
13.325349
20
2.322301
11
13.321949
21
2.358701
0
LINE
8
DEFAULT_255_2_778
10
13.321949
20
2.358701
11
13.317649
21
2.395301
0
LINE
8
DEFAULT_255_2_778
10
13.317649
20
2.395301
11
13.307649
21
2.461201
0
LINE
8
DEFAULT_255_2_778
10
13.307649
20
2.461201
11
13.294349
21
2.526501
0
LINE
8
DEFAULT_255_2_778
10
13.294349
20
2.526501
11
13.277749
21
2.591101
0
LINE
8
DEFAULT_255_2_778
10
13.277749
20
2.591101
11
13.258949
21
2.649801
0
LINE
8
DEFAULT_255_2_778
10
13.258949
20
2.649801
11
13.224249
21
2.735501
0
LINE
8
DEFAULT_255_2_778
10
13.224249
20
2.735501
11
13.180049
21
2.819701
0
LINE
8
DEFAULT_255_2_778
10
13.180049
20
2.819701
11
13.131449
21
2.889501
0
LINE
8
DEFAULT_255_2_778
10
13.131449
20
2.889501
11
13.062349
21
2.958801
0
LINE
8
DEFAULT_255_2_778
10
13.062349
20
2.958801
11
12.968449
21
3.016201
0
LINE
8
DEFAULT_255_2_778
10
12.968449
20
3.016201
11
12.843849
21
3.046401
0
LINE
8
DEFAULT_255_2_778
10
12.843849
20
3.046401
11
12.734049
21
3.041401
0
LINE
8
DEFAULT_255_2_778
10
12.749049
20
2.848001
11
12.865749
21
2.848001
0
LINE
8
DEFAULT_255_2_778
10
12.865749
20
2.848001
11
12.951449
21
2.808601
0
LINE
8
DEFAULT_255_2_778
10
12.951449
20
2.808601
11
13.012649
21
2.748001
0
LINE
8
DEFAULT_255_2_778
10
13.012649
20
2.748001
11
13.057049
21
2.676501
0
LINE
8
DEFAULT_255_2_778
10
13.057049
20
2.676501
11
13.086149
21
2.609001
0
LINE
8
DEFAULT_255_2_778
10
13.086149
20
2.609001
11
13.109949
21
2.535001
0
LINE
8
DEFAULT_255_2_778
10
13.109949
20
2.535001
11
13.122449
21
2.484701
0
LINE
8
DEFAULT_255_2_778
10
13.122449
20
2.484701
11
13.133749
21
2.426201
0
LINE
8
DEFAULT_255_2_778
10
13.133749
20
2.426201
11
13.142249
21
2.367201
0
LINE
8
DEFAULT_255_2_778
10
13.142249
20
2.367201
11
13.145449
21
2.337601
0
LINE
8
DEFAULT_255_2_778
10
13.145449
20
2.337601
11
13.148349
21
2.304801
0
LINE
8
DEFAULT_255_2_778
10
13.148349
20
2.304801
11
13.148349
21
2.039201
0
LINE
8
DEFAULT_255_2_778
10
13.148349
20
2.039201
11
13.145449
21
2.005801
0
LINE
8
DEFAULT_255_2_778
10
13.145449
20
2.005801
11
13.142249
21
1.975601
0
LINE
8
DEFAULT_255_2_778
10
13.142249
20
1.975601
11
13.133749
21
1.915601
0
LINE
8
DEFAULT_255_2_778
10
13.133749
20
1.915601
11
13.122649
21
1.856001
0
LINE
8
DEFAULT_255_2_778
10
13.122649
20
1.856001
11
13.106049
21
1.789101
0
LINE
8
DEFAULT_255_2_778
10
13.106049
20
1.789101
11
13.078449
21
1.707301
0
LINE
8
DEFAULT_255_2_778
10
13.078449
20
1.707301
11
13.041749
21
1.629601
0
LINE
8
DEFAULT_255_2_778
10
13.041749
20
1.629601
11
12.980349
21
1.548601
0
LINE
8
DEFAULT_255_2_778
10
12.980349
20
1.548601
11
12.899349
21
1.494101
0
LINE
8
DEFAULT_255_2_778
10
12.899349
20
1.494101
11
12.783449
21
1.477701
0
LINE
8
DEFAULT_255_2_778
10
12.783449
20
1.477701
11
12.682949
21
1.510201
0
LINE
8
DEFAULT_255_2_778
10
12.682949
20
1.510201
11
12.608849
21
1.576701
0
LINE
8
DEFAULT_255_2_778
10
12.608849
20
1.576701
11
12.564449
21
1.644901
0
LINE
8
DEFAULT_255_2_778
10
12.564449
20
1.644901
11
12.529749
21
1.723701
0
LINE
8
DEFAULT_255_2_778
10
12.529749
20
1.723701
11
12.508349
21
1.789401
0
LINE
8
DEFAULT_255_2_778
10
12.508349
20
1.789401
11
12.491649
21
1.856301
0
LINE
8
DEFAULT_255_2_778
10
12.491649
20
1.856301
11
12.480549
21
1.915901
0
LINE
8
DEFAULT_255_2_778
10
12.480549
20
1.915901
11
12.472049
21
1.975901
0
LINE
8
DEFAULT_255_2_778
10
12.472049
20
1.975901
11
12.468849
21
2.006101
0
LINE
8
DEFAULT_255_2_778
10
12.468849
20
2.006101
11
12.465949
21
2.039401
0
LINE
8
DEFAULT_255_2_778
10
12.465949
20
2.039401
11
12.465949
21
2.305001
0
LINE
8
DEFAULT_255_2_778
10
12.465949
20
2.305001
11
12.468849
21
2.337801
0
LINE
8
DEFAULT_255_2_778
10
12.468849
20
2.337801
11
12.472049
21
2.367501
0
LINE
8
DEFAULT_255_2_778
10
12.472049
20
2.367501
11
12.480549
21
2.426501
0
LINE
8
DEFAULT_255_2_778
10
12.480549
20
2.426501
11
12.491949
21
2.485001
0
LINE
8
DEFAULT_255_2_778
10
12.491949
20
2.485001
11
12.508849
21
2.550601
0
LINE
8
DEFAULT_255_2_778
10
12.508849
20
2.550601
11
12.543249
21
2.646101
0
LINE
8
DEFAULT_255_2_778
10
12.543249
20
2.646101
11
12.582449
21
2.720501
0
LINE
8
DEFAULT_255_2_778
10
12.582449
20
2.720501
11
12.643749
21
2.793201
0
LINE
8
DEFAULT_255_2_778
10
12.643749
20
2.793201
11
12.726349
21
2.841601
0
LINE
8
DEFAULT_255_2_778
10
12.726349
20
2.841601
11
12.749049
21
2.848001
0
LINE
8
DEFAULT_255_2_778
10
11.3550323
20
3.0220739
11
11.5592323
21
3.0220739
0
LINE
8
DEFAULT_255_2_778
10
11.5592323
20
3.0220739
11
12.1172323
21
1.3221739
0
LINE
8
DEFAULT_255_2_778
10
12.1172323
20
1.3221739
11
11.9148323
21
1.3221739
0
LINE
8
DEFAULT_255_2_778
10
11.9148323
20
1.3221739
11
11.7780323
21
1.7655739
0
LINE
8
DEFAULT_255_2_778
10
11.7780323
20
1.7655739
11
11.1380323
21
1.7655739
0
LINE
8
DEFAULT_255_2_778
10
11.1380323
20
1.7655739
11
11.0031323
21
1.3221739
0
LINE
8
DEFAULT_255_2_778
10
11.0031323
20
1.3221739
11
10.7967323
21
1.3221739
0
LINE
8
DEFAULT_255_2_778
10
10.7967323
20
1.3221739
11
11.3550323
21
3.0220739
0
LINE
8
DEFAULT_255_2_778
10
11.1978323
20
1.9581739
11
11.7193323
21
1.9581739
0
LINE
8
DEFAULT_255_2_778
10
11.7193323
20
1.9581739
11
11.4582323
21
2.8027739
0
LINE
8
DEFAULT_255_2_778
10
11.4582323
20
2.8027739
11
11.1978323
21
1.9581739
0
LINE
8
DEFAULT_255_2_778
10
8.7660542
20
3.0220549
11
8.9809542
21
3.0220549
0
LINE
8
DEFAULT_255_2_778
10
8.9809542
20
3.0220549
11
8.9809542
21
1.9330549
0
LINE
8
DEFAULT_255_2_778
10
8.9809542
20
1.9330549
11
9.2383542
21
1.9330549
0
LINE
8
DEFAULT_255_2_778
10
9.2383542
20
1.9330549
11
9.2383542
21
1.7475549
0
LINE
8
DEFAULT_255_2_778
10
9.2383542
20
1.7475549
11
8.9809542
21
1.7475549
0
LINE
8
DEFAULT_255_2_778
10
8.9809542
20
1.7475549
11
8.9809542
21
1.3223549
0
LINE
8
DEFAULT_255_2_778
10
8.9809542
20
1.3223549
11
8.7986542
21
1.3223549
0
LINE
8
DEFAULT_255_2_778
10
8.7986542
20
1.3223549
11
8.7986542
21
1.7475549
0
LINE
8
DEFAULT_255_2_778
10
8.7986542
20
1.7475549
11
8.1662542
21
1.7475549
0
LINE
8
DEFAULT_255_2_778
10
8.1662542
20
1.7475549
11
8.1662542
21
1.9523549
0
LINE
8
DEFAULT_255_2_778
10
8.1662542
20
1.9523549
11
8.7660542
21
3.0220549
0
LINE
8
DEFAULT_255_2_778
10
8.3255542
20
1.9327549
11
8.7988542
21
1.9327549
0
LINE
8
DEFAULT_255_2_778
10
8.7988542
20
1.9327549
11
8.7988542
21
2.7796549
0
LINE
8
DEFAULT_255_2_778
10
8.7988542
20
2.7796549
11
8.3255542
21
1.9327549
0
ENDSEC
0
EOF