0
SECTION
2
HEADER
9
$MEASUREMENT
70
1
0
ENDSEC
0
SECTION
2
TABLES
0
TABLE
2
LTYPE
0
LTYPE
72
65
70
64
2
CONTINUOUS
3
______
73
0
40
0
0
ENDTAB
0
TABLE
2
LAYER
0
LAYER
2
DEFAULT_255_2_778
70
0
62
255
6
CONTINUOUS
0
LAYER
2
DEFAULT_255_1_234
70
0
62
255
6
CONTINUOUS
0
LAYER
2
DEFAULT_255_2_778_1
70
0
62
255
6
CONTINUOUS
0
ENDTAB
0
ENDSEC
0
SECTION
2
ENTITIES
0
ARC
8
DEFAULT_255_2_778
10
3.5695693
20
67.8676531
40
0.7914215
50
129.1312896
51
180.1450914
0
ARC
8
DEFAULT_255_2_778
10
3.5698345
20
67.8681402
40
0.7912112
50
89.854026
51
129.1684493
0
ARC
8
DEFAULT_255_2_778
10
25.7988937
20
67.8678268
40
0.7915249
50
39.4792447
51
90.147911
0
ARC
8
DEFAULT_255_2_778
10
25.7994935
20
67.8676734
40
0.7911595
50
359.8533901
51
39.5154338
0
ARC
8
DEFAULT_255_2_778
10
25.7991693
20
-1.9863991
40
0.7914836
50
309.4761667
51
0.1482649
0
ARC
8
DEFAULT_255_2_778
10
25.798898
20
-1.9868302
40
0.7913235
50
269.8517415
51
309.511178
0
ARC
8
DEFAULT_255_2_778
10
3.569842
20
-1.986772
40
0.7913815
50
219.1282118
51
270.1454017
0
ARC
8
DEFAULT_255_2_778
10
3.5695247
20
-1.9863896
40
0.7913769
50
179.8524075
51
219.1641908
0
LINE
8
DEFAULT_255_2_778
10
3.5718503
20
68.659349
11
25.7968503
21
68.659349
0
LINE
8
DEFAULT_255_2_778
10
26.5906503
20
67.865649
11
26.5906503
21
-1.984351
0
LINE
8
DEFAULT_255_2_778
10
25.7968503
20
-2.778151
11
3.5718503
21
-2.778151
0
LINE
8
DEFAULT_255_2_778
10
2.7781503
20
-1.984351
11
2.7781503
21
67.865649
0
LINE
8
DEFAULT_255_1_234
10
6.7708835
20
0.5189243
11
6.7973882
21
0.5189243
0
LINE
8
DEFAULT_255_1_234
10
6.7973882
20
0.5189243
11
6.7973882
21
0.392826
0
LINE
8
DEFAULT_255_1_234
10
6.7973882
20
0.392826
11
6.7700803
21
0.392826
0
LINE
8
DEFAULT_255_1_234
10
6.2231189
20
-0.2063417
11
6.2231189
21
-0.1493164
0
LINE
8
DEFAULT_255_1_234
10
6.3725093
20
-0.1685925
11
6.3725093
21
-0.2232083
0
ARC
8
DEFAULT_255_1_234
10
6.7753151
20
-0.1069545
40
0.4998079
50
90.6001036
51
104.514704
0
ARC
8
DEFAULT_255_1_234
10
6.7364667
20
0.0375131
40
0.3502176
50
104.2855254
51
133.862935
0
ARC
8
DEFAULT_255_1_234
10
6.7528424
20
0.026683
40
0.3693984
50
134.5302688
51
161.6210873
0
ARC
8
DEFAULT_255_1_234
10
6.9181613
20
-0.0316105
40
0.5446739
50
161.2849839
51
174.2076652
0
ARC
8
DEFAULT_255_1_234
10
7.058855
20
-0.0510213
40
0.6866274
50
173.7810589
51
174.9254635
0
ARC
8
DEFAULT_255_1_234
10
6.6038382
20
-0.1893161
40
0.3033419
50
95.8330959
51
138.9954921
0
ARC
8
DEFAULT_255_1_234
10
6.6261738
20
-0.3171625
40
0.4328947
50
89.8753725
51
97.0544009
0
ARC
8
DEFAULT_255_1_234
10
6.6309204
20
-0.2336252
40
0.3493769
50
71.6407809
51
90.6240094
0
ARC
8
DEFAULT_255_1_234
10
6.6459777
20
-0.1781918
40
0.2920396
50
39.6367836
51
71.019018
0
ARC
8
DEFAULT_255_1_234
10
6.582325
20
-0.2332002
40
0.3761538
50
10.658731
51
39.9043955
0
ARC
8
DEFAULT_255_1_234
10
6.4275333
20
-0.2668314
40
0.5345136
50
359.682601
51
11.132623
0
ARC
8
DEFAULT_255_1_234
10
6.4235464
20
-0.273899
40
0.5385081
50
347.2486944
51
0.4369317
0
ARC
8
DEFAULT_255_1_234
10
6.5902941
20
-0.3140193
40
0.3670249
50
318.1409698
51
347.6118597
0
ARC
8
DEFAULT_255_1_234
10
6.6227934
20
-0.3407298
40
0.3250007
50
275.6342139
51
317.8248465
0
ARC
8
DEFAULT_255_1_234
10
6.6007045
20
-0.2107781
40
0.4565864
50
269.8874292
51
276.7917694
0
ARC
8
DEFAULT_255_1_234
10
6.5952116
20
-0.3133257
40
0.3540676
50
246.9140195
51
270.7437342
0
ARC
8
DEFAULT_255_1_234
10
6.5958506
20
-0.3275616
40
0.3412781
50
218.1665114
51
245.878116
0
ARC
8
DEFAULT_255_1_234
10
6.6837967
20
-0.2539721
40
0.455911
50
191.4115814
51
218.6077802
0
ARC
8
DEFAULT_255_1_234
10
6.8776056
20
-0.2105167
40
0.6545001
50
179.6345085
51
191.7836486
0
ARC
8
DEFAULT_255_1_234
10
7.4358393
20
-0.1426303
40
1.2127388
50
171.4525249
51
180.3158839
0
ARC
8
DEFAULT_255_1_234
10
6.9963269
20
-0.0742392
40
0.7679464
50
157.9802646
51
171.6246686
0
ARC
8
DEFAULT_255_1_234
10
6.774929
20
0.0140421
40
0.5296008
50
141.4298019
51
157.854097
0
ARC
8
DEFAULT_255_1_234
10
6.710761
20
0.0594381
40
0.4511509
50
102.8715806
51
140.8564722
0
ARC
8
DEFAULT_255_1_234
10
6.7755226
20
-0.1845448
40
0.7034845
50
90.3778349
51
103.5869322
0
ARC
8
DEFAULT_255_1_234
10
6.6017002
20
-0.245027
40
0.2370698
50
89.8751008
51
126.2071704
0
ARC
8
DEFAULT_255_1_234
10
6.6062792
20
-0.2604697
40
0.2522934
50
124.9745049
51
144.895901
0
ARC
8
DEFAULT_255_1_234
10
6.5886982
20
-0.246144
40
0.2296779
50
145.2974905
51
160.2660252
0
ARC
8
DEFAULT_255_1_234
10
6.8959521
20
-0.2263929
40
0.5234525
50
179.6514266
51
190.2855912
0
ARC
8
DEFAULT_255_1_234
10
6.7265658
20
-0.2583214
40
0.3510893
50
190.0945431
51
207.5098196
0
ARC
8
DEFAULT_255_1_234
10
6.6699928
20
-0.2852377
40
0.288489
50
207.9583163
51
216.3251085
0
ARC
8
DEFAULT_255_1_234
10
6.6360036
20
-0.3131895
40
0.2445587
50
215.7661442
51
232.5456785
0
ARC
8
DEFAULT_255_1_234
10
6.5977019
20
-0.3618518
40
0.1826382
50
232.8005391
51
270.6605633
0
ARC
8
DEFAULT_255_1_234
10
6.602272
20
-0.3254388
40
0.2190529
50
269.35537
51
288.4744281
0
ARC
8
DEFAULT_255_1_234
10
6.6115617
20
-0.3603882
40
0.1829749
50
289.1833337
51
322.9683818
0
ARC
8
DEFAULT_255_1_234
10
6.5504139
20
-0.3121609
40
0.2608399
50
322.6007884
51
346.5182367
0
ARC
8
DEFAULT_255_1_234
10
6.4346735
20
-0.2826384
40
0.3802777
50
346.2582162
51
358.7741648
0
ARC
8
DEFAULT_255_1_234
10
6.3328404
20
-0.2771035
40
0.4822176
50
358.3755224
51
0.0098023
0
ARC
8
DEFAULT_255_1_234
10
6.4084591
20
-0.2743343
40
0.4066078
50
359.6214041
51
11.2839074
0
ARC
8
DEFAULT_255_1_234
10
6.5361738
20
-0.2476934
40
0.2761514
50
11.0482309
51
31.8146458
0
ARC
8
DEFAULT_255_1_234
10
6.5670781
20
-0.2309416
40
0.2410679
50
32.3035391
51
38.082671
0
ARC
8
DEFAULT_255_1_234
10
6.6091441
20
-0.1928338
40
0.1844966
50
36.825067
51
85.7415724
0
ARC
8
DEFAULT_255_1_234
10
6.6024274
20
-0.2428699
40
0.2349122
50
85.0140713
51
90.0513278
0
LINE
8
DEFAULT_255_1_234
10
7.8374983
20
0.0153343
11
7.8374983
21
-0.110764
0
LINE
8
DEFAULT_255_1_234
10
7.8374983
20
-0.110764
11
7.3306957
21
-0.110764
0
LINE
8
DEFAULT_255_1_234
10
7.3306957
20
-0.110764
11
7.3306957
21
-0.5252017
0
LINE
8
DEFAULT_255_1_234
10
7.3306957
20
-0.5252017
11
7.9194221
21
-0.5252017
0
LINE
8
DEFAULT_255_1_234
10
7.9194221
20
-0.5252017
11
7.9194221
21
-0.6513
0
LINE
8
DEFAULT_255_1_234
10
7.9194221
20
-0.6513
11
7.1764863
21
-0.6513
0
LINE
8
DEFAULT_255_1_234
10
7.1764863
20
-0.6513
11
7.1764863
21
0.5181211
0
LINE
8
DEFAULT_255_1_234
10
7.1764863
20
0.5181211
11
7.9113903
21
0.5181211
0
LINE
8
DEFAULT_255_1_234
10
7.9113903
20
0.5181211
11
7.9113903
21
0.3912196
0
LINE
8
DEFAULT_255_1_234
10
7.9113903
20
0.3912196
11
7.3306957
21
0.3912196
0
LINE
8
DEFAULT_255_1_234
10
7.3306957
20
0.3912196
11
7.3306957
21
0.0153343
0
LINE
8
DEFAULT_255_1_234
10
7.3306957
20
0.0153343
11
7.8374983
21
0.0153343
0
LINE
8
DEFAULT_255_1_234
10
8.8872465
20
0.1799849
11
8.732234
21
0.1799849
0
LINE
8
DEFAULT_255_1_234
10
8.0398981
20
-0.3123606
11
8.1949107
21
-0.3123606
0
ARC
8
DEFAULT_255_1_234
10
8.7981153
20
1.0746768
40
1.252368
50
248.9199003
51
254.1439814
0
ARC
8
DEFAULT_255_1_234
10
8.6300648
20
0.6420234
40
0.788226
50
241.633709
51
249.0064503
0
ARC
8
DEFAULT_255_1_234
10
8.4772042
20
0.3619317
40
0.4691427
50
230.498225
51
241.8087113
0
ARC
8
DEFAULT_255_1_234
10
8.3987616
20
0.2619906
40
0.3421437
50
227.4064532
51
229.9881192
0
ARC
8
DEFAULT_255_1_234
10
8.3500137
20
0.2144088
40
0.2741476
50
200.6781896
51
228.1763934
0
ARC
8
DEFAULT_255_1_234
10
8.3572447
20
0.2129077
40
0.2804109
50
179.5061581
51
199.8694617
0
ARC
8
DEFAULT_255_1_234
10
8.3563199
20
0.220321
40
0.2795204
50
132.4834203
51
181.0242172
0
ARC
8
DEFAULT_255_1_234
10
8.4158782
20
0.1640704
40
0.3612768
50
129.2532479
51
133.4242687
0
ARC
8
DEFAULT_255_1_234
10
8.4305231
20
0.1420965
40
0.3875675
50
101.98776
51
128.8742646
0
ARC
8
DEFAULT_255_1_234
10
8.4703842
20
-0.0300259
40
0.5642249
50
89.5906553
51
102.3169264
0
ARC
8
DEFAULT_255_1_234
10
8.4774334
20
0.0018148
40
0.5323783
50
77.2360837
51
90.3248275
0
ARC
8
DEFAULT_255_1_234
10
8.4981413
20
0.09854
40
0.4334697
50
63.837784
51
77.0809408
0
ARC
8
DEFAULT_255_1_234
10
8.5259175
20
0.1502911
40
0.3747796
50
45.9864267
51
64.1607727
0
ARC
8
DEFAULT_255_1_234
10
8.5520056
20
0.1800866
40
0.3352302
50
32.2747395
51
45.6547121
0
ARC
8
DEFAULT_255_1_234
10
8.5586497
20
0.181988
40
0.328603
50
359.6507365
51
32.6130309
0
ARC
8
DEFAULT_255_1_234
10
8.4643592
20
0.182466
40
0.2678863
50
359.469343
51
14.9832209
0
ARC
8
DEFAULT_255_1_234
10
8.5348654
20
0.2013539
40
0.1948938
50
14.9781179
51
48.2004265
0
ARC
8
DEFAULT_255_1_234
10
8.5184299
20
0.1806983
40
0.2212521
50
48.5927837
51
74.1241538
0
ARC
8
DEFAULT_255_1_234
10
8.4850788
20
0.0706248
40
0.3362561
50
73.7888341
51
86.6652678
0
ARC
8
DEFAULT_255_1_234
10
8.4748354
20
-0.0501119
40
0.4573953
50
86.2640471
51
90.0526343
0
ARC
8
DEFAULT_255_1_234
10
8.4720066
20
-0.0105808
40
0.4178709
50
89.6697524
51
99.2309573
0
ARC
8
DEFAULT_255_1_234
10
8.4477517
20
0.1338964
40
0.2713749
50
99.069534
51
113.7658566
0
ARC
8
DEFAULT_255_1_234
10
8.4203708
20
0.1984677
40
0.2012469
50
114.0401004
51
127.9850673
0
ARC
8
DEFAULT_255_1_234
10
8.3963272
20
0.228073
40
0.1631167
50
127.7287463
51
176.7105154
0
ARC
8
DEFAULT_255_1_234
10
8.464199
20
0.2179693
40
0.2315392
50
175.1779447
51
180.0581938
0
ARC
8
DEFAULT_255_1_234
10
8.3798836
20
0.2167428
40
0.1472271
50
179.6142195
51
228.1246017
0
ARC
8
DEFAULT_255_1_234
10
8.4240505
20
0.2576308
40
0.2072299
50
226.5779593
51
230.8800004
0
ARC
8
DEFAULT_255_1_234
10
8.4711584
20
0.3201636
40
0.2854818
50
231.4635071
51
241.9260842
0
ARC
8
DEFAULT_255_1_234
10
8.5908762
20
0.54048
40
0.53622
50
241.7178533
51
248.3259551
0
ARC
8
DEFAULT_255_1_234
10
8.7294134
20
0.8837064
40
0.9063478
50
248.2007737
51
252.4528373
0
ARC
8
DEFAULT_255_1_234
10
8.8497858
20
1.2558441
40
1.2974635
50
252.3391078
51
254.3469452
0
ARC
8
DEFAULT_255_1_234
10
8.0955561
20
-1.4418852
40
1.5037162
50
71.0197183
51
74.4087047
0
ARC
8
DEFAULT_255_1_234
10
8.2650246
20
-0.9526889
40
0.9859993
50
66.1847285
51
71.086374
0
ARC
8
DEFAULT_255_1_234
10
8.4206559
20
-0.60228
40
0.6025855
50
59.3536294
51
66.2691831
0
ARC
8
DEFAULT_255_1_234
10
8.5095211
20
-0.4519391
40
0.4279449
50
49.1020879
51
59.3293958
0
ARC
8
DEFAULT_255_1_234
10
8.5913951
20
-0.3586166
40
0.3038015
50
32.7919921
51
49.2505539
0
ARC
8
DEFAULT_255_1_234
10
8.6235041
20
-0.3357809
40
0.264448
50
31.1181161
51
32.4005348
0
ARC
8
DEFAULT_255_1_234
10
8.6146579
20
-0.3393221
40
0.2738556
50
8.1116974
51
30.7958831
0
ARC
8
DEFAULT_255_1_234
10
8.5336247
20
-0.3531247
40
0.3560327
50
359.8389159
51
8.4706516
0
ARC
8
DEFAULT_255_1_234
10
8.5962038
20
-0.3579863
40
0.2934776
50
337.4731098
51
0.7537279
0
ARC
8
DEFAULT_255_1_234
10
8.6140733
20
-0.3599613
40
0.2762607
50
307.5917067
51
336.4315538
0
ARC
8
DEFAULT_255_1_234
10
8.5680561
20
-0.3086898
40
0.3449979
50
307.6551545
51
308.4529766
0
ARC
8
DEFAULT_255_1_234
10
8.545028
20
-0.273175
40
0.3871988
50
284.3734338
51
307.1424381
0
ARC
8
DEFAULT_255_1_234
10
8.495511
20
-0.0910068
40
0.5759636
50
272.4382747
51
284.646547
0
ARC
8
DEFAULT_255_1_234
10
8.4828319
20
0.0889893
40
0.7563528
50
269.9708387
51
272.8178037
0
ARC
8
DEFAULT_255_1_234
10
8.4785358
20
-0.1148284
40
0.5525489
50
248.2707594
51
270.4055579
0
ARC
8
DEFAULT_255_1_234
10
8.47311
20
-0.1338808
40
0.5328452
50
246.1383403
51
248.0542782
0
ARC
8
DEFAULT_255_1_234
10
8.4312478
20
-0.2218157
40
0.4355005
50
233.1670131
51
246.4950969
0
ARC
8
DEFAULT_255_1_234
10
8.3758383
20
-0.2966188
40
0.3424126
50
215.3403242
51
233.0843104
0
ARC
8
DEFAULT_255_1_234
10
8.3485815
20
-0.3164451
40
0.3087104
50
179.2419209
51
215.2648451
0
ARC
8
DEFAULT_255_1_234
10
8.4253409
20
-0.3150334
40
0.2304457
50
179.335461
51
199.1045811
0
ARC
8
DEFAULT_255_1_234
10
8.3921085
20
-0.3237234
40
0.1962176
50
199.8828939
51
232.7063202
0
ARC
8
DEFAULT_255_1_234
10
8.4393353
20
-0.2643212
40
0.2720938
50
232.3738199
51
255.5136649
0
ARC
8
DEFAULT_255_1_234
10
8.473422
20
-0.1399165
40
0.4010747
50
255.2446292
51
267.5320849
0
ARC
8
DEFAULT_255_1_234
10
8.4821843
20
-0.0166298
40
0.5246356
50
267.1557994
51
270.0286766
0
ARC
8
DEFAULT_255_1_234
10
8.4849616
20
-0.061005
40
0.4802668
50
269.7000017
51
278.1660162
0
ARC
8
DEFAULT_255_1_234
10
8.510562
20
-0.2340485
40
0.3053425
50
278.0231263
51
290.625471
0
ARC
8
DEFAULT_255_1_234
10
8.5453308
20
-0.3267975
40
0.206291
50
290.6619762
51
307.0370976
0
ARC
8
DEFAULT_255_1_234
10
8.5753697
20
-0.3636496
40
0.1587906
50
306.3943566
51
355.3030547
0
ARC
8
DEFAULT_255_1_234
10
8.5241628
20
-0.3559887
40
0.2104809
50
354.3660432
51
0.0698737
0
ARC
8
DEFAULT_255_1_234
10
8.5383973
20
-0.3537383
40
0.1962563
50
359.417946
51
16.1971788
0
ARC
8
DEFAULT_255_1_234
10
8.5839284
20
-0.3412582
40
0.149053
50
16.4723299
51
52.6262157
0
ARC
8
DEFAULT_255_1_234
10
8.5018338
20
-0.4496567
40
0.2850296
50
52.7386432
51
62.4979148
0
ARC
8
DEFAULT_255_1_234
10
8.3633415
20
-0.7102717
40
0.5801521
50
62.2515216
51
68.1220564
0
ARC
8
DEFAULT_255_1_234
10
8.1913325
20
-1.1330128
40
1.0365451
50
68.0062803
51
71.8053402
0
ARC
8
DEFAULT_255_1_234
10
8.0117697
20
-1.6715242
40
1.6042013
50
71.7183119
51
73.9258742
0
LINE
8
DEFAULT_255_1_234
10
9.8036679
20
0.5181211
11
9.8036679
21
0.434591
0
LINE
8
DEFAULT_255_1_234
10
9.8036679
20
0.434591
11
9.3193541
21
-0.6513
0
LINE
8
DEFAULT_255_1_234
10
9.3193541
20
-0.6513
11
9.1635383
21
-0.6513
0
LINE
8
DEFAULT_255_1_234
10
9.1635383
20
-0.6513
11
9.6462458
21
0.3960387
0
LINE
8
DEFAULT_255_1_234
10
9.6462458
20
0.3960387
11
9.0133448
21
0.3960387
0
LINE
8
DEFAULT_255_1_234
10
9.0133448
20
0.3960387
11
9.0133448
21
0.5181211
0
LINE
8
DEFAULT_255_1_234
10
9.0133448
20
0.5181211
11
9.8036679
21
0.5181211
0
LINE
8
DEFAULT_255_1_234
10
10.4606641
20
0.5237433
11
10.4606641
21
-0.6513
0
LINE
8
DEFAULT_255_1_234
10
10.4606641
20
-0.6513
11
10.3112737
21
-0.6513
0
LINE
8
DEFAULT_255_1_234
10
10.3112737
20
-0.6513
11
10.3112737
21
0.3390133
0
LINE
8
DEFAULT_255_1_234
10
10.3112737
20
0.3390133
11
10.0116899
21
0.2289785
0
LINE
8
DEFAULT_255_1_234
10
10.0116899
20
0.2289785
11
10.0116899
21
0.3639117
0
LINE
8
DEFAULT_255_1_234
10
10.0116899
20
0.3639117
11
10.437372
21
0.5237433
0
LINE
8
DEFAULT_255_1_234
10
10.437372
20
0.5237433
11
10.4606641
21
0.5237433
0
LINE
8
DEFAULT_255_1_234
10
11.112038
20
-0.1155831
11
11.112038
21
0.0056962
0
LINE
8
DEFAULT_255_1_234
10
11.112038
20
0.0056962
11
11.2236792
21
0.0056962
0
LINE
8
DEFAULT_255_1_234
10
11.033327
20
0.2113087
11
10.8847398
21
0.2113087
0
LINE
8
DEFAULT_255_1_234
10
10.8742986
20
-0.3428813
11
11.0236889
21
-0.3428813
0
LINE
8
DEFAULT_255_1_234
10
11.2236792
20
-0.1155831
11
11.112038
21
-0.1155831
0
ARC
8
DEFAULT_255_1_234
10
11.2207658
20
0.3449713
40
0.3392876
50
270.4919872
51
281.8951556
0
ARC
8
DEFAULT_255_1_234
10
11.244892
20
0.2347702
40
0.2264817
50
281.6691735
51
301.2943132
0
ARC
8
DEFAULT_255_1_234
10
11.261913
20
0.2036304
40
0.1910381
50
301.7833094
51
311.7545298
0
ARC
8
DEFAULT_255_1_234
10
11.2710706
20
0.1934748
40
0.1773635
50
311.7323931
51
354.2802411
0
ARC
8
DEFAULT_255_1_234
10
11.1984331
20
0.2059722
40
0.2509385
50
353.0937916
51
0.1181479
0
ARC
8
DEFAULT_255_1_234
10
11.1523116
20
0.2107386
40
0.2970898
50
359.1805295
51
15.0453146
0
ARC
8
DEFAULT_255_1_234
10
11.2868953
20
0.2499992
40
0.1569564
50
13.9577229
51
77.6713066
0
ARC
8
DEFAULT_255_1_234
10
11.2482482
20
0.1114949
40
0.3006298
50
76.1116566
51
90.7026153
0
ARC
8
DEFAULT_255_1_234
10
11.2423321
20
0.1388545
40
0.2732568
50
89.5324876
51
103.531937
0
ARC
8
DEFAULT_255_1_234
10
11.2222765
20
0.2187884
40
0.1908508
50
103.2931773
51
133.5619022
0
ARC
8
DEFAULT_255_1_234
10
11.2178253
20
0.2247375
40
0.1834746
50
133.8349307
51
173.5344437
0
ARC
8
DEFAULT_255_1_234
10
11.2901296
20
0.2119213
40
0.2568033
50
172.5096846
51
180.1366907
0
ARC
8
DEFAULT_255_1_234
10
11.195019
20
0.2153622
40
0.3103056
50
155.3484492
51
180.7484736
0
ARC
8
DEFAULT_255_1_234
10
11.1901279
20
0.2124846
40
0.3070957
50
131.5744599
51
154.4798489
0
ARC
8
DEFAULT_255_1_234
10
11.2214427
20
0.180831
40
0.3515643
50
96.9875458
51
131.9690667
0
ARC
8
DEFAULT_255_1_234
10
11.2433906
20
0.0562636
40
0.4779224
50
89.8596053
51
97.7825159
0
ARC
8
DEFAULT_255_1_234
10
11.248197
20
0.0300616
40
0.5041361
50
78.3655447
51
90.4131539
0
ARC
8
DEFAULT_255_1_234
10
11.2839887
20
0.1959887
40
0.3344039
50
56.6229102
51
78.638727
0
ARC
8
DEFAULT_255_1_234
10
11.3054831
20
0.2335805
40
0.2912001
50
47.0253525
51
56.0854072
0
ARC
8
DEFAULT_255_1_234
10
11.3074611
20
0.2375223
40
0.2869704
50
10.9208013
51
46.7778124
0
ARC
8
DEFAULT_255_1_234
10
11.1710678
20
0.2059857
40
0.426899
50
359.6364486
51
11.6087304
0
ARC
8
DEFAULT_255_1_234
10
11.3545522
20
0.2044752
40
0.243409
50
332.3549906
51
359.7179418
0
ARC
8
DEFAULT_255_1_234
10
11.2895123
20
0.2353142
40
0.3153459
50
325.2333722
51
332.8745602
0
ARC
8
DEFAULT_255_1_234
10
11.3047747
20
0.2246828
40
0.2967456
50
292.9802137
51
325.2392345
0
ARC
8
DEFAULT_255_1_234
10
11.2773121
20
0.2780863
40
0.3566604
50
292.5402179
51
293.6924929
0
ARC
8
DEFAULT_255_1_234
10
11.3165717
20
-0.3673909
40
0.3307468
50
57.6435486
51
72.8625112
0
ARC
8
DEFAULT_255_1_234
10
11.3520216
20
-0.3099451
40
0.2632492
50
36.7248896
51
57.4697979
0
ARC
8
DEFAULT_255_1_234
10
11.3508849
20
-0.308678
40
0.2634081
50
8.0545065
51
36.356114
0
ARC
8
DEFAULT_255_1_234
10
11.2646034
20
-0.3241826
40
0.3510261
50
359.8320645
51
8.5869982
0
ARC
8
DEFAULT_255_1_234
10
11.2270811
20
-0.3289899
40
0.3885653
50
343.9829931
51
0.5571613
0
ARC
8
DEFAULT_255_1_234
10
11.3157008
20
-0.3532562
40
0.2966924
50
311.6359546
51
343.7651759
0
ARC
8
DEFAULT_255_1_234
10
11.2778577
20
-0.3105898
40
0.3537231
50
279.7829875
51
311.6255694
0
ARC
8
DEFAULT_255_1_234
10
11.2477353
20
-0.166872
40
0.5004971
50
269.7286406
51
280.3856417
0
ARC
8
DEFAULT_255_1_234
10
11.2415426
20
-0.1710004
40
0.4963778
50
256.6828919
51
270.4412052
0
ARC
8
DEFAULT_255_1_234
10
11.2076722
20
-0.3094606
40
0.3538406
50
229.4223008
51
256.8556159
0
ARC
8
DEFAULT_255_1_234
10
11.1662114
20
-0.3561264
40
0.2914296
50
181.818294
51
229.6455059
0
ARC
8
DEFAULT_255_1_234
10
11.2702071
20
-0.3430504
40
0.3959084
50
179.9755256
51
183.2323064
0
ARC
8
DEFAULT_255_1_234
10
11.2529816
20
-0.3450963
40
0.2293034
50
179.4465117
51
196.2869258
0
ARC
8
DEFAULT_255_1_234
10
11.2042224
20
-0.3584349
40
0.1787621
50
196.5661473
51
227.705904
0
ARC
8
DEFAULT_255_1_234
10
11.2206319
20
-0.3400845
40
0.2033784
50
227.7652068
51
257.8762805
0
ARC
8
DEFAULT_255_1_234
10
11.2431289
20
-0.2457844
40
0.3003081
50
257.4584385
51
270.426602
0
ARC
8
DEFAULT_255_1_234
10
11.2476856
20
-0.2168004
40
0.329292
50
269.5962073
51
280.8789248
0
ARC
8
DEFAULT_255_1_234
10
11.2706384
20
-0.3314315
40
0.2123908
50
280.6346389
51
299.8595945
0
ARC
8
DEFAULT_255_1_234
10
11.2897291
20
-0.3676788
40
0.171457
50
300.3576302
51
314.5517981
0
ARC
8
DEFAULT_255_1_234
10
11.2814351
20
-0.3616081
40
0.1816095
50
315.0728369
51
345.0431014
0
ARC
8
DEFAULT_255_1_234
10
11.1891166
20
-0.3347159
40
0.2777492
50
344.5986631
51
357.9269593
0
ARC
8
DEFAULT_255_1_234
10
11.0995492
20
-0.3285724
40
0.3674917
50
357.4748886
51
0.0231117
0
ARC
8
DEFAULT_255_1_234
10
11.2018601
20
-0.3261321
40
0.2651907
50
359.5047933
51
13.4239635
0
ARC
8
DEFAULT_255_1_234
10
11.2885245
20
-0.3039522
40
0.1757509
50
12.9498199
51
48.7551375
0
ARC
8
DEFAULT_255_1_234
10
11.2702979
20
-0.32886
40
0.2065134
50
49.5088623
51
72.1836453
0
ARC
8
DEFAULT_255_1_234
10
11.2345131
20
-0.4350709
40
0.3185836
50
71.9010081
51
84.3554254
0
ARC
8
DEFAULT_255_1_234
10
11.2183763
20
-0.5711674
40
0.4556151
50
84.0193428
51
89.333121
0
LINE
8
DEFAULT_255_1_234
10
12.4469129
20
0.5181211
11
12.4469129
21
-0.258548
0
LINE
8
DEFAULT_255_1_234
10
12.4469129
20
-0.258548
11
12.6091541
21
-0.258548
0
LINE
8
DEFAULT_255_1_234
10
12.6091541
20
-0.258548
11
12.6091541
21
-0.3798272
0
LINE
8
DEFAULT_255_1_234
10
12.6091541
20
-0.3798272
11
12.4469129
21
-0.3798272
0
LINE
8
DEFAULT_255_1_234
10
12.4469129
20
-0.3798272
11
12.4469129
21
-0.6513
0
LINE
8
DEFAULT_255_1_234
10
12.4469129
20
-0.6513
11
12.2975226
21
-0.6513
0
LINE
8
DEFAULT_255_1_234
10
12.2975226
20
-0.6513
11
12.2975226
21
-0.3798272
0
LINE
8
DEFAULT_255_1_234
10
12.2975226
20
-0.3798272
11
11.7650184
21
-0.3798272
0
LINE
8
DEFAULT_255_1_234
10
11.7650184
20
-0.3798272
11
11.7650184
21
-0.2922813
0
LINE
8
DEFAULT_255_1_234
10
11.7650184
20
-0.2922813
11
12.2886877
21
0.5181211
0
LINE
8
DEFAULT_255_1_234
10
12.2886877
20
0.5181211
11
12.4469129
21
0.5181211
0
LINE
8
DEFAULT_255_1_234
10
12.2798528
20
0.2827912
11
11.9336849
21
-0.258548
0
LINE
8
DEFAULT_255_1_234
10
11.9336849
20
-0.258548
11
12.2975226
21
-0.258548
0
LINE
8
DEFAULT_255_1_234
10
12.2975226
20
-0.258548
11
12.2975226
21
0.3149181
0
LINE
8
DEFAULT_255_1_234
10
12.2975226
20
0.3149181
11
12.2798528
21
0.2827912
0
LINE
8
DEFAULT_255_1_234
10
13.0677663
20
-0.0938974
11
13.0677663
21
-0.2151766
0
LINE
8
DEFAULT_255_1_234
10
13.0677663
20
-0.2151766
11
12.6758175
21
-0.2151766
0
LINE
8
DEFAULT_255_1_234
10
12.6758175
20
-0.2151766
11
12.6758175
21
-0.0938974
0
LINE
8
DEFAULT_255_1_234
10
12.6758175
20
-0.0938974
11
13.0677663
21
-0.0938974
0
LINE
8
DEFAULT_255_1_234
10
13.8243561
20
0.5181211
11
13.8243561
21
-0.258548
0
LINE
8
DEFAULT_255_1_234
10
13.8243561
20
-0.258548
11
13.9865972
21
-0.258548
0
LINE
8
DEFAULT_255_1_234
10
13.9865972
20
-0.258548
11
13.9865972
21
-0.3798272
0
LINE
8
DEFAULT_255_1_234
10
13.9865972
20
-0.3798272
11
13.8243561
21
-0.3798272
0
LINE
8
DEFAULT_255_1_234
10
13.8243561
20
-0.3798272
11
13.8243561
21
-0.6513
0
LINE
8
DEFAULT_255_1_234
10
13.8243561
20
-0.6513
11
13.6749657
21
-0.6513
0
LINE
8
DEFAULT_255_1_234
10
13.6749657
20
-0.6513
11
13.6749657
21
-0.3798272
0
LINE
8
DEFAULT_255_1_234
10
13.6749657
20
-0.3798272
11
13.1424615
21
-0.3798272
0
LINE
8
DEFAULT_255_1_234
10
13.1424615
20
-0.3798272
11
13.1424615
21
-0.2922813
0
LINE
8
DEFAULT_255_1_234
10
13.1424615
20
-0.2922813
11
13.6661308
21
0.5181211
0
LINE
8
DEFAULT_255_1_234
10
13.6661308
20
0.5181211
11
13.8243561
21
0.5181211
0
LINE
8
DEFAULT_255_1_234
10
13.6572959
20
0.2827912
11
13.311128
21
-0.258548
0
LINE
8
DEFAULT_255_1_234
10
13.311128
20
-0.258548
11
13.6749657
21
-0.258548
0
LINE
8
DEFAULT_255_1_234
10
13.6749657
20
-0.258548
11
13.6749657
21
0.3149181
0
LINE
8
DEFAULT_255_1_234
10
13.6749657
20
0.3149181
11
13.6572959
21
0.2827912
0
LINE
8
DEFAULT_255_1_234
10
14.8042281
20
-0.0087609
11
14.8042281
21
-0.1348592
0
LINE
8
DEFAULT_255_1_234
10
14.8042281
20
-0.1348592
11
14.3134889
21
-0.1348592
0
LINE
8
DEFAULT_255_1_234
10
14.3134889
20
-0.1348592
11
14.3134889
21
-0.6513
0
LINE
8
DEFAULT_255_1_234
10
14.3134889
20
-0.6513
11
14.1592795
21
-0.6513
0
LINE
8
DEFAULT_255_1_234
10
14.1592795
20
-0.6513
11
14.1592795
21
0.5181211
0
LINE
8
DEFAULT_255_1_234
10
14.1592795
20
0.5181211
11
14.8837423
21
0.5181211
0
LINE
8
DEFAULT_255_1_234
10
14.8837423
20
0.5181211
11
14.8837423
21
0.3912196
0
LINE
8
DEFAULT_255_1_234
10
14.8837423
20
0.3912196
11
14.3134889
21
0.3912196
0
LINE
8
DEFAULT_255_1_234
10
14.3134889
20
0.3912196
11
14.3134889
21
-0.0087609
0
LINE
8
DEFAULT_255_1_234
10
14.3134889
20
-0.0087609
11
14.8042281
21
-0.0087609
0
LINE
8
DEFAULT_255_1_234
10
15.4740751
20
-0.6513
11
15.0684723
21
-0.6513
0
LINE
8
DEFAULT_255_1_234
10
15.0684723
20
-0.6513
11
15.0684723
21
0.5181211
0
LINE
8
DEFAULT_255_1_234
10
15.0684723
20
0.5181211
11
15.4507831
21
0.5181211
0
LINE
8
DEFAULT_255_1_234
10
15.4796973
20
-0.1043386
11
15.2226817
21
-0.1043386
0
LINE
8
DEFAULT_255_1_234
10
15.2226817
20
-0.1043386
11
15.2226817
21
-0.5252017
0
LINE
8
DEFAULT_255_1_234
10
15.2226817
20
-0.5252017
11
15.4772878
21
-0.5252017
0
LINE
8
DEFAULT_255_1_234
10
15.2226817
20
0.3912196
11
15.2226817
21
0.0193501
0
LINE
8
DEFAULT_255_1_234
10
15.2226817
20
0.0193501
11
15.4556021
21
0.0193501
0
LINE
8
DEFAULT_255_1_234
10
15.4507831
20
0.3912196
11
15.2226817
21
0.3912196
0
ARC
8
DEFAULT_255_1_234
10
15.4545539
20
-0.2186099
40
0.7367406
50
82.1257326
51
90.2932599
0
ARC
8
DEFAULT_255_1_234
10
15.4934494
20
0.0532013
40
0.4621653
50
69.9044149
51
82.2857423
0
ARC
8
DEFAULT_255_1_234
10
15.5505172
20
0.2074637
40
0.2976871
50
51.1838526
51
70.0181538
0
ARC
8
DEFAULT_255_1_234
10
15.5760138
20
0.244524
40
0.2528517
50
12.1017251
51
50.4214761
0
ARC
8
DEFAULT_255_1_234
10
15.4376012
20
0.2097676
40
0.3955061
50
359.5251267
51
12.8211707
0
ARC
8
DEFAULT_255_1_234
10
15.5955939
20
0.2028344
40
0.2375281
50
323.4908128
51
0.8817314
0
ARC
8
DEFAULT_255_1_234
10
15.5537625
20
0.235155
40
0.2903817
50
298.6825083
51
323.2756573
0
ARC
8
DEFAULT_255_1_234
10
15.5175988
20
0.2952649
40
0.3604842
50
293.1999386
51
299.1396394
0
ARC
8
DEFAULT_255_1_234
10
15.5848961
20
-0.3132874
40
0.2871098
50
54.0011765
51
74.9167975
0
ARC
8
DEFAULT_255_1_234
10
15.596532
20
-0.2935668
40
0.2643248
50
36.3580696
51
53.5291921
0
ARC
8
DEFAULT_255_1_234
10
15.5838563
20
-0.3026002
40
0.2798884
50
4.8189881
51
36.3089977
0
ARC
8
DEFAULT_255_1_234
10
15.5059398
20
-0.313573
40
0.358478
50
359.9370252
51
5.5204067
0
ARC
8
DEFAULT_255_1_234
10
15.4734919
20
-0.3176333
40
0.3909429
50
344.7478609
51
0.5373281
0
ARC
8
DEFAULT_255_1_234
10
15.572589
20
-0.3443456
40
0.2883093
50
311.1786488
51
344.6886812
0
ARC
8
DEFAULT_255_1_234
10
15.5433938
20
-0.3080013
40
0.3348923
50
286.0418249
51
310.8441291
0
ARC
8
DEFAULT_255_1_234
10
15.4926769
20
-0.1433193
40
0.5071869
50
274.1042341
51
286.4071509
0
ARC
8
DEFAULT_255_1_234
10
15.4750025
20
0.0450229
40
0.6963234
50
269.9236873
51
274.445647
0
ARC
8
DEFAULT_255_1_234
10
15.4796026
20
-0.1889463
40
0.3362634
50
269.6055768
51
281.3740047
0
ARC
8
DEFAULT_255_1_234
10
15.5026664
20
-0.2982647
40
0.224546
50
281.1055983
51
302.5132223
0
ARC
8
DEFAULT_255_1_234
10
15.5173564
20
-0.3246177
40
0.1944357
50
303.0368945
51
311.8811219
0
ARC
8
DEFAULT_255_1_234
10
15.524497
20
-0.333111
40
0.1833454
50
311.9916004
51
351.7143462
0
ARC
8
DEFAULT_255_1_234
10
15.44282
20
-0.316607
40
0.2665871
50
350.7339597
51
0.2221581
0
ARC
8
DEFAULT_255_1_234
10
15.4320646
20
-0.3109533
40
0.2773789
50
359.0456241
51
17.2296242
0
ARC
8
DEFAULT_255_1_234
10
15.5359763
20
-0.2800837
40
0.1689915
50
17.6685481
51
78.9940892
0
ARC
8
DEFAULT_255_1_234
10
15.4842927
20
-0.4655776
40
0.3612658
50
76.5635957
51
90.6980921
0
LINE
8
DEFAULT_255_1_234
10
15.4798912
20
-0.1043387
11
15.4796973
21
-0.1043386
0
ARC
8
DEFAULT_255_1_234
10
15.4578587
20
0.3479036
40
0.3285612
50
269.6064736
51
281.4533503
0
ARC
8
DEFAULT_255_1_234
10
15.4801407
20
0.2427688
40
0.2210975
50
281.2041486
51
302.5148063
0
ARC
8
DEFAULT_255_1_234
10
15.4938257
20
0.2181241
40
0.1929674
50
303.021671
51
309.8369575
0
ARC
8
DEFAULT_255_1_234
10
15.5121719
20
0.1975488
40
0.1654181
50
309.5228395
51
356.9509836
0
ARC
8
DEFAULT_255_1_234
10
15.4458301
20
0.2070932
40
0.2322512
50
355.4701227
51
0.0492546
0
ARC
8
DEFAULT_255_1_234
10
15.4179392
20
0.2093094
40
0.2601498
50
359.5558597
51
11.2096359
0
ARC
8
DEFAULT_255_1_234
10
15.5136682
20
0.229123
40
0.1623975
50
10.9182341
51
31.3230275
0
ARC
8
DEFAULT_255_1_234
10
15.5422416
20
0.2450214
40
0.1297302
50
31.8852677
51
52.1412565
0
ARC
8
DEFAULT_255_1_234
10
15.5148148
20
0.206275
40
0.1771663
50
52.8285564
51
71.9850297
0
ARC
8
DEFAULT_255_1_234
10
15.4772325
20
0.0956664
40
0.2939794
50
71.6863486
51
82.8455995
0
ARC
8
DEFAULT_255_1_234
10
15.4532861
20
-0.0852851
40
0.476506
50
82.6984714
51
90.1729175
0
ARC
8
DEFAULT_255_1_234
10
15.4510495
20
0.0370623
40
0.3541573
50
89.8708275
51
90.0431131
0
LINE
8
DEFAULT_255_1_234
10
16.7872643
20
0.0402327
11
16.7872643
21
-0.1525291
0
LINE
8
DEFAULT_255_1_234
10
16.0491476
20
-0.1726084
11
16.0491476
21
0.0257755
0
LINE
8
DEFAULT_255_1_234
10
16.6386771
20
-0.1926877
11
16.6386771
21
0.0506739
0
LINE
8
DEFAULT_255_1_234
10
16.1977347
20
0.0619184
11
16.1977347
21
-0.1758211
0
ARC
8
DEFAULT_255_1_234
10
15.5625533
20
-0.1574195
40
1.2247208
50
353.8441951
51
0.2287902
0
ARC
8
DEFAULT_255_1_234
10
16.0265036
20
-0.2092194
40
0.7578929
50
344.4934747
51
353.9765454
0
ARC
8
DEFAULT_255_1_234
10
16.3257626
20
-0.2943019
40
0.4467846
50
329.2803592
51
344.7472793
0
ARC
8
DEFAULT_255_1_234
10
16.4250451
20
-0.3487982
40
0.3336173
50
324.9352394
51
328.6160465
0
ARC
8
DEFAULT_255_1_234
10
16.462756
20
-0.3751573
40
0.2876076
50
280.580143
51
324.9173126
0
ARC
8
DEFAULT_255_1_234
10
16.4226353
20
-0.2080901
40
0.4592847
50
269.5977311
51
281.6734359
0
ARC
8
DEFAULT_255_1_234
10
16.4154258
20
-0.2200827
40
0.4472986
50
256.6228859
51
270.51044
0
ARC
8
DEFAULT_255_1_234
10
16.3752236
20
-0.3749123
40
0.2873874
50
215.8618325
51
257.2788573
0
ARC
8
DEFAULT_255_1_234
10
16.4773268
20
-0.3064023
40
0.4102928
50
197.9693508
51
215.2623606
0
ARC
8
DEFAULT_255_1_234
10
16.7258383
20
-0.2225291
40
0.6725652
50
187.8816417
51
198.2346507
0
ARC
8
DEFAULT_255_1_234
10
17.1216592
20
-0.1653921
40
1.0724845
50
180.8976217
51
188.0055519
0
ARC
8
DEFAULT_255_1_234
10
17.401678
20
-0.1550223
40
1.3526448
50
180.7449369
51
181.1510016
0
ARC
8
DEFAULT_255_1_234
10
17.2439509
20
0.0306042
40
1.1948131
50
173.7675579
51
180.231553
0
ARC
8
DEFAULT_255_1_234
10
16.7921655
20
0.0816666
40
0.7401564
50
164.3058563
51
173.9002247
0
ARC
8
DEFAULT_255_1_234
10
16.5009724
20
0.1655656
40
0.4371288
50
148.7922025
51
164.568378
0
ARC
8
DEFAULT_255_1_234
10
16.4058176
20
0.2186929
40
0.3282386
50
144.5883898
51
148.1176286
0
ARC
8
DEFAULT_255_1_234
10
16.3715074
20
0.2426315
40
0.2864044
50
101.6440918
51
144.514236
0
ARC
8
DEFAULT_255_1_234
10
16.4140141
20
0.0737069
40
0.4604934
50
89.5284041
51
102.5819763
0
ARC
8
DEFAULT_255_1_234
10
16.4219229
20
0.0698018
40
0.464401
50
77.0437873
51
90.5081339
0
ARC
8
DEFAULT_255_1_234
10
16.4621231
20
0.2340615
40
0.2953195
50
48.2778575
51
77.4994676
0
ARC
8
DEFAULT_255_1_234
10
16.4693862
20
0.2469746
40
0.2808655
50
36.3142134
51
47.6305865
0
ARC
8
DEFAULT_255_1_234
10
16.3825169
20
0.1884515
40
0.3855453
50
18.2931786
51
35.6769206
0
ARC
8
DEFAULT_255_1_234
10
16.1281928
20
0.1011593
40
0.654423
50
8.024666
51
18.5605216
0
ARC
8
DEFAULT_255_1_234
10
15.7118848
20
0.0396792
40
1.0752407
50
1.1274072
51
8.1718305
0
ARC
8
DEFAULT_255_1_234
10
15.3883038
20
0.0269885
40
1.3990231
50
0.5424119
51
1.3863029
0
ARC
8
DEFAULT_255_1_234
10
15.5704416
20
0.0542342
40
1.0682415
50
359.8090433
51
4.9407866
0
ARC
8
DEFAULT_255_1_234
10
15.991443
20
0.0918113
40
0.6455691
50
4.8362157
51
12.2904523
0
ARC
8
DEFAULT_255_1_234
10
16.2669545
20
0.1531965
40
0.3633074
50
12.0805627
51
23.8173984
0
ARC
8
DEFAULT_255_1_234
10
16.384325
20
0.2028919
40
0.2358723
50
24.2871213
51
31.3935614
0
ARC
8
DEFAULT_255_1_234
10
16.4367947
20
0.2372233
40
0.1732111
50
30.7407893
51
82.4657128
0
ARC
8
DEFAULT_255_1_234
10
16.4188082
20
0.1488691
40
0.263235
50
81.1060089
51
90.2184952
0
ARC
8
DEFAULT_255_1_234
10
16.4152381
20
0.1746924
40
0.2374236
50
89.3806855
51
105.6762551
0
ARC
8
DEFAULT_255_1_234
10
16.3969011
20
0.2413567
40
0.1682847
50
105.7981136
51
149.7388061
0
ARC
8
DEFAULT_255_1_234
10
16.503309
20
0.177395
40
0.2924306
50
149.4208916
51
163.6286378
0
ARC
8
DEFAULT_255_1_234
10
16.7123978
20
0.113625
40
0.5110213
50
163.3763315
51
172.1410975
0
ARC
8
DEFAULT_255_1_234
10
17.0424697
20
0.0663518
40
0.8444586
50
172.0259487
51
178.0703232
0
ARC
8
DEFAULT_255_1_234
10
17.3454786
20
0.0519906
40
1.1477868
50
177.8631668
51
179.5044149
0
ARC
8
DEFAULT_255_1_234
10
17.2382191
20
-0.1794611
40
1.0404907
50
179.7995573
51
185.2460446
0
ARC
8
DEFAULT_255_1_234
10
16.833923
20
-0.2177487
40
0.6343885
50
185.1411642
51
193.0079639
0
ARC
8
DEFAULT_255_1_234
10
16.5695702
20
-0.2802359
40
0.3627568
50
192.7897626
51
205.2507664
0
ARC
8
DEFAULT_255_1_234
10
16.4649249
20
-0.3269585
40
0.2481908
50
205.8005384
51
211.2537509
0
ARC
8
DEFAULT_255_1_234
10
16.412569
20
-0.362042
40
0.1852521
50
210.3789793
51
238.4008143
0
ARC
8
DEFAULT_255_1_234
10
16.4106212
20
-0.3573624
40
0.1882621
50
239.6520629
51
265.9793761
0
ARC
8
DEFAULT_255_1_234
10
16.4191412
20
-0.2901573
40
0.2559272
50
265.1315437
51
270.060332
0
ARC
8
DEFAULT_255_1_234
10
16.4220191
20
-0.3225466
40
0.2235528
50
269.3314664
51
287.2178029
0
ARC
8
DEFAULT_255_1_234
10
16.4358043
20
-0.3728721
40
0.1714108
50
287.7958004
51
329.080874
0
ARC
8
DEFAULT_255_1_234
10
16.3400499
20
-0.313107
40
0.2842745
50
328.6634704
51
343.3325132
0
ARC
8
DEFAULT_255_1_234
10
16.122752
20
-0.2454137
40
0.5118644
50
343.0499468
51
351.9393422
0
ARC
8
DEFAULT_255_1_234
10
15.776082
20
-0.1943051
40
0.8622784
50
351.8069023
51
357.7959224
0
ARC
8
DEFAULT_255_1_234
10
15.4525376
20
-0.1775279
40
1.1862365
50
357.5871873
51
359.2677531
0
LINE
8
DEFAULT_255_1_234
10
17.4659462
20
0.5237433
11
17.4659462
21
-0.6513
0
LINE
8
DEFAULT_255_1_234
10
17.4659462
20
-0.6513
11
17.3165559
21
-0.6513
0
LINE
8
DEFAULT_255_1_234
10
17.3165559
20
-0.6513
11
17.3165559
21
0.3390133
0
LINE
8
DEFAULT_255_1_234
10
17.3165559
20
0.3390133
11
17.016972
21
0.2289785
0
LINE
8
DEFAULT_255_1_234
10
17.016972
20
0.2289785
11
17.016972
21
0.3639117
0
LINE
8
DEFAULT_255_1_234
10
17.016972
20
0.3639117
11
17.4426542
21
0.5237433
0
LINE
8
DEFAULT_255_1_234
10
17.4426542
20
0.5237433
11
17.4659462
21
0.5237433
0
LINE
8
DEFAULT_255_1_234
10
18.2257486
20
-0.0938974
11
18.2257486
21
-0.2151766
0
LINE
8
DEFAULT_255_1_234
10
18.2257486
20
-0.2151766
11
17.8337998
21
-0.2151766
0
LINE
8
DEFAULT_255_1_234
10
17.8337998
20
-0.2151766
11
17.8337998
21
-0.0938974
0
LINE
8
DEFAULT_255_1_234
10
17.8337998
20
-0.0938974
11
18.2257486
21
-0.0938974
0
LINE
8
DEFAULT_255_1_234
10
19.0883573
20
0.0402327
11
19.0883573
21
-0.1525291
0
LINE
8
DEFAULT_255_1_234
10
18.3502406
20
-0.1726084
11
18.3502406
21
0.0257755
0
LINE
8
DEFAULT_255_1_234
10
18.9397702
20
-0.1926877
11
18.9397702
21
0.0506739
0
LINE
8
DEFAULT_255_1_234
10
18.4988277
20
0.0619184
11
18.4988277
21
-0.1758211
0
ARC
8
DEFAULT_255_1_234
10
17.8636463
20
-0.1574195
40
1.2247208
50
353.8441951
51
0.2287902
0
ARC
8
DEFAULT_255_1_234
10
18.3275966
20
-0.2092194
40
0.7578929
50
344.4934747
51
353.9765454
0
ARC
8
DEFAULT_255_1_234
10
18.6268557
20
-0.2943019
40
0.4467846
50
329.2803592
51
344.7472793
0
ARC
8
DEFAULT_255_1_234
10
18.7261382
20
-0.3487982
40
0.3336173
50
324.9352394
51
328.6160465
0
ARC
8
DEFAULT_255_1_234
10
18.763849
20
-0.3751573
40
0.2876076
50
280.580143
51
324.9173126
0
ARC
8
DEFAULT_255_1_234
10
18.7237283
20
-0.2080901
40
0.4592847
50
269.5977311
51
281.6734359
0
ARC
8
DEFAULT_255_1_234
10
18.7165188
20
-0.2200827
40
0.4472986
50
256.6228859
51
270.51044
0
ARC
8
DEFAULT_255_1_234
10
18.6763166
20
-0.3749123
40
0.2873874
50
215.8618325
51
257.2788573
0
ARC
8
DEFAULT_255_1_234
10
18.7784198
20
-0.3064023
40
0.4102928
50
197.9693508
51
215.2623606
0
ARC
8
DEFAULT_255_1_234
10
19.0269313
20
-0.2225291
40
0.6725652
50
187.8816417
51
198.2346507
0
ARC
8
DEFAULT_255_1_234
10
19.4227522
20
-0.1653921
40
1.0724845
50
180.8976217
51
188.0055519
0
ARC
8
DEFAULT_255_1_234
10
19.702771
20
-0.1550223
40
1.3526448
50
180.7449369
51
181.1510016
0
ARC
8
DEFAULT_255_1_234
10
19.5450439
20
0.0306042
40
1.1948131
50
173.7675579
51
180.231553
0
ARC
8
DEFAULT_255_1_234
10
19.0932586
20
0.0816666
40
0.7401564
50
164.3058563
51
173.9002247
0
ARC
8
DEFAULT_255_1_234
10
18.8020654
20
0.1655656
40
0.4371288
50
148.7922025
51
164.568378
0
ARC
8
DEFAULT_255_1_234
10
18.7069107
20
0.2186929
40
0.3282386
50
144.5883898
51
148.1176286
0
ARC
8
DEFAULT_255_1_234
10
18.6726004
20
0.2426315
40
0.2864044
50
101.6440918
51
144.514236
0
ARC
8
DEFAULT_255_1_234
10
18.7151071
20
0.0737069
40
0.4604934
50
89.5284041
51
102.5819763
0
ARC
8
DEFAULT_255_1_234
10
18.7230159
20
0.0698018
40
0.464401
50
77.0437873
51
90.5081339
0
ARC
8
DEFAULT_255_1_234
10
18.7632161
20
0.2340615
40
0.2953195
50
48.2778575
51
77.4994676
0
ARC
8
DEFAULT_255_1_234
10
18.7704792
20
0.2469746
40
0.2808655
50
36.3142134
51
47.6305865
0
ARC
8
DEFAULT_255_1_234
10
18.6836099
20
0.1884515
40
0.3855453
50
18.2931786
51
35.6769206
0
ARC
8
DEFAULT_255_1_234
10
18.4292858
20
0.1011593
40
0.654423
50
8.024666
51
18.5605216
0
ARC
8
DEFAULT_255_1_234
10
18.0129778
20
0.0396792
40
1.0752407
50
1.1274072
51
8.1718305
0
ARC
8
DEFAULT_255_1_234
10
17.6893968
20
0.0269885
40
1.3990231
50
0.5424119
51
1.3863029
0
ARC
8
DEFAULT_255_1_234
10
17.8715346
20
0.0542342
40
1.0682415
50
359.8090433
51
4.9407866
0
ARC
8
DEFAULT_255_1_234
10
18.292536
20
0.0918113
40
0.6455691
50
4.8362157
51
12.2904523
0
ARC
8
DEFAULT_255_1_234
10
18.5680475
20
0.1531965
40
0.3633074
50
12.0805627
51
23.8173984
0
ARC
8
DEFAULT_255_1_234
10
18.685418
20
0.2028919
40
0.2358723
50
24.2871213
51
31.3935614
0
ARC
8
DEFAULT_255_1_234
10
18.7378878
20
0.2372233
40
0.1732111
50
30.7407893
51
82.4657128
0
ARC
8
DEFAULT_255_1_234
10
18.7199012
20
0.1488691
40
0.263235
50
81.1060089
51
90.2184952
0
ARC
8
DEFAULT_255_1_234
10
18.7163311
20
0.1746924
40
0.2374236
50
89.3806855
51
105.6762551
0
ARC
8
DEFAULT_255_1_234
10
18.6979941
20
0.2413567
40
0.1682847
50
105.7981136
51
149.7388061
0
ARC
8
DEFAULT_255_1_234
10
18.804402
20
0.177395
40
0.2924306
50
149.4208916
51
163.6286378
0
ARC
8
DEFAULT_255_1_234
10
19.0134908
20
0.113625
40
0.5110213
50
163.3763315
51
172.1410975
0
ARC
8
DEFAULT_255_1_234
10
19.3435627
20
0.0663518
40
0.8444586
50
172.0259487
51
178.0703232
0
ARC
8
DEFAULT_255_1_234
10
19.6465716
20
0.0519906
40
1.1477868
50
177.8631668
51
179.5044149
0
ARC
8
DEFAULT_255_1_234
10
19.5393121
20
-0.1794611
40
1.0404907
50
179.7995573
51
185.2460446
0
ARC
8
DEFAULT_255_1_234
10
19.135016
20
-0.2177487
40
0.6343885
50
185.1411642
51
193.0079639
0
ARC
8
DEFAULT_255_1_234
10
18.8706633
20
-0.2802359
40
0.3627568
50
192.7897626
51
205.2507664
0
ARC
8
DEFAULT_255_1_234
10
18.766018
20
-0.3269585
40
0.2481908
50
205.8005384
51
211.2537509
0
ARC
8
DEFAULT_255_1_234
10
18.713662
20
-0.362042
40
0.1852521
50
210.3789793
51
238.4008143
0
ARC
8
DEFAULT_255_1_234
10
18.7117142
20
-0.3573624
40
0.1882621
50
239.6520629
51
265.9793761
0
ARC
8
DEFAULT_255_1_234
10
18.7202342
20
-0.2901573
40
0.2559272
50
265.1315437
51
270.060332
0
ARC
8
DEFAULT_255_1_234
10
18.7231121
20
-0.3225466
40
0.2235528
50
269.3314664
51
287.2178029
0
ARC
8
DEFAULT_255_1_234
10
18.7368973
20
-0.3728721
40
0.1714108
50
287.7958004
51
329.080874
0
ARC
8
DEFAULT_255_1_234
10
18.641143
20
-0.313107
40
0.2842745
50
328.6634704
51
343.3325132
0
ARC
8
DEFAULT_255_1_234
10
18.423845
20
-0.2454137
40
0.5118644
50
343.0499468
51
351.9393422
0
ARC
8
DEFAULT_255_1_234
10
18.077175
20
-0.1943051
40
0.8622784
50
351.8069023
51
357.7959224
0
ARC
8
DEFAULT_255_1_234
10
17.7536306
20
-0.1775279
40
1.1862365
50
357.5871873
51
359.2677531
0
LINE
8
DEFAULT_255_1_234
10
20.0746548
20
-0.6513
11
19.9630136
21
-0.3460939
0
LINE
8
DEFAULT_255_1_234
10
19.9630136
20
-0.3460939
11
19.4730776
21
-0.3460939
0
LINE
8
DEFAULT_255_1_234
10
19.4730776
20
-0.3460939
11
19.3630428
21
-0.6513
0
LINE
8
DEFAULT_255_1_234
10
19.3630428
20
-0.6513
11
19.2040144
21
-0.6513
0
LINE
8
DEFAULT_255_1_234
10
19.2040144
20
-0.6513
11
19.650579
21
0.5181211
0
LINE
8
DEFAULT_255_1_234
10
19.650579
20
0.5181211
11
19.7855122
21
0.5181211
0
LINE
8
DEFAULT_255_1_234
10
19.7855122
20
0.5181211
11
20.23288
21
-0.6513
0
LINE
8
DEFAULT_255_1_234
10
20.23288
20
-0.6513
11
20.0746548
21
-0.6513
0
LINE
8
DEFAULT_255_1_234
10
19.7180456
20
0.3277689
11
19.5196617
21
-0.2191925
0
LINE
8
DEFAULT_255_1_234
10
19.5196617
20
-0.2191925
11
19.9172327
21
-0.2191925
0
LINE
8
DEFAULT_255_1_234
10
19.9172327
20
-0.2191925
11
19.7180456
21
0.3277689
0
LINE
8
DEFAULT_255_1_234
10
20.7959049
20
-0.6513
11
20.3903021
21
-0.6513
0
LINE
8
DEFAULT_255_1_234
10
20.3903021
20
-0.6513
11
20.3903021
21
0.5181211
0
LINE
8
DEFAULT_255_1_234
10
20.3903021
20
0.5181211
11
20.7726128
21
0.5181211
0
LINE
8
DEFAULT_255_1_234
10
20.8015271
20
-0.1043386
11
20.5445115
21
-0.1043386
0
LINE
8
DEFAULT_255_1_234
10
20.5445115
20
-0.1043386
11
20.5445115
21
-0.5252017
0
LINE
8
DEFAULT_255_1_234
10
20.5445115
20
-0.5252017
11
20.7991176
21
-0.5252017
0
LINE
8
DEFAULT_255_1_234
10
20.5445115
20
0.3912196
11
20.5445115
21
0.0193501
0
LINE
8
DEFAULT_255_1_234
10
20.5445115
20
0.0193501
11
20.7774319
21
0.0193501
0
LINE
8
DEFAULT_255_1_234
10
20.7726128
20
0.3912196
11
20.5445115
21
0.3912196
0
ARC
8
DEFAULT_255_1_234
10
20.7763837
20
-0.2186099
40
0.7367406
50
82.1257326
51
90.2932599
0
ARC
8
DEFAULT_255_1_234
10
20.8152792
20
0.0532013
40
0.4621653
50
69.9044149
51
82.2857423
0
ARC
8
DEFAULT_255_1_234
10
20.872347
20
0.2074637
40
0.2976871
50
51.1838526
51
70.0181538
0
ARC
8
DEFAULT_255_1_234
10
20.8978436
20
0.244524
40
0.2528517
50
12.1017251
51
50.4214761
0
ARC
8
DEFAULT_255_1_234
10
20.759431
20
0.2097676
40
0.3955061
50
359.5251267
51
12.8211707
0
ARC
8
DEFAULT_255_1_234
10
20.9174237
20
0.2028344
40
0.2375281
50
323.4908128
51
0.8817314
0
ARC
8
DEFAULT_255_1_234
10
20.8755923
20
0.235155
40
0.2903817
50
298.6825083
51
323.2756573
0
ARC
8
DEFAULT_255_1_234
10
20.8394286
20
0.2952649
40
0.3604842
50
293.1999386
51
299.1396394
0
ARC
8
DEFAULT_255_1_234
10
20.9067259
20
-0.3132874
40
0.2871098
50
54.0011765
51
74.9167975
0
ARC
8
DEFAULT_255_1_234
10
20.9183618
20
-0.2935668
40
0.2643248
50
36.3580696
51
53.5291921
0
ARC
8
DEFAULT_255_1_234
10
20.905686
20
-0.3026002
40
0.2798884
50
4.8189881
51
36.3089977
0
ARC
8
DEFAULT_255_1_234
10
20.8277696
20
-0.313573
40
0.358478
50
359.9370252
51
5.5204067
0
ARC
8
DEFAULT_255_1_234
10
20.7953217
20
-0.3176333
40
0.3909429
50
344.7478609
51
0.5373281
0
ARC
8
DEFAULT_255_1_234
10
20.8944188
20
-0.3443456
40
0.2883093
50
311.1786488
51
344.6886812
0
ARC
8
DEFAULT_255_1_234
10
20.8652236
20
-0.3080013
40
0.3348923
50
286.0418249
51
310.8441291
0
ARC
8
DEFAULT_255_1_234
10
20.8145067
20
-0.1433193
40
0.5071869
50
274.1042341
51
286.4071509
0
ARC
8
DEFAULT_255_1_234
10
20.7968323
20
0.0450229
40
0.6963234
50
269.9236873
51
274.445647
0
ARC
8
DEFAULT_255_1_234
10
20.8014324
20
-0.1889463
40
0.3362634
50
269.6055768
51
281.3740047
0
ARC
8
DEFAULT_255_1_234
10
20.8244962
20
-0.2982647
40
0.224546
50
281.1055983
51
302.5132223
0
ARC
8
DEFAULT_255_1_234
10
20.8391861
20
-0.3246177
40
0.1944357
50
303.0368945
51
311.8811219
0
ARC
8
DEFAULT_255_1_234
10
20.8463268
20
-0.333111
40
0.1833454
50
311.9916004
51
351.7143462
0
ARC
8
DEFAULT_255_1_234
10
20.7646498
20
-0.316607
40
0.2665871
50
350.7339597
51
0.2221581
0
ARC
8
DEFAULT_255_1_234
10
20.7538944
20
-0.3109533
40
0.2773789
50
359.0456241
51
17.2296242
0
ARC
8
DEFAULT_255_1_234
10
20.8578061
20
-0.2800837
40
0.1689915
50
17.6685481
51
78.9940892
0
ARC
8
DEFAULT_255_1_234
10
20.8061225
20
-0.4655776
40
0.3612658
50
76.5635957
51
90.6980921
0
LINE
8
DEFAULT_255_1_234
10
20.8017209
20
-0.1043387
11
20.8015271
21
-0.1043386
0
ARC
8
DEFAULT_255_1_234
10
20.7796885
20
0.3479036
40
0.3285612
50
269.6064736
51
281.4533503
0
ARC
8
DEFAULT_255_1_234
10
20.8019705
20
0.2427688
40
0.2210975
50
281.2041486
51
302.5148063
0
ARC
8
DEFAULT_255_1_234
10
20.8156555
20
0.2181241
40
0.1929674
50
303.021671
51
309.8369575
0
ARC
8
DEFAULT_255_1_234
10
20.8340017
20
0.1975488
40
0.1654181
50
309.5228395
51
356.9509836
0
ARC
8
DEFAULT_255_1_234
10
20.7676599
20
0.2070932
40
0.2322512
50
355.4701227
51
0.0492546
0
ARC
8
DEFAULT_255_1_234
10
20.739769
20
0.2093094
40
0.2601498
50
359.5558597
51
11.2096359
0
ARC
8
DEFAULT_255_1_234
10
20.835498
20
0.229123
40
0.1623975
50
10.9182341
51
31.3230275
0
ARC
8
DEFAULT_255_1_234
10
20.8640713
20
0.2450214
40
0.1297302
50
31.8852677
51
52.1412565
0
ARC
8
DEFAULT_255_1_234
10
20.8366446
20
0.206275
40
0.1771663
50
52.8285564
51
71.9850297
0
ARC
8
DEFAULT_255_1_234
10
20.7990623
20
0.0956664
40
0.2939794
50
71.6863486
51
82.8455995
0
ARC
8
DEFAULT_255_1_234
10
20.7751159
20
-0.0852851
40
0.476506
50
82.6984714
51
90.1729175
0
ARC
8
DEFAULT_255_1_234
10
20.7728793
20
0.0370623
40
0.3541573
50
89.8708275
51
90.0431131
0
LINE
8
DEFAULT_255_1_234
10
22.1090941
20
0.0402327
11
22.1090941
21
-0.1525291
0
LINE
8
DEFAULT_255_1_234
10
21.3709773
20
-0.1726084
11
21.3709773
21
0.0257755
0
LINE
8
DEFAULT_255_1_234
10
21.9605069
20
-0.1926877
11
21.9605069
21
0.0506739
0
LINE
8
DEFAULT_255_1_234
10
21.5195645
20
0.0619184
11
21.5195645
21
-0.1758211
0
ARC
8
DEFAULT_255_1_234
10
20.884383
20
-0.1574195
40
1.2247208
50
353.8441951
51
0.2287902
0
ARC
8
DEFAULT_255_1_234
10
21.3483334
20
-0.2092194
40
0.7578929
50
344.4934747
51
353.9765454
0
ARC
8
DEFAULT_255_1_234
10
21.6475924
20
-0.2943019
40
0.4467846
50
329.2803592
51
344.7472793
0
ARC
8
DEFAULT_255_1_234
10
21.7468749
20
-0.3487982
40
0.3336173
50
324.9352394
51
328.6160465
0
ARC
8
DEFAULT_255_1_234
10
21.7845858
20
-0.3751573
40
0.2876076
50
280.580143
51
324.9173126
0
ARC
8
DEFAULT_255_1_234
10
21.7444651
20
-0.2080901
40
0.4592847
50
269.5977311
51
281.6734359
0
ARC
8
DEFAULT_255_1_234
10
21.7372556
20
-0.2200827
40
0.4472986
50
256.6228859
51
270.51044
0
ARC
8
DEFAULT_255_1_234
10
21.6970534
20
-0.3749123
40
0.2873874
50
215.8618325
51
257.2788573
0
ARC
8
DEFAULT_255_1_234
10
21.7991566
20
-0.3064023
40
0.4102928
50
197.9693508
51
215.2623606
0
ARC
8
DEFAULT_255_1_234
10
22.0476681
20
-0.2225291
40
0.6725652
50
187.8816417
51
198.2346507
0
ARC
8
DEFAULT_255_1_234
10
22.4434889
20
-0.1653921
40
1.0724845
50
180.8976217
51
188.0055519
0
ARC
8
DEFAULT_255_1_234
10
22.7235078
20
-0.1550223
40
1.3526448
50
180.7449369
51
181.1510016
0
ARC
8
DEFAULT_255_1_234
10
22.5657807
20
0.0306042
40
1.1948131
50
173.7675579
51
180.231553
0
ARC
8
DEFAULT_255_1_234
10
22.1139953
20
0.0816666
40
0.7401564
50
164.3058563
51
173.9002247
0
ARC
8
DEFAULT_255_1_234
10
21.8228022
20
0.1655656
40
0.4371288
50
148.7922025
51
164.568378
0
ARC
8
DEFAULT_255_1_234
10
21.7276474
20
0.2186929
40
0.3282386
50
144.5883898
51
148.1176286
0
ARC
8
DEFAULT_255_1_234
10
21.6933372
20
0.2426315
40
0.2864044
50
101.6440918
51
144.514236
0
ARC
8
DEFAULT_255_1_234
10
21.7358439
20
0.0737069
40
0.4604934
50
89.5284041
51
102.5819763
0
ARC
8
DEFAULT_255_1_234
10
21.7437527
20
0.0698018
40
0.464401
50
77.0437873
51
90.5081339
0
ARC
8
DEFAULT_255_1_234
10
21.7839528
20
0.2340615
40
0.2953195
50
48.2778575
51
77.4994676
0
ARC
8
DEFAULT_255_1_234
10
21.791216
20
0.2469746
40
0.2808655
50
36.3142134
51
47.6305865
0
ARC
8
DEFAULT_255_1_234
10
21.7043467
20
0.1884515
40
0.3855453
50
18.2931786
51
35.6769206
0
ARC
8
DEFAULT_255_1_234
10
21.4500225
20
0.1011593
40
0.654423
50
8.024666
51
18.5605216
0
ARC
8
DEFAULT_255_1_234
10
21.0337146
20
0.0396792
40
1.0752407
50
1.1274072
51
8.1718305
0
ARC
8
DEFAULT_255_1_234
10
20.7101336
20
0.0269885
40
1.3990231
50
0.5424119
51
1.3863029
0
ARC
8
DEFAULT_255_1_234
10
20.8922714
20
0.0542342
40
1.0682415
50
359.8090433
51
4.9407866
0
ARC
8
DEFAULT_255_1_234
10
21.3132728
20
0.0918113
40
0.6455691
50
4.8362157
51
12.2904523
0
ARC
8
DEFAULT_255_1_234
10
21.5887843
20
0.1531965
40
0.3633074
50
12.0805627
51
23.8173984
0
ARC
8
DEFAULT_255_1_234
10
21.7061548
20
0.2028919
40
0.2358723
50
24.2871213
51
31.3935614
0
ARC
8
DEFAULT_255_1_234
10
21.7586245
20
0.2372233
40
0.1732111
50
30.7407893
51
82.4657128
0
ARC
8
DEFAULT_255_1_234
10
21.740638
20
0.1488691
40
0.263235
50
81.1060089
51
90.2184952
0
ARC
8
DEFAULT_255_1_234
10
21.7370679
20
0.1746924
40
0.2374236
50
89.3806855
51
105.6762551
0
ARC
8
DEFAULT_255_1_234
10
21.7187309
20
0.2413567
40
0.1682847
50
105.7981136
51
149.7388061
0
ARC
8
DEFAULT_255_1_234
10
21.8251387
20
0.177395
40
0.2924306
50
149.4208916
51
163.6286378
0
ARC
8
DEFAULT_255_1_234
10
22.0342275
20
0.113625
40
0.5110213
50
163.3763315
51
172.1410975
0
ARC
8
DEFAULT_255_1_234
10
22.3642994
20
0.0663518
40
0.8444586
50
172.0259487
51
178.0703232
0
ARC
8
DEFAULT_255_1_234
10
22.6673084
20
0.0519906
40
1.1477868
50
177.8631668
51
179.5044149
0
ARC
8
DEFAULT_255_1_234
10
22.5600488
20
-0.1794611
40
1.0404907
50
179.7995573
51
185.2460446
0
ARC
8
DEFAULT_255_1_234
10
22.1557528
20
-0.2177487
40
0.6343885
50
185.1411642
51
193.0079639
0
ARC
8
DEFAULT_255_1_234
10
21.8914
20
-0.2802359
40
0.3627568
50
192.7897626
51
205.2507664
0
ARC
8
DEFAULT_255_1_234
10
21.7867547
20
-0.3269585
40
0.2481908
50
205.8005384
51
211.2537509
0
ARC
8
DEFAULT_255_1_234
10
21.7343988
20
-0.362042
40
0.1852521
50
210.3789793
51
238.4008143
0
ARC
8
DEFAULT_255_1_234
10
21.732451
20
-0.3573624
40
0.1882621
50
239.6520629
51
265.9793761
0
ARC
8
DEFAULT_255_1_234
10
21.740971
20
-0.2901573
40
0.2559272
50
265.1315437
51
270.060332
0
ARC
8
DEFAULT_255_1_234
10
21.7438489
20
-0.3225466
40
0.2235528
50
269.3314664
51
287.2178029
0
ARC
8
DEFAULT_255_1_234
10
21.7576341
20
-0.3728721
40
0.1714108
50
287.7958004
51
329.080874
0
ARC
8
DEFAULT_255_1_234
10
21.6618797
20
-0.313107
40
0.2842745
50
328.6634704
51
343.3325132
0
ARC
8
DEFAULT_255_1_234
10
21.4445817
20
-0.2454137
40
0.5118644
50
343.0499468
51
351.9393422
0
ARC
8
DEFAULT_255_1_234
10
21.0979117
20
-0.1943051
40
0.8622784
50
351.8069023
51
357.7959224
0
ARC
8
DEFAULT_255_1_234
10
20.7743673
20
-0.1775279
40
1.1862365
50
357.5871873
51
359.2677531
0
ARC
8
DEFAULT_255_2_778
10
7.7537338
20
68.2137992
40
3.0484709
50
251.6854144
51
258.6071955
0
ARC
8
DEFAULT_255_2_778
10
7.539521
20
67.1321738
40
1.9458471
50
258.4992492
51
268.3986479
0
ARC
8
DEFAULT_255_2_778
10
7.5172314
20
66.7019206
40
1.5151737
50
268.7865272
51
269.9950384
0
ARC
8
DEFAULT_255_2_778
10
7.5277432
20
66.2507355
40
1.0640417
50
269.426895
51
279.6711067
0
ARC
8
DEFAULT_255_2_778
10
7.6417753
20
65.6211746
40
0.4243233
50
278.7731084
51
300.3324923
0
ARC
8
DEFAULT_255_2_778
10
7.760746
20
65.4185552
40
0.1893587
50
300.2240287
51
1.9041213
0
ARC
8
DEFAULT_255_2_778
10
7.7452705
20
65.4277089
40
0.2047497
50
359.1991369
51
359.99965
0
ARC
8
DEFAULT_255_2_778
10
7.7523233
20
65.4285378
40
0.1976988
50
359.7594145
51
47.1793976
0
ARC
8
DEFAULT_255_2_778
10
7.6187277
20
65.279931
40
0.3975169
50
47.6144502
51
60.8366176
0
ARC
8
DEFAULT_255_2_778
10
7.0190958
20
64.2639865
40
1.5771337
50
59.799464
51
64.8885807
0
ARC
8
DEFAULT_255_2_778
10
6.0948833
20
62.3349682
40
3.7160912
50
64.6076081
51
66.8386974
0
ARC
8
DEFAULT_255_2_778
10
9.6419609
20
70.6980052
40
5.368109
50
244.3032309
51
247.1393781
0
ARC
8
DEFAULT_255_2_778
10
8.5507088
20
68.438018
40
2.8584574
50
240.2323579
51
244.3709759
0
ARC
8
DEFAULT_255_2_778
10
7.7800475
20
67.1011591
40
1.315392
50
233.2209971
51
240.4606284
0
ARC
8
DEFAULT_255_2_778
10
7.3561477
20
66.5300187
40
0.6041399
50
225.6990744
51
232.9899679
0
ARC
8
DEFAULT_255_2_778
10
7.3965073
20
66.5544214
40
0.6499005
50
178.2783416
51
224.6550883
0
ARC
8
DEFAULT_255_2_778
10
7.5059624
20
66.5877974
40
0.7591885
50
157.033673
51
181.0453383
0
ARC
8
DEFAULT_255_2_778
10
7.378439
20
66.6286396
40
0.6259551
50
124.9113017
51
155.9211516
0
ARC
8
DEFAULT_255_2_778
10
7.5960466
20
66.3200681
40
1.0035357
50
100.4079723
51
125.0168617
0
ARC
8
DEFAULT_255_2_778
10
7.6991199
20
65.8260046
40
1.5081396
50
89.6483922
51
100.8684975
0
ARC
8
DEFAULT_255_2_778
10
7.7083242
20
65.4737988
40
1.8603169
50
89.5079487
51
89.9984402
0
ARC
8
DEFAULT_255_2_778
10
7.7099573
20
65.4085694
40
1.9255311
50
83.9170631
51
89.5732113
0
ARC
8
DEFAULT_255_2_778
10
7.5071517
20
63.4009957
40
3.9433074
50
80.7325723
51
84.0779772
0
ARC
8
DEFAULT_255_2_778
10
7.0208457
20
60.378082
40
7.0050837
50
78.5086351
51
80.7886813
0
ARC
8
DEFAULT_255_2_778
10
7.6620177
20
64.9775544
40
1.9415426
50
67.135818
51
78.0934208
0
ARC
8
DEFAULT_255_2_778
10
7.7851814
20
65.5479809
40
1.3579807
50
78.2126325
51
89.7333975
0
ARC
8
DEFAULT_255_2_778
10
7.7793853
20
65.9631211
40
0.9429038
50
89.2638155
51
100.5666868
0
ARC
8
DEFAULT_255_2_778
10
7.6660949
20
66.5329419
40
0.362036
50
99.4784875
51
124.329414
0
ARC
8
DEFAULT_255_2_778
10
7.5705593
20
66.681051
40
0.1859067
50
125.7571195
51
182.2824883
0
ARC
8
DEFAULT_255_2_778
10
7.5493239
20
66.6743629
40
0.1645253
50
180.2492993
51
239.8144161
0
ARC
8
DEFAULT_255_2_778
10
7.932718
20
67.2744128
40
0.876484
50
237.8725734
51
242.8068846
0
ARC
8
DEFAULT_255_2_778
10
9.4175857
20
70.0909958
40
4.0604642
50
242.3328458
51
244.031083
0
ARC
8
DEFAULT_255_2_778
10
12.3804066
20
76.1394314
40
10.7955807
50
243.950624
51
244.8024316
0
ARC
8
DEFAULT_255_2_778
10
15.4009918
20
82.5234175
40
17.8580926
50
244.7535425
51
244.9563234
0
ARC
8
DEFAULT_255_2_778
10
5.8652927
20
62.0218264
40
4.7527588
50
62.2505456
51
65.4301556
0
ARC
8
DEFAULT_255_2_778
10
6.9275435
20
64.0299172
40
2.4810291
50
57.2951304
51
62.3684211
0
ARC
8
DEFAULT_255_2_778
10
7.6807233
20
65.1932235
40
1.0952081
50
48.7345704
51
57.5685367
0
ARC
8
DEFAULT_255_2_778
10
8.0117486
20
65.5807722
40
0.5856147
50
44.3236031
51
48.0704418
0
ARC
8
DEFAULT_255_2_778
10
7.9783002
20
65.5607468
40
0.6236013
50
1.3523843
51
43.4925744
0
ARC
8
DEFAULT_255_2_778
10
7.7103531
20
65.5278151
40
0.8926473
50
359.9763756
51
3.0599076
0
ARC
8
DEFAULT_255_2_778
10
7.8645343
20
65.5127407
40
0.7386124
50
333.0361889
51
1.1408766
0
ARC
8
DEFAULT_255_2_778
10
7.8947908
20
65.5196919
40
0.7150741
50
300.8430083
51
331.4403095
0
ARC
8
DEFAULT_255_2_778
10
7.694568
20
65.8332162
40
1.0869673
50
281.4258583
51
301.4316118
0
ARC
8
DEFAULT_255_2_778
10
7.5632666
20
66.4414414
40
1.7091691
50
270.2273513
51
281.7010805
0
ARC
8
DEFAULT_255_2_778
10
7.5453797
20
66.9181043
40
2.1859577
50
269.9983113
51
270.6466065
0
LINE
8
DEFAULT_255_2_778
10
7.5453153
20
64.7321465
11
7.5438002
21
64.732147
0
ARC
8
DEFAULT_255_2_778
10
7.5509161
20
67.9150969
40
3.1829579
50
256.2431122
51
269.871909
0
ARC
8
DEFAULT_255_2_778
10
21.7538511
20
68.1396629
40
2.9720345
50
251.5709223
51
258.7508181
0
ARC
8
DEFAULT_255_2_778
10
21.5538128
20
67.1164385
40
1.9294488
50
258.6495077
51
268.8281511
0
ARC
8
DEFAULT_255_2_778
10
21.5355488
20
66.7216193
40
1.5343723
50
269.2085037
51
269.9981866
0
ARC
8
DEFAULT_255_2_778
10
21.5473849
20
66.2532184
40
1.0660376
50
269.3612297
51
279.5899087
0
ARC
8
DEFAULT_255_2_778
10
21.6608439
20
65.6217324
40
0.424527
50
278.6895227
51
300.2363944
0
ARC
8
DEFAULT_255_2_778
10
21.7799083
20
65.4182793
40
0.188796
50
300.1108484
51
1.9024905
0
ARC
8
DEFAULT_255_2_778
10
21.7439577
20
65.4289221
40
0.2246851
50
358.8842611
51
0.0019649
0
ARC
8
DEFAULT_255_2_778
10
21.7769791
20
65.4328385
40
0.1917038
50
358.831716
51
47.0900458
0
ARC
8
DEFAULT_255_2_778
10
21.6364654
20
65.273484
40
0.4041259
50
47.8812665
51
61.174665
0
ARC
8
DEFAULT_255_2_778
10
21.0418848
20
64.2535117
40
1.5846568
50
60.1210877
51
65.1917015
0
ARC
8
DEFAULT_255_2_778
10
20.1415278
20
62.3479122
40
3.6922188
50
64.9168629
51
67.1565628
0
ARC
8
DEFAULT_255_2_778
10
23.6275467
20
70.6194888
40
5.2839333
50
244.2656926
51
247.1407051
0
ARC
8
DEFAULT_255_2_778
10
22.5594997
20
68.411265
40
2.8309849
50
240.1545061
51
244.3326325
0
ARC
8
DEFAULT_255_2_778
10
21.7856548
20
67.0752346
40
1.2870531
50
232.697515
51
240.4357497
0
ARC
8
DEFAULT_255_2_778
10
21.3705506
20
66.5242218
40
0.5972006
50
225.5850892
51
232.3393736
0
ARC
8
DEFAULT_255_2_778
10
21.4133941
20
66.5537933
40
0.6483829
50
178.7795739
51
224.7095916
0
ARC
8
DEFAULT_255_2_778
10
21.6669319
20
66.5778135
40
0.9018316
50
179.997867
51
180.6487041
0
ARC
8
DEFAULT_255_2_778
10
21.5167738
20
66.5916249
40
0.7517998
50
156.9195758
51
181.050088
0
ARC
8
DEFAULT_255_2_778
10
21.3928482
20
66.6310712
40
0.6224513
50
124.7111133
51
155.7879672
0
ARC
8
DEFAULT_255_2_778
10
21.6055459
20
66.3391942
40
0.9835402
50
101.7934503
51
125.2143527
0
ARC
8
DEFAULT_255_2_778
10
21.729848
20
65.7866326
40
1.5498677
50
89.5248728
51
102.1166783
0
ARC
8
DEFAULT_255_2_778
10
21.7283109
20
65.2330834
40
2.1034129
50
83.2889725
51
89.6080411
0
ARC
8
DEFAULT_255_2_778
10
21.529975
20
63.4652668
40
3.8823067
50
79.4764054
51
83.4308492
0
ARC
8
DEFAULT_255_2_778
10
21.2186357
20
61.7120673
40
5.6628977
50
78.2224868
51
79.6190915
0
ARC
8
DEFAULT_255_2_778
10
21.6838473
20
64.9895715
40
1.9311543
50
67.1323814
51
78.3148813
0
ARC
8
DEFAULT_255_2_778
10
21.801359
20
65.5410614
40
1.3672981
50
78.4565774
51
89.7552271
0
ARC
8
DEFAULT_255_2_778
10
21.7951366
20
65.971947
40
0.9364778
50
89.2619009
51
100.5950934
0
ARC
8
DEFAULT_255_2_778
10
21.6824182
20
66.5374169
40
0.3599879
50
99.5087086
51
124.406715
0
ARC
8
DEFAULT_255_2_778
10
21.5878565
20
66.683843
40
0.1858061
50
125.8630185
51
182.2986975
0
ARC
8
DEFAULT_255_2_778
10
21.5497296
20
66.6763047
40
0.1475296
50
179.9666559
51
180.100057
0
ARC
8
DEFAULT_255_2_778
10
21.566185
20
66.676293
40
0.163985
50
180.0859454
51
239.8819968
0
ARC
8
DEFAULT_255_2_778
10
21.9379018
20
67.2630619
40
0.8584853
50
238.072871
51
243.0442008
0
ARC
8
DEFAULT_255_2_778
10
23.4872034
20
70.2280845
40
4.2038426
50
242.5409111
51
244.1884903
0
ARC
8
DEFAULT_255_2_778
10
26.6463384
20
76.722696
40
11.4260319
50
244.1076525
51
244.9219574
0
ARC
8
DEFAULT_255_2_778
10
29.9038827
20
83.646355
40
19.0777309
50
244.8743531
51
245.066969
0
ARC
8
DEFAULT_255_2_778
10
19.8865272
20
62.0541274
40
4.7250654
50
62.0340028
51
65.293009
0
ARC
8
DEFAULT_255_2_778
10
20.9507744
20
64.0490758
40
2.464003
50
57.1127289
51
62.13736
0
ARC
8
DEFAULT_255_2_778
10
21.7037139
20
65.2027906
40
1.0863604
50
48.3695509
51
57.4197129
0
ARC
8
DEFAULT_255_2_778
10
22.0286268
20
65.5795419
40
0.5889589
50
44.472493
51
47.6467012
0
ARC
8
DEFAULT_255_2_778
10
21.9979457
20
65.5624032
40
0.6229283
50
1.2061613
51
43.6203607
0
ARC
8
DEFAULT_255_2_778
10
21.7312413
20
65.5299903
40
0.890659
50
359.9779196
51
2.9299178
0
ARC
8
DEFAULT_255_2_778
10
21.8802547
20
65.5148837
40
0.7417924
50
333.172934
51
1.140392
0
ARC
8
DEFAULT_255_2_778
10
21.9146167
20
65.5195736
40
0.7135172
50
300.9808035
51
331.5913995
0
ARC
8
DEFAULT_255_2_778
10
21.7182603
20
65.8294862
40
1.0803281
50
281.9040909
51
301.4483918
0
ARC
8
DEFAULT_255_2_778
10
21.5848425
20
66.4280518
40
1.6935565
50
270.5796874
51
282.1436175
0
ARC
8
DEFAULT_255_2_778
10
21.5636722
20
66.9229735
40
2.1887267
50
269.9959074
51
271.0027751
0
LINE
8
DEFAULT_255_2_778
10
21.5635158
20
64.7342468
11
21.5625002
21
64.734247
0
ARC
8
DEFAULT_255_2_778
10
21.5700221
20
67.9230174
40
3.1887792
50
256.2556596
51
269.8648469
0
LINE
8
DEFAULT_255_2_778
10
6.7958002
20
64.825047
11
6.7958002
21
65.319747
0
LINE
8
DEFAULT_255_2_778
10
8.4164002
20
67.242747
11
8.4164002
21
66.766547
0
LINE
8
DEFAULT_255_2_778
10
6.7940002
20
64.823447
11
6.7958002
21
64.825047
0
LINE
8
DEFAULT_255_2_778
10
8.9866002
20
67.292247
11
9.6629002
21
67.292247
0
LINE
8
DEFAULT_255_2_778
10
9.6629002
20
67.292247
11
9.6629002
21
64.784847
0
LINE
8
DEFAULT_255_2_778
10
9.6629002
20
64.784847
11
8.9866002
21
64.784847
0
LINE
8
DEFAULT_255_2_778
10
8.9866002
20
64.784847
11
8.9866002
21
67.292247
0
LINE
8
DEFAULT_255_2_778
10
10.2809002
20
64.784847
11
10.2809002
21
67.292247
0
LINE
8
DEFAULT_255_2_778
10
10.2809002
20
67.292247
11
12.0132002
21
67.292247
0
LINE
8
DEFAULT_255_2_778
10
12.0132002
20
67.292247
11
12.0132002
21
66.838547
0
LINE
8
DEFAULT_255_2_778
10
12.0132002
20
66.838547
11
10.9321002
21
66.838547
0
LINE
8
DEFAULT_255_2_778
10
10.9321002
20
66.838547
11
10.9321002
21
66.272247
0
LINE
8
DEFAULT_255_2_778
10
10.9321002
20
66.272247
11
11.8735002
21
66.272247
0
LINE
8
DEFAULT_255_2_778
10
11.8735002
20
66.272247
11
11.8735002
21
65.858747
0
LINE
8
DEFAULT_255_2_778
10
11.8735002
20
65.858747
11
10.9321002
21
65.858747
0
LINE
8
DEFAULT_255_2_778
10
10.9321002
20
65.858747
11
10.9321002
21
65.263447
0
LINE
8
DEFAULT_255_2_778
10
10.9321002
20
65.263447
11
12.0412002
21
65.263447
0
LINE
8
DEFAULT_255_2_778
10
12.0412002
20
65.263447
11
12.0412002
21
64.783247
0
LINE
8
DEFAULT_255_2_778
10
12.0412002
20
64.783247
11
10.2809002
21
64.784847
0
LINE
8
DEFAULT_255_2_778
10
12.4817002
20
64.784847
11
12.4817002
21
67.292247
0
LINE
8
DEFAULT_255_2_778
10
12.4817002
20
67.292247
11
13.3575002
21
67.292247
0
LINE
8
DEFAULT_255_2_778
10
13.3575002
20
67.292247
11
13.9671002
21
65.689947
0
LINE
8
DEFAULT_255_2_778
10
13.9671002
20
65.689947
11
14.5897002
21
67.292247
0
LINE
8
DEFAULT_255_2_778
10
14.5897002
20
67.292247
11
15.4215002
21
67.292247
0
LINE
8
DEFAULT_255_2_778
10
15.4215002
20
67.292247
11
15.4215002
21
64.784847
0
LINE
8
DEFAULT_255_2_778
10
15.4215002
20
64.784847
11
14.7812002
21
64.784847
0
LINE
8
DEFAULT_255_2_778
10
14.7812002
20
64.784847
11
14.7812002
21
66.560647
0
LINE
8
DEFAULT_255_2_778
10
14.7812002
20
66.560647
11
14.0724002
21
64.760447
0
LINE
8
DEFAULT_255_2_778
10
14.0724002
20
64.760447
11
13.6515002
21
64.760447
0
LINE
8
DEFAULT_255_2_778
10
13.6515002
20
64.760447
11
12.9559002
21
66.560647
0
LINE
8
DEFAULT_255_2_778
10
12.9559002
20
66.560647
11
12.9559002
21
64.784547
0
LINE
8
DEFAULT_255_2_778
10
12.9559002
20
64.784547
11
12.4817002
21
64.784847
0
LINE
8
DEFAULT_255_2_778
10
16.0409002
20
64.784847
11
16.0409002
21
67.292247
0
LINE
8
DEFAULT_255_2_778
10
16.0409002
20
67.292247
11
17.7731002
21
67.292247
0
LINE
8
DEFAULT_255_2_778
10
17.7731002
20
67.292247
11
17.7731002
21
66.838547
0
LINE
8
DEFAULT_255_2_778
10
17.7731002
20
66.838547
11
16.6921002
21
66.838547
0
LINE
8
DEFAULT_255_2_778
10
16.6921002
20
66.838547
11
16.6921002
21
66.272247
0
LINE
8
DEFAULT_255_2_778
10
16.6921002
20
66.272247
11
17.6334002
21
66.272247
0
LINE
8
DEFAULT_255_2_778
10
17.6334002
20
66.272247
11
17.6334002
21
65.858747
0
LINE
8
DEFAULT_255_2_778
10
17.6334002
20
65.858747
11
16.6921002
21
65.858747
0
LINE
8
DEFAULT_255_2_778
10
16.6921002
20
65.858747
11
16.6921002
21
65.263447
0
LINE
8
DEFAULT_255_2_778
10
16.6921002
20
65.263447
11
17.8030002
21
65.263447
0
LINE
8
DEFAULT_255_2_778
10
17.8030002
20
65.263447
11
17.8030002
21
64.783247
0
LINE
8
DEFAULT_255_2_778
10
17.8030002
20
64.783247
11
16.0409002
21
64.784847
0
LINE
8
DEFAULT_255_2_778
10
18.2454002
20
64.784847
11
18.2454002
21
67.292247
0
LINE
8
DEFAULT_255_2_778
10
18.2454002
20
67.292247
11
19.0283002
21
67.292247
0
LINE
8
DEFAULT_255_2_778
10
19.0283002
20
67.292247
11
19.8586002
21
65.613447
0
LINE
8
DEFAULT_255_2_778
10
19.8586002
20
65.613447
11
19.8586002
21
67.292247
0
LINE
8
DEFAULT_255_2_778
10
19.8586002
20
67.292247
11
20.3343002
21
67.292247
0
LINE
8
DEFAULT_255_2_778
10
20.3343002
20
67.292247
11
20.3343002
21
64.784847
0
LINE
8
DEFAULT_255_2_778
10
20.3343002
20
64.784847
11
19.5739002
21
64.784847
0
LINE
8
DEFAULT_255_2_778
10
19.5739002
20
64.784847
11
18.7214002
21
66.486047
0
LINE
8
DEFAULT_255_2_778
10
18.7214002
20
66.486047
11
18.7214002
21
64.784847
0
LINE
8
DEFAULT_255_2_778
10
18.7214002
20
64.784847
11
18.2454002
21
64.784847
0
LINE
8
DEFAULT_255_2_778
10
20.8143002
20
64.825247
11
20.8143002
21
65.320047
0
LINE
8
DEFAULT_255_2_778
10
22.3745002
20
67.255747
11
22.4343002
21
67.245147
0
LINE
8
DEFAULT_255_2_778
10
22.4343002
20
67.245147
11
22.4343002
21
66.768947
0
LINE
8
DEFAULT_255_2_778
10
20.8124002
20
64.825547
11
20.8143002
21
64.825247
0
LINE
8
DEFAULT_255_1_234
10
8.8546023
20
63.0184849
11
8.6995897
21
63.0184849
0
LINE
8
DEFAULT_255_1_234
10
8.0072539
20
62.5261394
11
8.1622665
21
62.5261394
0
ARC
8
DEFAULT_255_1_234
10
8.765471
20
63.9131768
40
1.252368
50
248.9199003
51
254.1439814
0
ARC
8
DEFAULT_255_1_234
10
8.5974205
20
63.4805234
40
0.788226
50
241.633709
51
249.0064503
0
ARC
8
DEFAULT_255_1_234
10
8.44456
20
63.2004317
40
0.4691427
50
230.498225
51
241.8087113
0
ARC
8
DEFAULT_255_1_234
10
8.3661174
20
63.1004906
40
0.3421437
50
227.4064532
51
229.9881192
0
ARC
8
DEFAULT_255_1_234
10
8.3173694
20
63.0529088
40
0.2741476
50
200.6781896
51
228.1763934
0
ARC
8
DEFAULT_255_1_234
10
8.3246005
20
63.0514077
40
0.2804109
50
179.5061581
51
199.8694617
0
ARC
8
DEFAULT_255_1_234
10
8.3236757
20
63.058821
40
0.2795204
50
132.4834203
51
181.0242172
0
ARC
8
DEFAULT_255_1_234
10
8.3832339
20
63.0025704
40
0.3612768
50
129.2532479
51
133.4242687
0
ARC
8
DEFAULT_255_1_234
10
8.3978789
20
62.9805965
40
0.3875675
50
101.98776
51
128.8742646
0
ARC
8
DEFAULT_255_1_234
10
8.4377399
20
62.8084741
40
0.5642249
50
89.5906553
51
102.3169264
0
ARC
8
DEFAULT_255_1_234
10
8.4447891
20
62.8403148
40
0.5323783
50
77.2360837
51
90.3248275
0
ARC
8
DEFAULT_255_1_234
10
8.4654971
20
62.93704
40
0.4334697
50
63.837784
51
77.0809408
0
ARC
8
DEFAULT_255_1_234
10
8.4932732
20
62.9887911
40
0.3747796
50
45.9864267
51
64.1607727
0
ARC
8
DEFAULT_255_1_234
10
8.5193614
20
63.0185866
40
0.3352302
50
32.2747395
51
45.6547121
0
ARC
8
DEFAULT_255_1_234
10
8.5260054
20
63.020488
40
0.328603
50
359.6507365
51
32.6130309
0
ARC
8
DEFAULT_255_1_234
10
8.431715
20
63.020966
40
0.2678863
50
359.469343
51
14.9832209
0
ARC
8
DEFAULT_255_1_234
10
8.5022212
20
63.0398539
40
0.1948938
50
14.9781179
51
48.2004265
0
ARC
8
DEFAULT_255_1_234
10
8.4857856
20
63.0191983
40
0.2212521
50
48.5927837
51
74.1241538
0
ARC
8
DEFAULT_255_1_234
10
8.4524346
20
62.9091248
40
0.3362561
50
73.7888341
51
86.6652678
0
ARC
8
DEFAULT_255_1_234
10
8.4421911
20
62.7883881
40
0.4573953
50
86.2640471
51
90.0526343
0
ARC
8
DEFAULT_255_1_234
10
8.4393624
20
62.8279192
40
0.4178709
50
89.6697524
51
99.2309573
0
ARC
8
DEFAULT_255_1_234
10
8.4151075
20
62.9723964
40
0.2713749
50
99.069534
51
113.7658566
0
ARC
8
DEFAULT_255_1_234
10
8.3877266
20
63.0369677
40
0.2012469
50
114.0401004
51
127.9850673
0
ARC
8
DEFAULT_255_1_234
10
8.363683
20
63.066573
40
0.1631167
50
127.7287463
51
176.7105154
0
ARC
8
DEFAULT_255_1_234
10
8.4315547
20
63.0564693
40
0.2315392
50
175.1779447
51
180.0581938
0
ARC
8
DEFAULT_255_1_234
10
8.3472394
20
63.0552428
40
0.1472271
50
179.6142195
51
228.1246017
0
ARC
8
DEFAULT_255_1_234
10
8.3914063
20
63.0961308
40
0.2072299
50
226.5779593
51
230.8800004
0
ARC
8
DEFAULT_255_1_234
10
8.4385141
20
63.1586636
40
0.2854818
50
231.4635071
51
241.9260842
0
ARC
8
DEFAULT_255_1_234
10
8.5582319
20
63.37898
40
0.53622
50
241.7178533
51
248.3259551
0
ARC
8
DEFAULT_255_1_234
10
8.6967691
20
63.7222064
40
0.9063478
50
248.2007737
51
252.4528373
0
ARC
8
DEFAULT_255_1_234
10
8.8171416
20
64.0943441
40
1.2974635
50
252.3391078
51
254.3469452
0
ARC
8
DEFAULT_255_1_234
10
8.0629119
20
61.3966148
40
1.5037162
50
71.0197183
51
74.4087047
0
ARC
8
DEFAULT_255_1_234
10
8.2323804
20
61.8858111
40
0.9859993
50
66.1847285
51
71.086374
0
ARC
8
DEFAULT_255_1_234
10
8.3880116
20
62.23622
40
0.6025855
50
59.3536294
51
66.2691831
0
ARC
8
DEFAULT_255_1_234
10
8.4768769
20
62.3865609
40
0.4279449
50
49.1020879
51
59.3293958
0
ARC
8
DEFAULT_255_1_234
10
8.5587509
20
62.4798834
40
0.3038015
50
32.7919921
51
49.2505539
0
ARC
8
DEFAULT_255_1_234
10
8.5908599
20
62.5027191
40
0.264448
50
31.1181161
51
32.4005348
0
ARC
8
DEFAULT_255_1_234
10
8.5820136
20
62.4991779
40
0.2738556
50
8.1116974
51
30.7958831
0
ARC
8
DEFAULT_255_1_234
10
8.5009804
20
62.4853753
40
0.3560327
50
359.8389159
51
8.4706516
0
ARC
8
DEFAULT_255_1_234
10
8.5635596
20
62.4805137
40
0.2934776
50
337.4731098
51
0.7537279
0
ARC
8
DEFAULT_255_1_234
10
8.5814291
20
62.4785387
40
0.2762607
50
307.5917067
51
336.4315538
0
ARC
8
DEFAULT_255_1_234
10
8.5354119
20
62.5298102
40
0.3449979
50
307.6551545
51
308.4529766
0
ARC
8
DEFAULT_255_1_234
10
8.5123838
20
62.565325
40
0.3871988
50
284.3734338
51
307.1424381
0
ARC
8
DEFAULT_255_1_234
10
8.4628668
20
62.7474932
40
0.5759636
50
272.4382747
51
284.646547
0
ARC
8
DEFAULT_255_1_234
10
8.4501876
20
62.9274893
40
0.7563528
50
269.9708387
51
272.8178037
0
ARC
8
DEFAULT_255_1_234
10
8.4458916
20
62.7236716
40
0.5525489
50
248.2707594
51
270.4055579
0
ARC
8
DEFAULT_255_1_234
10
8.4404657
20
62.7046192
40
0.5328452
50
246.1383403
51
248.0542782
0
ARC
8
DEFAULT_255_1_234
10
8.3986036
20
62.6166843
40
0.4355005
50
233.1670131
51
246.4950969
0
ARC
8
DEFAULT_255_1_234
10
8.3431941
20
62.5418812
40
0.3424126
50
215.3403242
51
233.0843104
0
ARC
8
DEFAULT_255_1_234
10
8.3159372
20
62.5220549
40
0.3087104
50
179.2419209
51
215.2648451
0
ARC
8
DEFAULT_255_1_234
10
8.3926966
20
62.5234666
40
0.2304457
50
179.335461
51
199.1045811
0
ARC
8
DEFAULT_255_1_234
10
8.3594643
20
62.5147766
40
0.1962176
50
199.8828939
51
232.7063202
0
ARC
8
DEFAULT_255_1_234
10
8.4066911
20
62.5741788
40
0.2720938
50
232.3738199
51
255.5136649
0
ARC
8
DEFAULT_255_1_234
10
8.4407778
20
62.6985835
40
0.4010747
50
255.2446292
51
267.5320849
0
ARC
8
DEFAULT_255_1_234
10
8.4495401
20
62.8218702
40
0.5246356
50
267.1557994
51
270.0286766
0
ARC
8
DEFAULT_255_1_234
10
8.4523173
20
62.777495
40
0.4802668
50
269.7000017
51
278.1660162
0
ARC
8
DEFAULT_255_1_234
10
8.4779178
20
62.6044515
40
0.3053425
50
278.0231263
51
290.625471
0
ARC
8
DEFAULT_255_1_234
10
8.5126865
20
62.5117025
40
0.206291
50
290.6619762
51
307.0370976
0
ARC
8
DEFAULT_255_1_234
10
8.5427254
20
62.4748504
40
0.1587906
50
306.3943566
51
355.3030547
0
ARC
8
DEFAULT_255_1_234
10
8.4915186
20
62.4825113
40
0.2104809
50
354.3660432
51
0.0698737
0
ARC
8
DEFAULT_255_1_234
10
8.5057531
20
62.4847617
40
0.1962563
50
359.417946
51
16.1971788
0
ARC
8
DEFAULT_255_1_234
10
8.5512841
20
62.4972418
40
0.149053
50
16.4723299
51
52.6262157
0
ARC
8
DEFAULT_255_1_234
10
8.4691895
20
62.3888433
40
0.2850296
50
52.7386432
51
62.4979148
0
ARC
8
DEFAULT_255_1_234
10
8.3306972
20
62.1282283
40
0.5801521
50
62.2515216
51
68.1220564
0
ARC
8
DEFAULT_255_1_234
10
8.1586883
20
61.7054872
40
1.0365451
50
68.0062803
51
71.8053402
0
ARC
8
DEFAULT_255_1_234
10
7.9791255
20
61.1669758
40
1.6042013
50
71.7183119
51
73.9258742
0
LINE
8
DEFAULT_255_1_234
10
9.2200464
20
63.3566211
11
9.2200464
21
62.1872
0
LINE
8
DEFAULT_255_1_234
10
9.2200464
20
62.1872
11
9.065837
21
62.1872
0
LINE
8
DEFAULT_255_1_234
10
9.065837
20
62.1872
11
9.065837
21
63.3566211
0
LINE
8
DEFAULT_255_1_234
10
9.065837
20
63.3566211
11
9.2200464
21
63.3566211
0
LINE
8
DEFAULT_255_1_234
10
9.5019604
20
63.3566211
11
9.7011475
21
63.3566211
0
LINE
8
DEFAULT_255_1_234
10
9.7011475
20
63.3566211
11
10.0834583
21
62.4024506
0
LINE
8
DEFAULT_255_1_234
10
10.0834583
20
62.4024506
11
10.465769
21
63.3566211
0
LINE
8
DEFAULT_255_1_234
10
10.465769
20
63.3566211
11
10.6657593
21
63.3566211
0
LINE
8
DEFAULT_255_1_234
10
10.6657593
20
63.3566211
11
10.6657593
21
62.1872
0
LINE
8
DEFAULT_255_1_234
10
10.6657593
20
62.1872
11
10.5115499
21
62.1872
0
LINE
8
DEFAULT_255_1_234
10
10.5115499
20
62.1872
11
10.5115499
21
62.6425996
0
LINE
8
DEFAULT_255_1_234
10
10.5115499
20
62.6425996
11
10.526007
21
63.1341419
0
LINE
8
DEFAULT_255_1_234
10
10.526007
20
63.1341419
11
10.1420899
21
62.1872
0
LINE
8
DEFAULT_255_1_234
10
10.1420899
20
62.1872
11
10.0240234
21
62.1872
0
LINE
8
DEFAULT_255_1_234
10
10.0240234
20
62.1872
11
9.6409095
21
63.1317324
0
LINE
8
DEFAULT_255_1_234
10
9.6409095
20
63.1317324
11
9.6561698
21
62.6425996
0
LINE
8
DEFAULT_255_1_234
10
9.6561698
20
62.6425996
11
9.6561698
21
62.1872
0
LINE
8
DEFAULT_255_1_234
10
9.6561698
20
62.1872
11
9.5019604
21
62.1872
0
LINE
8
DEFAULT_255_1_234
10
9.5019604
20
62.1872
11
9.5019604
21
63.3566211
0
LINE
8
DEFAULT_255_1_234
10
11.7098853
20
62.1872
11
11.5982441
21
62.4924061
0
LINE
8
DEFAULT_255_1_234
10
11.5982441
20
62.4924061
11
11.1083081
21
62.4924061
0
LINE
8
DEFAULT_255_1_234
10
11.1083081
20
62.4924061
11
10.9982732
21
62.1872
0
LINE
8
DEFAULT_255_1_234
10
10.9982732
20
62.1872
11
10.8392448
21
62.1872
0
LINE
8
DEFAULT_255_1_234
10
10.8392448
20
62.1872
11
11.2858095
21
63.3566211
0
LINE
8
DEFAULT_255_1_234
10
11.2858095
20
63.3566211
11
11.4207427
21
63.3566211
0
LINE
8
DEFAULT_255_1_234
10
11.4207427
20
63.3566211
11
11.8681105
21
62.1872
0
LINE
8
DEFAULT_255_1_234
10
11.8681105
20
62.1872
11
11.7098853
21
62.1872
0
LINE
8
DEFAULT_255_1_234
10
11.3532761
20
63.1662689
11
11.1548921
21
62.6193075
0
LINE
8
DEFAULT_255_1_234
10
11.1548921
20
62.6193075
11
11.5524632
21
62.6193075
0
LINE
8
DEFAULT_255_1_234
10
11.5524632
20
62.6193075
11
11.3532761
21
63.1662689
0
LINE
8
DEFAULT_255_1_234
10
12.729916
20
63.3566211
11
12.729916
21
63.2297196
0
LINE
8
DEFAULT_255_1_234
10
12.729916
20
63.2297196
11
12.3540307
21
63.2297196
0
LINE
8
DEFAULT_255_1_234
10
12.3540307
20
63.2297196
11
12.3540307
21
62.1872
0
LINE
8
DEFAULT_255_1_234
10
12.3540307
20
62.1872
11
12.2006245
21
62.1872
0
LINE
8
DEFAULT_255_1_234
10
12.2006245
20
62.1872
11
12.2006245
21
63.2297196
0
LINE
8
DEFAULT_255_1_234
10
12.2006245
20
63.2297196
11
11.8255423
21
63.2297196
0
LINE
8
DEFAULT_255_1_234
10
11.8255423
20
63.2297196
11
11.8255423
21
63.3566211
0
LINE
8
DEFAULT_255_1_234
10
11.8255423
20
63.3566211
11
12.729916
21
63.3566211
0
LINE
8
DEFAULT_255_1_234
10
13.0688554
20
63.3566211
11
13.0688554
21
62.1872
0
LINE
8
DEFAULT_255_1_234
10
13.0688554
20
62.1872
11
12.914646
21
62.1872
0
LINE
8
DEFAULT_255_1_234
10
12.914646
20
62.1872
11
12.914646
21
63.3566211
0
LINE
8
DEFAULT_255_1_234
10
12.914646
20
63.3566211
11
13.0688554
21
63.3566211
0
LINE
8
DEFAULT_255_1_234
10
14.055956
20
62.5582663
11
14.2109686
21
62.5582663
0
LINE
8
DEFAULT_255_1_234
10
13.3106107
20
62.7172947
11
13.3106107
21
62.8297391
0
LINE
8
DEFAULT_255_1_234
10
14.2109686
20
62.9807357
11
14.055956
21
62.9807357
0
LINE
8
DEFAULT_255_1_234
10
13.4656232
20
62.8257232
11
13.4656232
21
62.7124757
0
ARC
8
DEFAULT_255_1_234
10
13.6629072
20
62.6179846
40
0.5513052
50
340.1774281
51
353.7814284
0
ARC
8
DEFAULT_255_1_234
10
13.8200425
20
62.5594582
40
0.3836379
50
311.4558989
51
340.4421614
0
ARC
8
DEFAULT_255_1_234
10
13.8167093
20
62.5705528
40
0.3941894
50
282.4333181
51
310.7513653
0
ARC
8
DEFAULT_255_1_234
10
13.7727832
20
62.7520679
40
0.5809175
50
269.9358511
51
282.809604
0
ARC
8
DEFAULT_255_1_234
10
13.7675899
20
62.8978212
40
0.7266847
50
270.0021091
51
270.3581957
0
ARC
8
DEFAULT_255_1_234
10
13.7623315
20
62.6377585
40
0.4666519
50
250.7884749
51
270.6489167
0
ARC
8
DEFAULT_255_1_234
10
13.745515
20
62.5740319
40
0.4009729
50
219.3627325
51
250.0611886
0
ARC
8
DEFAULT_255_1_234
10
13.8284361
20
62.6445042
40
0.5097822
50
193.5479632
51
219.5756669
0
ARC
8
DEFAULT_255_1_234
10
14.0655982
20
62.7060919
40
0.7547848
50
181.1218675
51
193.87563
0
ARC
8
DEFAULT_255_1_234
10
14.2726163
20
62.717158
40
0.9620055
50
179.9918545
51
181.5394234
0
ARC
8
DEFAULT_255_1_234
10
14.0875265
20
62.8334788
40
0.7769248
50
169.5837241
51
180.2757934
0
ARC
8
DEFAULT_255_1_234
10
13.9038203
20
62.8674229
40
0.590109
50
155.0365899
51
169.6003176
0
ARC
8
DEFAULT_255_1_234
10
13.7902667
20
62.9221677
40
0.4640625
50
136.783148
51
155.2472683
0
ARC
8
DEFAULT_255_1_234
10
13.7513144
20
62.9552562
40
0.4130255
50
121.7633186
51
136.428115
0
ARC
8
DEFAULT_255_1_234
10
13.7648106
20
62.9303227
40
0.4413323
50
95.6459699
51
121.5490577
0
ARC
8
DEFAULT_255_1_234
10
13.7805388
20
62.8194949
40
0.55319
50
89.924208
51
96.1377933
0
ARC
8
DEFAULT_255_1_234
10
13.7855821
20
62.8313542
40
0.5413475
50
76.6779277
51
90.4563316
0
ARC
8
DEFAULT_255_1_234
10
13.8249444
20
62.9904114
40
0.3775041
50
47.485847
51
76.9287264
0
ARC
8
DEFAULT_255_1_234
10
13.8102417
20
62.9804159
40
0.3948286
50
16.5424086
51
46.8933463
0
ARC
8
DEFAULT_255_1_234
10
13.6494574
20
62.9275861
40
0.564021
50
5.4072051
51
17.0365086
0
ARC
8
DEFAULT_255_1_234
10
13.5055591
20
62.9044679
40
0.5556559
50
7.8891745
51
15.9239216
0
ARC
8
DEFAULT_255_1_234
10
13.7042605
20
62.9621631
40
0.3487515
50
15.7653144
51
27.9410532
0
ARC
8
DEFAULT_255_1_234
10
13.8146822
20
63.021279
40
0.2235026
50
27.8166557
51
46.4008329
0
ARC
8
DEFAULT_255_1_234
10
13.8196465
20
63.0207082
40
0.2205286
50
47.4371857
51
75.0698205
0
ARC
8
DEFAULT_255_1_234
10
13.788786
20
62.9132765
40
0.3322915
50
74.7008593
51
87.8124495
0
ARC
8
DEFAULT_255_1_234
10
13.7814547
20
62.8076844
40
0.4380987
50
87.3814673
51
90.0240855
0
ARC
8
DEFAULT_255_1_234
10
13.7776091
20
62.9254291
40
0.3203749
50
89.3451631
51
108.5745436
0
ARC
8
DEFAULT_255_1_234
10
13.7639196
20
62.9767908
40
0.2673494
50
109.2998449
51
143.3037509
0
ARC
8
DEFAULT_255_1_234
10
13.8401268
20
62.9181881
40
0.3634757
50
143.0753173
51
163.1916937
0
ARC
8
DEFAULT_255_1_234
10
14.0352996
20
62.8565967
40
0.5681262
50
162.9373603
51
174.6208611
0
ARC
8
DEFAULT_255_1_234
10
14.2979038
20
62.827801
40
0.8322832
50
174.3419979
51
180.1430411
0
ARC
8
DEFAULT_255_1_234
10
14.2048194
20
62.7083698
40
0.7392076
50
179.6817502
51
189.150529
0
ARC
8
DEFAULT_255_1_234
10
13.9547443
20
62.666719
40
0.4856932
50
188.9910863
51
203.5773039
0
ARC
8
DEFAULT_255_1_234
10
13.8467775
20
62.6219211
40
0.3688271
50
203.9077269
51
215.1312379
0
ARC
8
DEFAULT_255_1_234
10
13.7544869
20
62.5503941
40
0.2522457
50
213.9071664
51
263.8849284
0
ARC
8
DEFAULT_255_1_234
10
13.7670198
20
62.6288518
40
0.3316174
50
263.1758525
51
270.1031083
0
ARC
8
DEFAULT_255_1_234
10
13.770229
20
62.7535365
40
0.4563091
50
269.6719807
51
279.0609165
0
ARC
8
DEFAULT_255_1_234
10
13.7969058
20
62.5922907
40
0.2928759
50
278.8750225
51
293.6346586
0
ARC
8
DEFAULT_255_1_234
10
13.8289266
20
62.51709
40
0.2111472
50
293.8553404
51
310.0518804
0
ARC
8
DEFAULT_255_1_234
10
13.829412
20
62.5108516
40
0.2060917
50
311.0646779
51
332.0108348
0
ARC
8
DEFAULT_255_1_234
10
13.7101847
20
62.5765978
40
0.3422352
50
331.6588543
51
343.2878891
0
ARC
8
DEFAULT_255_1_234
10
13.5039362
20
62.6399798
40
0.5580003
50
343.1446044
51
351.010618
0
ARC
8
DEFAULT_255_1_234
10
13.3498008
20
62.6680871
40
0.7146438
50
350.7157277
51
351.1602153
0
LINE
8
DEFAULT_255_1_234
10
15.4896213
20
62.8538343
11
15.4896213
21
62.727736
0
LINE
8
DEFAULT_255_1_234
10
15.4896213
20
62.727736
11
14.9828186
21
62.727736
0
LINE
8
DEFAULT_255_1_234
10
14.9828186
20
62.727736
11
14.9828186
21
62.3132983
0
LINE
8
DEFAULT_255_1_234
10
14.9828186
20
62.3132983
11
15.571545
21
62.3132983
0
LINE
8
DEFAULT_255_1_234
10
15.571545
20
62.3132983
11
15.571545
21
62.1872
0
LINE
8
DEFAULT_255_1_234
10
15.571545
20
62.1872
11
14.8286092
21
62.1872
0
LINE
8
DEFAULT_255_1_234
10
14.8286092
20
62.1872
11
14.8286092
21
63.3566211
0
LINE
8
DEFAULT_255_1_234
10
14.8286092
20
63.3566211
11
15.5635133
21
63.3566211
0
LINE
8
DEFAULT_255_1_234
10
15.5635133
20
63.3566211
11
15.5635133
21
63.2297196
0
LINE
8
DEFAULT_255_1_234
10
15.5635133
20
63.2297196
11
14.9828186
21
63.2297196
0
LINE
8
DEFAULT_255_1_234
10
14.9828186
20
63.2297196
11
14.9828186
21
62.8538343
0
LINE
8
DEFAULT_255_1_234
10
14.9828186
20
62.8538343
11
15.4896213
21
62.8538343
0
LINE
8
DEFAULT_255_1_234
10
16.5875599
20
63.3566211
11
16.5875599
21
63.2297196
0
LINE
8
DEFAULT_255_1_234
10
16.5875599
20
63.2297196
11
16.2116746
21
63.2297196
0
LINE
8
DEFAULT_255_1_234
10
16.2116746
20
63.2297196
11
16.2116746
21
62.1872
0
LINE
8
DEFAULT_255_1_234
10
16.2116746
20
62.1872
11
16.0582684
21
62.1872
0
LINE
8
DEFAULT_255_1_234
10
16.0582684
20
62.1872
11
16.0582684
21
63.2297196
0
LINE
8
DEFAULT_255_1_234
10
16.0582684
20
63.2297196
11
15.6831862
21
63.2297196
0
LINE
8
DEFAULT_255_1_234
10
15.6831862
20
63.2297196
11
15.6831862
21
63.3566211
0
LINE
8
DEFAULT_255_1_234
10
15.6831862
20
63.3566211
11
16.5875599
21
63.3566211
0
LINE
8
DEFAULT_255_1_234
10
17.4887209
20
62.3084792
11
17.4887209
21
62.1872
0
LINE
8
DEFAULT_255_1_234
10
17.4887209
20
62.1872
11
16.7224931
21
62.1872
0
LINE
8
DEFAULT_255_1_234
10
16.7224931
20
62.1872
11
16.7224931
21
62.2940221
0
LINE
8
DEFAULT_255_1_234
10
16.7224931
20
62.2940221
11
17.1272927
21
62.7437995
0
LINE
8
DEFAULT_255_1_234
10
16.8485914
20
63.0120595
11
16.7000042
21
63.0120595
0
LINE
8
DEFAULT_255_1_234
10
17.2148387
20
62.6482218
11
16.9016009
21
62.3084792
0
LINE
8
DEFAULT_255_1_234
10
16.9016009
20
62.3084792
11
17.4887209
21
62.3084792
0
ARC
8
DEFAULT_255_1_234
10
15.7782761
20
63.9367527
40
1.8008286
50
318.5132453
51
320.7828378
0
ARC
8
DEFAULT_255_1_234
10
16.3069735
20
63.5064426
40
1.1191493
50
320.7372736
51
323.9737074
0
ARC
8
DEFAULT_255_1_234
10
16.6989591
20
63.2224361
40
0.6350923
50
323.8961724
51
328.6421089
0
ARC
8
DEFAULT_255_1_234
10
16.9036187
20
63.0962031
40
0.3946393
50
328.8299013
51
331.789948
0
ARC
8
DEFAULT_255_1_234
10
17.0033365
20
63.0447509
40
0.2824501
50
331.4255242
51
352.9364833
0
ARC
8
DEFAULT_255_1_234
10
17.0169866
20
63.0416976
40
0.2685315
50
353.2248685
51
0.0169286
0
ARC
8
DEFAULT_255_1_234
10
17.0379743
20
63.043995
40
0.2475536
50
359.4866256
51
15.9339782
0
ARC
8
DEFAULT_255_1_234
10
17.0886728
20
63.0576286
40
0.1950618
50
16.1714718
51
43.5284424
0
ARC
8
DEFAULT_255_1_234
10
17.0964037
20
63.0653573
40
0.184134
50
43.4415429
51
83.1661404
0
ARC
8
DEFAULT_255_1_234
10
17.0829955
20
62.9916771
40
0.258926
50
82.160215
51
90.1505798
0
ARC
8
DEFAULT_255_1_234
10
17.0798382
20
62.9379865
40
0.3126255
50
89.5460705
51
102.5418777
0
ARC
8
DEFAULT_255_1_234
10
17.0555468
20
63.0410665
40
0.2067346
50
102.1739365
51
129.2061916
0
ARC
8
DEFAULT_255_1_234
10
17.047654
20
63.0535094
40
0.1921118
50
129.7279328
51
135.7542026
0
ARC
8
DEFAULT_255_1_234
10
17.0598068
20
63.0438045
40
0.2075944
50
136.175737
51
166.3674722
0
ARC
8
DEFAULT_255_1_234
10
17.1604987
20
63.0168182
40
0.3118201
50
165.9092917
51
178.8683903
0
ARC
8
DEFAULT_255_1_234
10
17.2469848
20
63.0121179
40
0.3983935
50
178.438168
51
180.0083905
0
ARC
8
DEFAULT_255_1_234
10
17.106845
20
63.0160231
40
0.4068601
50
163.2878735
51
180.5581814
0
ARC
8
DEFAULT_255_1_234
10
17.0266712
20
63.038084
40
0.3237344
50
133.454115
51
162.9470031
0
ARC
8
DEFAULT_255_1_234
10
17.0445253
20
63.0191
40
0.349795
50
100.7869394
51
133.4384016
0
ARC
8
DEFAULT_255_1_234
10
17.0793024
20
62.8642319
40
0.5084616
50
89.6605301
51
101.3704185
0
ARC
8
DEFAULT_255_1_234
10
17.0859363
20
62.8703496
40
0.502348
50
78.2171172
51
90.4130393
0
ARC
8
DEFAULT_255_1_234
10
17.1214442
20
63.0327637
40
0.3361092
50
55.9268222
51
78.4888551
0
ARC
8
DEFAULT_255_1_234
10
17.1410882
20
63.0666324
40
0.2970617
50
47.9292255
51
55.4054003
0
ARC
8
DEFAULT_255_1_234
10
17.1512442
20
63.0769502
40
0.2825983
50
4.3347696
51
48.0560701
0
ARC
8
DEFAULT_255_1_234
10
17.0416836
20
63.0599601
40
0.393225
50
359.925209
51
5.5967654
0
ARC
8
DEFAULT_255_1_234
10
17.0845728
20
63.0655816
40
0.3503892
50
337.8914096
51
358.9967724
0
ARC
8
DEFAULT_255_1_234
10
16.813214
20
63.1702706
40
0.6412172
50
326.9135351
51
338.3505194
0
ARC
8
DEFAULT_255_1_234
10
16.4146444
20
63.4257284
40
1.1146189
50
319.6472867
51
327.095818
0
ARC
8
DEFAULT_255_1_234
10
16.0313447
20
63.7419
40
1.6114559
50
317.2586784
51
319.9046139
0
LINE
8
DEFAULT_255_1_234
10
18.3794407
20
62.8787327
11
18.3794407
21
62.6859709
0
LINE
8
DEFAULT_255_1_234
10
17.641324
20
62.6658916
11
17.641324
21
62.8642755
0
LINE
8
DEFAULT_255_1_234
10
18.2308536
20
62.6458123
11
18.2308536
21
62.8891739
0
LINE
8
DEFAULT_255_1_234
10
17.7899111
20
62.9004184
11
17.7899111
21
62.6626789
0
ARC
8
DEFAULT_255_1_234
10
17.1547297
20
62.6810805
40
1.2247208
50
353.8441951
51
0.2287902
0
ARC
8
DEFAULT_255_1_234
10
17.61868
20
62.6292806
40
0.7578929
50
344.4934747
51
353.9765454
0
ARC
8
DEFAULT_255_1_234
10
17.9179391
20
62.5441981
40
0.4467846
50
329.2803592
51
344.7472793
0
ARC
8
DEFAULT_255_1_234
10
18.0172216
20
62.4897018
40
0.3336173
50
324.9352394
51
328.6160465
0
ARC
8
DEFAULT_255_1_234
10
18.0549324
20
62.4633427
40
0.2876076
50
280.580143
51
324.9173126
0
ARC
8
DEFAULT_255_1_234
10
18.0148117
20
62.6304099
40
0.4592847
50
269.5977311
51
281.6734359
0
ARC
8
DEFAULT_255_1_234
10
18.0076022
20
62.6184173
40
0.4472986
50
256.6228859
51
270.51044
0
ARC
8
DEFAULT_255_1_234
10
17.9674
20
62.4635877
40
0.2873874
50
215.8618325
51
257.2788573
0
ARC
8
DEFAULT_255_1_234
10
18.0695032
20
62.5320977
40
0.4102928
50
197.9693508
51
215.2623606
0
ARC
8
DEFAULT_255_1_234
10
18.3180147
20
62.6159709
40
0.6725652
50
187.8816417
51
198.2346507
0
ARC
8
DEFAULT_255_1_234
10
18.7138356
20
62.6731079
40
1.0724845
50
180.8976217
51
188.0055519
0
ARC
8
DEFAULT_255_1_234
10
18.9938544
20
62.6834777
40
1.3526448
50
180.7449369
51
181.1510016
0
ARC
8
DEFAULT_255_1_234
10
18.8361273
20
62.8691042
40
1.1948131
50
173.7675579
51
180.231553
0
ARC
8
DEFAULT_255_1_234
10
18.384342
20
62.9201666
40
0.7401564
50
164.3058563
51
173.9002247
0
ARC
8
DEFAULT_255_1_234
10
18.0931488
20
63.0040656
40
0.4371288
50
148.7922025
51
164.568378
0
ARC
8
DEFAULT_255_1_234
10
17.9979941
20
63.0571929
40
0.3282386
50
144.5883898
51
148.1176286
0
ARC
8
DEFAULT_255_1_234
10
17.9636838
20
63.0811315
40
0.2864044
50
101.6440918
51
144.514236
0
ARC
8
DEFAULT_255_1_234
10
18.0061905
20
62.9122069
40
0.4604934
50
89.5284041
51
102.5819763
0
ARC
8
DEFAULT_255_1_234
10
18.0140993
20
62.9083018
40
0.464401
50
77.0437873
51
90.5081339
0
ARC
8
DEFAULT_255_1_234
10
18.0542995
20
63.0725615
40
0.2953195
50
48.2778575
51
77.4994676
0
ARC
8
DEFAULT_255_1_234
10
18.0615626
20
63.0854746
40
0.2808655
50
36.3142134
51
47.6305865
0
ARC
8
DEFAULT_255_1_234
10
17.9746933
20
63.0269515
40
0.3855453
50
18.2931786
51
35.6769206
0
ARC
8
DEFAULT_255_1_234
10
17.7203692
20
62.9396593
40
0.654423
50
8.024666
51
18.5605216
0
ARC
8
DEFAULT_255_1_234
10
17.3040612
20
62.8781792
40
1.0752407
50
1.1274072
51
8.1718305
0
ARC
8
DEFAULT_255_1_234
10
16.9804802
20
62.8654885
40
1.3990231
50
0.5424119
51
1.3863029
0
ARC
8
DEFAULT_255_1_234
10
17.162618
20
62.8927342
40
1.0682415
50
359.8090433
51
4.9407866
0
ARC
8
DEFAULT_255_1_234
10
17.5836194
20
62.9303113
40
0.6455691
50
4.8362157
51
12.2904523
0
ARC
8
DEFAULT_255_1_234
10
17.8591309
20
62.9916965
40
0.3633074
50
12.0805627
51
23.8173984
0
ARC
8
DEFAULT_255_1_234
10
17.9765014
20
63.0413919
40
0.2358723
50
24.2871213
51
31.3935614
0
ARC
8
DEFAULT_255_1_234
10
18.0289712
20
63.0757233
40
0.1732111
50
30.7407893
51
82.4657128
0
ARC
8
DEFAULT_255_1_234
10
18.0109846
20
62.9873691
40
0.263235
50
81.1060089
51
90.2184952
0
ARC
8
DEFAULT_255_1_234
10
18.0074145
20
63.0131924
40
0.2374236
50
89.3806855
51
105.6762551
0
ARC
8
DEFAULT_255_1_234
10
17.9890775
20
63.0798567
40
0.1682847
50
105.7981136
51
149.7388061
0
ARC
8
DEFAULT_255_1_234
10
18.0954854
20
63.015895
40
0.2924306
50
149.4208916
51
163.6286378
0
ARC
8
DEFAULT_255_1_234
10
18.3045742
20
62.952125
40
0.5110213
50
163.3763315
51
172.1410975
0
ARC
8
DEFAULT_255_1_234
10
18.6346461
20
62.9048518
40
0.8444586
50
172.0259487
51
178.0703232
0
ARC
8
DEFAULT_255_1_234
10
18.937655
20
62.8904906
40
1.1477868
50
177.8631668
51
179.5044149
0
ARC
8
DEFAULT_255_1_234
10
18.8303955
20
62.6590389
40
1.0404907
50
179.7995573
51
185.2460446
0
ARC
8
DEFAULT_255_1_234
10
18.4260994
20
62.6207513
40
0.6343885
50
185.1411642
51
193.0079639
0
ARC
8
DEFAULT_255_1_234
10
18.1617467
20
62.5582641
40
0.3627568
50
192.7897626
51
205.2507664
0
ARC
8
DEFAULT_255_1_234
10
18.0571014
20
62.5115415
40
0.2481908
50
205.8005384
51
211.2537509
0
ARC
8
DEFAULT_255_1_234
10
18.0047454
20
62.476458
40
0.1852521
50
210.3789793
51
238.4008143
0
ARC
8
DEFAULT_255_1_234
10
18.0027976
20
62.4811376
40
0.1882621
50
239.6520629
51
265.9793761
0
ARC
8
DEFAULT_255_1_234
10
18.0113176
20
62.5483427
40
0.2559272
50
265.1315437
51
270.060332
0
ARC
8
DEFAULT_255_1_234
10
18.0141955
20
62.5159534
40
0.2235528
50
269.3314664
51
287.2178029
0
ARC
8
DEFAULT_255_1_234
10
18.0279807
20
62.4656279
40
0.1714108
50
287.7958004
51
329.080874
0
ARC
8
DEFAULT_255_1_234
10
17.9322264
20
62.525393
40
0.2842745
50
328.6634704
51
343.3325132
0
ARC
8
DEFAULT_255_1_234
10
17.7149284
20
62.5930863
40
0.5118644
50
343.0499468
51
351.9393422
0
ARC
8
DEFAULT_255_1_234
10
17.3682584
20
62.6441949
40
0.8622784
50
351.8069023
51
357.7959224
0
ARC
8
DEFAULT_255_1_234
10
17.044714
20
62.6609721
40
1.1862365
50
357.5871873
51
359.2677531
0
LINE
8
DEFAULT_255_1_234
10
19.3030906
20
62.8787327
11
19.3030906
21
62.6859709
0
LINE
8
DEFAULT_255_1_234
10
18.5649739
20
62.6658916
11
18.5649739
21
62.8642755
0
LINE
8
DEFAULT_255_1_234
10
19.1545035
20
62.6458123
11
19.1545035
21
62.8891739
0
LINE
8
DEFAULT_255_1_234
10
18.713561
20
62.9004184
11
18.713561
21
62.6626789
0
ARC
8
DEFAULT_255_1_234
10
18.0783796
20
62.6810805
40
1.2247208
50
353.8441951
51
0.2287902
0
ARC
8
DEFAULT_255_1_234
10
18.5423299
20
62.6292806
40
0.7578929
50
344.4934747
51
353.9765454
0
ARC
8
DEFAULT_255_1_234
10
18.841589
20
62.5441981
40
0.4467846
50
329.2803592
51
344.7472793
0
ARC
8
DEFAULT_255_1_234
10
18.9408715
20
62.4897018
40
0.3336173
50
324.9352394
51
328.6160465
0
ARC
8
DEFAULT_255_1_234
10
18.9785823
20
62.4633427
40
0.2876076
50
280.580143
51
324.9173126
0
ARC
8
DEFAULT_255_1_234
10
18.9384616
20
62.6304099
40
0.4592847
50
269.5977311
51
281.6734359
0
ARC
8
DEFAULT_255_1_234
10
18.9312521
20
62.6184173
40
0.4472986
50
256.6228859
51
270.51044
0
ARC
8
DEFAULT_255_1_234
10
18.8910499
20
62.4635877
40
0.2873874
50
215.8618325
51
257.2788573
0
ARC
8
DEFAULT_255_1_234
10
18.9931531
20
62.5320977
40
0.4102928
50
197.9693508
51
215.2623606
0
ARC
8
DEFAULT_255_1_234
10
19.2416647
20
62.6159709
40
0.6725652
50
187.8816417
51
198.2346507
0
ARC
8
DEFAULT_255_1_234
10
19.6374855
20
62.6731079
40
1.0724845
50
180.8976217
51
188.0055519
0
ARC
8
DEFAULT_255_1_234
10
19.9175043
20
62.6834777
40
1.3526448
50
180.7449369
51
181.1510016
0
ARC
8
DEFAULT_255_1_234
10
19.7597772
20
62.8691042
40
1.1948131
50
173.7675579
51
180.231553
0
ARC
8
DEFAULT_255_1_234
10
19.3079919
20
62.9201666
40
0.7401564
50
164.3058563
51
173.9002247
0
ARC
8
DEFAULT_255_1_234
10
19.0167987
20
63.0040656
40
0.4371288
50
148.7922025
51
164.568378
0
ARC
8
DEFAULT_255_1_234
10
18.921644
20
63.0571929
40
0.3282386
50
144.5883898
51
148.1176286
0
ARC
8
DEFAULT_255_1_234
10
18.8873337
20
63.0811315
40
0.2864044
50
101.6440918
51
144.514236
0
ARC
8
DEFAULT_255_1_234
10
18.9298404
20
62.9122069
40
0.4604934
50
89.5284041
51
102.5819763
0
ARC
8
DEFAULT_255_1_234
10
18.9377492
20
62.9083018
40
0.464401
50
77.0437873
51
90.5081339
0
ARC
8
DEFAULT_255_1_234
10
18.9779494
20
63.0725615
40
0.2953195
50
48.2778575
51
77.4994676
0
ARC
8
DEFAULT_255_1_234
10
18.9852125
20
63.0854746
40
0.2808655
50
36.3142134
51
47.6305865
0
ARC
8
DEFAULT_255_1_234
10
18.8983432
20
63.0269515
40
0.3855453
50
18.2931786
51
35.6769206
0
ARC
8
DEFAULT_255_1_234
10
18.6440191
20
62.9396593
40
0.654423
50
8.024666
51
18.5605216
0
ARC
8
DEFAULT_255_1_234
10
18.2277111
20
62.8781792
40
1.0752407
50
1.1274072
51
8.1718305
0
ARC
8
DEFAULT_255_1_234
10
17.9041301
20
62.8654885
40
1.3990231
50
0.5424119
51
1.3863029
0
ARC
8
DEFAULT_255_1_234
10
18.0862679
20
62.8927342
40
1.0682415
50
359.8090433
51
4.9407866
0
ARC
8
DEFAULT_255_1_234
10
18.5072693
20
62.9303113
40
0.6455691
50
4.8362157
51
12.2904523
0
ARC
8
DEFAULT_255_1_234
10
18.7827808
20
62.9916965
40
0.3633074
50
12.0805627
51
23.8173984
0
ARC
8
DEFAULT_255_1_234
10
18.9001513
20
63.0413919
40
0.2358723
50
24.2871213
51
31.3935614
0
ARC
8
DEFAULT_255_1_234
10
18.9526211
20
63.0757233
40
0.1732111
50
30.7407893
51
82.4657128
0
ARC
8
DEFAULT_255_1_234
10
18.9346345
20
62.9873691
40
0.263235
50
81.1060089
51
90.2184952
0
ARC
8
DEFAULT_255_1_234
10
18.9310644
20
63.0131924
40
0.2374236
50
89.3806855
51
105.6762551
0
ARC
8
DEFAULT_255_1_234
10
18.9127274
20
63.0798567
40
0.1682847
50
105.7981136
51
149.7388061
0
ARC
8
DEFAULT_255_1_234
10
19.0191353
20
63.015895
40
0.2924306
50
149.4208916
51
163.6286378
0
ARC
8
DEFAULT_255_1_234
10
19.2282241
20
62.952125
40
0.5110213
50
163.3763315
51
172.1410975
0
ARC
8
DEFAULT_255_1_234
10
19.558296
20
62.9048518
40
0.8444586
50
172.0259487
51
178.0703232
0
ARC
8
DEFAULT_255_1_234
10
19.8613049
20
62.8904906
40
1.1477868
50
177.8631668
51
179.5044149
0
ARC
8
DEFAULT_255_1_234
10
19.7540454
20
62.6590389
40
1.0404907
50
179.7995573
51
185.2460446
0
ARC
8
DEFAULT_255_1_234
10
19.3497493
20
62.6207513
40
0.6343885
50
185.1411642
51
193.0079639
0
ARC
8
DEFAULT_255_1_234
10
19.0853966
20
62.5582641
40
0.3627568
50
192.7897626
51
205.2507664
0
ARC
8
DEFAULT_255_1_234
10
18.9807513
20
62.5115415
40
0.2481908
50
205.8005384
51
211.2537509
0
ARC
8
DEFAULT_255_1_234
10
18.9283953
20
62.476458
40
0.1852521
50
210.3789793
51
238.4008143
0
ARC
8
DEFAULT_255_1_234
10
18.9264475
20
62.4811376
40
0.1882621
50
239.6520629
51
265.9793761
0
ARC
8
DEFAULT_255_1_234
10
18.9349675
20
62.5483427
40
0.2559272
50
265.1315437
51
270.060332
0
ARC
8
DEFAULT_255_1_234
10
18.9378454
20
62.5159534
40
0.2235528
50
269.3314664
51
287.2178029
0
ARC
8
DEFAULT_255_1_234
10
18.9516306
20
62.4656279
40
0.1714108
50
287.7958004
51
329.080874
0
ARC
8
DEFAULT_255_1_234
10
18.8558763
20
62.525393
40
0.2842745
50
328.6634704
51
343.3325132
0
ARC
8
DEFAULT_255_1_234
10
18.6385783
20
62.5930863
40
0.5118644
50
343.0499468
51
351.9393422
0
ARC
8
DEFAULT_255_1_234
10
18.2919083
20
62.6441949
40
0.8622784
50
351.8069023
51
357.7959224
0
ARC
8
DEFAULT_255_1_234
10
17.9683639
20
62.6609721
40
1.1862365
50
357.5871873
51
359.2677531
0
LINE
8
DEFAULT_255_1_234
10
20.3078611
20
63.0184849
11
20.1528485
21
63.0184849
0
LINE
8
DEFAULT_255_1_234
10
19.4605127
20
62.5261394
11
19.6155252
21
62.5261394
0
ARC
8
DEFAULT_255_1_234
10
20.2187298
20
63.9131768
40
1.252368
50
248.9199003
51
254.1439814
0
ARC
8
DEFAULT_255_1_234
10
20.0506793
20
63.4805234
40
0.788226
50
241.633709
51
249.0064503
0
ARC
8
DEFAULT_255_1_234
10
19.8978187
20
63.2004317
40
0.4691427
50
230.498225
51
241.8087113
0
ARC
8
DEFAULT_255_1_234
10
19.8193762
20
63.1004906
40
0.3421437
50
227.4064532
51
229.9881192
0
ARC
8
DEFAULT_255_1_234
10
19.7706282
20
63.0529088
40
0.2741476
50
200.6781896
51
228.1763934
0
ARC
8
DEFAULT_255_1_234
10
19.7778593
20
63.0514077
40
0.2804109
50
179.5061581
51
199.8694617
0
ARC
8
DEFAULT_255_1_234
10
19.7769345
20
63.058821
40
0.2795204
50
132.4834203
51
181.0242172
0
ARC
8
DEFAULT_255_1_234
10
19.8364927
20
63.0025704
40
0.3612768
50
129.2532479
51
133.4242687
0
ARC
8
DEFAULT_255_1_234
10
19.8511377
20
62.9805965
40
0.3875675
50
101.98776
51
128.8742646
0
ARC
8
DEFAULT_255_1_234
10
19.8909987
20
62.8084741
40
0.5642249
50
89.5906553
51
102.3169264
0
ARC
8
DEFAULT_255_1_234
10
19.8980479
20
62.8403148
40
0.5323783
50
77.2360837
51
90.3248275
0
ARC
8
DEFAULT_255_1_234
10
19.9187558
20
62.93704
40
0.4334697
50
63.837784
51
77.0809408
0
ARC
8
DEFAULT_255_1_234
10
19.946532
20
62.9887911
40
0.3747796
50
45.9864267
51
64.1607727
0
ARC
8
DEFAULT_255_1_234
10
19.9726201
20
63.0185866
40
0.3352302
50
32.2747395
51
45.6547121
0
ARC
8
DEFAULT_255_1_234
10
19.9792642
20
63.020488
40
0.328603
50
359.6507365
51
32.6130309
0
ARC
8
DEFAULT_255_1_234
10
19.8849737
20
63.020966
40
0.2678863
50
359.469343
51
14.9832209
0
ARC
8
DEFAULT_255_1_234
10
19.95548
20
63.0398539
40
0.1948938
50
14.9781179
51
48.2004265
0
ARC
8
DEFAULT_255_1_234
10
19.9390444
20
63.0191983
40
0.2212521
50
48.5927837
51
74.1241538
0
ARC
8
DEFAULT_255_1_234
10
19.9056934
20
62.9091248
40
0.3362561
50
73.7888341
51
86.6652678
0
ARC
8
DEFAULT_255_1_234
10
19.8954499
20
62.7883881
40
0.4573953
50
86.2640471
51
90.0526343
0
ARC
8
DEFAULT_255_1_234
10
19.8926212
20
62.8279192
40
0.4178709
50
89.6697524
51
99.2309573
0
ARC
8
DEFAULT_255_1_234
10
19.8683663
20
62.9723964
40
0.2713749
50
99.069534
51
113.7658566
0
ARC
8
DEFAULT_255_1_234
10
19.8409854
20
63.0369677
40
0.2012469
50
114.0401004
51
127.9850673
0
ARC
8
DEFAULT_255_1_234
10
19.8169418
20
63.066573
40
0.1631167
50
127.7287463
51
176.7105154
0
ARC
8
DEFAULT_255_1_234
10
19.8848135
20
63.0564693
40
0.2315392
50
175.1779447
51
180.0581938
0
ARC
8
DEFAULT_255_1_234
10
19.8004982
20
63.0552428
40
0.1472271
50
179.6142195
51
228.1246017
0
ARC
8
DEFAULT_255_1_234
10
19.8446651
20
63.0961308
40
0.2072299
50
226.5779593
51
230.8800004
0
ARC
8
DEFAULT_255_1_234
10
19.8917729
20
63.1586636
40
0.2854818
50
231.4635071
51
241.9260842
0
ARC
8
DEFAULT_255_1_234
10
20.0114907
20
63.37898
40
0.53622
50
241.7178533
51
248.3259551
0
ARC
8
DEFAULT_255_1_234
10
20.1500279
20
63.7222064
40
0.9063478
50
248.2007737
51
252.4528373
0
ARC
8
DEFAULT_255_1_234
10
20.2704004
20
64.0943441
40
1.2974635
50
252.3391078
51
254.3469452
0
ARC
8
DEFAULT_255_1_234
10
19.5161707
20
61.3966148
40
1.5037162
50
71.0197183
51
74.4087047
0
ARC
8
DEFAULT_255_1_234
10
19.6856392
20
61.8858111
40
0.9859993
50
66.1847285
51
71.086374
0
ARC
8
DEFAULT_255_1_234
10
19.8412704
20
62.23622
40
0.6025855
50
59.3536294
51
66.2691831
0
ARC
8
DEFAULT_255_1_234
10
19.9301357
20
62.3865609
40
0.4279449
50
49.1020879
51
59.3293958
0
ARC
8
DEFAULT_255_1_234
10
20.0120097
20
62.4798834
40
0.3038015
50
32.7919921
51
49.2505539
0
ARC
8
DEFAULT_255_1_234
10
20.0441186
20
62.5027191
40
0.264448
50
31.1181161
51
32.4005348
0
ARC
8
DEFAULT_255_1_234
10
20.0352724
20
62.4991779
40
0.2738556
50
8.1116974
51
30.7958831
0
ARC
8
DEFAULT_255_1_234
10
19.9542392
20
62.4853753
40
0.3560327
50
359.8389159
51
8.4706516
0
ARC
8
DEFAULT_255_1_234
10
20.0168184
20
62.4805137
40
0.2934776
50
337.4731098
51
0.7537279
0
ARC
8
DEFAULT_255_1_234
10
20.0346879
20
62.4785387
40
0.2762607
50
307.5917067
51
336.4315538
0
ARC
8
DEFAULT_255_1_234
10
19.9886707
20
62.5298102
40
0.3449979
50
307.6551545
51
308.4529766
0
ARC
8
DEFAULT_255_1_234
10
19.9656425
20
62.565325
40
0.3871988
50
284.3734338
51
307.1424381
0
ARC
8
DEFAULT_255_1_234
10
19.9161256
20
62.7474932
40
0.5759636
50
272.4382747
51
284.646547
0
ARC
8
DEFAULT_255_1_234
10
19.9034464
20
62.9274893
40
0.7563528
50
269.9708387
51
272.8178037
0
ARC
8
DEFAULT_255_1_234
10
19.8991504
20
62.7236716
40
0.5525489
50
248.2707594
51
270.4055579
0
ARC
8
DEFAULT_255_1_234
10
19.8937245
20
62.7046192
40
0.5328452
50
246.1383403
51
248.0542782
0
ARC
8
DEFAULT_255_1_234
10
19.8518624
20
62.6166843
40
0.4355005
50
233.1670131
51
246.4950969
0
ARC
8
DEFAULT_255_1_234
10
19.7964529
20
62.5418812
40
0.3424126
50
215.3403242
51
233.0843104
0
ARC
8
DEFAULT_255_1_234
10
19.769196
20
62.5220549
40
0.3087104
50
179.2419209
51
215.2648451
0
ARC
8
DEFAULT_255_1_234
10
19.8459554
20
62.5234666
40
0.2304457
50
179.335461
51
199.1045811
0
ARC
8
DEFAULT_255_1_234
10
19.8127231
20
62.5147766
40
0.1962176
50
199.8828939
51
232.7063202
0
ARC
8
DEFAULT_255_1_234
10
19.8599499
20
62.5741788
40
0.2720938
50
232.3738199
51
255.5136649
0
ARC
8
DEFAULT_255_1_234
10
19.8940366
20
62.6985835
40
0.4010747
50
255.2446292
51
267.5320849
0
ARC
8
DEFAULT_255_1_234
10
19.9027989
20
62.8218702
40
0.5246356
50
267.1557994
51
270.0286766
0
ARC
8
DEFAULT_255_1_234
10
19.9055761
20
62.777495
40
0.4802668
50
269.7000017
51
278.1660162
0
ARC
8
DEFAULT_255_1_234
10
19.9311766
20
62.6044515
40
0.3053425
50
278.0231263
51
290.625471
0
ARC
8
DEFAULT_255_1_234
10
19.9659453
20
62.5117025
40
0.206291
50
290.6619762
51
307.0370976
0
ARC
8
DEFAULT_255_1_234
10
19.9959842
20
62.4748504
40
0.1587906
50
306.3943566
51
355.3030547
0
ARC
8
DEFAULT_255_1_234
10
19.9447774
20
62.4825113
40
0.2104809
50
354.3660432
51
0.0698737
0
ARC
8
DEFAULT_255_1_234
10
19.9590119
20
62.4847617
40
0.1962563
50
359.417946
51
16.1971788
0
ARC
8
DEFAULT_255_1_234
10
20.0045429
20
62.4972418
40
0.149053
50
16.4723299
51
52.6262157
0
ARC
8
DEFAULT_255_1_234
10
19.9224483
20
62.3888433
40
0.2850296
50
52.7386432
51
62.4979148
0
ARC
8
DEFAULT_255_1_234
10
19.783956
20
62.1282283
40
0.5801521
50
62.2515216
51
68.1220564
0
ARC
8
DEFAULT_255_1_234
10
19.6119471
20
61.7054872
40
1.0365451
50
68.0062803
51
71.8053402
0
ARC
8
DEFAULT_255_1_234
10
19.4323843
20
61.1669758
40
1.6042013
50
71.7183119
51
73.9258742
0
LINE
8
DEFAULT_255_2_778
10
9.3927417
20
60.7219082
11
10.7156417
21
60.7219082
0
LINE
8
DEFAULT_255_2_778
10
10.7156417
20
60.7219082
11
10.7156417
21
51.4615082
0
LINE
8
DEFAULT_255_2_778
10
9.3926834
20
51.4614333
11
12.0384834
21
51.4614333
0
LINE
8
DEFAULT_255_2_778
10
12.0384834
20
51.4614333
11
12.0384834
21
46.1697333
0
LINE
8
DEFAULT_255_2_778
10
12.0384834
20
46.1697333
11
9.3926834
21
46.1697333
0
LINE
8
DEFAULT_255_2_778
10
9.3926834
20
46.1697333
11
9.3926834
21
51.4614333
0
ARC
8
DEFAULT_255_2_778_1
10
13.1922591
20
46.272177
40
4.816461
50
120.9442904
51
122.351755
0
ARC
8
DEFAULT_255_2_778_1
10
12.7456523
20
46.9758039
40
3.9830657
50
122.3407904
51
124.1946752
0
ARC
8
DEFAULT_255_2_778_1
10
12.3057464
20
47.6223306
40
3.2010724
50
124.1855758
51
126.4338849
0
ARC
8
DEFAULT_255_2_778_1
10
11.9198129
20
48.1450611
40
2.5513094
50
126.4326926
51
128.8877368
0
ARC
8
DEFAULT_255_2_778_1
10
11.5849968
20
48.5594658
40
2.0185498
50
128.8749205
51
131.8726567
0
ARC
8
DEFAULT_255_2_778_1
10
11.2878677
20
48.8904854
40
1.5737356
50
131.8616166
51
135.4168838
0
ARC
8
DEFAULT_255_2_778_1
10
11.025068
20
49.1486765
40
1.2053256
50
135.3893975
51
139.9687014
0
ARC
8
DEFAULT_255_2_778_1
10
10.7921889
20
49.3435102
40
0.9016937
50
139.9301659
51
145.9260426
0
ARC
8
DEFAULT_255_2_778_1
10
10.596054
20
49.4755104
40
0.6652776
50
145.8787362
51
153.8146208
0
ARC
8
DEFAULT_255_2_778_1
10
10.4439553
20
49.5498797
40
0.4959714
50
153.770634
51
164.3484794
0
ARC
8
DEFAULT_255_2_778_1
10
10.3426387
20
49.5780786
40
0.3908039
50
164.3220276
51
179.8083066
0
ARC
8
DEFAULT_255_2_778_1
10
10.3636789
20
49.586215
40
0.4118985
50
180.9499449
51
213.8111542
0
ARC
8
DEFAULT_255_2_778_1
10
10.6395828
20
49.7557896
40
0.73561
50
212.8271214
51
224.258472
0
ARC
8
DEFAULT_255_2_778_1
10
11.0224335
20
50.1251236
40
1.267567
50
224.1376218
51
231.4508261
0
ARC
8
DEFAULT_255_2_778_1
10
11.6651195
20
50.9281168
40
2.2960809
50
231.3955893
51
236.1256478
0
ARC
8
DEFAULT_255_2_778_1
10
13.4974223
20
53.6746293
40
5.5976905
50
236.2233172
51
239.1314682
0
ARC
8
DEFAULT_255_2_778_1
10
25.447327
20
73.4023568
40
28.6623793
50
238.8606853
51
239.0711101
0
ARC
8
DEFAULT_255_2_778_1
10
6.2751281
20
41.3052653
40
8.7248518
50
57.2420924
51
59.4062964
0
ARC
8
DEFAULT_255_2_778_1
10
9.5028241
20
46.3362102
40
2.747542
50
52.8289294
51
57.079028
0
ARC
8
DEFAULT_255_2_778_1
10
10.2774783
20
47.3565488
40
1.466457
50
46.3041868
51
52.8596521
0
ARC
8
DEFAULT_255_2_778_1
10
10.7097073
20
47.8066842
40
0.8424061
50
36.2174211
51
46.4090895
0
ARC
8
DEFAULT_255_2_778_1
10
10.9942088
20
48.0115128
40
0.4918609
50
17.400375
51
36.5489745
0
ARC
8
DEFAULT_255_2_778_1
10
11.1082994
20
48.0513754
40
0.3710912
50
0.0676858
51
16.7951297
0
ARC
8
DEFAULT_255_2_778_1
10
11.0872613
20
48.0532428
40
0.3921317
50
343.8035191
51
359.7912046
0
ARC
8
DEFAULT_255_2_778_1
10
10.9809912
20
48.0837167
40
0.5026844
50
333.2506233
51
343.8465691
0
ARC
8
DEFAULT_255_2_778_1
10
10.8271757
20
48.1604313
40
0.6745679
50
325.6600948
51
333.3122657
0
ARC
8
DEFAULT_255_2_778_1
10
10.6317344
20
48.2932296
40
0.9108568
50
319.7560915
51
325.6976089
0
ARC
8
DEFAULT_255_2_778_1
10
10.403599
20
48.4850002
40
1.2088854
50
315.4577584
51
319.8037947
0
ARC
8
DEFAULT_255_2_778_1
10
10.1402127
20
48.7438507
40
1.5781764
50
311.7298824
51
315.4670864
0
ARC
8
DEFAULT_255_2_778_1
10
9.8311879
20
49.0894074
40
2.0417554
50
308.723055
51
311.7470879
0
ARC
8
DEFAULT_255_2_778_1
10
9.476989
20
49.5306492
40
2.6075745
50
306.1165163
51
308.7300151
0
ARC
8
DEFAULT_255_2_778_1
10
9.0740091
20
50.0819523
40
3.2904564
50
303.9559446
51
306.1266333
0
ARC
8
DEFAULT_255_2_778_1
10
8.6624432
20
50.691215
40
4.0257023
50
302.3733397
51
303.9712246
0
ARC
8
DEFAULT_255_2_778_1
10
8.2428347
20
51.3527058
40
4.8090549
50
300.9434827
51
302.3758078
0
LINE
8
DEFAULT_255_2_778
10
10.7156417
20
46.1698082
11
10.7156417
21
36.9094082
0
LINE
8
DEFAULT_255_2_778
10
10.7156417
20
36.9094082
11
9.3927417
21
36.9094082
0
LINE
8
DEFAULT_255_1_234
10
4.1847364
20
61.3723211
11
4.3839235
21
61.3723211
0
LINE
8
DEFAULT_255_1_234
10
4.3839235
20
61.3723211
11
4.7662342
21
60.4181506
0
LINE
8
DEFAULT_255_1_234
10
4.7662342
20
60.4181506
11
5.148545
21
61.3723211
0
LINE
8
DEFAULT_255_1_234
10
5.148545
20
61.3723211
11
5.3485353
21
61.3723211
0
LINE
8
DEFAULT_255_1_234
10
5.3485353
20
61.3723211
11
5.3485353
21
60.2029
0
LINE
8
DEFAULT_255_1_234
10
5.3485353
20
60.2029
11
5.1943259
21
60.2029
0
LINE
8
DEFAULT_255_1_234
10
5.1943259
20
60.2029
11
5.1943259
21
60.6582996
0
LINE
8
DEFAULT_255_1_234
10
5.1943259
20
60.6582996
11
5.208783
21
61.1498419
0
LINE
8
DEFAULT_255_1_234
10
5.208783
20
61.1498419
11
4.8248659
21
60.2029
0
LINE
8
DEFAULT_255_1_234
10
4.8248659
20
60.2029
11
4.7067994
21
60.2029
0
LINE
8
DEFAULT_255_1_234
10
4.7067994
20
60.2029
11
4.3236854
21
61.1474324
0
LINE
8
DEFAULT_255_1_234
10
4.3236854
20
61.1474324
11
4.3389458
21
60.6582996
0
LINE
8
DEFAULT_255_1_234
10
4.3389458
20
60.6582996
11
4.3389458
21
60.2029
0
LINE
8
DEFAULT_255_1_234
10
4.3389458
20
60.2029
11
4.1847364
21
60.2029
0
LINE
8
DEFAULT_255_1_234
10
4.1847364
20
60.2029
11
4.1847364
21
61.3723211
0
LINE
8
DEFAULT_255_1_234
10
6.3155565
20
60.8944327
11
6.3155565
21
60.7016709
0
LINE
8
DEFAULT_255_1_234
10
5.5774398
20
60.6815916
11
5.5774398
21
60.8799755
0
LINE
8
DEFAULT_255_1_234
10
6.1669694
20
60.6615123
11
6.1669694
21
60.9048739
0
LINE
8
DEFAULT_255_1_234
10
5.726027
20
60.9161184
11
5.726027
21
60.6783789
0
ARC
8
DEFAULT_255_1_234
10
5.0908455
20
60.6967805
40
1.2247208
50
353.8441951
51
0.2287902
0
ARC
8
DEFAULT_255_1_234
10
5.5547959
20
60.6449806
40
0.7578929
50
344.4934747
51
353.9765454
0
ARC
8
DEFAULT_255_1_234
10
5.8540549
20
60.5598981
40
0.4467846
50
329.2803592
51
344.7472793
0
ARC
8
DEFAULT_255_1_234
10
5.9533374
20
60.5054018
40
0.3336173
50
324.9352394
51
328.6160465
0
ARC
8
DEFAULT_255_1_234
10
5.9910482
20
60.4790427
40
0.2876076
50
280.580143
51
324.9173126
0
ARC
8
DEFAULT_255_1_234
10
5.9509275
20
60.6461099
40
0.4592847
50
269.5977311
51
281.6734359
0
ARC
8
DEFAULT_255_1_234
10
5.9437181
20
60.6341173
40
0.4472986
50
256.6228859
51
270.51044
0
ARC
8
DEFAULT_255_1_234
10
5.9035159
20
60.4792877
40
0.2873874
50
215.8618325
51
257.2788573
0
ARC
8
DEFAULT_255_1_234
10
6.005619
20
60.5477977
40
0.4102928
50
197.9693508
51
215.2623606
0
ARC
8
DEFAULT_255_1_234
10
6.2541306
20
60.6316709
40
0.6725652
50
187.8816417
51
198.2346507
0
ARC
8
DEFAULT_255_1_234
10
6.6499514
20
60.6888079
40
1.0724845
50
180.8976217
51
188.0055519
0
ARC
8
DEFAULT_255_1_234
10
6.9299702
20
60.6991777
40
1.3526448
50
180.7449369
51
181.1510016
0
ARC
8
DEFAULT_255_1_234
10
6.7722431
20
60.8848042
40
1.1948131
50
173.7675579
51
180.231553
0
ARC
8
DEFAULT_255_1_234
10
6.3204578
20
60.9358666
40
0.7401564
50
164.3058563
51
173.9002247
0
ARC
8
DEFAULT_255_1_234
10
6.0292647
20
61.0197656
40
0.4371288
50
148.7922025
51
164.568378
0
ARC
8
DEFAULT_255_1_234
10
5.9341099
20
61.0728929
40
0.3282386
50
144.5883898
51
148.1176286
0
ARC
8
DEFAULT_255_1_234
10
5.8997997
20
61.0968315
40
0.2864044
50
101.6440918
51
144.514236
0
ARC
8
DEFAULT_255_1_234
10
5.9423064
20
60.9279069
40
0.4604934
50
89.5284041
51
102.5819763
0
ARC
8
DEFAULT_255_1_234
10
5.9502151
20
60.9240018
40
0.464401
50
77.0437873
51
90.5081339
0
ARC
8
DEFAULT_255_1_234
10
5.9904153
20
61.0882615
40
0.2953195
50
48.2778575
51
77.4994676
0
ARC
8
DEFAULT_255_1_234
10
5.9976784
20
61.1011746
40
0.2808655
50
36.3142134
51
47.6305865
0
ARC
8
DEFAULT_255_1_234
10
5.9108091
20
61.0426515
40
0.3855453
50
18.2931786
51
35.6769206
0
ARC
8
DEFAULT_255_1_234
10
5.656485
20
60.9553593
40
0.654423
50
8.024666
51
18.5605216
0
ARC
8
DEFAULT_255_1_234
10
5.240177
20
60.8938792
40
1.0752407
50
1.1274072
51
8.1718305
0
ARC
8
DEFAULT_255_1_234
10
4.9165961
20
60.8811885
40
1.3990231
50
0.5424119
51
1.3863029
0
ARC
8
DEFAULT_255_1_234
10
5.0987338
20
60.9084342
40
1.0682415
50
359.8090433
51
4.9407866
0
ARC
8
DEFAULT_255_1_234
10
5.5197352
20
60.9460113
40
0.6455691
50
4.8362157
51
12.2904523
0
ARC
8
DEFAULT_255_1_234
10
5.7952467
20
61.0073965
40
0.3633074
50
12.0805627
51
23.8173984
0
ARC
8
DEFAULT_255_1_234
10
5.9126173
20
61.0570919
40
0.2358723
50
24.2871213
51
31.3935614
0
ARC
8
DEFAULT_255_1_234
10
5.965087
20
61.0914233
40
0.1732111
50
30.7407893
51
82.4657128
0
ARC
8
DEFAULT_255_1_234
10
5.9471004
20
61.0030691
40
0.263235
50
81.1060089
51
90.2184952
0
ARC
8
DEFAULT_255_1_234
10
5.9435303
20
61.0288924
40
0.2374236
50
89.3806855
51
105.6762551
0
ARC
8
DEFAULT_255_1_234
10
5.9251934
20
61.0955567
40
0.1682847
50
105.7981136
51
149.7388061
0
ARC
8
DEFAULT_255_1_234
10
6.0316012
20
61.031595
40
0.2924306
50
149.4208916
51
163.6286378
0
ARC
8
DEFAULT_255_1_234
10
6.24069
20
60.967825
40
0.5110213
50
163.3763315
51
172.1410975
0
ARC
8
DEFAULT_255_1_234
10
6.5707619
20
60.9205518
40
0.8444586
50
172.0259487
51
178.0703232
0
ARC
8
DEFAULT_255_1_234
10
6.8737709
20
60.9061906
40
1.1477868
50
177.8631668
51
179.5044149
0
ARC
8
DEFAULT_255_1_234
10
6.7665113
20
60.6747389
40
1.0404907
50
179.7995573
51
185.2460446
0
ARC
8
DEFAULT_255_1_234
10
6.3622152
20
60.6364513
40
0.6343885
50
185.1411642
51
193.0079639
0
ARC
8
DEFAULT_255_1_234
10
6.0978625
20
60.5739641
40
0.3627568
50
192.7897626
51
205.2507664
0
ARC
8
DEFAULT_255_1_234
10
5.9932172
20
60.5272415
40
0.2481908
50
205.8005384
51
211.2537509
0
ARC
8
DEFAULT_255_1_234
10
5.9408612
20
60.492158
40
0.1852521
50
210.3789793
51
238.4008143
0
ARC
8
DEFAULT_255_1_234
10
5.9389134
20
60.4968376
40
0.1882621
50
239.6520629
51
265.9793761
0
ARC
8
DEFAULT_255_1_234
10
5.9474334
20
60.5640427
40
0.2559272
50
265.1315437
51
270.060332
0
ARC
8
DEFAULT_255_1_234
10
5.9503113
20
60.5316534
40
0.2235528
50
269.3314664
51
287.2178029
0
ARC
8
DEFAULT_255_1_234
10
5.9640965
20
60.4813279
40
0.1714108
50
287.7958004
51
329.080874
0
ARC
8
DEFAULT_255_1_234
10
5.8683422
20
60.541093
40
0.2842745
50
328.6634704
51
343.3325132
0
ARC
8
DEFAULT_255_1_234
10
5.6510442
20
60.6087863
40
0.5118644
50
343.0499468
51
351.9393422
0
ARC
8
DEFAULT_255_1_234
10
5.3043742
20
60.6598949
40
0.8622784
50
351.8069023
51
357.7959224
0
ARC
8
DEFAULT_255_1_234
10
4.9808298
20
60.6766721
40
1.1862365
50
357.5871873
51
359.2677531
0
LINE
8
DEFAULT_255_1_234
10
6.9468512
20
61.1715276
11
6.9468512
21
60.8301788
0
LINE
8
DEFAULT_255_1_234
10
6.9468512
20
60.8301788
11
7.2729397
21
60.8301788
0
LINE
8
DEFAULT_255_1_234
10
7.2729397
20
60.8301788
11
7.2729397
21
60.6896233
0
LINE
8
DEFAULT_255_1_234
10
7.2729397
20
60.6896233
11
6.9468512
21
60.6896233
0
LINE
8
DEFAULT_255_1_234
10
6.9468512
20
60.6896233
11
6.9468512
21
60.3201634
0
LINE
8
DEFAULT_255_1_234
10
6.9468512
20
60.3201634
11
6.7974608
21
60.3201634
0
LINE
8
DEFAULT_255_1_234
10
6.7974608
20
60.3201634
11
6.7974608
21
60.6896233
0
LINE
8
DEFAULT_255_1_234
10
6.7974608
20
60.6896233
11
6.4713723
21
60.6896233
0
LINE
8
DEFAULT_255_1_234
10
6.4713723
20
60.6896233
11
6.4713723
21
60.8301788
0
LINE
8
DEFAULT_255_1_234
10
6.4713723
20
60.8301788
11
6.7974608
21
60.8301788
0
LINE
8
DEFAULT_255_1_234
10
6.7974608
20
60.8301788
11
6.7974608
21
61.1715276
0
LINE
8
DEFAULT_255_1_234
10
6.7974608
20
61.1715276
11
6.9468512
21
61.1715276
0
LINE
8
DEFAULT_255_1_234
10
5.0947293
20
4.6404
11
4.9830881
21
4.9456061
0
LINE
8
DEFAULT_255_1_234
10
4.9830881
20
4.9456061
11
4.4931521
21
4.9456061
0
LINE
8
DEFAULT_255_1_234
10
4.4931521
20
4.9456061
11
4.3831173
21
4.6404
0
LINE
8
DEFAULT_255_1_234
10
4.3831173
20
4.6404
11
4.2240889
21
4.6404
0
LINE
8
DEFAULT_255_1_234
10
4.2240889
20
4.6404
11
4.6706535
21
5.8098211
0
LINE
8
DEFAULT_255_1_234
10
4.6706535
20
5.8098211
11
4.8055867
21
5.8098211
0
LINE
8
DEFAULT_255_1_234
10
4.8055867
20
5.8098211
11
5.2529545
21
4.6404
0
LINE
8
DEFAULT_255_1_234
10
5.2529545
20
4.6404
11
5.0947293
21
4.6404
0
LINE
8
DEFAULT_255_1_234
10
4.7381201
20
5.6194689
11
4.5397362
21
5.0725075
0
LINE
8
DEFAULT_255_1_234
10
4.5397362
20
5.0725075
11
4.9373072
21
5.0725075
0
LINE
8
DEFAULT_255_1_234
10
4.9373072
20
5.0725075
11
4.7381201
21
5.6194689
0
LINE
8
DEFAULT_255_1_234
10
6.0649633
20
5.8098211
11
6.2199758
21
5.8098211
0
LINE
8
DEFAULT_255_1_234
10
6.2199758
20
5.8098211
11
6.2199758
21
5.014679
0
LINE
8
DEFAULT_255_1_234
10
5.8360587
20
4.6259429
11
5.7950969
21
4.6243365
0
LINE
8
DEFAULT_255_1_234
10
5.3734306
20
5.0130727
11
5.3734306
21
5.8098211
0
LINE
8
DEFAULT_255_1_234
10
5.3734306
20
5.8098211
11
5.5260336
21
5.8098211
0
LINE
8
DEFAULT_255_1_234
10
5.5260336
20
5.8098211
11
5.5260336
21
5.0178917
0
LINE
8
DEFAULT_255_1_234
10
6.0649633
20
5.0170885
11
6.0649633
21
5.8098211
0
ARC
8
DEFAULT_255_1_234
10
5.7846657
20
5.0126928
40
0.4353147
50
343.0898354
51
0.2614217
0
ARC
8
DEFAULT_255_1_234
10
5.8675058
20
4.9895837
40
0.3493402
50
315.3345598
51
342.7641223
0
ARC
8
DEFAULT_255_1_234
10
5.8451507
20
5.0127682
40
0.3815385
50
284.6606969
51
315.2182466
0
ARC
8
DEFAULT_255_1_234
10
5.799622
20
5.1673755
40
0.5426573
50
273.8500273
51
285.1797701
0
ARC
8
DEFAULT_255_1_234
10
5.790827
20
5.2015475
40
0.5772268
50
257.6317484
51
270.4238298
0
ARC
8
DEFAULT_255_1_234
10
5.7483468
20
5.0194198
40
0.3902347
50
230.6087562
51
257.9964012
0
ARC
8
DEFAULT_255_1_234
10
5.7351471
20
4.9987802
40
0.3659186
50
227.7440991
51
230.1551448
0
ARC
8
DEFAULT_255_1_234
10
5.7217302
20
4.9826471
40
0.3449568
50
189.2524587
51
227.5916061
0
ARC
8
DEFAULT_255_1_234
10
5.8738989
20
5.0154013
40
0.5004737
50
180.2665968
51
190.1525252
0
ARC
8
DEFAULT_255_1_234
10
5.8961008
20
5.0150918
40
0.3700778
50
179.5665184
51
191.9952995
0
ARC
8
DEFAULT_255_1_234
10
5.7733115
20
4.9877043
40
0.2442808
50
191.6974072
51
215.1404042
0
ARC
8
DEFAULT_255_1_234
10
5.749503
20
4.9735108
40
0.2166522
50
215.6950207
51
224.8513522
0
ARC
8
DEFAULT_255_1_234
10
5.7550773
20
4.9814697
40
0.2262237
50
225.2846858
51
255.0111758
0
ARC
8
DEFAULT_255_1_234
10
5.7874733
20
5.0928455
40
0.3421979
50
254.5944985
51
267.9129803
0
ARC
8
DEFAULT_255_1_234
10
5.7949214
20
5.2012903
40
0.4508556
50
267.4689655
51
270.0223026
0
ARC
8
DEFAULT_255_1_234
10
5.7979359
20
5.1423849
40
0.3919604
50
269.5849941
51
281.1843768
0
ARC
8
DEFAULT_255_1_234
10
5.8258124
20
5.0071059
40
0.2538457
50
280.9344262
51
300.9743589
0
ARC
8
DEFAULT_255_1_234
10
5.8470729
20
4.9679688
40
0.2093566
50
301.4980046
51
315.1466847
0
ARC
8
DEFAULT_255_1_234
10
5.8326268
20
4.9798236
40
0.2279656
50
315.5952539
51
345.6678731
0
ARC
8
DEFAULT_255_1_234
10
5.7206784
20
5.0110009
40
0.3441564
50
345.2524969
51
358.6304371
0
ARC
8
DEFAULT_255_1_234
10
5.6189138
20
5.0169916
40
0.4460494
50
358.1735671
51
0.0124524
0
LINE
8
DEFAULT_255_1_234
10
6.5629311
20
5.8098211
11
6.8448451
21
5.3616501
0
LINE
8
DEFAULT_255_1_234
10
6.8448451
20
5.3616501
11
7.1251527
21
5.8098211
0
LINE
8
DEFAULT_255_1_234
10
7.1251527
20
5.8098211
11
7.30667
21
5.8098211
0
LINE
8
DEFAULT_255_1_234
10
7.30667
20
5.8098211
11
6.9372101
21
5.2299296
0
LINE
8
DEFAULT_255_1_234
10
6.9372101
20
5.2299296
11
7.3155049
21
4.6404
0
LINE
8
DEFAULT_255_1_234
10
7.3155049
20
4.6404
11
7.1323813
21
4.6404
0
LINE
8
DEFAULT_255_1_234
10
7.1323813
20
4.6404
11
6.8448451
21
5.0966027
0
LINE
8
DEFAULT_255_1_234
10
6.8448451
20
5.0966027
11
6.5557025
21
4.6404
0
LINE
8
DEFAULT_255_1_234
10
6.5557025
20
4.6404
11
6.373382
21
4.6404
0
LINE
8
DEFAULT_255_1_234
10
6.373382
20
4.6404
11
6.7524801
21
5.2299296
0
LINE
8
DEFAULT_255_1_234
10
6.7524801
20
5.2299296
11
6.3822169
21
5.8098211
0
LINE
8
DEFAULT_255_1_234
10
6.3822169
20
5.8098211
11
6.5629311
21
5.8098211
0
LINE
8
DEFAULT_255_1_234
10
7.94439
20
5.8154433
11
7.94439
21
4.6404
0
LINE
8
DEFAULT_255_1_234
10
7.94439
20
4.6404
11
7.7949997
21
4.6404
0
LINE
8
DEFAULT_255_1_234
10
7.7949997
20
4.6404
11
7.7949997
21
5.6307133
0
LINE
8
DEFAULT_255_1_234
10
7.7949997
20
5.6307133
11
7.4954159
21
5.5206785
0
LINE
8
DEFAULT_255_1_234
10
7.4954159
20
5.5206785
11
7.4954159
21
5.6556117
0
LINE
8
DEFAULT_255_1_234
10
7.4954159
20
5.6556117
11
7.921098
21
5.8154433
0
LINE
8
DEFAULT_255_1_234
10
7.921098
20
5.8154433
11
7.94439
21
5.8154433
0
LINE
8
DEFAULT_255_1_234
10
5.0947293
20
12.5779
11
4.9830881
21
12.8831061
0
LINE
8
DEFAULT_255_1_234
10
4.9830881
20
12.8831061
11
4.4931521
21
12.8831061
0
LINE
8
DEFAULT_255_1_234
10
4.4931521
20
12.8831061
11
4.3831173
21
12.5779
0
LINE
8
DEFAULT_255_1_234
10
4.3831173
20
12.5779
11
4.2240889
21
12.5779
0
LINE
8
DEFAULT_255_1_234
10
4.2240889
20
12.5779
11
4.6706535
21
13.7473211
0
LINE
8
DEFAULT_255_1_234
10
4.6706535
20
13.7473211
11
4.8055867
21
13.7473211
0
LINE
8
DEFAULT_255_1_234
10
4.8055867
20
13.7473211
11
5.2529545
21
12.5779
0
LINE
8
DEFAULT_255_1_234
10
5.2529545
20
12.5779
11
5.0947293
21
12.5779
0
LINE
8
DEFAULT_255_1_234
10
4.7381201
20
13.5569689
11
4.5397362
21
13.0100075
0
LINE
8
DEFAULT_255_1_234
10
4.5397362
20
13.0100075
11
4.9373072
21
13.0100075
0
LINE
8
DEFAULT_255_1_234
10
4.9373072
20
13.0100075
11
4.7381201
21
13.5569689
0
LINE
8
DEFAULT_255_1_234
10
6.0649633
20
13.7473211
11
6.2199758
21
13.7473211
0
LINE
8
DEFAULT_255_1_234
10
6.2199758
20
13.7473211
11
6.2199758
21
12.952179
0
LINE
8
DEFAULT_255_1_234
10
5.8360587
20
12.5634429
11
5.7950969
21
12.5618365
0
LINE
8
DEFAULT_255_1_234
10
5.3734306
20
12.9505727
11
5.3734306
21
13.7473211
0
LINE
8
DEFAULT_255_1_234
10
5.3734306
20
13.7473211
11
5.5260336
21
13.7473211
0
LINE
8
DEFAULT_255_1_234
10
5.5260336
20
13.7473211
11
5.5260336
21
12.9553917
0
LINE
8
DEFAULT_255_1_234
10
6.0649633
20
12.9545885
11
6.0649633
21
13.7473211
0
ARC
8
DEFAULT_255_1_234
10
5.7846657
20
12.9501928
40
0.4353147
50
343.0898354
51
0.2614217
0
ARC
8
DEFAULT_255_1_234
10
5.8675058
20
12.9270837
40
0.3493402
50
315.3345598
51
342.7641223
0
ARC
8
DEFAULT_255_1_234
10
5.8451507
20
12.9502682
40
0.3815385
50
284.6606969
51
315.2182466
0
ARC
8
DEFAULT_255_1_234
10
5.799622
20
13.1048755
40
0.5426573
50
273.8500273
51
285.1797701
0
ARC
8
DEFAULT_255_1_234
10
5.790827
20
13.1390475
40
0.5772268
50
257.6317484
51
270.4238298
0
ARC
8
DEFAULT_255_1_234
10
5.7483468
20
12.9569198
40
0.3902347
50
230.6087562
51
257.9964012
0
ARC
8
DEFAULT_255_1_234
10
5.7351471
20
12.9362802
40
0.3659186
50
227.7440991
51
230.1551448
0
ARC
8
DEFAULT_255_1_234
10
5.7217302
20
12.9201471
40
0.3449568
50
189.2524587
51
227.5916061
0
ARC
8
DEFAULT_255_1_234
10
5.8738989
20
12.9529013
40
0.5004737
50
180.2665968
51
190.1525252
0
ARC
8
DEFAULT_255_1_234
10
5.8961008
20
12.9525918
40
0.3700778
50
179.5665184
51
191.9952995
0
ARC
8
DEFAULT_255_1_234
10
5.7733115
20
12.9252043
40
0.2442808
50
191.6974072
51
215.1404042
0
ARC
8
DEFAULT_255_1_234
10
5.749503
20
12.9110108
40
0.2166522
50
215.6950207
51
224.8513522
0
ARC
8
DEFAULT_255_1_234
10
5.7550773
20
12.9189697
40
0.2262237
50
225.2846858
51
255.0111758
0
ARC
8
DEFAULT_255_1_234
10
5.7874733
20
13.0303455
40
0.3421979
50
254.5944985
51
267.9129803
0
ARC
8
DEFAULT_255_1_234
10
5.7949214
20
13.1387903
40
0.4508556
50
267.4689655
51
270.0223026
0
ARC
8
DEFAULT_255_1_234
10
5.7979359
20
13.0798849
40
0.3919604
50
269.5849941
51
281.1843768
0
ARC
8
DEFAULT_255_1_234
10
5.8258124
20
12.9446059
40
0.2538457
50
280.9344262
51
300.9743589
0
ARC
8
DEFAULT_255_1_234
10
5.8470729
20
12.9054688
40
0.2093566
50
301.4980046
51
315.1466847
0
ARC
8
DEFAULT_255_1_234
10
5.8326268
20
12.9173236
40
0.2279656
50
315.5952539
51
345.6678731
0
ARC
8
DEFAULT_255_1_234
10
5.7206784
20
12.9485009
40
0.3441564
50
345.2524969
51
358.6304371
0
ARC
8
DEFAULT_255_1_234
10
5.6189138
20
12.9544916
40
0.4460494
50
358.1735671
51
0.0124524
0
LINE
8
DEFAULT_255_1_234
10
6.5629311
20
13.7473211
11
6.8448451
21
13.2991501
0
LINE
8
DEFAULT_255_1_234
10
6.8448451
20
13.2991501
11
7.1251527
21
13.7473211
0
LINE
8
DEFAULT_255_1_234
10
7.1251527
20
13.7473211
11
7.30667
21
13.7473211
0
LINE
8
DEFAULT_255_1_234
10
7.30667
20
13.7473211
11
6.9372101
21
13.1674296
0
LINE
8
DEFAULT_255_1_234
10
6.9372101
20
13.1674296
11
7.3155049
21
12.5779
0
LINE
8
DEFAULT_255_1_234
10
7.3155049
20
12.5779
11
7.1323813
21
12.5779
0
LINE
8
DEFAULT_255_1_234
10
7.1323813
20
12.5779
11
6.8448451
21
13.0341027
0
LINE
8
DEFAULT_255_1_234
10
6.8448451
20
13.0341027
11
6.5557025
21
12.5779
0
LINE
8
DEFAULT_255_1_234
10
6.5557025
20
12.5779
11
6.373382
21
12.5779
0
LINE
8
DEFAULT_255_1_234
10
6.373382
20
12.5779
11
6.7524801
21
13.1674296
0
LINE
8
DEFAULT_255_1_234
10
6.7524801
20
13.1674296
11
6.3822169
21
13.7473211
0
LINE
8
DEFAULT_255_1_234
10
6.3822169
20
13.7473211
11
6.5629311
21
13.7473211
0
LINE
8
DEFAULT_255_1_234
10
7.94439
20
13.7529433
11
7.94439
21
12.5779
0
LINE
8
DEFAULT_255_1_234
10
7.94439
20
12.5779
11
7.7949997
21
12.5779
0
LINE
8
DEFAULT_255_1_234
10
7.7949997
20
12.5779
11
7.7949997
21
13.5682133
0
LINE
8
DEFAULT_255_1_234
10
7.7949997
20
13.5682133
11
7.4954159
21
13.4581785
0
LINE
8
DEFAULT_255_1_234
10
7.4954159
20
13.4581785
11
7.4954159
21
13.5931117
0
LINE
8
DEFAULT_255_1_234
10
7.4954159
20
13.5931117
11
7.921098
21
13.7529433
0
LINE
8
DEFAULT_255_1_234
10
7.921098
20
13.7529433
11
7.94439
21
13.7529433
0
LINE
8
DEFAULT_255_1_234
10
5.0947293
20
20.5154
11
4.9830881
21
20.8206061
0
LINE
8
DEFAULT_255_1_234
10
4.9830881
20
20.8206061
11
4.4931521
21
20.8206061
0
LINE
8
DEFAULT_255_1_234
10
4.4931521
20
20.8206061
11
4.3831173
21
20.5154
0
LINE
8
DEFAULT_255_1_234
10
4.3831173
20
20.5154
11
4.2240889
21
20.5154
0
LINE
8
DEFAULT_255_1_234
10
4.2240889
20
20.5154
11
4.6706535
21
21.6848211
0
LINE
8
DEFAULT_255_1_234
10
4.6706535
20
21.6848211
11
4.8055867
21
21.6848211
0
LINE
8
DEFAULT_255_1_234
10
4.8055867
20
21.6848211
11
5.2529545
21
20.5154
0
LINE
8
DEFAULT_255_1_234
10
5.2529545
20
20.5154
11
5.0947293
21
20.5154
0
LINE
8
DEFAULT_255_1_234
10
4.7381201
20
21.4944689
11
4.5397362
21
20.9475075
0
LINE
8
DEFAULT_255_1_234
10
4.5397362
20
20.9475075
11
4.9373072
21
20.9475075
0
LINE
8
DEFAULT_255_1_234
10
4.9373072
20
20.9475075
11
4.7381201
21
21.4944689
0
LINE
8
DEFAULT_255_1_234
10
6.0649633
20
21.6848211
11
6.2199758
21
21.6848211
0
LINE
8
DEFAULT_255_1_234
10
6.2199758
20
21.6848211
11
6.2199758
21
20.889679
0
LINE
8
DEFAULT_255_1_234
10
5.8360587
20
20.5009429
11
5.7950969
21
20.4993365
0
LINE
8
DEFAULT_255_1_234
10
5.3734306
20
20.8880727
11
5.3734306
21
21.6848211
0
LINE
8
DEFAULT_255_1_234
10
5.3734306
20
21.6848211
11
5.5260336
21
21.6848211
0
LINE
8
DEFAULT_255_1_234
10
5.5260336
20
21.6848211
11
5.5260336
21
20.8928917
0
LINE
8
DEFAULT_255_1_234
10
6.0649633
20
20.8920885
11
6.0649633
21
21.6848211
0
ARC
8
DEFAULT_255_1_234
10
5.7846657
20
20.8876928
40
0.4353147
50
343.0898354
51
0.2614217
0
ARC
8
DEFAULT_255_1_234
10
5.8675058
20
20.8645837
40
0.3493402
50
315.3345598
51
342.7641223
0
ARC
8
DEFAULT_255_1_234
10
5.8451507
20
20.8877682
40
0.3815385
50
284.6606969
51
315.2182466
0
ARC
8
DEFAULT_255_1_234
10
5.799622
20
21.0423755
40
0.5426573
50
273.8500273
51
285.1797701
0
ARC
8
DEFAULT_255_1_234
10
5.790827
20
21.0765475
40
0.5772268
50
257.6317484
51
270.4238298
0
ARC
8
DEFAULT_255_1_234
10
5.7483468
20
20.8944198
40
0.3902347
50
230.6087562
51
257.9964012
0
ARC
8
DEFAULT_255_1_234
10
5.7351471
20
20.8737802
40
0.3659186
50
227.7440991
51
230.1551448
0
ARC
8
DEFAULT_255_1_234
10
5.7217302
20
20.8576471
40
0.3449568
50
189.2524587
51
227.5916061
0
ARC
8
DEFAULT_255_1_234
10
5.8738989
20
20.8904013
40
0.5004737
50
180.2665968
51
190.1525252
0
ARC
8
DEFAULT_255_1_234
10
5.8961008
20
20.8900918
40
0.3700778
50
179.5665184
51
191.9952995
0
ARC
8
DEFAULT_255_1_234
10
5.7733115
20
20.8627043
40
0.2442808
50
191.6974072
51
215.1404042
0
ARC
8
DEFAULT_255_1_234
10
5.749503
20
20.8485108
40
0.2166522
50
215.6950207
51
224.8513522
0
ARC
8
DEFAULT_255_1_234
10
5.7550773
20
20.8564697
40
0.2262237
50
225.2846858
51
255.0111758
0
ARC
8
DEFAULT_255_1_234
10
5.7874733
20
20.9678455
40
0.3421979
50
254.5944985
51
267.9129803
0
ARC
8
DEFAULT_255_1_234
10
5.7949214
20
21.0762903
40
0.4508556
50
267.4689655
51
270.0223026
0
ARC
8
DEFAULT_255_1_234
10
5.7979359
20
21.0173849
40
0.3919604
50
269.5849941
51
281.1843768
0
ARC
8
DEFAULT_255_1_234
10
5.8258124
20
20.8821059
40
0.2538457
50
280.9344262
51
300.9743589
0
ARC
8
DEFAULT_255_1_234
10
5.8470729
20
20.8429688
40
0.2093566
50
301.4980046
51
315.1466847
0
ARC
8
DEFAULT_255_1_234
10
5.8326268
20
20.8548236
40
0.2279656
50
315.5952539
51
345.6678731
0
ARC
8
DEFAULT_255_1_234
10
5.7206784
20
20.8860009
40
0.3441564
50
345.2524969
51
358.6304371
0
ARC
8
DEFAULT_255_1_234
10
5.6189138
20
20.8919916
40
0.4460494
50
358.1735671
51
0.0124524
0
LINE
8
DEFAULT_255_1_234
10
6.5629311
20
21.6848211
11
6.8448451
21
21.2366501
0
LINE
8
DEFAULT_255_1_234
10
6.8448451
20
21.2366501
11
7.1251527
21
21.6848211
0
LINE
8
DEFAULT_255_1_234
10
7.1251527
20
21.6848211
11
7.30667
21
21.6848211
0
LINE
8
DEFAULT_255_1_234
10
7.30667
20
21.6848211
11
6.9372101
21
21.1049296
0
LINE
8
DEFAULT_255_1_234
10
6.9372101
20
21.1049296
11
7.3155049
21
20.5154
0
LINE
8
DEFAULT_255_1_234
10
7.3155049
20
20.5154
11
7.1323813
21
20.5154
0
LINE
8
DEFAULT_255_1_234
10
7.1323813
20
20.5154
11
6.8448451
21
20.9716027
0
LINE
8
DEFAULT_255_1_234
10
6.8448451
20
20.9716027
11
6.5557025
21
20.5154
0
LINE
8
DEFAULT_255_1_234
10
6.5557025
20
20.5154
11
6.373382
21
20.5154
0
LINE
8
DEFAULT_255_1_234
10
6.373382
20
20.5154
11
6.7524801
21
21.1049296
0
LINE
8
DEFAULT_255_1_234
10
6.7524801
20
21.1049296
11
6.3822169
21
21.6848211
0
LINE
8
DEFAULT_255_1_234
10
6.3822169
20
21.6848211
11
6.5629311
21
21.6848211
0
LINE
8
DEFAULT_255_1_234
10
7.94439
20
21.6904433
11
7.94439
21
20.5154
0
LINE
8
DEFAULT_255_1_234
10
7.94439
20
20.5154
11
7.7949997
21
20.5154
0
LINE
8
DEFAULT_255_1_234
10
7.7949997
20
20.5154
11
7.7949997
21
21.5057133
0
LINE
8
DEFAULT_255_1_234
10
7.7949997
20
21.5057133
11
7.4954159
21
21.3956785
0
LINE
8
DEFAULT_255_1_234
10
7.4954159
20
21.3956785
11
7.4954159
21
21.5306117
0
LINE
8
DEFAULT_255_1_234
10
7.4954159
20
21.5306117
11
7.921098
21
21.6904433
0
LINE
8
DEFAULT_255_1_234
10
7.921098
20
21.6904433
11
7.94439
21
21.6904433
0
LINE
8
DEFAULT_255_1_234
10
5.0947293
20
28.4529
11
4.9830881
21
28.7581061
0
LINE
8
DEFAULT_255_1_234
10
4.9830881
20
28.7581061
11
4.4931521
21
28.7581061
0
LINE
8
DEFAULT_255_1_234
10
4.4931521
20
28.7581061
11
4.3831173
21
28.4529
0
LINE
8
DEFAULT_255_1_234
10
4.3831173
20
28.4529
11
4.2240889
21
28.4529
0
LINE
8
DEFAULT_255_1_234
10
4.2240889
20
28.4529
11
4.6706535
21
29.6223211
0
LINE
8
DEFAULT_255_1_234
10
4.6706535
20
29.6223211
11
4.8055867
21
29.6223211
0
LINE
8
DEFAULT_255_1_234
10
4.8055867
20
29.6223211
11
5.2529545
21
28.4529
0
LINE
8
DEFAULT_255_1_234
10
5.2529545
20
28.4529
11
5.0947293
21
28.4529
0
LINE
8
DEFAULT_255_1_234
10
4.7381201
20
29.4319689
11
4.5397362
21
28.8850075
0
LINE
8
DEFAULT_255_1_234
10
4.5397362
20
28.8850075
11
4.9373072
21
28.8850075
0
LINE
8
DEFAULT_255_1_234
10
4.9373072
20
28.8850075
11
4.7381201
21
29.4319689
0
LINE
8
DEFAULT_255_1_234
10
6.0649633
20
29.6223211
11
6.2199758
21
29.6223211
0
LINE
8
DEFAULT_255_1_234
10
6.2199758
20
29.6223211
11
6.2199758
21
28.827179
0
LINE
8
DEFAULT_255_1_234
10
5.8360587
20
28.4384429
11
5.7950969
21
28.4368365
0
LINE
8
DEFAULT_255_1_234
10
5.3734306
20
28.8255727
11
5.3734306
21
29.6223211
0
LINE
8
DEFAULT_255_1_234
10
5.3734306
20
29.6223211
11
5.5260336
21
29.6223211
0
LINE
8
DEFAULT_255_1_234
10
5.5260336
20
29.6223211
11
5.5260336
21
28.8303917
0
LINE
8
DEFAULT_255_1_234
10
6.0649633
20
28.8295885
11
6.0649633
21
29.6223211
0
ARC
8
DEFAULT_255_1_234
10
5.7846657
20
28.8251928
40
0.4353147
50
343.0898354
51
0.2614217
0
ARC
8
DEFAULT_255_1_234
10
5.8675058
20
28.8020837
40
0.3493402
50
315.3345598
51
342.7641223
0
ARC
8
DEFAULT_255_1_234
10
5.8451507
20
28.8252682
40
0.3815385
50
284.6606969
51
315.2182466
0
ARC
8
DEFAULT_255_1_234
10
5.799622
20
28.9798755
40
0.5426573
50
273.8500273
51
285.1797701
0
ARC
8
DEFAULT_255_1_234
10
5.790827
20
29.0140475
40
0.5772268
50
257.6317484
51
270.4238298
0
ARC
8
DEFAULT_255_1_234
10
5.7483468
20
28.8319198
40
0.3902347
50
230.6087562
51
257.9964012
0
ARC
8
DEFAULT_255_1_234
10
5.7351471
20
28.8112802
40
0.3659186
50
227.7440991
51
230.1551448
0
ARC
8
DEFAULT_255_1_234
10
5.7217302
20
28.7951471
40
0.3449568
50
189.2524587
51
227.5916061
0
ARC
8
DEFAULT_255_1_234
10
5.8738989
20
28.8279013
40
0.5004737
50
180.2665968
51
190.1525252
0
ARC
8
DEFAULT_255_1_234
10
5.8961008
20
28.8275918
40
0.3700778
50
179.5665184
51
191.9952995
0
ARC
8
DEFAULT_255_1_234
10
5.7733115
20
28.8002043
40
0.2442808
50
191.6974072
51
215.1404042
0
ARC
8
DEFAULT_255_1_234
10
5.749503
20
28.7860108
40
0.2166522
50
215.6950207
51
224.8513522
0
ARC
8
DEFAULT_255_1_234
10
5.7550773
20
28.7939697
40
0.2262237
50
225.2846858
51
255.0111758
0
ARC
8
DEFAULT_255_1_234
10
5.7874733
20
28.9053455
40
0.3421979
50
254.5944985
51
267.9129803
0
ARC
8
DEFAULT_255_1_234
10
5.7949214
20
29.0137903
40
0.4508556
50
267.4689655
51
270.0223026
0
ARC
8
DEFAULT_255_1_234
10
5.7979359
20
28.9548849
40
0.3919604
50
269.5849941
51
281.1843768
0
ARC
8
DEFAULT_255_1_234
10
5.8258124
20
28.8196059
40
0.2538457
50
280.9344262
51
300.9743589
0
ARC
8
DEFAULT_255_1_234
10
5.8470729
20
28.7804688
40
0.2093566
50
301.4980046
51
315.1466847
0
ARC
8
DEFAULT_255_1_234
10
5.8326268
20
28.7923236
40
0.2279656
50
315.5952539
51
345.6678731
0
ARC
8
DEFAULT_255_1_234
10
5.7206784
20
28.8235009
40
0.3441564
50
345.2524969
51
358.6304371
0
ARC
8
DEFAULT_255_1_234
10
5.6189138
20
28.8294916
40
0.4460494
50
358.1735671
51
0.0124524
0
LINE
8
DEFAULT_255_1_234
10
6.5629311
20
29.6223211
11
6.8448451
21
29.1741501
0
LINE
8
DEFAULT_255_1_234
10
6.8448451
20
29.1741501
11
7.1251527
21
29.6223211
0
LINE
8
DEFAULT_255_1_234
10
7.1251527
20
29.6223211
11
7.30667
21
29.6223211
0
LINE
8
DEFAULT_255_1_234
10
7.30667
20
29.6223211
11
6.9372101
21
29.0424296
0
LINE
8
DEFAULT_255_1_234
10
6.9372101
20
29.0424296
11
7.3155049
21
28.4529
0
LINE
8
DEFAULT_255_1_234
10
7.3155049
20
28.4529
11
7.1323813
21
28.4529
0
LINE
8
DEFAULT_255_1_234
10
7.1323813
20
28.4529
11
6.8448451
21
28.9091027
0
LINE
8
DEFAULT_255_1_234
10
6.8448451
20
28.9091027
11
6.5557025
21
28.4529
0
LINE
8
DEFAULT_255_1_234
10
6.5557025
20
28.4529
11
6.373382
21
28.4529
0
LINE
8
DEFAULT_255_1_234
10
6.373382
20
28.4529
11
6.7524801
21
29.0424296
0
LINE
8
DEFAULT_255_1_234
10
6.7524801
20
29.0424296
11
6.3822169
21
29.6223211
0
LINE
8
DEFAULT_255_1_234
10
6.3822169
20
29.6223211
11
6.5629311
21
29.6223211
0
LINE
8
DEFAULT_255_1_234
10
7.94439
20
29.6279433
11
7.94439
21
28.4529
0
LINE
8
DEFAULT_255_1_234
10
7.94439
20
28.4529
11
7.7949997
21
28.4529
0
LINE
8
DEFAULT_255_1_234
10
7.7949997
20
28.4529
11
7.7949997
21
29.4432133
0
LINE
8
DEFAULT_255_1_234
10
7.7949997
20
29.4432133
11
7.4954159
21
29.3331785
0
LINE
8
DEFAULT_255_1_234
10
7.4954159
20
29.3331785
11
7.4954159
21
29.4681117
0
LINE
8
DEFAULT_255_1_234
10
7.4954159
20
29.4681117
11
7.921098
21
29.6279433
0
LINE
8
DEFAULT_255_1_234
10
7.921098
20
29.6279433
11
7.94439
21
29.6279433
0
LINE
8
DEFAULT_255_1_234
10
4.2114364
20
37.5598211
11
4.4106235
21
37.5598211
0
LINE
8
DEFAULT_255_1_234
10
4.4106235
20
37.5598211
11
4.7929342
21
36.6056506
0
LINE
8
DEFAULT_255_1_234
10
4.7929342
20
36.6056506
11
5.175245
21
37.5598211
0
LINE
8
DEFAULT_255_1_234
10
5.175245
20
37.5598211
11
5.3752353
21
37.5598211
0
LINE
8
DEFAULT_255_1_234
10
5.3752353
20
37.5598211
11
5.3752353
21
36.3904
0
LINE
8
DEFAULT_255_1_234
10
5.3752353
20
36.3904
11
5.2210259
21
36.3904
0
LINE
8
DEFAULT_255_1_234
10
5.2210259
20
36.3904
11
5.2210259
21
36.8457996
0
LINE
8
DEFAULT_255_1_234
10
5.2210259
20
36.8457996
11
5.235483
21
37.3373419
0
LINE
8
DEFAULT_255_1_234
10
5.235483
20
37.3373419
11
4.8515659
21
36.3904
0
LINE
8
DEFAULT_255_1_234
10
4.8515659
20
36.3904
11
4.7334994
21
36.3904
0
LINE
8
DEFAULT_255_1_234
10
4.7334994
20
36.3904
11
4.3503854
21
37.3349324
0
LINE
8
DEFAULT_255_1_234
10
4.3503854
20
37.3349324
11
4.3656458
21
36.8457996
0
LINE
8
DEFAULT_255_1_234
10
4.3656458
20
36.8457996
11
4.3656458
21
36.3904
0
LINE
8
DEFAULT_255_1_234
10
4.3656458
20
36.3904
11
4.2114364
21
36.3904
0
LINE
8
DEFAULT_255_1_234
10
4.2114364
20
36.3904
11
4.2114364
21
37.5598211
0
LINE
8
DEFAULT_255_1_234
10
6.0972885
20
37.5654433
11
6.0972885
21
36.3904
0
LINE
8
DEFAULT_255_1_234
10
6.0972885
20
36.3904
11
5.9478982
21
36.3904
0
LINE
8
DEFAULT_255_1_234
10
5.9478982
20
36.3904
11
5.9478982
21
37.3807133
0
LINE
8
DEFAULT_255_1_234
10
5.9478982
20
37.3807133
11
5.6483144
21
37.2706785
0
LINE
8
DEFAULT_255_1_234
10
5.6483144
20
37.2706785
11
5.6483144
21
37.4056117
0
LINE
8
DEFAULT_255_1_234
10
5.6483144
20
37.4056117
11
6.0739965
21
37.5654433
0
LINE
8
DEFAULT_255_1_234
10
6.0739965
20
37.5654433
11
6.0972885
21
37.5654433
0
LINE
8
DEFAULT_255_1_234
10
6.857091
20
36.9478026
11
6.857091
21
36.8265234
0
LINE
8
DEFAULT_255_1_234
10
6.857091
20
36.8265234
11
6.4651421
21
36.8265234
0
LINE
8
DEFAULT_255_1_234
10
6.4651421
20
36.8265234
11
6.4651421
21
36.9478026
0
LINE
8
DEFAULT_255_1_234
10
6.4651421
20
36.9478026
11
6.857091
21
36.9478026
0
LINE
8
DEFAULT_255_1_234
10
4.1847364
20
45.4973211
11
4.3839235
21
45.4973211
0
LINE
8
DEFAULT_255_1_234
10
4.3839235
20
45.4973211
11
4.7662342
21
44.5431506
0
LINE
8
DEFAULT_255_1_234
10
4.7662342
20
44.5431506
11
5.148545
21
45.4973211
0
LINE
8
DEFAULT_255_1_234
10
5.148545
20
45.4973211
11
5.3485353
21
45.4973211
0
LINE
8
DEFAULT_255_1_234
10
5.3485353
20
45.4973211
11
5.3485353
21
44.3279
0
LINE
8
DEFAULT_255_1_234
10
5.3485353
20
44.3279
11
5.1943259
21
44.3279
0
LINE
8
DEFAULT_255_1_234
10
5.1943259
20
44.3279
11
5.1943259
21
44.7832996
0
LINE
8
DEFAULT_255_1_234
10
5.1943259
20
44.7832996
11
5.208783
21
45.2748419
0
LINE
8
DEFAULT_255_1_234
10
5.208783
20
45.2748419
11
4.8248659
21
44.3279
0
LINE
8
DEFAULT_255_1_234
10
4.8248659
20
44.3279
11
4.7067994
21
44.3279
0
LINE
8
DEFAULT_255_1_234
10
4.7067994
20
44.3279
11
4.3236854
21
45.2724324
0
LINE
8
DEFAULT_255_1_234
10
4.3236854
20
45.2724324
11
4.3389458
21
44.7832996
0
LINE
8
DEFAULT_255_1_234
10
4.3389458
20
44.7832996
11
4.3389458
21
44.3279
0
LINE
8
DEFAULT_255_1_234
10
4.3389458
20
44.3279
11
4.1847364
21
44.3279
0
LINE
8
DEFAULT_255_1_234
10
4.1847364
20
44.3279
11
4.1847364
21
45.4973211
0
LINE
8
DEFAULT_255_1_234
10
6.0705885
20
45.5029433
11
6.0705885
21
44.3279
0
LINE
8
DEFAULT_255_1_234
10
6.0705885
20
44.3279
11
5.9211982
21
44.3279
0
LINE
8
DEFAULT_255_1_234
10
5.9211982
20
44.3279
11
5.9211982
21
45.3182133
0
LINE
8
DEFAULT_255_1_234
10
5.9211982
20
45.3182133
11
5.6216144
21
45.2081785
0
LINE
8
DEFAULT_255_1_234
10
5.6216144
20
45.2081785
11
5.6216144
21
45.3431117
0
LINE
8
DEFAULT_255_1_234
10
5.6216144
20
45.3431117
11
6.0472965
21
45.5029433
0
LINE
8
DEFAULT_255_1_234
10
6.0472965
20
45.5029433
11
6.0705885
21
45.5029433
0
LINE
8
DEFAULT_255_1_234
10
6.9468512
20
45.2965276
11
6.9468512
21
44.9551788
0
LINE
8
DEFAULT_255_1_234
10
6.9468512
20
44.9551788
11
7.2729397
21
44.9551788
0
LINE
8
DEFAULT_255_1_234
10
7.2729397
20
44.9551788
11
7.2729397
21
44.8146233
0
LINE
8
DEFAULT_255_1_234
10
7.2729397
20
44.8146233
11
6.9468512
21
44.8146233
0
LINE
8
DEFAULT_255_1_234
10
6.9468512
20
44.8146233
11
6.9468512
21
44.4451634
0
LINE
8
DEFAULT_255_1_234
10
6.9468512
20
44.4451634
11
6.7974608
21
44.4451634
0
LINE
8
DEFAULT_255_1_234
10
6.7974608
20
44.4451634
11
6.7974608
21
44.8146233
0
LINE
8
DEFAULT_255_1_234
10
6.7974608
20
44.8146233
11
6.4713723
21
44.8146233
0
LINE
8
DEFAULT_255_1_234
10
6.4713723
20
44.8146233
11
6.4713723
21
44.9551788
0
LINE
8
DEFAULT_255_1_234
10
6.4713723
20
44.9551788
11
6.7974608
21
44.9551788
0
LINE
8
DEFAULT_255_1_234
10
6.7974608
20
44.9551788
11
6.7974608
21
45.2965276
0
LINE
8
DEFAULT_255_1_234
10
6.7974608
20
45.2965276
11
6.9468512
21
45.2965276
0
LINE
8
DEFAULT_255_1_234
10
4.2114364
20
53.4348211
11
4.4106235
21
53.4348211
0
LINE
8
DEFAULT_255_1_234
10
4.4106235
20
53.4348211
11
4.7929342
21
52.4806506
0
LINE
8
DEFAULT_255_1_234
10
4.7929342
20
52.4806506
11
5.175245
21
53.4348211
0
LINE
8
DEFAULT_255_1_234
10
5.175245
20
53.4348211
11
5.3752353
21
53.4348211
0
LINE
8
DEFAULT_255_1_234
10
5.3752353
20
53.4348211
11
5.3752353
21
52.2654
0
LINE
8
DEFAULT_255_1_234
10
5.3752353
20
52.2654
11
5.2210259
21
52.2654
0
LINE
8
DEFAULT_255_1_234
10
5.2210259
20
52.2654
11
5.2210259
21
52.7207996
0
LINE
8
DEFAULT_255_1_234
10
5.2210259
20
52.7207996
11
5.235483
21
53.2123419
0
LINE
8
DEFAULT_255_1_234
10
5.235483
20
53.2123419
11
4.8515659
21
52.2654
0
LINE
8
DEFAULT_255_1_234
10
4.8515659
20
52.2654
11
4.7334994
21
52.2654
0
LINE
8
DEFAULT_255_1_234
10
4.7334994
20
52.2654
11
4.3503854
21
53.2099324
0
LINE
8
DEFAULT_255_1_234
10
4.3503854
20
53.2099324
11
4.3656458
21
52.7207996
0
LINE
8
DEFAULT_255_1_234
10
4.3656458
20
52.7207996
11
4.3656458
21
52.2654
0
LINE
8
DEFAULT_255_1_234
10
4.3656458
20
52.2654
11
4.2114364
21
52.2654
0
LINE
8
DEFAULT_255_1_234
10
4.2114364
20
52.2654
11
4.2114364
21
53.4348211
0
LINE
8
DEFAULT_255_1_234
10
6.3422565
20
52.9569327
11
6.3422565
21
52.7641709
0
LINE
8
DEFAULT_255_1_234
10
5.6041398
20
52.7440916
11
5.6041398
21
52.9424755
0
LINE
8
DEFAULT_255_1_234
10
6.1936694
20
52.7240123
11
6.1936694
21
52.9673739
0
LINE
8
DEFAULT_255_1_234
10
5.752727
20
52.9786184
11
5.752727
21
52.7408789
0
ARC
8
DEFAULT_255_1_234
10
5.1175455
20
52.7592805
40
1.2247208
50
353.8441951
51
0.2287902
0
ARC
8
DEFAULT_255_1_234
10
5.5814959
20
52.7074806
40
0.7578929
50
344.4934747
51
353.9765454
0
ARC
8
DEFAULT_255_1_234
10
5.8807549
20
52.6223981
40
0.4467846
50
329.2803592
51
344.7472793
0
ARC
8
DEFAULT_255_1_234
10
5.9800374
20
52.5679018
40
0.3336173
50
324.9352394
51
328.6160465
0
ARC
8
DEFAULT_255_1_234
10
6.0177482
20
52.5415427
40
0.2876076
50
280.580143
51
324.9173126
0
ARC
8
DEFAULT_255_1_234
10
5.9776275
20
52.7086099
40
0.4592847
50
269.5977311
51
281.6734359
0
ARC
8
DEFAULT_255_1_234
10
5.9704181
20
52.6966173
40
0.4472986
50
256.6228859
51
270.51044
0
ARC
8
DEFAULT_255_1_234
10
5.9302159
20
52.5417877
40
0.2873874
50
215.8618325
51
257.2788573
0
ARC
8
DEFAULT_255_1_234
10
6.032319
20
52.6102977
40
0.4102928
50
197.9693508
51
215.2623606
0
ARC
8
DEFAULT_255_1_234
10
6.2808306
20
52.6941709
40
0.6725652
50
187.8816417
51
198.2346507
0
ARC
8
DEFAULT_255_1_234
10
6.6766514
20
52.7513079
40
1.0724845
50
180.8976217
51
188.0055519
0
ARC
8
DEFAULT_255_1_234
10
6.9566702
20
52.7616777
40
1.3526448
50
180.7449369
51
181.1510016
0
ARC
8
DEFAULT_255_1_234
10
6.7989431
20
52.9473042
40
1.1948131
50
173.7675579
51
180.231553
0
ARC
8
DEFAULT_255_1_234
10
6.3471578
20
52.9983666
40
0.7401564
50
164.3058563
51
173.9002247
0
ARC
8
DEFAULT_255_1_234
10
6.0559647
20
53.0822656
40
0.4371288
50
148.7922025
51
164.568378
0
ARC
8
DEFAULT_255_1_234
10
5.9608099
20
53.1353929
40
0.3282386
50
144.5883898
51
148.1176286
0
ARC
8
DEFAULT_255_1_234
10
5.9264997
20
53.1593315
40
0.2864044
50
101.6440918
51
144.514236
0
ARC
8
DEFAULT_255_1_234
10
5.9690064
20
52.9904069
40
0.4604934
50
89.5284041
51
102.5819763
0
ARC
8
DEFAULT_255_1_234
10
5.9769151
20
52.9865018
40
0.464401
50
77.0437873
51
90.5081339
0
ARC
8
DEFAULT_255_1_234
10
6.0171153
20
53.1507615
40
0.2953195
50
48.2778575
51
77.4994676
0
ARC
8
DEFAULT_255_1_234
10
6.0243784
20
53.1636746
40
0.2808655
50
36.3142134
51
47.6305865
0
ARC
8
DEFAULT_255_1_234
10
5.9375091
20
53.1051515
40
0.3855453
50
18.2931786
51
35.6769206
0
ARC
8
DEFAULT_255_1_234
10
5.683185
20
53.0178593
40
0.654423
50
8.024666
51
18.5605216
0
ARC
8
DEFAULT_255_1_234
10
5.266877
20
52.9563792
40
1.0752407
50
1.1274072
51
8.1718305
0
ARC
8
DEFAULT_255_1_234
10
4.9432961
20
52.9436885
40
1.3990231
50
0.5424119
51
1.3863029
0
ARC
8
DEFAULT_255_1_234
10
5.1254338
20
52.9709342
40
1.0682415
50
359.8090433
51
4.9407866
0
ARC
8
DEFAULT_255_1_234
10
5.5464352
20
53.0085113
40
0.6455691
50
4.8362157
51
12.2904523
0
ARC
8
DEFAULT_255_1_234
10
5.8219467
20
53.0698965
40
0.3633074
50
12.0805627
51
23.8173984
0
ARC
8
DEFAULT_255_1_234
10
5.9393173
20
53.1195919
40
0.2358723
50
24.2871213
51
31.3935614
0
ARC
8
DEFAULT_255_1_234
10
5.991787
20
53.1539233
40
0.1732111
50
30.7407893
51
82.4657128
0
ARC
8
DEFAULT_255_1_234
10
5.9738004
20
53.0655691
40
0.263235
50
81.1060089
51
90.2184952
0
ARC
8
DEFAULT_255_1_234
10
5.9702303
20
53.0913924
40
0.2374236
50
89.3806855
51
105.6762551
0
ARC
8
DEFAULT_255_1_234
10
5.9518934
20
53.1580567
40
0.1682847
50
105.7981136
51
149.7388061
0
ARC
8
DEFAULT_255_1_234
10
6.0583012
20
53.094095
40
0.2924306
50
149.4208916
51
163.6286378
0
ARC
8
DEFAULT_255_1_234
10
6.26739
20
53.030325
40
0.5110213
50
163.3763315
51
172.1410975
0
ARC
8
DEFAULT_255_1_234
10
6.5974619
20
52.9830518
40
0.8444586
50
172.0259487
51
178.0703232
0
ARC
8
DEFAULT_255_1_234
10
6.9004709
20
52.9686906
40
1.1477868
50
177.8631668
51
179.5044149
0
ARC
8
DEFAULT_255_1_234
10
6.7932113
20
52.7372389
40
1.0404907
50
179.7995573
51
185.2460446
0
ARC
8
DEFAULT_255_1_234
10
6.3889152
20
52.6989513
40
0.6343885
50
185.1411642
51
193.0079639
0
ARC
8
DEFAULT_255_1_234
10
6.1245625
20
52.6364641
40
0.3627568
50
192.7897626
51
205.2507664
0
ARC
8
DEFAULT_255_1_234
10
6.0199172
20
52.5897415
40
0.2481908
50
205.8005384
51
211.2537509
0
ARC
8
DEFAULT_255_1_234
10
5.9675612
20
52.554658
40
0.1852521
50
210.3789793
51
238.4008143
0
ARC
8
DEFAULT_255_1_234
10
5.9656134
20
52.5593376
40
0.1882621
50
239.6520629
51
265.9793761
0
ARC
8
DEFAULT_255_1_234
10
5.9741334
20
52.6265427
40
0.2559272
50
265.1315437
51
270.060332
0
ARC
8
DEFAULT_255_1_234
10
5.9770113
20
52.5941534
40
0.2235528
50
269.3314664
51
287.2178029
0
ARC
8
DEFAULT_255_1_234
10
5.9907965
20
52.5438279
40
0.1714108
50
287.7958004
51
329.080874
0
ARC
8
DEFAULT_255_1_234
10
5.8950422
20
52.603593
40
0.2842745
50
328.6634704
51
343.3325132
0
ARC
8
DEFAULT_255_1_234
10
5.6777442
20
52.6712863
40
0.5118644
50
343.0499468
51
351.9393422
0
ARC
8
DEFAULT_255_1_234
10
5.3310742
20
52.7223949
40
0.8622784
50
351.8069023
51
357.7959224
0
ARC
8
DEFAULT_255_1_234
10
5.0075298
20
52.7391721
40
1.1862365
50
357.5871873
51
359.2677531
0
LINE
8
DEFAULT_255_1_234
10
6.857091
20
52.8228026
11
6.857091
21
52.7015234
0
LINE
8
DEFAULT_255_1_234
10
6.857091
20
52.7015234
11
6.4651421
21
52.7015234
0
LINE
8
DEFAULT_255_1_234
10
6.4651421
20
52.7015234
11
6.4651421
21
52.8228026
0
LINE
8
DEFAULT_255_1_234
10
6.4651421
20
52.8228026
11
6.857091
21
52.8228026
0
LINE
8
DEFAULT_255_1_234
10
23.0448364
20
61.3723211
11
23.2440235
21
61.3723211
0
LINE
8
DEFAULT_255_1_234
10
23.2440235
20
61.3723211
11
23.6263342
21
60.4181506
0
LINE
8
DEFAULT_255_1_234
10
23.6263342
20
60.4181506
11
24.008645
21
61.3723211
0
LINE
8
DEFAULT_255_1_234
10
24.008645
20
61.3723211
11
24.2086353
21
61.3723211
0
LINE
8
DEFAULT_255_1_234
10
24.2086353
20
61.3723211
11
24.2086353
21
60.2029
0
LINE
8
DEFAULT_255_1_234
10
24.2086353
20
60.2029
11
24.0544259
21
60.2029
0
LINE
8
DEFAULT_255_1_234
10
24.0544259
20
60.2029
11
24.0544259
21
60.6582996
0
LINE
8
DEFAULT_255_1_234
10
24.0544259
20
60.6582996
11
24.068883
21
61.1498419
0
LINE
8
DEFAULT_255_1_234
10
24.068883
20
61.1498419
11
23.6849659
21
60.2029
0
LINE
8
DEFAULT_255_1_234
10
23.6849659
20
60.2029
11
23.5668994
21
60.2029
0
LINE
8
DEFAULT_255_1_234
10
23.5668994
20
60.2029
11
23.1837854
21
61.1474324
0
LINE
8
DEFAULT_255_1_234
10
23.1837854
20
61.1474324
11
23.1990458
21
60.6582996
0
LINE
8
DEFAULT_255_1_234
10
23.1990458
20
60.6582996
11
23.1990458
21
60.2029
0
LINE
8
DEFAULT_255_1_234
10
23.1990458
20
60.2029
11
23.0448364
21
60.2029
0
LINE
8
DEFAULT_255_1_234
10
23.0448364
20
60.2029
11
23.0448364
21
61.3723211
0
LINE
8
DEFAULT_255_1_234
10
23.0448364
20
53.4348211
11
23.2440235
21
53.4348211
0
LINE
8
DEFAULT_255_1_234
10
23.2440235
20
53.4348211
11
23.6263342
21
52.4806506
0
LINE
8
DEFAULT_255_1_234
10
23.6263342
20
52.4806506
11
24.008645
21
53.4348211
0
LINE
8
DEFAULT_255_1_234
10
24.008645
20
53.4348211
11
24.2086353
21
53.4348211
0
LINE
8
DEFAULT_255_1_234
10
24.2086353
20
53.4348211
11
24.2086353
21
52.2654
0
LINE
8
DEFAULT_255_1_234
10
24.2086353
20
52.2654
11
24.0544259
21
52.2654
0
LINE
8
DEFAULT_255_1_234
10
24.0544259
20
52.2654
11
24.0544259
21
52.7207996
0
LINE
8
DEFAULT_255_1_234
10
24.0544259
20
52.7207996
11
24.068883
21
53.2123419
0
LINE
8
DEFAULT_255_1_234
10
24.068883
20
53.2123419
11
23.6849659
21
52.2654
0
LINE
8
DEFAULT_255_1_234
10
23.6849659
20
52.2654
11
23.5668994
21
52.2654
0
LINE
8
DEFAULT_255_1_234
10
23.5668994
20
52.2654
11
23.1837854
21
53.2099324
0
LINE
8
DEFAULT_255_1_234
10
23.1837854
20
53.2099324
11
23.1990458
21
52.7207996
0
LINE
8
DEFAULT_255_1_234
10
23.1990458
20
52.7207996
11
23.1990458
21
52.2654
0
LINE
8
DEFAULT_255_1_234
10
23.1990458
20
52.2654
11
23.0448364
21
52.2654
0
LINE
8
DEFAULT_255_1_234
10
23.0448364
20
52.2654
11
23.0448364
21
53.4348211
0
ENDSEC
0
EOF