0
SECTION
2
HEADER
9
$MEASUREMENT
70
1
0
ENDSEC
0
SECTION
2
TABLES
0
TABLE
2
LTYPE
0
LTYPE
72
65
70
64
2
CONTINUOUS
3
______
73
0
40
0
0
ENDTAB
0
TABLE
2
LAYER
0
LAYER
2
DEFAULT_255_2_778
70
0
62
255
6
CONTINUOUS
0
ENDTAB
0
ENDSEC
0
SECTION
2
ENTITIES
0
ARC
8
DEFAULT_255_2_778
10
0.6729857
20
3.6471853
40
0.5000969
50
179.9996485
51
270.0003515
0
ARC
8
DEFAULT_255_2_778
10
14.6728131
20
3.647164
40
0.5000756
50
270.0086621
51
0.0028016
0
LINE
8
DEFAULT_255_2_778
10
6.0997888
20
87.6319884
11
6.1381888
21
87.6436884
0
LINE
8
DEFAULT_255_2_778
10
6.1381888
20
87.6436884
11
6.1728888
21
87.6470884
0
LINE
8
DEFAULT_255_2_778
10
6.1728888
20
87.6470884
11
9.1729888
21
87.6470884
0
LINE
8
DEFAULT_255_2_778
10
9.1729888
20
87.6470884
11
9.2075888
21
87.6436884
0
LINE
8
DEFAULT_255_2_778
10
9.2075888
20
87.6436884
11
9.2459888
21
87.6319884
0
LINE
8
DEFAULT_255_2_778
10
5.6227888
20
73.8969884
11
6.9226888
21
73.8969884
0
LINE
8
DEFAULT_255_2_778
10
6.9226888
20
73.8969884
11
6.9226888
21
71.7969884
0
LINE
8
DEFAULT_255_2_778
10
6.9226888
20
71.7969884
11
5.6227888
21
71.7969884
0
LINE
8
DEFAULT_255_2_778
10
5.6227888
20
71.7969884
11
5.6227888
21
73.8969884
0
LINE
8
DEFAULT_255_2_778
10
0.6729888
20
3.1470884
11
14.6728888
21
3.1470884
0
ARC
8
DEFAULT_255_2_778
10
9.1729793
20
87.1473149
40
0.4997474
50
44.9793514
51
90.0112208
0
ARC
8
DEFAULT_255_2_778
10
9.173234
20
87.1470602
40
0.4997474
50
359.9887792
51
45.0206486
0
ARC
8
DEFAULT_255_2_778
10
6.1724328
20
87.1471999
40
0.4996515
50
134.9909954
51
180.0272389
0
ARC
8
DEFAULT_255_2_778
10
6.1728278
20
87.1469667
40
0.5000956
50
90.0053149
51
135.0041129
0
ARC
8
DEFAULT_255_2_778
10
9.172627
20
0.3470166
40
0.5000544
50
270.006231
51
359.9937771
0
ARC
8
DEFAULT_255_2_778
10
6.1728572
20
0.3472381
40
0.5000758
50
179.9972237
51
269.991324
0
LINE
8
DEFAULT_255_2_778
10
9.6729814
20
87.1469623
11
9.6729814
21
84.3469623
0
LINE
8
DEFAULT_255_2_778
10
5.6727814
20
84.3471623
11
5.6727814
21
87.1469623
0
LINE
8
DEFAULT_255_2_778
10
9.6726814
20
3.1470623
11
9.6726814
21
0.3469623
0
LINE
8
DEFAULT_255_2_778
10
9.1726814
20
-0.1530377
11
6.1727814
21
-0.1530377
0
LINE
8
DEFAULT_255_2_778
10
5.6727814
20
0.3472623
11
5.6727814
21
3.1470623
0
LINE
8
DEFAULT_255_2_778
10
1.1729814
20
70.4470623
11
14.1729814
21
70.4470623
0
LINE
8
DEFAULT_255_2_778
10
14.1729814
20
70.4470623
11
14.1729814
21
67.4469623
0
LINE
8
DEFAULT_255_2_778
10
14.1729814
20
67.4469623
11
13.4728814
21
67.4469623
0
LINE
8
DEFAULT_255_2_778
10
13.4728814
20
67.4469623
11
13.4728814
21
19.4469623
0
LINE
8
DEFAULT_255_2_778
10
13.4728814
20
19.4469623
11
1.8730814
21
19.4469623
0
LINE
8
DEFAULT_255_2_778
10
1.8730814
20
19.4469623
11
1.8730814
21
67.4469623
0
LINE
8
DEFAULT_255_2_778
10
1.8730814
20
67.4469623
11
1.1729814
21
67.4469623
0
LINE
8
DEFAULT_255_2_778
10
1.1729814
20
67.4469623
11
1.1729814
21
70.4470623
0
ARC
8
DEFAULT_255_2_778
10
1.3945982
20
2.1466513
40
0.1781907
50
359.9696534
51
0.0910427
0
ARC
8
DEFAULT_255_2_778
10
1.1731571
20
2.1464676
40
0.3996318
50
315.0099835
51
0.0128069
0
ARC
8
DEFAULT_255_2_778
10
1.1731452
20
2.1464911
40
0.3996569
50
270.0029649
51
315.008803
0
LINE
8
DEFAULT_255_2_778
10
1.1731659
20
1.7468342
11
1.1727888
21
1.7468344
0
ARC
8
DEFAULT_255_2_778
10
0.6726362
20
83.8471323
40
0.4997474
50
134.9793514
51
180.0112208
0
ARC
8
DEFAULT_255_2_778
10
0.6728909
20
83.847387
40
0.4997474
50
89.9887792
51
135.0206486
0
ARC
8
DEFAULT_255_2_778
10
14.6729106
20
83.8474446
40
0.4996898
50
44.9766189
51
90.0025007
0
ARC
8
DEFAULT_255_2_778
10
14.6731413
20
83.8471323
40
0.4997474
50
359.9887792
51
45.0206486
0
LINE
8
DEFAULT_255_2_778
10
14.1727888
20
1.7471344
11
14.1724112
21
1.7471342
0
ARC
8
DEFAULT_255_2_778
10
14.1723219
20
2.1467661
40
0.3996318
50
225.0099835
51
270.0128069
0
ARC
8
DEFAULT_255_2_778
10
14.1723454
20
2.1467779
40
0.3996569
50
180.0029649
51
225.008803
0
ARC
8
DEFAULT_255_2_778
10
13.9505231
20
2.1468515
40
0.1778345
50
179.9088607
51
180.0303788
0
LINE
8
DEFAULT_255_2_778
10
7.6727888
20
64.4470344
11
7.6727888
21
19.4469344
0
LINE
8
DEFAULT_255_2_778
10
1.5727888
20
3.1470344
11
1.5727888
21
2.1469344
0
LINE
8
DEFAULT_255_2_778
10
1.1727888
20
1.7468344
11
0.1728888
21
1.7468344
0
LINE
8
DEFAULT_255_2_778
10
0.1728888
20
1.7468344
11
0.1728888
21
83.8470344
0
LINE
8
DEFAULT_255_2_778
10
0.6729888
20
84.3471344
11
14.6728888
21
84.3471344
0
LINE
8
DEFAULT_255_2_778
10
15.1728888
20
83.8470344
11
15.1728888
21
1.7471344
0
LINE
8
DEFAULT_255_2_778
10
15.1728888
20
1.7471344
11
14.1727888
21
1.7471344
0
LINE
8
DEFAULT_255_2_778
10
13.7726888
20
2.1471344
11
13.7726888
21
3.1473344
0
LINE
8
DEFAULT_255_2_778
10
14.1730888
20
69.5468344
11
1.1729888
21
69.5468344
0
LINE
8
DEFAULT_255_2_778
10
13.4730231
20
64.4469904
11
1.8728231
21
64.4469904
0
LINE
8
DEFAULT_255_2_778
10
1.4323231
20
83.2548904
11
1.6162231
21
83.3009904
0
LINE
8
DEFAULT_255_2_778
10
1.6162231
20
83.3009904
11
1.7540231
21
83.3009904
0
LINE
8
DEFAULT_255_2_778
10
1.7540231
20
83.3009904
11
1.9379231
21
83.2548904
0
LINE
8
DEFAULT_255_2_778
10
1.9379231
20
83.2548904
11
2.0758231
21
83.1630904
0
LINE
8
DEFAULT_255_2_778
10
2.0758231
20
83.1630904
11
2.1676231
21
82.9791904
0
LINE
8
DEFAULT_255_2_778
10
2.1676231
20
82.9791904
11
2.1676231
21
82.7495904
0
LINE
8
DEFAULT_255_2_778
10
2.1676231
20
82.7495904
11
2.0758231
21
82.5198904
0
LINE
8
DEFAULT_255_2_778
10
2.0758231
20
82.5198904
11
1.9840231
21
82.3820904
0
LINE
8
DEFAULT_255_2_778
10
1.9840231
20
82.3820904
11
1.4326231
21
81.8306904
0
LINE
8
DEFAULT_255_2_778
10
1.4326231
20
81.8306904
11
2.2136231
21
81.8306904
0
LINE
8
DEFAULT_255_2_778
10
2.2136231
20
81.8306904
11
2.2136231
21
81.6467904
0
LINE
8
DEFAULT_255_2_778
10
2.2136231
20
81.6467904
11
1.1566231
21
81.6467904
0
LINE
8
DEFAULT_255_2_778
10
1.1566231
20
81.6467904
11
1.1566231
21
81.8763904
0
LINE
8
DEFAULT_255_2_778
10
1.1566231
20
81.8763904
11
1.7998231
21
82.5195904
0
LINE
8
DEFAULT_255_2_778
10
1.7998231
20
82.5195904
11
1.8916231
21
82.6574904
0
LINE
8
DEFAULT_255_2_778
10
1.8916231
20
82.6574904
11
1.9376231
21
82.7952904
0
LINE
8
DEFAULT_255_2_778
10
1.9376231
20
82.7952904
11
1.9376231
21
82.9331904
0
LINE
8
DEFAULT_255_2_778
10
1.9376231
20
82.9331904
11
1.8458231
21
83.0709904
0
LINE
8
DEFAULT_255_2_778
10
1.8458231
20
83.0709904
11
1.7540231
21
83.1170904
0
LINE
8
DEFAULT_255_2_778
10
1.7540231
20
83.1170904
11
1.6162231
21
83.1170904
0
LINE
8
DEFAULT_255_2_778
10
1.6162231
20
83.1170904
11
1.5244231
21
83.0709904
0
LINE
8
DEFAULT_255_2_778
10
1.5244231
20
83.0709904
11
1.4783231
21
83.0249904
0
LINE
8
DEFAULT_255_2_778
10
1.4783231
20
83.0249904
11
1.4323231
21
82.9331904
0
LINE
8
DEFAULT_255_2_778
10
1.4323231
20
82.9331904
11
1.4323231
21
82.8413904
0
LINE
8
DEFAULT_255_2_778
10
1.4323231
20
82.8413904
11
1.1566231
21
82.8413904
0
LINE
8
DEFAULT_255_2_778
10
1.1566231
20
82.8413904
11
1.2026231
21
83.0252904
0
LINE
8
DEFAULT_255_2_778
10
1.2026231
20
83.0252904
11
1.2944231
21
83.1630904
0
LINE
8
DEFAULT_255_2_778
10
1.2944231
20
83.1630904
11
1.4323231
21
83.2548904
0
LINE
8
DEFAULT_255_2_778
10
4.8782231
20
83.3469904
11
5.1079231
21
83.3469904
0
LINE
8
DEFAULT_255_2_778
10
5.1079231
20
83.3469904
11
5.1079231
21
81.6470904
0
LINE
8
DEFAULT_255_2_778
10
5.1079231
20
81.6470904
11
4.8782231
21
81.6470904
0
LINE
8
DEFAULT_255_2_778
10
4.8782231
20
81.6470904
11
4.8782231
21
83.3469904
0
LINE
8
DEFAULT_255_2_778
10
3.4997595
20
82.2903634
11
4.0971595
21
82.2903634
0
LINE
8
DEFAULT_255_2_778
10
4.0971595
20
82.2903634
11
3.8214595
21
83.1173634
0
LINE
8
DEFAULT_255_2_778
10
3.8214595
20
83.1173634
11
3.4997595
21
82.2903634
0
LINE
8
DEFAULT_255_2_778
10
3.6836595
20
83.3470634
11
3.9593595
21
83.3470634
0
LINE
8
DEFAULT_255_2_778
10
3.9593595
20
83.3470634
11
4.6025595
21
81.6471634
0
LINE
8
DEFAULT_255_2_778
10
4.6025595
20
81.6471634
11
4.3728595
21
81.6471634
0
LINE
8
DEFAULT_255_2_778
10
4.3728595
20
81.6471634
11
4.1889595
21
82.1066634
0
LINE
8
DEFAULT_255_2_778
10
4.1889595
20
82.1066634
11
3.4079595
21
82.1066634
0
LINE
8
DEFAULT_255_2_778
10
3.4079595
20
82.1066634
11
3.2240595
21
81.6471634
0
LINE
8
DEFAULT_255_2_778
10
3.2240595
20
81.6471634
11
2.9943595
21
81.6471634
0
LINE
8
DEFAULT_255_2_778
10
2.9943595
20
81.6471634
11
3.6836595
21
83.3470634
0
LINE
8
DEFAULT_255_2_778
10
2.7189595
20
80.7549634
11
2.9028595
21
80.8009634
0
LINE
8
DEFAULT_255_2_778
10
2.9028595
20
80.8009634
11
3.0406595
21
80.8009634
0
LINE
8
DEFAULT_255_2_778
10
3.0406595
20
80.8009634
11
3.2245595
21
80.7549634
0
LINE
8
DEFAULT_255_2_778
10
3.2245595
20
80.7549634
11
3.3624595
21
80.6631634
0
LINE
8
DEFAULT_255_2_778
10
3.3624595
20
80.6631634
11
3.4542595
21
80.4792634
0
LINE
8
DEFAULT_255_2_778
10
3.4542595
20
80.4792634
11
3.4542595
21
80.2495634
0
LINE
8
DEFAULT_255_2_778
10
3.4542595
20
80.2495634
11
3.3624595
21
80.0199634
0
LINE
8
DEFAULT_255_2_778
10
3.3624595
20
80.0199634
11
3.2705595
21
79.8820634
0
LINE
8
DEFAULT_255_2_778
10
3.2705595
20
79.8820634
11
2.7192595
21
79.3306634
0
LINE
8
DEFAULT_255_2_778
10
2.7192595
20
79.3306634
11
3.5002595
21
79.3306634
0
LINE
8
DEFAULT_255_2_778
10
3.5002595
20
79.3306634
11
3.5002595
21
79.1467634
0
LINE
8
DEFAULT_255_2_778
10
3.5002595
20
79.1467634
11
2.4432595
21
79.1467634
0
LINE
8
DEFAULT_255_2_778
10
2.4432595
20
79.1467634
11
2.4432595
21
79.3764634
0
LINE
8
DEFAULT_255_2_778
10
2.4432595
20
79.3764634
11
3.0864595
21
80.0196634
0
LINE
8
DEFAULT_255_2_778
10
3.0864595
20
80.0196634
11
3.1782595
21
80.1574634
0
LINE
8
DEFAULT_255_2_778
10
3.1782595
20
80.1574634
11
3.2242595
21
80.2953634
0
LINE
8
DEFAULT_255_2_778
10
3.2242595
20
80.2953634
11
3.2242595
21
80.4331634
0
LINE
8
DEFAULT_255_2_778
10
3.2242595
20
80.4331634
11
3.1324595
21
80.5710634
0
LINE
8
DEFAULT_255_2_778
10
3.1324595
20
80.5710634
11
3.0406595
21
80.6170634
0
LINE
8
DEFAULT_255_2_778
10
3.0406595
20
80.6170634
11
2.9028595
21
80.6170634
0
LINE
8
DEFAULT_255_2_778
10
2.9028595
20
80.6170634
11
2.8110595
21
80.5710634
0
LINE
8
DEFAULT_255_2_778
10
2.8110595
20
80.5710634
11
2.7649595
21
80.5250634
0
LINE
8
DEFAULT_255_2_778
10
2.7649595
20
80.5250634
11
2.7189595
21
80.4331634
0
LINE
8
DEFAULT_255_2_778
10
2.7189595
20
80.4331634
11
2.7189595
21
80.3413634
0
LINE
8
DEFAULT_255_2_778
10
2.7189595
20
80.3413634
11
2.4432595
21
80.3413634
0
LINE
8
DEFAULT_255_2_778
10
2.4432595
20
80.3413634
11
2.4892595
21
80.5252634
0
LINE
8
DEFAULT_255_2_778
10
2.4892595
20
80.5252634
11
2.5810595
21
80.6631634
0
LINE
8
DEFAULT_255_2_778
10
2.5810595
20
80.6631634
11
2.7189595
21
80.7549634
0
LINE
8
DEFAULT_255_2_778
10
1.2486595
20
80.8470634
11
1.4783595
21
80.8470634
0
LINE
8
DEFAULT_255_2_778
10
1.4783595
20
80.8470634
11
1.4783595
21
79.1470634
0
LINE
8
DEFAULT_255_2_778
10
1.4783595
20
79.1470634
11
1.2486595
21
79.1470634
0
LINE
8
DEFAULT_255_2_778
10
1.2486595
20
79.1470634
11
1.2486595
21
80.8470634
0
LINE
8
DEFAULT_255_2_778
10
5.2917595
20
80.3416634
11
5.5214595
21
80.3416634
0
LINE
8
DEFAULT_255_2_778
10
5.5214595
20
80.3416634
11
5.1078595
21
79.1470634
0
LINE
8
DEFAULT_255_2_778
10
5.1078595
20
79.1470634
11
4.8321595
21
79.1470634
0
LINE
8
DEFAULT_255_2_778
10
4.8321595
20
79.1470634
11
4.5564595
21
80.1119634
0
LINE
8
DEFAULT_255_2_778
10
4.5564595
20
80.1119634
11
4.2807595
21
79.1470634
0
LINE
8
DEFAULT_255_2_778
10
4.2807595
20
79.1470634
11
4.0050595
21
79.1470634
0
LINE
8
DEFAULT_255_2_778
10
4.0050595
20
79.1470634
11
3.5915595
21
80.3416634
0
LINE
8
DEFAULT_255_2_778
10
3.5915595
20
80.3416634
11
3.8211595
21
80.3416634
0
LINE
8
DEFAULT_255_2_778
10
3.8211595
20
80.3416634
11
4.1429595
21
79.3767634
0
LINE
8
DEFAULT_255_2_778
10
4.1429595
20
79.3767634
11
4.4186595
21
80.3416634
0
LINE
8
DEFAULT_255_2_778
10
4.4186595
20
80.3416634
11
4.6943595
21
80.3416634
0
LINE
8
DEFAULT_255_2_778
10
4.6943595
20
80.3416634
11
4.9700595
21
79.3767634
0
LINE
8
DEFAULT_255_2_778
10
4.9700595
20
79.3767634
11
5.2917595
21
80.3416634
0
LINE
8
DEFAULT_255_2_778
10
6.9919595
20
80.1577634
11
6.8080595
21
80.1117634
0
LINE
8
DEFAULT_255_2_778
10
6.8080595
20
80.1117634
11
6.7162595
21
80.0199634
0
LINE
8
DEFAULT_255_2_778
10
6.7162595
20
80.0199634
11
6.6702595
21
79.8820634
0
LINE
8
DEFAULT_255_2_778
10
6.6702595
20
79.8820634
11
6.6702595
21
79.1470634
0
LINE
8
DEFAULT_255_2_778
10
6.6702595
20
79.1470634
11
6.4405595
21
79.1470634
0
LINE
8
DEFAULT_255_2_778
10
6.4405595
20
79.1470634
11
6.4405595
21
80.3416634
0
LINE
8
DEFAULT_255_2_778
10
6.4405595
20
80.3416634
11
6.6702595
21
80.3416634
0
LINE
8
DEFAULT_255_2_778
10
6.6702595
20
80.3416634
11
6.6702595
21
80.2038634
0
LINE
8
DEFAULT_255_2_778
10
6.6702595
20
80.2038634
11
6.7620595
21
80.2956634
0
LINE
8
DEFAULT_255_2_778
10
6.7620595
20
80.2956634
11
6.8998595
21
80.3416634
0
LINE
8
DEFAULT_255_2_778
10
6.8998595
20
80.3416634
11
7.0837595
21
80.3416634
0
LINE
8
DEFAULT_255_2_778
10
7.0837595
20
80.3416634
11
7.0837595
21
80.1577634
0
LINE
8
DEFAULT_255_2_778
10
7.0837595
20
80.1577634
11
6.9919595
21
80.1577634
0
LINE
8
DEFAULT_255_2_778
10
5.7052595
20
80.8470634
11
6.0270595
21
80.8470634
0
LINE
8
DEFAULT_255_2_778
10
6.0270595
20
80.8470634
11
6.0270595
21
80.6173634
0
LINE
8
DEFAULT_255_2_778
10
6.0270595
20
80.6173634
11
5.7052595
21
80.6173634
0
LINE
8
DEFAULT_255_2_778
10
5.7052595
20
80.6173634
11
5.7052595
21
80.8470634
0
LINE
8
DEFAULT_255_2_778
10
5.7513595
20
80.3416634
11
5.9809595
21
80.3416634
0
LINE
8
DEFAULT_255_2_778
10
5.9809595
20
80.3416634
11
5.9809595
21
79.1470634
0
LINE
8
DEFAULT_255_2_778
10
5.9809595
20
79.1470634
11
5.7513595
21
79.1470634
0
LINE
8
DEFAULT_255_2_778
10
5.7513595
20
79.1470634
11
5.7513595
21
80.3416634
0
LINE
8
DEFAULT_255_2_778
10
7.8650595
20
80.2038634
11
7.7272595
21
80.2038634
0
LINE
8
DEFAULT_255_2_778
10
7.7272595
20
80.2038634
11
7.6354595
21
80.1577634
0
LINE
8
DEFAULT_255_2_778
10
7.6354595
20
80.1577634
11
7.5436595
21
80.0659634
0
LINE
8
DEFAULT_255_2_778
10
7.5436595
20
80.0659634
11
7.4975595
21
79.9281634
0
LINE
8
DEFAULT_255_2_778
10
7.4975595
20
79.9281634
11
7.4975595
21
79.8362634
0
LINE
8
DEFAULT_255_2_778
10
7.4975595
20
79.8362634
11
8.0950595
21
79.8362634
0
LINE
8
DEFAULT_255_2_778
10
8.0950595
20
79.8362634
11
8.0950595
21
79.9281634
0
LINE
8
DEFAULT_255_2_778
10
8.0950595
20
79.9281634
11
8.0489595
21
80.0659634
0
LINE
8
DEFAULT_255_2_778
10
8.0489595
20
80.0659634
11
7.9571595
21
80.1577634
0
LINE
8
DEFAULT_255_2_778
10
7.9571595
20
80.1577634
11
7.8650595
21
80.2038634
0
LINE
8
DEFAULT_255_2_778
10
7.6354595
20
80.3416634
11
7.9571595
21
80.3416634
0
LINE
8
DEFAULT_255_2_778
10
7.9571595
20
80.3416634
11
8.1410595
21
80.2498634
0
LINE
8
DEFAULT_255_2_778
10
8.1410595
20
80.2498634
11
8.2328595
21
80.1580634
0
LINE
8
DEFAULT_255_2_778
10
8.2328595
20
80.1580634
11
8.2788595
21
80.0662634
0
LINE
8
DEFAULT_255_2_778
10
8.2788595
20
80.0662634
11
8.3249595
21
79.8365634
0
LINE
8
DEFAULT_255_2_778
10
8.3249595
20
79.8365634
11
8.3249595
21
79.6987634
0
LINE
8
DEFAULT_255_2_778
10
8.3249595
20
79.6987634
11
7.4978595
21
79.6987634
0
LINE
8
DEFAULT_255_2_778
10
7.4978595
20
79.6987634
11
7.4978595
21
79.5608634
0
LINE
8
DEFAULT_255_2_778
10
7.4978595
20
79.5608634
11
7.5438595
21
79.4230634
0
LINE
8
DEFAULT_255_2_778
10
7.5438595
20
79.4230634
11
7.6356595
21
79.3312634
0
LINE
8
DEFAULT_255_2_778
10
7.6356595
20
79.3312634
11
7.7275595
21
79.2851634
0
LINE
8
DEFAULT_255_2_778
10
7.7275595
20
79.2851634
11
7.8653595
21
79.2851634
0
LINE
8
DEFAULT_255_2_778
10
7.8653595
20
79.2851634
11
8.0031595
21
79.3312634
0
LINE
8
DEFAULT_255_2_778
10
8.0031595
20
79.3312634
11
8.0492595
21
79.3772634
0
LINE
8
DEFAULT_255_2_778
10
8.0492595
20
79.3772634
11
8.0952595
21
79.5150634
0
LINE
8
DEFAULT_255_2_778
10
8.0952595
20
79.5150634
11
8.3249595
21
79.5150634
0
LINE
8
DEFAULT_255_2_778
10
8.3249595
20
79.5150634
11
8.2788595
21
79.3772634
0
LINE
8
DEFAULT_255_2_778
10
8.2788595
20
79.3772634
11
8.2328595
21
79.2854634
0
LINE
8
DEFAULT_255_2_778
10
8.2328595
20
79.2854634
11
8.1868595
21
79.2393634
0
LINE
8
DEFAULT_255_2_778
10
8.1868595
20
79.2393634
11
8.0489595
21
79.1475634
0
LINE
8
DEFAULT_255_2_778
10
8.0489595
20
79.1475634
11
7.8650595
21
79.1015634
0
LINE
8
DEFAULT_255_2_778
10
7.8650595
20
79.1015634
11
7.7272595
21
79.1015634
0
LINE
8
DEFAULT_255_2_778
10
7.7272595
20
79.1015634
11
7.5433595
21
79.1475634
0
LINE
8
DEFAULT_255_2_778
10
7.5433595
20
79.1475634
11
7.4055595
21
79.2393634
0
LINE
8
DEFAULT_255_2_778
10
7.4055595
20
79.2393634
11
7.3136595
21
79.3772634
0
LINE
8
DEFAULT_255_2_778
10
7.3136595
20
79.3772634
11
7.2676595
21
79.5611634
0
LINE
8
DEFAULT_255_2_778
10
7.2676595
20
79.5611634
11
7.2676595
21
79.8828634
0
LINE
8
DEFAULT_255_2_778
10
7.2676595
20
79.8828634
11
7.3136595
21
80.0667634
0
LINE
8
DEFAULT_255_2_778
10
7.3136595
20
80.0667634
11
7.3597595
21
80.1585634
0
LINE
8
DEFAULT_255_2_778
10
7.3597595
20
80.1585634
11
7.4515595
21
80.2503634
0
LINE
8
DEFAULT_255_2_778
10
7.4515595
20
80.2503634
11
7.6354595
21
80.3416634
0
LINE
8
DEFAULT_255_2_778
10
4.0108595
20
73.7469634
11
5.0216595
21
73.7469634
0
LINE
8
DEFAULT_255_2_778
10
5.0216595
20
73.7469634
11
5.0216595
21
73.5630634
0
LINE
8
DEFAULT_255_2_778
10
5.0216595
20
73.5630634
11
4.2405595
21
73.5630634
0
LINE
8
DEFAULT_255_2_778
10
4.2405595
20
73.5630634
11
4.2405595
21
73.0116634
0
LINE
8
DEFAULT_255_2_778
10
4.2405595
20
73.0116634
11
4.9755595
21
73.0116634
0
LINE
8
DEFAULT_255_2_778
10
4.9755595
20
73.0116634
11
4.9755595
21
72.8277634
0
LINE
8
DEFAULT_255_2_778
10
4.9755595
20
72.8277634
11
4.2405595
21
72.8277634
0
LINE
8
DEFAULT_255_2_778
10
4.2405595
20
72.8277634
11
4.2405595
21
72.0466634
0
LINE
8
DEFAULT_255_2_778
10
4.2405595
20
72.0466634
11
4.0108595
21
72.0466634
0
LINE
8
DEFAULT_255_2_778
10
4.0108595
20
72.0466634
11
4.0108595
21
73.7466634
0
LINE
8
DEFAULT_255_2_778
10
2.7242595
20
73.7469634
11
2.9081595
21
73.7929634
0
LINE
8
DEFAULT_255_2_778
10
2.9081595
20
73.7929634
11
3.1377595
21
73.7929634
0
LINE
8
DEFAULT_255_2_778
10
3.1377595
20
73.7929634
11
3.3216595
21
73.7469634
0
LINE
8
DEFAULT_255_2_778
10
3.3216595
20
73.7469634
11
3.4595595
21
73.6550634
0
LINE
8
DEFAULT_255_2_778
10
3.4595595
20
73.6550634
11
3.5513595
21
73.5632634
0
LINE
8
DEFAULT_255_2_778
10
3.5513595
20
73.5632634
11
3.5973595
21
73.4254634
0
LINE
8
DEFAULT_255_2_778
10
3.5973595
20
73.4254634
11
3.5973595
21
73.3336634
0
LINE
8
DEFAULT_255_2_778
10
3.5973595
20
73.3336634
11
3.3676595
21
73.3336634
0
LINE
8
DEFAULT_255_2_778
10
3.3676595
20
73.3336634
11
3.3676595
21
73.3796634
0
LINE
8
DEFAULT_255_2_778
10
3.3676595
20
73.3796634
11
3.3216595
21
73.4714634
0
LINE
8
DEFAULT_255_2_778
10
3.3216595
20
73.4714634
11
3.2298595
21
73.5632634
0
LINE
8
DEFAULT_255_2_778
10
3.2298595
20
73.5632634
11
3.0920595
21
73.6093634
0
LINE
8
DEFAULT_255_2_778
10
3.0920595
20
73.6093634
11
2.9541595
21
73.6093634
0
LINE
8
DEFAULT_255_2_778
10
2.9541595
20
73.6093634
11
2.8163595
21
73.5632634
0
LINE
8
DEFAULT_255_2_778
10
2.8163595
20
73.5632634
11
2.7244595
21
73.5172634
0
LINE
8
DEFAULT_255_2_778
10
2.7244595
20
73.5172634
11
2.6784595
21
73.4712634
0
LINE
8
DEFAULT_255_2_778
10
2.6784595
20
73.4712634
11
2.6324595
21
73.3794634
0
LINE
8
DEFAULT_255_2_778
10
2.6324595
20
73.3794634
11
2.6324595
21
73.2415634
0
LINE
8
DEFAULT_255_2_778
10
2.6324595
20
73.2415634
11
2.6784595
21
73.1497634
0
LINE
8
DEFAULT_255_2_778
10
2.6784595
20
73.1497634
11
2.7702595
21
73.1037634
0
LINE
8
DEFAULT_255_2_778
10
2.7702595
20
73.1037634
11
3.4134595
21
72.9198634
0
LINE
8
DEFAULT_255_2_778
10
3.4134595
20
72.9198634
11
3.5513595
21
72.8280634
0
LINE
8
DEFAULT_255_2_778
10
3.5513595
20
72.8280634
11
3.6431595
21
72.6441634
0
LINE
8
DEFAULT_255_2_778
10
3.6431595
20
72.6441634
11
3.6431595
21
72.4144634
0
LINE
8
DEFAULT_255_2_778
10
3.6431595
20
72.4144634
11
3.5970595
21
72.2766634
0
LINE
8
DEFAULT_255_2_778
10
3.5970595
20
72.2766634
11
3.4592595
21
72.1387634
0
LINE
8
DEFAULT_255_2_778
10
3.4592595
20
72.1387634
11
3.2753595
21
72.0469634
0
LINE
8
DEFAULT_255_2_778
10
3.2753595
20
72.0469634
11
3.0914595
21
72.0009634
0
LINE
8
DEFAULT_255_2_778
10
3.0914595
20
72.0009634
11
2.8618595
21
72.0009634
0
LINE
8
DEFAULT_255_2_778
10
2.8618595
20
72.0009634
11
2.6779595
21
72.0469634
0
LINE
8
DEFAULT_255_2_778
10
2.6779595
20
72.0469634
11
2.4940595
21
72.1387634
0
LINE
8
DEFAULT_255_2_778
10
2.4940595
20
72.1387634
11
2.4022595
21
72.2766634
0
LINE
8
DEFAULT_255_2_778
10
2.4022595
20
72.2766634
11
2.3561595
21
72.4605634
0
LINE
8
DEFAULT_255_2_778
10
2.3561595
20
72.4605634
11
2.3561595
21
72.5523634
0
LINE
8
DEFAULT_255_2_778
10
2.3561595
20
72.5523634
11
2.5858595
21
72.5523634
0
LINE
8
DEFAULT_255_2_778
10
2.5858595
20
72.5523634
11
2.5858595
21
72.5062634
0
LINE
8
DEFAULT_255_2_778
10
2.5858595
20
72.5062634
11
2.6318595
21
72.3684634
0
LINE
8
DEFAULT_255_2_778
10
2.6318595
20
72.3684634
11
2.7697595
21
72.2305634
0
LINE
8
DEFAULT_255_2_778
10
2.7697595
20
72.2305634
11
2.9536595
21
72.1845634
0
LINE
8
DEFAULT_255_2_778
10
2.9536595
20
72.1845634
11
3.0454595
21
72.1845634
0
LINE
8
DEFAULT_255_2_778
10
3.0454595
20
72.1845634
11
3.2293595
21
72.2305634
0
LINE
8
DEFAULT_255_2_778
10
3.2293595
20
72.2305634
11
3.3671595
21
72.3684634
0
LINE
8
DEFAULT_255_2_778
10
3.3671595
20
72.3684634
11
3.4132595
21
72.4602634
0
LINE
8
DEFAULT_255_2_778
10
3.4132595
20
72.4602634
11
3.4132595
21
72.5520634
0
LINE
8
DEFAULT_255_2_778
10
3.4132595
20
72.5520634
11
3.3671595
21
72.6438634
0
LINE
8
DEFAULT_255_2_778
10
3.3671595
20
72.6438634
11
3.3211595
21
72.6898634
0
LINE
8
DEFAULT_255_2_778
10
3.3211595
20
72.6898634
11
3.2293595
21
72.7359634
0
LINE
8
DEFAULT_255_2_778
10
3.2293595
20
72.7359634
11
2.7239595
21
72.8737634
0
LINE
8
DEFAULT_255_2_778
10
2.7239595
20
72.8737634
11
2.5861595
21
72.9198634
0
LINE
8
DEFAULT_255_2_778
10
2.5861595
20
72.9198634
11
2.4482595
21
73.0576634
0
LINE
8
DEFAULT_255_2_778
10
2.4482595
20
73.0576634
11
2.4022595
21
73.1955634
0
LINE
8
DEFAULT_255_2_778
10
2.4022595
20
73.1955634
11
2.4022595
21
73.4251634
0
LINE
8
DEFAULT_255_2_778
10
2.4022595
20
73.4251634
11
2.4940595
21
73.6090634
0
LINE
8
DEFAULT_255_2_778
10
2.4940595
20
73.6090634
11
2.6318595
21
73.7008634
0
LINE
8
DEFAULT_255_2_778
10
2.6318595
20
73.7008634
11
2.7237595
21
73.7469634
0
LINE
8
DEFAULT_255_2_778
10
7.3343781
20
5.7921114
11
7.5039781
21
5.7921114
0
LINE
8
DEFAULT_255_2_778
10
7.5039781
20
5.7921114
11
7.5039781
21
4.1017114
0
LINE
8
DEFAULT_255_2_778
10
7.5039781
20
4.1017114
11
7.3037781
21
4.1017114
0
LINE
8
DEFAULT_255_2_778
10
7.3037781
20
4.1017114
11
7.3037781
21
5.5294114
0
LINE
8
DEFAULT_255_2_778
10
7.3037781
20
5.5294114
11
7.0679781
21
5.3624114
0
LINE
8
DEFAULT_255_2_778
10
7.0679781
20
5.3624114
11
6.9761781
21
5.3188114
0
LINE
8
DEFAULT_255_2_778
10
6.9761781
20
5.3188114
11
6.9761781
21
5.5307114
0
LINE
8
DEFAULT_255_2_778
10
6.9761781
20
5.5307114
11
7.2478781
21
5.7064114
0
LINE
8
DEFAULT_255_2_778
10
7.2478781
20
5.7064114
11
7.3343781
21
5.7921114
0
LINE
8
DEFAULT_255_2_778
10
7.6811781
20
8.3374114
11
7.8507781
21
8.3374114
0
LINE
8
DEFAULT_255_2_778
10
7.8507781
20
8.3374114
11
7.8507781
21
6.6470114
0
LINE
8
DEFAULT_255_2_778
10
7.8507781
20
6.6470114
11
7.6505781
21
6.6470114
0
LINE
8
DEFAULT_255_2_778
10
7.6505781
20
6.6470114
11
7.6505781
21
8.0747114
0
LINE
8
DEFAULT_255_2_778
10
7.6505781
20
8.0747114
11
7.4147781
21
7.9077114
0
LINE
8
DEFAULT_255_2_778
10
7.4147781
20
7.9077114
11
7.3229781
21
7.8641114
0
LINE
8
DEFAULT_255_2_778
10
7.3229781
20
7.8641114
11
7.3229781
21
8.0760114
0
LINE
8
DEFAULT_255_2_778
10
7.3229781
20
8.0760114
11
7.5946781
21
8.2517114
0
LINE
8
DEFAULT_255_2_778
10
7.5946781
20
8.2517114
11
7.6811781
21
8.3374114
0
LINE
8
DEFAULT_255_2_778
10
8.1183512
20
4.8663197
11
8.6337512
21
4.8663197
0
LINE
8
DEFAULT_255_2_778
10
8.6337512
20
4.8663197
11
8.6337512
21
4.7060197
0
LINE
8
DEFAULT_255_2_778
10
8.6337512
20
4.7060197
11
8.1183512
21
4.7060197
0
LINE
8
DEFAULT_255_2_778
10
8.1183512
20
4.7060197
11
8.1183512
21
4.8663197
0
LINE
8
DEFAULT_255_2_778
10
11.1782512
20
7.3664197
11
11.6936512
21
7.3664197
0
LINE
8
DEFAULT_255_2_778
10
11.6936512
20
7.3664197
11
11.6936512
21
7.2060197
0
LINE
8
DEFAULT_255_2_778
10
11.6936512
20
7.2060197
11
11.1782512
21
7.2060197
0
LINE
8
DEFAULT_255_2_778
10
11.1782512
20
7.2060197
11
11.1782512
21
7.3664197
0
LINE
8
DEFAULT_255_2_778
10
8.9628512
20
8.1815197
11
9.1645512
21
8.1691197
0
LINE
8
DEFAULT_255_2_778
10
9.1645512
20
8.1691197
11
9.2785512
21
8.0892197
0
LINE
8
DEFAULT_255_2_778
10
9.2785512
20
8.0892197
11
9.3174512
21
8.0225197
0
LINE
8
DEFAULT_255_2_778
10
9.3174512
20
8.0225197
11
9.3301512
21
7.9799197
0
LINE
8
DEFAULT_255_2_778
10
9.3301512
20
7.9799197
11
9.3351512
21
7.9511197
0
LINE
8
DEFAULT_255_2_778
10
9.3351512
20
7.9511197
11
9.3335512
21
7.8521197
0
LINE
8
DEFAULT_255_2_778
10
9.3335512
20
7.8521197
11
9.3182512
21
7.7976197
0
LINE
8
DEFAULT_255_2_778
10
9.3182512
20
7.7976197
11
9.2473512
21
7.7005197
0
LINE
8
DEFAULT_255_2_778
10
9.2473512
20
7.7005197
11
9.0716512
21
7.6172197
0
LINE
8
DEFAULT_255_2_778
10
9.0716512
20
7.6172197
11
8.9986512
21
7.6111197
0
LINE
8
DEFAULT_255_2_778
10
8.9986512
20
7.6111197
11
8.9319512
21
7.6111197
0
LINE
8
DEFAULT_255_2_778
10
8.9319512
20
7.6111197
11
8.9319512
21
7.4209197
0
LINE
8
DEFAULT_255_2_778
10
8.9319512
20
7.4209197
11
9.1809512
21
7.3941197
0
LINE
8
DEFAULT_255_2_778
10
9.1809512
20
7.3941197
11
9.3044512
21
7.3161197
0
LINE
8
DEFAULT_255_2_778
10
9.3044512
20
7.3161197
11
9.3499512
21
7.2446197
0
LINE
8
DEFAULT_255_2_778
10
9.3499512
20
7.2446197
11
9.3610512
21
7.2092197
0
LINE
8
DEFAULT_255_2_778
10
9.3610512
20
7.2092197
11
9.3663512
21
7.1793197
0
LINE
8
DEFAULT_255_2_778
10
9.3663512
20
7.1793197
11
9.3645512
21
7.0719197
0
LINE
8
DEFAULT_255_2_778
10
9.3645512
20
7.0719197
11
9.3557512
21
7.0293197
0
LINE
8
DEFAULT_255_2_778
10
9.3557512
20
7.0293197
11
9.3354512
21
6.9729197
0
LINE
8
DEFAULT_255_2_778
10
9.3354512
20
6.9729197
11
9.2801512
21
6.8938197
0
LINE
8
DEFAULT_255_2_778
10
9.2801512
20
6.8938197
11
9.1697512
21
6.8226197
0
LINE
8
DEFAULT_255_2_778
10
9.1697512
20
6.8226197
11
8.9393512
21
6.8176197
0
LINE
8
DEFAULT_255_2_778
10
8.9393512
20
6.8176197
11
8.8041512
21
6.9139197
0
LINE
8
DEFAULT_255_2_778
10
8.8041512
20
6.9139197
11
8.7393512
21
7.0235197
0
LINE
8
DEFAULT_255_2_778
10
8.7393512
20
7.0235197
11
8.7123512
21
7.1108197
0
LINE
8
DEFAULT_255_2_778
10
8.7123512
20
7.1108197
11
8.5078512
21
7.1108197
0
LINE
8
DEFAULT_255_2_778
10
8.5078512
20
7.1108197
11
8.5144512
21
7.0692197
0
LINE
8
DEFAULT_255_2_778
10
8.5144512
20
7.0692197
11
8.5234512
21
7.0280197
0
LINE
8
DEFAULT_255_2_778
10
8.5234512
20
7.0280197
11
8.5416512
21
6.9671197
0
LINE
8
DEFAULT_255_2_778
10
8.5416512
20
6.9671197
11
8.5752512
21
6.8890197
0
LINE
8
DEFAULT_255_2_778
10
8.5752512
20
6.8890197
11
8.6292512
21
6.8046197
0
LINE
8
DEFAULT_255_2_778
10
8.6292512
20
6.8046197
11
8.7215512
21
6.7126197
0
LINE
8
DEFAULT_255_2_778
10
8.7215512
20
6.7126197
11
8.8462512
21
6.6422197
0
LINE
8
DEFAULT_255_2_778
10
8.8462512
20
6.6422197
11
9.0001512
21
6.6096197
0
LINE
8
DEFAULT_255_2_778
10
9.0001512
20
6.6096197
11
9.2131512
21
6.6295197
0
LINE
8
DEFAULT_255_2_778
10
9.2131512
20
6.6295197
11
9.3600512
21
6.6935197
0
LINE
8
DEFAULT_255_2_778
10
9.3600512
20
6.6935197
11
9.4534512
21
6.7742197
0
LINE
8
DEFAULT_255_2_778
10
9.4534512
20
6.7742197
11
9.5063512
21
6.8494197
0
LINE
8
DEFAULT_255_2_778
10
9.5063512
20
6.8494197
11
9.5380512
21
6.9208197
0
LINE
8
DEFAULT_255_2_778
10
9.5380512
20
6.9208197
11
9.5515512
21
6.9658197
0
LINE
8
DEFAULT_255_2_778
10
9.5515512
20
6.9658197
11
9.5597512
21
7.0041197
0
LINE
8
DEFAULT_255_2_778
10
9.5597512
20
7.0041197
11
9.5653512
21
7.0430197
0
LINE
8
DEFAULT_255_2_778
10
9.5653512
20
7.0430197
11
9.5627512
21
7.2126197
0
LINE
8
DEFAULT_255_2_778
10
9.5627512
20
7.2126197
11
9.5497512
21
7.2706197
0
LINE
8
DEFAULT_255_2_778
10
9.5497512
20
7.2706197
11
9.5042512
21
7.3666197
0
LINE
8
DEFAULT_255_2_778
10
9.5042512
20
7.3666197
11
9.3568512
21
7.4939197
0
LINE
8
DEFAULT_255_2_778
10
9.3568512
20
7.4939197
11
9.2917512
21
7.5166197
0
LINE
8
DEFAULT_255_2_778
10
9.2917512
20
7.5166197
11
9.4010512
21
7.5912197
0
LINE
8
DEFAULT_255_2_778
10
9.4010512
20
7.5912197
11
9.4690512
21
7.6717197
0
LINE
8
DEFAULT_255_2_778
10
9.4690512
20
7.6717197
11
9.5037512
21
7.7384197
0
LINE
8
DEFAULT_255_2_778
10
9.5037512
20
7.7384197
11
9.5224512
21
7.7955197
0
LINE
8
DEFAULT_255_2_778
10
9.5224512
20
7.7955197
11
9.5293512
21
7.8273197
0
LINE
8
DEFAULT_255_2_778
10
9.5293512
20
7.8273197
11
9.5341512
21
7.8593197
0
LINE
8
DEFAULT_255_2_778
10
9.5341512
20
7.8593197
11
9.5328512
21
8.0000197
0
LINE
8
DEFAULT_255_2_778
10
9.5328512
20
8.0000197
11
9.5277512
21
8.0299197
0
LINE
8
DEFAULT_255_2_778
10
9.5277512
20
8.0299197
11
9.5166512
21
8.0728197
0
LINE
8
DEFAULT_255_2_778
10
9.5166512
20
8.0728197
11
9.4899512
21
8.1373197
0
LINE
8
DEFAULT_255_2_778
10
9.4899512
20
8.1373197
11
9.4431512
21
8.2072197
0
LINE
8
DEFAULT_255_2_778
10
9.4431512
20
8.2072197
11
9.3557512
21
8.2853197
0
LINE
8
DEFAULT_255_2_778
10
9.3557512
20
8.2853197
11
9.2211512
21
8.3482197
0
LINE
8
DEFAULT_255_2_778
10
9.2211512
20
8.3482197
11
9.0248512
21
8.3718197
0
LINE
8
DEFAULT_255_2_778
10
9.0248512
20
8.3718197
11
8.8245512
21
8.3345197
0
LINE
8
DEFAULT_255_2_778
10
8.8245512
20
8.3345197
11
8.6549512
21
8.2170197
0
LINE
8
DEFAULT_255_2_778
10
8.6549512
20
8.2170197
11
8.5914512
21
8.1175197
0
LINE
8
DEFAULT_255_2_778
10
8.5914512
20
8.1175197
11
8.5649512
21
8.0373197
0
LINE
8
DEFAULT_255_2_778
10
8.5649512
20
8.0373197
11
8.5556512
21
7.9863197
0
LINE
8
DEFAULT_255_2_778
10
8.5556512
20
7.9863197
11
8.5525512
21
7.9556197
0
LINE
8
DEFAULT_255_2_778
10
8.5525512
20
7.9556197
11
8.5509512
21
7.9045197
0
LINE
8
DEFAULT_255_2_778
10
8.5509512
20
7.9045197
11
8.7448512
21
7.9045197
0
LINE
8
DEFAULT_255_2_778
10
8.7448512
20
7.9045197
11
8.7464512
21
7.9424197
0
LINE
8
DEFAULT_255_2_778
10
8.7464512
20
7.9424197
11
8.7506512
21
7.9707197
0
LINE
8
DEFAULT_255_2_778
10
8.7506512
20
7.9707197
11
8.7657512
21
8.0223197
0
LINE
8
DEFAULT_255_2_778
10
8.7657512
20
8.0223197
11
8.8112512
21
8.0950197
0
LINE
8
DEFAULT_255_2_778
10
8.8112512
20
8.0950197
11
8.9287512
21
8.1715197
0
LINE
8
DEFAULT_255_2_778
10
8.9287512
20
8.1715197
11
8.9636512
21
8.1810197
0
LINE
8
DEFAULT_255_2_778
10
3.0637512
20
5.6714197
11
3.3301512
21
5.6638197
0
LINE
8
DEFAULT_255_2_778
10
3.3301512
20
5.6638197
11
3.4688512
21
5.5799197
0
LINE
8
DEFAULT_255_2_778
10
3.4688512
20
5.5799197
11
3.5180512
21
5.5047197
0
LINE
8
DEFAULT_255_2_778
10
3.5180512
20
5.5047197
11
3.5341512
21
5.4521197
0
LINE
8
DEFAULT_255_2_778
10
3.5341512
20
5.4521197
11
3.5384512
21
5.4211197
0
LINE
8
DEFAULT_255_2_778
10
3.5384512
20
5.4211197
11
3.5389512
21
5.4135197
0
LINE
8
DEFAULT_255_2_778
10
3.5389512
20
5.4135197
11
3.7434512
21
5.4135197
0
LINE
8
DEFAULT_255_2_778
10
3.7434512
20
5.4135197
11
3.7413512
21
5.4690197
0
LINE
8
DEFAULT_255_2_778
10
3.7413512
20
5.4690197
11
3.7392512
21
5.4875197
0
LINE
8
DEFAULT_255_2_778
10
3.7392512
20
5.4875197
11
3.7328512
21
5.5243197
0
LINE
8
DEFAULT_255_2_778
10
3.7328512
20
5.5243197
11
3.7183512
21
5.5767197
0
LINE
8
DEFAULT_255_2_778
10
3.7183512
20
5.5767197
11
3.6910512
21
5.6389197
0
LINE
8
DEFAULT_255_2_778
10
3.6910512
20
5.6389197
11
3.6534512
21
5.6955197
0
LINE
8
DEFAULT_255_2_778
10
3.6534512
20
5.6955197
11
3.5786512
21
5.7672197
0
LINE
8
DEFAULT_255_2_778
10
3.5786512
20
5.7672197
11
3.4566512
21
5.8349197
0
LINE
8
DEFAULT_255_2_778
10
3.4566512
20
5.8349197
11
3.3084512
21
5.8730197
0
LINE
8
DEFAULT_255_2_778
10
3.3084512
20
5.8730197
11
3.0806512
21
5.8741197
0
LINE
8
DEFAULT_255_2_778
10
3.0806512
20
5.8741197
11
2.9161512
21
5.8323197
0
LINE
8
DEFAULT_255_2_778
10
2.9161512
20
5.8323197
11
2.7925512
21
5.7654197
0
LINE
8
DEFAULT_255_2_778
10
2.7925512
20
5.7654197
11
2.7004512
21
5.6841197
0
LINE
8
DEFAULT_255_2_778
10
2.7004512
20
5.6841197
11
2.6351512
21
5.6021197
0
LINE
8
DEFAULT_255_2_778
10
2.6351512
20
5.6021197
11
2.5779512
21
5.5040197
0
LINE
8
DEFAULT_255_2_778
10
2.5779512
20
5.5040197
11
2.5504512
21
5.4415197
0
LINE
8
DEFAULT_255_2_778
10
2.5504512
20
5.4415197
11
2.5229512
21
5.3619197
0
LINE
8
DEFAULT_255_2_778
10
2.5229512
20
5.3619197
11
2.5083512
21
5.3076197
0
LINE
8
DEFAULT_255_2_778
10
2.5083512
20
5.3076197
11
2.4964512
21
5.2526197
0
LINE
8
DEFAULT_255_2_778
10
2.4964512
20
5.2526197
11
2.4866512
21
5.1936197
0
LINE
8
DEFAULT_255_2_778
10
2.4866512
20
5.1936197
11
2.4824512
21
5.1621197
0
LINE
8
DEFAULT_255_2_778
10
2.4824512
20
5.1621197
11
2.4790512
21
5.1304197
0
LINE
8
DEFAULT_255_2_778
10
2.4790512
20
5.1304197
11
2.4763512
21
5.0986197
0
LINE
8
DEFAULT_255_2_778
10
2.4763512
20
5.0986197
11
2.4763512
21
4.8483197
0
LINE
8
DEFAULT_255_2_778
10
2.4763512
20
4.8483197
11
2.4790512
21
4.8176197
0
LINE
8
DEFAULT_255_2_778
10
2.4790512
20
4.8176197
11
2.4824512
21
4.7869197
0
LINE
8
DEFAULT_255_2_778
10
2.4824512
20
4.7869197
11
2.4914512
21
4.7261197
0
LINE
8
DEFAULT_255_2_778
10
2.4914512
20
4.7261197
11
2.5017512
21
4.6732197
0
LINE
8
DEFAULT_255_2_778
10
2.5017512
20
4.6732197
11
2.5147512
21
4.6208197
0
LINE
8
DEFAULT_255_2_778
10
2.5147512
20
4.6208197
11
2.5396512
21
4.5438197
0
LINE
8
DEFAULT_255_2_778
10
2.5396512
20
4.5438197
11
2.5769512
21
4.4594197
0
LINE
8
DEFAULT_255_2_778
10
2.5769512
20
4.4594197
11
2.6337512
21
4.3668197
0
LINE
8
DEFAULT_255_2_778
10
2.6337512
20
4.3668197
11
2.7118512
21
4.2781197
0
LINE
8
DEFAULT_255_2_778
10
2.7118512
20
4.2781197
11
2.8200512
21
4.1980197
0
LINE
8
DEFAULT_255_2_778
10
2.8200512
20
4.1980197
11
2.9632512
21
4.1395197
0
LINE
8
DEFAULT_255_2_778
10
2.9632512
20
4.1395197
11
3.1751512
21
4.1133197
0
LINE
8
DEFAULT_255_2_778
10
3.1751512
20
4.1133197
11
3.4852512
21
4.1379197
0
LINE
8
DEFAULT_255_2_778
10
3.4852512
20
4.1379197
11
3.6897512
21
4.1914197
0
LINE
8
DEFAULT_255_2_778
10
3.6897512
20
4.1914197
11
3.7434512
21
4.2130197
0
LINE
8
DEFAULT_255_2_778
10
3.7434512
20
4.2130197
11
3.7434512
21
5.0732197
0
LINE
8
DEFAULT_255_2_778
10
3.7434512
20
5.0732197
11
3.2037512
21
5.0732197
0
LINE
8
DEFAULT_255_2_778
10
3.2037512
20
5.0732197
11
3.2037512
21
4.8708197
0
LINE
8
DEFAULT_255_2_778
10
3.2037512
20
4.8708197
11
3.5386512
21
4.8708197
0
LINE
8
DEFAULT_255_2_778
10
3.5386512
20
4.8708197
11
3.5386512
21
4.3565197
0
LINE
8
DEFAULT_255_2_778
10
3.5386512
20
4.3565197
11
3.3439512
21
4.3146197
0
LINE
8
DEFAULT_255_2_778
10
3.3439512
20
4.3146197
11
3.1071512
21
4.3115197
0
LINE
8
DEFAULT_255_2_778
10
3.1071512
20
4.3115197
11
2.9642512
21
4.3527197
0
LINE
8
DEFAULT_255_2_778
10
2.9642512
20
4.3527197
11
2.8674512
21
4.4184197
0
LINE
8
DEFAULT_255_2_778
10
2.8674512
20
4.4184197
11
2.8007512
21
4.4954197
0
LINE
8
DEFAULT_255_2_778
10
2.8007512
20
4.4954197
11
2.7600512
21
4.5647197
0
LINE
8
DEFAULT_255_2_778
10
2.7600512
20
4.5647197
11
2.7277512
21
4.6427197
0
LINE
8
DEFAULT_255_2_778
10
2.7277512
20
4.6427197
11
2.7076512
21
4.7123197
0
LINE
8
DEFAULT_255_2_778
10
2.7076512
20
4.7123197
11
2.6975512
21
4.7594197
0
LINE
8
DEFAULT_255_2_778
10
2.6975512
20
4.7594197
11
2.6896512
21
4.8070197
0
LINE
8
DEFAULT_255_2_778
10
2.6896512
20
4.8070197
11
2.6853512
21
4.8393197
0
LINE
8
DEFAULT_255_2_778
10
2.6853512
20
4.8393197
11
2.6822512
21
4.8719197
0
LINE
8
DEFAULT_255_2_778
10
2.6822512
20
4.8719197
11
2.6824512
21
5.1288197
0
LINE
8
DEFAULT_255_2_778
10
2.6824512
20
5.1288197
11
2.6859512
21
5.1603197
0
LINE
8
DEFAULT_255_2_778
10
2.6859512
20
5.1603197
11
2.6938512
21
5.2150197
0
LINE
8
DEFAULT_255_2_778
10
2.6938512
20
5.2150197
11
2.7031512
21
5.2616197
0
LINE
8
DEFAULT_255_2_778
10
2.7031512
20
5.2616197
11
2.7150512
21
5.3076197
0
LINE
8
DEFAULT_255_2_778
10
2.7150512
20
5.3076197
11
2.7369512
21
5.3725197
0
LINE
8
DEFAULT_255_2_778
10
2.7369512
20
5.3725197
11
2.7732512
21
5.4489197
0
LINE
8
DEFAULT_255_2_778
10
2.7732512
20
5.4489197
11
2.8295512
21
5.5304197
0
LINE
8
DEFAULT_255_2_778
10
2.8295512
20
5.5304197
11
2.9113512
21
5.6050197
0
LINE
8
DEFAULT_255_2_778
10
2.9113512
20
5.6050197
11
3.0632512
21
5.6706197
0
LINE
8
DEFAULT_255_2_778
10
4.1215512
20
8.1731197
11
4.3112512
21
8.1762197
0
LINE
8
DEFAULT_255_2_778
10
4.3112512
20
8.1762197
11
4.4993512
21
8.0630197
0
LINE
8
DEFAULT_255_2_778
10
4.4993512
20
8.0630197
11
4.5385512
21
7.9770197
0
LINE
8
DEFAULT_255_2_778
10
4.5385512
20
7.9770197
11
4.5456512
21
7.9339197
0
LINE
8
DEFAULT_255_2_778
10
4.5456512
20
7.9339197
11
4.5464512
21
7.9214197
0
LINE
8
DEFAULT_255_2_778
10
4.5464512
20
7.9214197
11
4.7541512
21
7.9214197
0
LINE
8
DEFAULT_255_2_778
10
4.7541512
20
7.9214197
11
4.7531512
21
7.9926197
0
LINE
8
DEFAULT_255_2_778
10
4.7531512
20
7.9926197
11
4.7488512
21
8.0207197
0
LINE
8
DEFAULT_255_2_778
10
4.7488512
20
8.0207197
11
4.7388512
21
8.0619197
0
LINE
8
DEFAULT_255_2_778
10
4.7388512
20
8.0619197
11
4.7128512
21
8.1276197
0
LINE
8
DEFAULT_255_2_778
10
4.7128512
20
8.1276197
11
4.6583512
21
8.2122197
0
LINE
8
DEFAULT_255_2_778
10
4.6583512
20
8.2122197
11
4.5615512
21
8.3009197
0
LINE
8
DEFAULT_255_2_778
10
4.5615512
20
8.3009197
11
4.4459512
21
8.3551197
0
LINE
8
DEFAULT_255_2_778
10
4.4459512
20
8.3551197
11
4.2133512
21
8.3805197
0
LINE
8
DEFAULT_255_2_778
10
4.2133512
20
8.3805197
11
4.0130512
21
8.3514197
0
LINE
8
DEFAULT_255_2_778
10
4.0130512
20
8.3514197
11
3.8625512
21
8.2813197
0
LINE
8
DEFAULT_255_2_778
10
3.8625512
20
8.2813197
11
3.7802512
21
8.2093197
0
LINE
8
DEFAULT_255_2_778
10
3.7802512
20
8.2093197
11
3.7344512
21
8.1461197
0
LINE
8
DEFAULT_255_2_778
10
3.7344512
20
8.1461197
11
3.7072512
21
8.0897197
0
LINE
8
DEFAULT_255_2_778
10
3.7072512
20
8.0897197
11
3.6921512
21
8.0453197
0
LINE
8
DEFAULT_255_2_778
10
3.6921512
20
8.0453197
11
3.6839512
21
8.0114197
0
LINE
8
DEFAULT_255_2_778
10
3.6839512
20
8.0114197
11
3.6781512
21
7.9770197
0
LINE
8
DEFAULT_255_2_778
10
3.6781512
20
7.9770197
11
3.6802512
21
7.7950197
0
LINE
8
DEFAULT_255_2_778
10
3.6802512
20
7.7950197
11
3.6950512
21
7.7339197
0
LINE
8
DEFAULT_255_2_778
10
3.6950512
20
7.7339197
11
3.7307512
21
7.6547197
0
LINE
8
DEFAULT_255_2_778
10
3.7307512
20
7.6547197
11
3.8199512
21
7.5571197
0
LINE
8
DEFAULT_255_2_778
10
3.8199512
20
7.5571197
11
4.0360512
21
7.4571197
0
LINE
8
DEFAULT_255_2_778
10
4.0360512
20
7.4571197
11
4.4633512
21
7.3277197
0
LINE
8
DEFAULT_255_2_778
10
4.4633512
20
7.3277197
11
4.5483512
21
7.2563197
0
LINE
8
DEFAULT_255_2_778
10
4.5483512
20
7.2563197
11
4.5734512
21
7.2097197
0
LINE
8
DEFAULT_255_2_778
10
4.5734512
20
7.2097197
11
4.5832512
21
7.1745197
0
LINE
8
DEFAULT_255_2_778
10
4.5832512
20
7.1745197
11
4.5824512
21
7.0396197
0
LINE
8
DEFAULT_255_2_778
10
4.5824512
20
7.0396197
11
4.5692512
21
6.9925197
0
LINE
8
DEFAULT_255_2_778
10
4.5692512
20
6.9925197
11
4.5316512
21
6.9250197
0
LINE
8
DEFAULT_255_2_778
10
4.5316512
20
6.9250197
11
4.4268512
21
6.8412197
0
LINE
8
DEFAULT_255_2_778
10
4.4268512
20
6.8412197
11
4.1614512
21
6.8081197
0
LINE
8
DEFAULT_255_2_778
10
4.1614512
20
6.8081197
11
3.9524512
21
6.8965197
0
LINE
8
DEFAULT_255_2_778
10
3.9524512
20
6.8965197
11
3.8773512
21
7.0118197
0
LINE
8
DEFAULT_255_2_778
10
3.8773512
20
7.0118197
11
3.8625512
21
7.0682197
0
LINE
8
DEFAULT_255_2_778
10
3.8625512
20
7.0682197
11
3.8611512
21
7.1393197
0
LINE
8
DEFAULT_255_2_778
10
3.8611512
20
7.1393197
11
3.6556512
21
7.1393197
0
LINE
8
DEFAULT_255_2_778
10
3.6556512
20
7.1393197
11
3.6572512
21
7.0750197
0
LINE
8
DEFAULT_255_2_778
10
3.6572512
20
7.0750197
11
3.6614512
21
7.0430197
0
LINE
8
DEFAULT_255_2_778
10
3.6614512
20
7.0430197
11
3.6717512
21
6.9954197
0
LINE
8
DEFAULT_255_2_778
10
3.6717512
20
6.9954197
11
3.6926512
21
6.9338197
0
LINE
8
DEFAULT_255_2_778
10
3.6926512
20
6.9338197
11
3.7291512
21
6.8607197
0
LINE
8
DEFAULT_255_2_778
10
3.7291512
20
6.8607197
11
3.7984512
21
6.7689197
0
LINE
8
DEFAULT_255_2_778
10
3.7984512
20
6.7689197
11
3.8992512
21
6.6869197
0
LINE
8
DEFAULT_255_2_778
10
3.8992512
20
6.6869197
11
4.0450512
21
6.6300197
0
LINE
8
DEFAULT_255_2_778
10
4.0450512
20
6.6300197
11
4.2694512
21
6.6139197
0
LINE
8
DEFAULT_255_2_778
10
4.2694512
20
6.6139197
11
4.4633512
21
6.6483197
0
LINE
8
DEFAULT_255_2_778
10
4.4633512
20
6.6483197
11
4.5967512
21
6.7157197
0
LINE
8
DEFAULT_255_2_778
10
4.5967512
20
6.7157197
11
4.6798512
21
6.7917197
0
LINE
8
DEFAULT_255_2_778
10
4.6798512
20
6.7917197
11
4.7261512
21
6.8576197
0
LINE
8
DEFAULT_255_2_778
10
4.7261512
20
6.8576197
11
4.7544512
21
6.9174197
0
LINE
8
DEFAULT_255_2_778
10
4.7544512
20
6.9174197
11
4.7745512
21
6.9806197
0
LINE
8
DEFAULT_255_2_778
10
4.7745512
20
6.9806197
11
4.7824512
21
7.0171197
0
LINE
8
DEFAULT_255_2_778
10
4.7824512
20
7.0171197
11
4.7882512
21
7.0541197
0
LINE
8
DEFAULT_255_2_778
10
4.7882512
20
7.0541197
11
4.7875512
21
7.2330197
0
LINE
8
DEFAULT_255_2_778
10
4.7875512
20
7.2330197
11
4.7758512
21
7.2886197
0
LINE
8
DEFAULT_255_2_778
10
4.7758512
20
7.2886197
11
4.7467512
21
7.3632197
0
LINE
8
DEFAULT_255_2_778
10
4.7467512
20
7.3632197
11
4.6771512
21
7.4560197
0
LINE
8
DEFAULT_255_2_778
10
4.6771512
20
7.4560197
11
4.5126512
21
7.5566197
0
LINE
8
DEFAULT_255_2_778
10
4.5126512
20
7.5566197
11
3.9956512
21
7.7167197
0
LINE
8
DEFAULT_255_2_778
10
3.9956512
20
7.7167197
11
3.9130512
21
7.7910197
0
LINE
8
DEFAULT_255_2_778
10
3.9130512
20
7.7910197
11
3.8897512
21
7.8423197
0
LINE
8
DEFAULT_255_2_778
10
3.8897512
20
7.8423197
11
3.8831512
21
7.8741197
0
LINE
8
DEFAULT_255_2_778
10
3.8831512
20
7.8741197
11
3.8847512
21
7.9622197
0
LINE
8
DEFAULT_255_2_778
10
3.8847512
20
7.9622197
11
3.8963512
21
8.0061197
0
LINE
8
DEFAULT_255_2_778
10
3.8963512
20
8.0061197
11
3.9328512
21
8.0717197
0
LINE
8
DEFAULT_255_2_778
10
3.9328512
20
8.0717197
11
4.0358512
21
8.1466197
0
LINE
8
DEFAULT_255_2_778
10
4.0358512
20
8.1466197
11
4.1212512
21
8.1725197
0
LINE
8
DEFAULT_255_2_778
10
5.0870512
20
8.3472197
11
6.1038512
21
8.3472197
0
LINE
8
DEFAULT_255_2_778
10
6.1038512
20
8.3472197
11
6.1038512
21
8.1387197
0
LINE
8
DEFAULT_255_2_778
10
6.1038512
20
8.1387197
11
5.5301512
21
6.6472197
0
LINE
8
DEFAULT_255_2_778
10
5.5301512
20
6.6472197
11
5.2894512
21
6.6472197
0
LINE
8
DEFAULT_255_2_778
10
5.2894512
20
6.6472197
11
5.8926512
21
8.1569197
0
LINE
8
DEFAULT_255_2_778
10
5.8926512
20
8.1569197
11
5.0870512
21
8.1569197
0
LINE
8
DEFAULT_255_2_778
10
5.0870512
20
8.1569197
11
5.0870512
21
8.3472197
0
LINE
8
DEFAULT_255_2_778
10
2.4649512
20
8.3472197
11
3.3767512
21
8.3472197
0
LINE
8
DEFAULT_255_2_778
10
3.3767512
20
8.3472197
11
3.3767512
21
8.1543197
0
LINE
8
DEFAULT_255_2_778
10
3.3767512
20
8.1543197
11
2.6695512
21
8.1543197
0
LINE
8
DEFAULT_255_2_778
10
2.6695512
20
8.1543197
11
2.6695512
21
7.6182197
0
LINE
8
DEFAULT_255_2_778
10
2.6695512
20
7.6182197
11
3.3492512
21
7.6182197
0
LINE
8
DEFAULT_255_2_778
10
3.3492512
20
7.6182197
11
3.3492512
21
7.4254197
0
LINE
8
DEFAULT_255_2_778
10
3.3492512
20
7.4254197
11
2.6695512
21
7.4254197
0
LINE
8
DEFAULT_255_2_778
10
2.6695512
20
7.4254197
11
2.6695512
21
6.8398197
0
LINE
8
DEFAULT_255_2_778
10
2.6695512
20
6.8398197
11
3.3957512
21
6.8398197
0
LINE
8
DEFAULT_255_2_778
10
3.3957512
20
6.8398197
11
3.3957512
21
6.6470197
0
LINE
8
DEFAULT_255_2_778
10
3.3957512
20
6.6470197
11
2.4649512
21
6.6470197
0
LINE
8
DEFAULT_255_2_778
10
2.4649512
20
6.6470197
11
2.4649512
21
8.3469197
0
LINE
8
DEFAULT_255_2_778
10
1.5656512
20
7.5627197
11
1.7281512
21
7.5614197
0
LINE
8
DEFAULT_255_2_778
10
1.7281512
20
7.5614197
11
1.8194512
21
7.5137197
0
LINE
8
DEFAULT_255_2_778
10
1.8194512
20
7.5137197
11
1.8757512
21
7.4473197
0
LINE
8
DEFAULT_255_2_778
10
1.8757512
20
7.4473197
11
1.9080512
21
7.3822197
0
LINE
8
DEFAULT_255_2_778
10
1.9080512
20
7.3822197
11
1.9236512
21
7.3320197
0
LINE
8
DEFAULT_255_2_778
10
1.9236512
20
7.3320197
11
1.9315512
21
7.2931197
0
LINE
8
DEFAULT_255_2_778
10
1.9315512
20
7.2931197
11
1.9360512
21
7.2589197
0
LINE
8
DEFAULT_255_2_778
10
1.9360512
20
7.2589197
11
1.9350512
21
7.1118197
0
LINE
8
DEFAULT_255_2_778
10
1.9350512
20
7.1118197
11
1.9281512
21
7.0690197
0
LINE
8
DEFAULT_255_2_778
10
1.9281512
20
7.0690197
11
1.9120512
21
7.0105197
0
LINE
8
DEFAULT_255_2_778
10
1.9120512
20
7.0105197
11
1.8770512
21
6.9383197
0
LINE
8
DEFAULT_255_2_778
10
1.8770512
20
6.9383197
11
1.8106512
21
6.8623197
0
LINE
8
DEFAULT_255_2_778
10
1.8106512
20
6.8623197
11
1.7029512
21
6.8102197
0
LINE
8
DEFAULT_255_2_778
10
1.7029512
20
6.8102197
11
1.5384512
21
6.8102197
0
LINE
8
DEFAULT_255_2_778
10
1.5384512
20
6.8102197
11
1.4304512
21
6.8636197
0
LINE
8
DEFAULT_255_2_778
10
1.4304512
20
6.8636197
11
1.3645512
21
6.9396197
0
LINE
8
DEFAULT_255_2_778
10
1.3645512
20
6.9396197
11
1.3333512
21
7.0023197
0
LINE
8
DEFAULT_255_2_778
10
1.3333512
20
7.0023197
11
1.3169512
21
7.0552197
0
LINE
8
DEFAULT_255_2_778
10
1.3169512
20
7.0552197
11
1.3087512
21
7.0975197
0
LINE
8
DEFAULT_255_2_778
10
1.3087512
20
7.0975197
11
1.3103512
21
7.2870197
0
LINE
8
DEFAULT_255_2_778
10
1.3103512
20
7.2870197
11
1.3222512
21
7.3367197
0
LINE
8
DEFAULT_255_2_778
10
1.3222512
20
7.3367197
11
1.3455512
21
7.3941197
0
LINE
8
DEFAULT_255_2_778
10
1.3455512
20
7.3941197
11
1.3997512
21
7.4709197
0
LINE
8
DEFAULT_255_2_778
10
1.3997512
20
7.4709197
11
1.5000512
21
7.5418197
0
LINE
8
DEFAULT_255_2_778
10
1.5000512
20
7.5418197
11
1.5656512
21
7.5627197
0
LINE
8
DEFAULT_255_2_778
10
1.5675512
20
8.3652197
11
1.4325512
21
8.3228197
0
LINE
8
DEFAULT_255_2_778
10
1.4325512
20
8.3228197
11
1.3331512
21
8.2551197
0
LINE
8
DEFAULT_255_2_778
10
1.3331512
20
8.2551197
11
1.2582512
21
8.1723197
0
LINE
8
DEFAULT_255_2_778
10
1.2582512
20
8.1723197
11
1.1981512
21
8.0728197
0
LINE
8
DEFAULT_255_2_778
10
1.1981512
20
8.0728197
11
1.1677512
21
8.0048197
0
LINE
8
DEFAULT_255_2_778
10
1.1677512
20
8.0048197
11
1.1402512
21
7.9270197
0
LINE
8
DEFAULT_255_2_778
10
1.1402512
20
7.9270197
11
1.1174512
21
7.8439197
0
LINE
8
DEFAULT_255_2_778
10
1.1174512
20
7.8439197
11
1.1045512
21
7.7831197
0
LINE
8
DEFAULT_255_2_778
10
1.1045512
20
7.7831197
11
1.0941512
21
7.7217197
0
LINE
8
DEFAULT_255_2_778
10
1.0941512
20
7.7217197
11
1.0862512
21
7.6598197
0
LINE
8
DEFAULT_255_2_778
10
1.0862512
20
7.6598197
11
1.0825512
21
7.6246197
0
LINE
8
DEFAULT_255_2_778
10
1.0825512
20
7.6246197
11
1.0817512
21
7.2317197
0
LINE
8
DEFAULT_255_2_778
10
1.0817512
20
7.2317197
11
1.0854512
21
7.1975197
0
LINE
8
DEFAULT_255_2_778
10
1.0854512
20
7.1975197
11
1.0928512
21
7.1446197
0
LINE
8
DEFAULT_255_2_778
10
1.0928512
20
7.1446197
11
1.1026512
21
7.0920197
0
LINE
8
DEFAULT_255_2_778
10
1.1026512
20
7.0920197
11
1.1148512
21
7.0399197
0
LINE
8
DEFAULT_255_2_778
10
1.1148512
20
7.0399197
11
1.1412512
21
6.9555197
0
LINE
8
DEFAULT_255_2_778
10
1.1412512
20
6.9555197
11
1.1738512
21
6.8800197
0
LINE
8
DEFAULT_255_2_778
10
1.1738512
20
6.8800197
11
1.2203512
21
6.8012197
0
LINE
8
DEFAULT_255_2_778
10
1.2203512
20
6.8012197
11
1.3016512
21
6.7112197
0
LINE
8
DEFAULT_255_2_778
10
1.3016512
20
6.7112197
11
1.4167512
21
6.6422197
0
LINE
8
DEFAULT_255_2_778
10
1.4167512
20
6.6422197
11
1.5865512
21
6.6091197
0
LINE
8
DEFAULT_255_2_778
10
1.5865512
20
6.6091197
11
1.7715512
21
6.6305197
0
LINE
8
DEFAULT_255_2_778
10
1.7715512
20
6.6305197
11
1.8982512
21
6.6869197
0
LINE
8
DEFAULT_255_2_778
10
1.8982512
20
6.6869197
11
1.9908512
21
6.7642197
0
LINE
8
DEFAULT_255_2_778
10
1.9908512
20
6.7642197
11
2.0450512
21
6.8345197
0
LINE
8
DEFAULT_255_2_778
10
2.0450512
20
6.8345197
11
2.0794512
21
6.8980197
0
LINE
8
DEFAULT_255_2_778
10
2.0794512
20
6.8980197
11
2.1001512
21
6.9510197
0
LINE
8
DEFAULT_255_2_778
10
2.1001512
20
6.9510197
11
2.1154512
21
7.0055197
0
LINE
8
DEFAULT_255_2_778
10
2.1154512
20
7.0055197
11
2.1234512
21
7.0449197
0
LINE
8
DEFAULT_255_2_778
10
2.1234512
20
7.0449197
11
2.1294512
21
7.0870197
0
LINE
8
DEFAULT_255_2_778
10
2.1294512
20
7.0870197
11
2.1284512
21
7.3087197
0
LINE
8
DEFAULT_255_2_778
10
2.1284512
20
7.3087197
11
2.1218512
21
7.3502197
0
LINE
8
DEFAULT_255_2_778
10
2.1218512
20
7.3502197
11
2.1101512
21
7.4021197
0
LINE
8
DEFAULT_255_2_778
10
2.1101512
20
7.4021197
11
2.0879512
21
7.4695197
0
LINE
8
DEFAULT_255_2_778
10
2.0879512
20
7.4695197
11
2.0472512
21
7.5516197
0
LINE
8
DEFAULT_255_2_778
10
2.0472512
20
7.5516197
11
1.9747512
21
7.6442197
0
LINE
8
DEFAULT_255_2_778
10
1.9747512
20
7.6442197
11
1.8633512
21
7.7230197
0
LINE
8
DEFAULT_255_2_778
10
1.8633512
20
7.7230197
11
1.6955512
21
7.7635197
0
LINE
8
DEFAULT_255_2_778
10
1.6955512
20
7.7635197
11
1.5246512
21
7.7394197
0
LINE
8
DEFAULT_255_2_778
10
1.5246512
20
7.7394197
11
1.4074512
21
7.6727197
0
LINE
8
DEFAULT_255_2_778
10
1.4074512
20
7.6727197
11
1.3172512
21
7.5809197
0
LINE
8
DEFAULT_255_2_778
10
1.3172512
20
7.5809197
11
1.2696512
21
7.5098197
0
LINE
8
DEFAULT_255_2_778
10
1.2696512
20
7.5098197
11
1.2738512
21
7.5656197
0
LINE
8
DEFAULT_255_2_778
10
1.2738512
20
7.5656197
11
1.2793512
21
7.6214197
0
LINE
8
DEFAULT_255_2_778
10
1.2793512
20
7.6214197
11
1.2865512
21
7.6770197
0
LINE
8
DEFAULT_255_2_778
10
1.2865512
20
7.6770197
11
1.2992512
21
7.7500197
0
LINE
8
DEFAULT_255_2_778
10
1.2992512
20
7.7500197
11
1.3209512
21
7.8402197
0
LINE
8
DEFAULT_255_2_778
10
1.3209512
20
7.8402197
11
1.3508512
21
7.9283197
0
LINE
8
DEFAULT_255_2_778
10
1.3508512
20
7.9283197
11
1.3958512
21
8.0209197
0
LINE
8
DEFAULT_255_2_778
10
1.3958512
20
8.0209197
11
1.4741512
21
8.1164197
0
LINE
8
DEFAULT_255_2_778
10
1.4741512
20
8.1164197
11
1.5855512
21
8.1752197
0
LINE
8
DEFAULT_255_2_778
10
1.5855512
20
8.1752197
11
1.7392512
21
8.1744197
0
LINE
8
DEFAULT_255_2_778
10
1.7392512
20
8.1744197
11
1.8307512
21
8.1252197
0
LINE
8
DEFAULT_255_2_778
10
1.8307512
20
8.1252197
11
1.8770512
21
8.0656197
0
LINE
8
DEFAULT_255_2_778
10
1.8770512
20
8.0656197
11
1.8956512
21
8.0196197
0
LINE
8
DEFAULT_255_2_778
10
1.8956512
20
8.0196197
11
1.9030512
21
7.9873197
0
LINE
8
DEFAULT_255_2_778
10
1.9030512
20
7.9873197
11
1.9064512
21
7.9611197
0
LINE
8
DEFAULT_255_2_778
10
1.9064512
20
7.9611197
11
1.9083512
21
7.9217197
0
LINE
8
DEFAULT_255_2_778
10
1.9083512
20
7.9217197
11
2.1043512
21
7.9217197
0
LINE
8
DEFAULT_255_2_778
10
2.1043512
20
7.9217197
11
2.1019512
21
7.9805197
0
LINE
8
DEFAULT_255_2_778
10
2.1019512
20
7.9805197
11
2.1001512
21
8.0000197
0
LINE
8
DEFAULT_255_2_778
10
2.1001512
20
8.0000197
11
2.0943512
21
8.0392197
0
LINE
8
DEFAULT_255_2_778
10
2.0943512
20
8.0392197
11
2.0861512
21
8.0754197
0
LINE
8
DEFAULT_255_2_778
10
2.0861512
20
8.0754197
11
2.0699512
21
8.1252197
0
LINE
8
DEFAULT_255_2_778
10
2.0699512
20
8.1252197
11
2.0392512
21
8.1863197
0
LINE
8
DEFAULT_255_2_778
10
2.0392512
20
8.1863197
11
1.9882512
21
8.2509197
0
LINE
8
DEFAULT_255_2_778
10
1.9882512
20
8.2509197
11
1.9022512
21
8.3162197
0
LINE
8
DEFAULT_255_2_778
10
1.9022512
20
8.3162197
11
1.7826512
21
8.3599197
0
LINE
8
DEFAULT_255_2_778
10
1.7826512
20
8.3599197
11
1.5863512
21
8.3675197
0
LINE
8
DEFAULT_255_2_778
10
1.5863512
20
8.3675197
11
1.5675512
21
8.3652197
0
LINE
8
DEFAULT_255_2_778
10
9.9937512
20
7.2581197
11
10.5144512
21
7.2581197
0
LINE
8
DEFAULT_255_2_778
10
10.5144512
20
7.2581197
11
10.5144512
21
8.1051197
0
LINE
8
DEFAULT_255_2_778
10
10.5144512
20
8.1051197
11
9.9937512
21
7.2581197
0
LINE
8
DEFAULT_255_2_778
10
10.4781512
20
8.3472197
11
10.7146512
21
8.3472197
0
LINE
8
DEFAULT_255_2_778
10
10.7146512
20
8.3472197
11
10.7146512
21
7.2581197
0
LINE
8
DEFAULT_255_2_778
10
10.7146512
20
7.2581197
11
10.9978512
21
7.2581197
0
LINE
8
DEFAULT_255_2_778
10
10.9978512
20
7.2581197
11
10.9978512
21
7.0727197
0
LINE
8
DEFAULT_255_2_778
10
10.9978512
20
7.0727197
11
10.7146512
21
7.0727197
0
LINE
8
DEFAULT_255_2_778
10
10.7146512
20
7.0727197
11
10.7146512
21
6.6475197
0
LINE
8
DEFAULT_255_2_778
10
10.7146512
20
6.6475197
11
10.5144512
21
6.6475197
0
LINE
8
DEFAULT_255_2_778
10
10.5144512
20
6.6475197
11
10.5144512
21
7.0727197
0
LINE
8
DEFAULT_255_2_778
10
10.5144512
20
7.0727197
11
9.8188512
21
7.0727197
0
LINE
8
DEFAULT_255_2_778
10
9.8188512
20
7.0727197
11
9.8188512
21
7.2775197
0
LINE
8
DEFAULT_255_2_778
10
9.8188512
20
7.2775197
11
10.4781512
21
8.3472197
0
LINE
8
DEFAULT_255_2_778
10
13.6264512
20
5.8588197
11
13.5158512
21
5.8156197
0
LINE
8
DEFAULT_255_2_778
10
13.5158512
20
5.8156197
11
13.4208512
21
5.7460197
0
LINE
8
DEFAULT_255_2_778
10
13.4208512
20
5.7460197
11
13.3486512
21
5.6630197
0
LINE
8
DEFAULT_255_2_778
10
13.3486512
20
5.6630197
11
13.2978512
21
5.5809197
0
LINE
8
DEFAULT_255_2_778
10
13.2978512
20
5.5809197
11
13.2591512
21
5.5000197
0
LINE
8
DEFAULT_255_2_778
10
13.2591512
20
5.5000197
11
13.2282512
21
5.4158197
0
LINE
8
DEFAULT_255_2_778
10
13.2282512
20
5.4158197
11
13.2097512
21
5.3513197
0
LINE
8
DEFAULT_255_2_778
10
13.2097512
20
5.3513197
11
13.1951512
21
5.2859197
0
LINE
8
DEFAULT_255_2_778
10
13.1951512
20
5.2859197
11
13.1840512
21
5.2198197
0
LINE
8
DEFAULT_255_2_778
10
13.1840512
20
5.2198197
11
13.1792512
21
5.1833197
0
LINE
8
DEFAULT_255_2_778
10
13.1792512
20
5.1833197
11
13.1755512
21
5.1468197
0
LINE
8
DEFAULT_255_2_778
10
13.1755512
20
5.1468197
11
13.1726512
21
5.1103197
0
LINE
8
DEFAULT_255_2_778
10
13.1726512
20
5.1103197
11
13.1726512
21
4.8883197
0
LINE
8
DEFAULT_255_2_778
10
13.1726512
20
4.8883197
11
13.1755512
21
4.8510197
0
LINE
8
DEFAULT_255_2_778
10
13.1755512
20
4.8510197
11
13.1792512
21
4.8139197
0
LINE
8
DEFAULT_255_2_778
10
13.1792512
20
4.8139197
11
13.1837512
21
4.7769197
0
LINE
8
DEFAULT_255_2_778
10
13.1837512
20
4.7769197
11
13.1946512
21
4.7097197
0
LINE
8
DEFAULT_255_2_778
10
13.1946512
20
4.7097197
11
13.2089512
21
4.6433197
0
LINE
8
DEFAULT_255_2_778
10
13.2089512
20
4.6433197
11
13.2271512
21
4.5776197
0
LINE
8
DEFAULT_255_2_778
10
13.2271512
20
4.5776197
11
13.2541512
21
4.5009197
0
LINE
8
DEFAULT_255_2_778
10
13.2541512
20
4.5009197
11
13.2872512
21
4.4266197
0
LINE
8
DEFAULT_255_2_778
10
13.2872512
20
4.4266197
11
13.3340512
21
4.3440197
0
LINE
8
DEFAULT_255_2_778
10
13.3340512
20
4.3440197
11
13.3880512
21
4.2718197
0
LINE
8
DEFAULT_255_2_778
10
13.3880512
20
4.2718197
11
13.4645512
21
4.2001197
0
LINE
8
DEFAULT_255_2_778
10
13.4645512
20
4.2001197
11
13.5679512
21
4.1411197
0
LINE
8
DEFAULT_255_2_778
10
13.5679512
20
4.1411197
11
13.7055512
21
4.1099197
0
LINE
8
DEFAULT_255_2_778
10
13.7055512
20
4.1099197
11
13.8473512
21
4.1181197
0
LINE
8
DEFAULT_255_2_778
10
13.8473512
20
4.1181197
11
13.9611512
21
4.1575197
0
LINE
8
DEFAULT_255_2_778
10
13.9611512
20
4.1575197
11
14.0592512
21
4.2255197
0
LINE
8
DEFAULT_255_2_778
10
14.0592512
20
4.2255197
11
14.1328512
21
4.3070197
0
LINE
8
DEFAULT_255_2_778
10
14.1328512
20
4.3070197
11
14.1926512
21
4.4025197
0
LINE
8
DEFAULT_255_2_778
10
14.1926512
20
4.4025197
11
14.2278512
21
4.4760197
0
LINE
8
DEFAULT_255_2_778
10
14.2278512
20
4.4760197
11
14.2566512
21
4.5522197
0
LINE
8
DEFAULT_255_2_778
10
14.2566512
20
4.5522197
11
14.2746512
21
4.6107197
0
LINE
8
DEFAULT_255_2_778
10
14.2746512
20
4.6107197
11
14.2908512
21
4.6769197
0
LINE
8
DEFAULT_255_2_778
10
14.2908512
20
4.6769197
11
14.3035512
21
4.7438197
0
LINE
8
DEFAULT_255_2_778
10
14.3035512
20
4.7438197
11
14.3085512
21
4.7774197
0
LINE
8
DEFAULT_255_2_778
10
14.3085512
20
4.7774197
11
14.3130512
21
4.8144197
0
LINE
8
DEFAULT_255_2_778
10
14.3130512
20
4.8144197
11
14.3167512
21
4.8515197
0
LINE
8
DEFAULT_255_2_778
10
14.3167512
20
4.8515197
11
14.3196512
21
4.8885197
0
LINE
8
DEFAULT_255_2_778
10
14.3196512
20
4.8885197
11
14.3196512
21
5.1103197
0
LINE
8
DEFAULT_255_2_778
10
14.3196512
20
5.1103197
11
14.3167512
21
5.1468197
0
LINE
8
DEFAULT_255_2_778
10
14.3167512
20
5.1468197
11
14.3130512
21
5.1833197
0
LINE
8
DEFAULT_255_2_778
10
14.3130512
20
5.1833197
11
14.3082512
21
5.2198197
0
LINE
8
DEFAULT_255_2_778
10
14.3082512
20
5.2198197
11
14.2971512
21
5.2859197
0
LINE
8
DEFAULT_255_2_778
10
14.2971512
20
5.2859197
11
14.2826512
21
5.3513197
0
LINE
8
DEFAULT_255_2_778
10
14.2826512
20
5.3513197
11
14.2640512
21
5.4158197
0
LINE
8
DEFAULT_255_2_778
10
14.2640512
20
5.4158197
11
14.2365512
21
5.4915197
0
LINE
8
DEFAULT_255_2_778
10
14.2365512
20
5.4915197
11
14.2029512
21
5.5645197
0
LINE
8
DEFAULT_255_2_778
10
14.2029512
20
5.5645197
11
14.1436512
21
5.6630197
0
LINE
8
DEFAULT_255_2_778
10
14.1436512
20
5.6630197
11
14.0876512
21
5.7307197
0
LINE
8
DEFAULT_255_2_778
10
14.0876512
20
5.7307197
11
13.9939512
21
5.8058197
0
LINE
8
DEFAULT_255_2_778
10
13.9939512
20
5.8058197
11
13.8857512
21
5.8537197
0
LINE
8
DEFAULT_255_2_778
10
13.8857512
20
5.8537197
11
13.7462512
21
5.8725197
0
LINE
8
DEFAULT_255_2_778
10
13.7462512
20
5.8725197
11
13.6264512
21
5.8588197
0
LINE
8
DEFAULT_255_2_778
10
13.6576512
20
5.6667197
11
13.7976512
21
5.6754197
0
LINE
8
DEFAULT_255_2_778
10
13.7976512
20
5.6754197
11
13.8934512
21
5.6407197
0
LINE
8
DEFAULT_255_2_778
10
13.8934512
20
5.6407197
11
13.9719512
21
5.5730197
0
LINE
8
DEFAULT_255_2_778
10
13.9719512
20
5.5730197
11
14.0206512
21
5.5021197
0
LINE
8
DEFAULT_255_2_778
10
14.0206512
20
5.5021197
11
14.0529512
21
5.4344197
0
LINE
8
DEFAULT_255_2_778
10
14.0529512
20
5.4344197
11
14.0817512
21
5.3521197
0
LINE
8
DEFAULT_255_2_778
10
14.0817512
20
5.3521197
11
14.0987512
21
5.2857197
0
LINE
8
DEFAULT_255_2_778
10
14.0987512
20
5.2857197
11
14.1082512
21
5.2367197
0
LINE
8
DEFAULT_255_2_778
10
14.1082512
20
5.2367197
11
14.1156512
21
5.1872197
0
LINE
8
DEFAULT_255_2_778
10
14.1156512
20
5.1872197
11
14.1185512
21
5.1624197
0
LINE
8
DEFAULT_255_2_778
10
14.1185512
20
5.1624197
11
14.1217512
21
5.1296197
0
LINE
8
DEFAULT_255_2_778
10
14.1217512
20
5.1296197
11
14.1217512
21
4.8639197
0
LINE
8
DEFAULT_255_2_778
10
14.1217512
20
4.8639197
11
14.1185512
21
4.8306197
0
LINE
8
DEFAULT_255_2_778
10
14.1185512
20
4.8306197
11
14.1122512
21
4.7803197
0
LINE
8
DEFAULT_255_2_778
10
14.1122512
20
4.7803197
11
14.1040512
21
4.7303197
0
LINE
8
DEFAULT_255_2_778
10
14.1040512
20
4.7303197
11
14.0878512
21
4.6583197
0
LINE
8
DEFAULT_255_2_778
10
14.0878512
20
4.6583197
11
14.0677512
21
4.5919197
0
LINE
8
DEFAULT_255_2_778
10
14.0677512
20
4.5919197
11
14.0299512
21
4.5001197
0
LINE
8
DEFAULT_255_2_778
10
14.0299512
20
4.5001197
11
13.9838512
21
4.4250197
0
LINE
8
DEFAULT_255_2_778
10
13.9838512
20
4.4250197
11
13.9158512
21
4.3562197
0
LINE
8
DEFAULT_255_2_778
10
13.9158512
20
4.3562197
11
13.8230512
21
4.3109197
0
LINE
8
DEFAULT_255_2_778
10
13.8230512
20
4.3109197
11
13.6947512
21
4.3054197
0
LINE
8
DEFAULT_255_2_778
10
13.6947512
20
4.3054197
11
13.5983512
21
4.3411197
0
LINE
8
DEFAULT_255_2_778
10
13.5983512
20
4.3411197
11
13.5195512
21
4.4107197
0
LINE
8
DEFAULT_255_2_778
10
13.5195512
20
4.4107197
11
13.4705512
21
4.4840197
0
LINE
8
DEFAULT_255_2_778
10
13.4705512
20
4.4840197
11
13.4407512
21
4.5480197
0
LINE
8
DEFAULT_255_2_778
10
13.4407512
20
4.5480197
11
13.4171512
21
4.6134197
0
LINE
8
DEFAULT_255_2_778
10
13.4171512
20
4.6134197
11
13.3988512
21
4.6803197
0
LINE
8
DEFAULT_255_2_778
10
13.3988512
20
4.6803197
11
13.3883512
21
4.7298197
0
LINE
8
DEFAULT_255_2_778
10
13.3883512
20
4.7298197
11
13.3801512
21
4.7798197
0
LINE
8
DEFAULT_255_2_778
10
13.3801512
20
4.7798197
11
13.3737512
21
4.8301197
0
LINE
8
DEFAULT_255_2_778
10
13.3737512
20
4.8301197
11
13.3705512
21
4.8634197
0
LINE
8
DEFAULT_255_2_778
10
13.3705512
20
4.8634197
11
13.3705512
21
5.1290197
0
LINE
8
DEFAULT_255_2_778
10
13.3705512
20
5.1290197
11
13.3737512
21
5.1618197
0
LINE
8
DEFAULT_255_2_778
10
13.3737512
20
5.1618197
11
13.3801512
21
5.2113197
0
LINE
8
DEFAULT_255_2_778
10
13.3801512
20
5.2113197
11
13.3885512
21
5.2605197
0
LINE
8
DEFAULT_255_2_778
10
13.3885512
20
5.2605197
11
13.4049512
21
5.3314197
0
LINE
8
DEFAULT_255_2_778
10
13.4049512
20
5.3314197
11
13.4253512
21
5.3968197
0
LINE
8
DEFAULT_255_2_778
10
13.4253512
20
5.3968197
11
13.4634512
21
5.4865197
0
LINE
8
DEFAULT_255_2_778
10
13.4634512
20
5.4865197
11
13.5092512
21
5.5592197
0
LINE
8
DEFAULT_255_2_778
10
13.5092512
20
5.5592197
11
13.5878512
21
5.6333197
0
LINE
8
DEFAULT_255_2_778
10
13.5878512
20
5.6333197
11
13.6576512
21
5.6667197
0
LINE
8
DEFAULT_255_2_778
10
12.6646512
20
4.1691197
11
12.8160512
21
4.2379197
0
LINE
8
DEFAULT_255_2_778
10
12.8160512
20
4.2379197
11
12.9012512
21
4.3194197
0
LINE
8
DEFAULT_255_2_778
10
12.9012512
20
4.3194197
11
12.9369512
21
4.3774197
0
LINE
8
DEFAULT_255_2_778
10
12.9369512
20
4.3774197
11
12.9583512
21
4.4316197
0
LINE
8
DEFAULT_255_2_778
10
12.9583512
20
4.4316197
11
12.9694512
21
4.4745197
0
LINE
8
DEFAULT_255_2_778
10
12.9694512
20
4.4745197
11
12.9766512
21
4.5184197
0
LINE
8
DEFAULT_255_2_778
10
12.9766512
20
4.5184197
11
12.9747512
21
4.7031197
0
LINE
8
DEFAULT_255_2_778
10
12.9747512
20
4.7031197
11
12.9655512
21
4.7499197
0
LINE
8
DEFAULT_255_2_778
10
12.9655512
20
4.7499197
11
12.9485512
21
4.8036197
0
LINE
8
DEFAULT_255_2_778
10
12.9485512
20
4.8036197
11
12.9170512
21
4.8668197
0
LINE
8
DEFAULT_255_2_778
10
12.9170512
20
4.8668197
11
12.8567512
21
4.9404197
0
LINE
8
DEFAULT_255_2_778
10
12.8567512
20
4.9404197
11
12.7559512
21
5.0094197
0
LINE
8
DEFAULT_255_2_778
10
12.7559512
20
5.0094197
11
12.6622512
21
5.0441197
0
LINE
8
DEFAULT_255_2_778
10
12.6622512
20
5.0441197
11
12.7906512
21
5.1129197
0
LINE
8
DEFAULT_255_2_778
10
12.7906512
20
5.1129197
11
12.8633512
21
5.1944197
0
LINE
8
DEFAULT_255_2_778
10
12.8633512
20
5.1944197
11
12.8969512
21
5.2582197
0
LINE
8
DEFAULT_255_2_778
10
12.8969512
20
5.2582197
11
12.9133512
21
5.3092197
0
LINE
8
DEFAULT_255_2_778
10
12.9133512
20
5.3092197
11
12.9210512
21
5.3489197
0
LINE
8
DEFAULT_255_2_778
10
12.9210512
20
5.3489197
11
12.9186512
21
5.5209197
0
LINE
8
DEFAULT_255_2_778
10
12.9186512
20
5.5209197
11
12.9073512
21
5.5709197
0
LINE
8
DEFAULT_255_2_778
10
12.9073512
20
5.5709197
11
12.8842512
21
5.6296197
0
LINE
8
DEFAULT_255_2_778
10
12.8842512
20
5.6296197
11
12.8353512
21
5.6997197
0
LINE
8
DEFAULT_255_2_778
10
12.8353512
20
5.6997197
11
12.7051512
21
5.7913197
0
LINE
8
DEFAULT_255_2_778
10
12.7051512
20
5.7913197
11
12.5051512
21
5.8421197
0
LINE
8
DEFAULT_255_2_778
10
12.5051512
20
5.8421197
11
12.3778512
21
5.8474197
0
LINE
8
DEFAULT_255_2_778
10
12.3778512
20
5.8474197
11
11.8939512
21
5.8474197
0
LINE
8
DEFAULT_255_2_778
10
11.8939512
20
5.8474197
11
11.8939512
21
4.1474197
0
LINE
8
DEFAULT_255_2_778
10
11.8939512
20
4.1474197
11
12.6128512
21
4.1585197
0
LINE
8
DEFAULT_255_2_778
10
12.6128512
20
4.1585197
11
12.6646512
21
4.1691197
0
LINE
8
DEFAULT_255_2_778
10
12.4696512
20
4.3406197
11
12.0984512
21
4.3400197
0
LINE
8
DEFAULT_255_2_778
10
12.0984512
20
4.3400197
11
12.0984512
21
4.9317197
0
LINE
8
DEFAULT_255_2_778
10
12.0984512
20
4.9317197
11
12.5638512
21
4.9150197
0
LINE
8
DEFAULT_255_2_778
10
12.5638512
20
4.9150197
11
12.7096512
21
4.8340197
0
LINE
8
DEFAULT_255_2_778
10
12.7096512
20
4.8340197
11
12.7490512
21
4.7774197
0
LINE
8
DEFAULT_255_2_778
10
12.7490512
20
4.7774197
11
12.7673512
21
4.7242197
0
LINE
8
DEFAULT_255_2_778
10
12.7673512
20
4.7242197
11
12.7739512
21
4.6867197
0
LINE
8
DEFAULT_255_2_778
10
12.7739512
20
4.6867197
11
12.7726512
21
4.5694197
0
LINE
8
DEFAULT_255_2_778
10
12.7726512
20
4.5694197
11
12.7612512
21
4.5184197
0
LINE
8
DEFAULT_255_2_778
10
12.7612512
20
4.5184197
11
12.7371512
21
4.4618197
0
LINE
8
DEFAULT_255_2_778
10
12.7371512
20
4.4618197
11
12.6771512
21
4.3956197
0
LINE
8
DEFAULT_255_2_778
10
12.6771512
20
4.3956197
11
12.5347512
21
4.3464197
0
LINE
8
DEFAULT_255_2_778
10
12.5347512
20
4.3464197
11
12.4696512
21
4.3406197
0
LINE
8
DEFAULT_255_2_778
10
12.5366512
20
5.1465197
11
12.3897512
21
5.1293197
0
LINE
8
DEFAULT_255_2_778
10
12.3897512
20
5.1293197
11
12.0984512
21
5.1293197
0
LINE
8
DEFAULT_255_2_778
10
12.0984512
20
5.1293197
11
12.0984512
21
5.6545197
0
LINE
8
DEFAULT_255_2_778
10
12.0984512
20
5.6545197
11
12.5368512
21
5.6360197
0
LINE
8
DEFAULT_255_2_778
10
12.5368512
20
5.6360197
11
12.6702512
21
5.5524197
0
LINE
8
DEFAULT_255_2_778
10
12.6702512
20
5.5524197
11
12.7056512
21
5.4905197
0
LINE
8
DEFAULT_255_2_778
10
12.7056512
20
5.4905197
11
12.7178512
21
5.4423197
0
LINE
8
DEFAULT_255_2_778
10
12.7178512
20
5.4423197
11
12.7165512
21
5.3248197
0
LINE
8
DEFAULT_255_2_778
10
12.7165512
20
5.3248197
11
12.7027512
21
5.2775197
0
LINE
8
DEFAULT_255_2_778
10
12.7027512
20
5.2775197
11
12.6638512
21
5.2177197
0
LINE
8
DEFAULT_255_2_778
10
12.6638512
20
5.2177197
11
12.5585512
21
5.1531197
0
LINE
8
DEFAULT_255_2_778
10
12.5585512
20
5.1531197
11
12.5366512
21
5.1465197
0
LINE
8
DEFAULT_255_2_778
10
10.7869512
20
5.8471197
11
11.0118512
21
5.8471197
0
LINE
8
DEFAULT_255_2_778
10
11.0118512
20
5.8471197
11
11.6256512
21
4.1472197
0
LINE
8
DEFAULT_255_2_778
10
11.6256512
20
4.1472197
11
11.4028512
21
4.1472197
0
LINE
8
DEFAULT_255_2_778
10
11.4028512
20
4.1472197
11
11.2523512
21
4.5906197
0
LINE
8
DEFAULT_255_2_778
10
11.2523512
20
4.5906197
11
10.5482512
21
4.5906197
0
LINE
8
DEFAULT_255_2_778
10
10.5482512
20
4.5906197
11
10.3998512
21
4.1472197
0
LINE
8
DEFAULT_255_2_778
10
10.3998512
20
4.1472197
11
10.1728512
21
4.1472197
0
LINE
8
DEFAULT_255_2_778
10
10.1728512
20
4.1472197
11
10.7869512
21
5.8471197
0
LINE
8
DEFAULT_255_2_778
10
10.6141512
20
4.7832197
11
11.1877512
21
4.7832197
0
LINE
8
DEFAULT_255_2_778
10
11.1877512
20
4.7832197
11
10.9004512
21
5.6278197
0
LINE
8
DEFAULT_255_2_778
10
10.9004512
20
5.6278197
11
10.6141512
21
4.7832197
0
LINE
8
DEFAULT_255_2_778
10
9.3018512
20
5.8588197
11
9.1912512
21
5.8156197
0
LINE
8
DEFAULT_255_2_778
10
9.1912512
20
5.8156197
11
9.0962512
21
5.7460197
0
LINE
8
DEFAULT_255_2_778
10
9.0962512
20
5.7460197
11
9.0240512
21
5.6630197
0
LINE
8
DEFAULT_255_2_778
10
9.0240512
20
5.6630197
11
8.9732512
21
5.5809197
0
LINE
8
DEFAULT_255_2_778
10
8.9732512
20
5.5809197
11
8.9345512
21
5.5000197
0
LINE
8
DEFAULT_255_2_778
10
8.9345512
20
5.5000197
11
8.9036512
21
5.4158197
0
LINE
8
DEFAULT_255_2_778
10
8.9036512
20
5.4158197
11
8.8851512
21
5.3513197
0
LINE
8
DEFAULT_255_2_778
10
8.8851512
20
5.3513197
11
8.8705512
21
5.2859197
0
LINE
8
DEFAULT_255_2_778
10
8.8705512
20
5.2859197
11
8.8594512
21
5.2198197
0
LINE
8
DEFAULT_255_2_778
10
8.8594512
20
5.2198197
11
8.8546512
21
5.1833197
0
LINE
8
DEFAULT_255_2_778
10
8.8546512
20
5.1833197
11
8.8509512
21
5.1468197
0
LINE
8
DEFAULT_255_2_778
10
8.8509512
20
5.1468197
11
8.8480512
21
5.1103197
0
LINE
8
DEFAULT_255_2_778
10
8.8480512
20
5.1103197
11
8.8480512
21
4.8883197
0
LINE
8
DEFAULT_255_2_778
10
8.8480512
20
4.8883197
11
8.8509512
21
4.8510197
0
LINE
8
DEFAULT_255_2_778
10
8.8509512
20
4.8510197
11
8.8546512
21
4.8139197
0
LINE
8
DEFAULT_255_2_778
10
8.8546512
20
4.8139197
11
8.8591512
21
4.7769197
0
LINE
8
DEFAULT_255_2_778
10
8.8591512
20
4.7769197
11
8.8700512
21
4.7097197
0
LINE
8
DEFAULT_255_2_778
10
8.8700512
20
4.7097197
11
8.8843512
21
4.6433197
0
LINE
8
DEFAULT_255_2_778
10
8.8843512
20
4.6433197
11
8.9025512
21
4.5776197
0
LINE
8
DEFAULT_255_2_778
10
8.9025512
20
4.5776197
11
8.9295512
21
4.5009197
0
LINE
8
DEFAULT_255_2_778
10
8.9295512
20
4.5009197
11
8.9626512
21
4.4266197
0
LINE
8
DEFAULT_255_2_778
10
8.9626512
20
4.4266197
11
9.0094512
21
4.3440197
0
LINE
8
DEFAULT_255_2_778
10
9.0094512
20
4.3440197
11
9.0634512
21
4.2718197
0
LINE
8
DEFAULT_255_2_778
10
9.0634512
20
4.2718197
11
9.1398512
21
4.2001197
0
LINE
8
DEFAULT_255_2_778
10
9.1398512
20
4.2001197
11
9.2433512
21
4.1411197
0
LINE
8
DEFAULT_255_2_778
10
9.2433512
20
4.1411197
11
9.3809512
21
4.1099197
0
LINE
8
DEFAULT_255_2_778
10
9.3809512
20
4.1099197
11
9.5227512
21
4.1181197
0
LINE
8
DEFAULT_255_2_778
10
9.5227512
20
4.1181197
11
9.6365512
21
4.1575197
0
LINE
8
DEFAULT_255_2_778
10
9.6365512
20
4.1575197
11
9.7346512
21
4.2255197
0
LINE
8
DEFAULT_255_2_778
10
9.7346512
20
4.2255197
11
9.8082512
21
4.3070197
0
LINE
8
DEFAULT_255_2_778
10
9.8082512
20
4.3070197
11
9.8680512
21
4.4025197
0
LINE
8
DEFAULT_255_2_778
10
9.8680512
20
4.4025197
11
9.9032512
21
4.4760197
0
LINE
8
DEFAULT_255_2_778
10
9.9032512
20
4.4760197
11
9.9320512
21
4.5522197
0
LINE
8
DEFAULT_255_2_778
10
9.9320512
20
4.5522197
11
9.9500512
21
4.6107197
0
LINE
8
DEFAULT_255_2_778
10
9.9500512
20
4.6107197
11
9.9661512
21
4.6769197
0
LINE
8
DEFAULT_255_2_778
10
9.9661512
20
4.6769197
11
9.9788512
21
4.7438197
0
LINE
8
DEFAULT_255_2_778
10
9.9788512
20
4.7438197
11
9.9839512
21
4.7774197
0
LINE
8
DEFAULT_255_2_778
10
9.9839512
20
4.7774197
11
9.9884512
21
4.8144197
0
LINE
8
DEFAULT_255_2_778
10
9.9884512
20
4.8144197
11
9.9921512
21
4.8515197
0
LINE
8
DEFAULT_255_2_778
10
9.9921512
20
4.8515197
11
9.9950512
21
4.8885197
0
LINE
8
DEFAULT_255_2_778
10
9.9950512
20
4.8885197
11
9.9950512
21
5.1103197
0
LINE
8
DEFAULT_255_2_778
10
9.9950512
20
5.1103197
11
9.9921512
21
5.1468197
0
LINE
8
DEFAULT_255_2_778
10
9.9921512
20
5.1468197
11
9.9884512
21
5.1833197
0
LINE
8
DEFAULT_255_2_778
10
9.9884512
20
5.1833197
11
9.9836512
21
5.2198197
0
LINE
8
DEFAULT_255_2_778
10
9.9836512
20
5.2198197
11
9.9725512
21
5.2859197
0
LINE
8
DEFAULT_255_2_778
10
9.9725512
20
5.2859197
11
9.9579512
21
5.3513197
0
LINE
8
DEFAULT_255_2_778
10
9.9579512
20
5.3513197
11
9.9394512
21
5.4158197
0
LINE
8
DEFAULT_255_2_778
10
9.9394512
20
5.4158197
11
9.9119512
21
5.4915197
0
LINE
8
DEFAULT_255_2_778
10
9.9119512
20
5.4915197
11
9.8783512
21
5.5645197
0
LINE
8
DEFAULT_255_2_778
10
9.8783512
20
5.5645197
11
9.8190512
21
5.6630197
0
LINE
8
DEFAULT_255_2_778
10
9.8190512
20
5.6630197
11
9.7629512
21
5.7307197
0
LINE
8
DEFAULT_255_2_778
10
9.7629512
20
5.7307197
11
9.6693512
21
5.8058197
0
LINE
8
DEFAULT_255_2_778
10
9.6693512
20
5.8058197
11
9.5611512
21
5.8537197
0
LINE
8
DEFAULT_255_2_778
10
9.5611512
20
5.8537197
11
9.4216512
21
5.8725197
0
LINE
8
DEFAULT_255_2_778
10
9.4216512
20
5.8725197
11
9.3018512
21
5.8588197
0
LINE
8
DEFAULT_255_2_778
10
9.3452512
20
5.6704197
11
9.4854512
21
5.6733197
0
LINE
8
DEFAULT_255_2_778
10
9.4854512
20
5.6733197
11
9.5796512
21
5.6339197
0
LINE
8
DEFAULT_255_2_778
10
9.5796512
20
5.6339197
11
9.6473512
21
5.5730197
0
LINE
8
DEFAULT_255_2_778
10
9.6473512
20
5.5730197
11
9.6960512
21
5.5021197
0
LINE
8
DEFAULT_255_2_778
10
9.6960512
20
5.5021197
11
9.7283512
21
5.4344197
0
LINE
8
DEFAULT_255_2_778
10
9.7283512
20
5.4344197
11
9.7571512
21
5.3521197
0
LINE
8
DEFAULT_255_2_778
10
9.7571512
20
5.3521197
11
9.7741512
21
5.2857197
0
LINE
8
DEFAULT_255_2_778
10
9.7741512
20
5.2857197
11
9.7836512
21
5.2367197
0
LINE
8
DEFAULT_255_2_778
10
9.7836512
20
5.2367197
11
9.7910512
21
5.1872197
0
LINE
8
DEFAULT_255_2_778
10
9.7910512
20
5.1872197
11
9.7939512
21
5.1624197
0
LINE
8
DEFAULT_255_2_778
10
9.7939512
20
5.1624197
11
9.7971512
21
5.1296197
0
LINE
8
DEFAULT_255_2_778
10
9.7971512
20
5.1296197
11
9.7971512
21
4.8639197
0
LINE
8
DEFAULT_255_2_778
10
9.7971512
20
4.8639197
11
9.7939512
21
4.8306197
0
LINE
8
DEFAULT_255_2_778
10
9.7939512
20
4.8306197
11
9.7875512
21
4.7803197
0
LINE
8
DEFAULT_255_2_778
10
9.7875512
20
4.7803197
11
9.7793512
21
4.7303197
0
LINE
8
DEFAULT_255_2_778
10
9.7793512
20
4.7303197
11
9.7632512
21
4.6583197
0
LINE
8
DEFAULT_255_2_778
10
9.7632512
20
4.6583197
11
9.7431512
21
4.5919197
0
LINE
8
DEFAULT_255_2_778
10
9.7431512
20
4.5919197
11
9.7053512
21
4.5001197
0
LINE
8
DEFAULT_255_2_778
10
9.7053512
20
4.5001197
11
9.6592512
21
4.4250197
0
LINE
8
DEFAULT_255_2_778
10
9.6592512
20
4.4250197
11
9.5912512
21
4.3562197
0
LINE
8
DEFAULT_255_2_778
10
9.5912512
20
4.3562197
11
9.4984512
21
4.3109197
0
LINE
8
DEFAULT_255_2_778
10
9.4984512
20
4.3109197
11
9.3700512
21
4.3054197
0
LINE
8
DEFAULT_255_2_778
10
9.3700512
20
4.3054197
11
9.2737512
21
4.3411197
0
LINE
8
DEFAULT_255_2_778
10
9.2737512
20
4.3411197
11
9.1949512
21
4.4107197
0
LINE
8
DEFAULT_255_2_778
10
9.1949512
20
4.4107197
11
9.1459512
21
4.4840197
0
LINE
8
DEFAULT_255_2_778
10
9.1459512
20
4.4840197
11
9.1160512
21
4.5480197
0
LINE
8
DEFAULT_255_2_778
10
9.1160512
20
4.5480197
11
9.0925512
21
4.6134197
0
LINE
8
DEFAULT_255_2_778
10
9.0925512
20
4.6134197
11
9.0742512
21
4.6803197
0
LINE
8
DEFAULT_255_2_778
10
9.0742512
20
4.6803197
11
9.0636512
21
4.7298197
0
LINE
8
DEFAULT_255_2_778
10
9.0636512
20
4.7298197
11
9.0554512
21
4.7798197
0
LINE
8
DEFAULT_255_2_778
10
9.0554512
20
4.7798197
11
9.0491512
21
4.8301197
0
LINE
8
DEFAULT_255_2_778
10
9.0491512
20
4.8301197
11
9.0459512
21
4.8634197
0
LINE
8
DEFAULT_255_2_778
10
9.0459512
20
4.8634197
11
9.0459512
21
5.1290197
0
LINE
8
DEFAULT_255_2_778
10
9.0459512
20
5.1290197
11
9.0491512
21
5.1618197
0
LINE
8
DEFAULT_255_2_778
10
9.0491512
20
5.1618197
11
9.0554512
21
5.2113197
0
LINE
8
DEFAULT_255_2_778
10
9.0554512
20
5.2113197
11
9.0639512
21
5.2605197
0
LINE
8
DEFAULT_255_2_778
10
9.0639512
20
5.2605197
11
9.0803512
21
5.3314197
0
LINE
8
DEFAULT_255_2_778
10
9.0803512
20
5.3314197
11
9.1007512
21
5.3968197
0
LINE
8
DEFAULT_255_2_778
10
9.1007512
20
5.3968197
11
9.1388512
21
5.4865197
0
LINE
8
DEFAULT_255_2_778
10
9.1388512
20
5.4865197
11
9.1846512
21
5.5592197
0
LINE
8
DEFAULT_255_2_778
10
9.1846512
20
5.5592197
11
9.2631512
21
5.6333197
0
LINE
8
DEFAULT_255_2_778
10
9.2631512
20
5.6333197
11
9.3452512
21
5.6704197
0
LINE
8
DEFAULT_255_2_778
10
5.8775688
20
5.8630271
11
5.7648688
21
5.8249271
0
LINE
8
DEFAULT_255_2_778
10
5.7648688
20
5.8249271
11
5.6671688
21
5.7593271
0
LINE
8
DEFAULT_255_2_778
10
5.6671688
20
5.7593271
11
5.5936688
21
5.6807271
0
LINE
8
DEFAULT_255_2_778
10
5.5936688
20
5.6807271
11
5.5295688
21
5.5809271
0
LINE
8
DEFAULT_255_2_778
10
5.5295688
20
5.5809271
11
5.4909688
21
5.5000271
0
LINE
8
DEFAULT_255_2_778
10
5.4909688
20
5.5000271
11
5.4600688
21
5.4158271
0
LINE
8
DEFAULT_255_2_778
10
5.4600688
20
5.4158271
11
5.4414688
21
5.3513271
0
LINE
8
DEFAULT_255_2_778
10
5.4414688
20
5.3513271
11
5.4269688
21
5.2859271
0
LINE
8
DEFAULT_255_2_778
10
5.4269688
20
5.2859271
11
5.4158688
21
5.2198271
0
LINE
8
DEFAULT_255_2_778
10
5.4158688
20
5.2198271
11
5.4110688
21
5.1833271
0
LINE
8
DEFAULT_255_2_778
10
5.4110688
20
5.1833271
11
5.4073688
21
5.1467271
0
LINE
8
DEFAULT_255_2_778
10
5.4073688
20
5.1467271
11
5.4044688
21
5.1102271
0
LINE
8
DEFAULT_255_2_778
10
5.4044688
20
5.1102271
11
5.4044688
21
4.8883271
0
LINE
8
DEFAULT_255_2_778
10
5.4044688
20
4.8883271
11
5.4073688
21
4.8509271
0
LINE
8
DEFAULT_255_2_778
10
5.4073688
20
4.8509271
11
5.4110688
21
4.8139271
0
LINE
8
DEFAULT_255_2_778
10
5.4110688
20
4.8139271
11
5.4155688
21
4.7769271
0
LINE
8
DEFAULT_255_2_778
10
5.4155688
20
4.7769271
11
5.4264688
21
4.7097271
0
LINE
8
DEFAULT_255_2_778
10
5.4264688
20
4.7097271
11
5.4406688
21
4.6432271
0
LINE
8
DEFAULT_255_2_778
10
5.4406688
20
4.6432271
11
5.4589688
21
4.5776271
0
LINE
8
DEFAULT_255_2_778
10
5.4589688
20
4.5776271
11
5.4859688
21
4.5009271
0
LINE
8
DEFAULT_255_2_778
10
5.4859688
20
4.5009271
11
5.5190688
21
4.4266271
0
LINE
8
DEFAULT_255_2_778
10
5.5190688
20
4.4266271
11
5.5658688
21
4.3440271
0
LINE
8
DEFAULT_255_2_778
10
5.5658688
20
4.3440271
11
5.6198688
21
4.2718271
0
LINE
8
DEFAULT_255_2_778
10
5.6198688
20
4.2718271
11
5.6962688
21
4.2001271
0
LINE
8
DEFAULT_255_2_778
10
5.6962688
20
4.2001271
11
5.7997688
21
4.1411271
0
LINE
8
DEFAULT_255_2_778
10
5.7997688
20
4.1411271
11
5.9373688
21
4.1098271
0
LINE
8
DEFAULT_255_2_778
10
5.9373688
20
4.1098271
11
6.0791688
21
4.1180271
0
LINE
8
DEFAULT_255_2_778
10
6.0791688
20
4.1180271
11
6.1929688
21
4.1575271
0
LINE
8
DEFAULT_255_2_778
10
6.1929688
20
4.1575271
11
6.2910688
21
4.2255271
0
LINE
8
DEFAULT_255_2_778
10
6.2910688
20
4.2255271
11
6.3646688
21
4.3070271
0
LINE
8
DEFAULT_255_2_778
10
6.3646688
20
4.3070271
11
6.4244688
21
4.4025271
0
LINE
8
DEFAULT_255_2_778
10
6.4244688
20
4.4025271
11
6.4596688
21
4.4760271
0
LINE
8
DEFAULT_255_2_778
10
6.4596688
20
4.4760271
11
6.4884688
21
4.5522271
0
LINE
8
DEFAULT_255_2_778
10
6.4884688
20
4.5522271
11
6.5064688
21
4.6107271
0
LINE
8
DEFAULT_255_2_778
10
6.5064688
20
4.6107271
11
6.5225688
21
4.6768271
0
LINE
8
DEFAULT_255_2_778
10
6.5225688
20
4.6768271
11
6.5352688
21
4.7438271
0
LINE
8
DEFAULT_255_2_778
10
6.5352688
20
4.7438271
11
6.5402688
21
4.7774271
0
LINE
8
DEFAULT_255_2_778
10
6.5402688
20
4.7774271
11
6.5447688
21
4.8144271
0
LINE
8
DEFAULT_255_2_778
10
6.5447688
20
4.8144271
11
6.5485688
21
4.8515271
0
LINE
8
DEFAULT_255_2_778
10
6.5485688
20
4.8515271
11
6.5514688
21
4.8885271
0
LINE
8
DEFAULT_255_2_778
10
6.5514688
20
4.8885271
11
6.5514688
21
5.1102271
0
LINE
8
DEFAULT_255_2_778
10
6.5514688
20
5.1102271
11
6.5485688
21
5.1467271
0
LINE
8
DEFAULT_255_2_778
10
6.5485688
20
5.1467271
11
6.5447688
21
5.1833271
0
LINE
8
DEFAULT_255_2_778
10
6.5447688
20
5.1833271
11
6.5400688
21
5.2198271
0
LINE
8
DEFAULT_255_2_778
10
6.5400688
20
5.2198271
11
6.5289688
21
5.2859271
0
LINE
8
DEFAULT_255_2_778
10
6.5289688
20
5.2859271
11
6.5143688
21
5.3513271
0
LINE
8
DEFAULT_255_2_778
10
6.5143688
20
5.3513271
11
6.4958688
21
5.4158271
0
LINE
8
DEFAULT_255_2_778
10
6.4958688
20
5.4158271
11
6.4683688
21
5.4915271
0
LINE
8
DEFAULT_255_2_778
10
6.4683688
20
5.4915271
11
6.4347688
21
5.5645271
0
LINE
8
DEFAULT_255_2_778
10
6.4347688
20
5.5645271
11
6.3754688
21
5.6630271
0
LINE
8
DEFAULT_255_2_778
10
6.3754688
20
5.6630271
11
6.3193688
21
5.7307271
0
LINE
8
DEFAULT_255_2_778
10
6.3193688
20
5.7307271
11
6.2257688
21
5.8058271
0
LINE
8
DEFAULT_255_2_778
10
6.2257688
20
5.8058271
11
6.1174688
21
5.8537271
0
LINE
8
DEFAULT_255_2_778
10
6.1174688
20
5.8537271
11
5.9780688
21
5.8725271
0
LINE
8
DEFAULT_255_2_778
10
5.9780688
20
5.8725271
11
5.8775688
21
5.8630271
0
LINE
8
DEFAULT_255_2_778
10
5.9013688
20
5.6701271
11
6.0415688
21
5.6730271
0
LINE
8
DEFAULT_255_2_778
10
6.0415688
20
5.6730271
11
6.1357688
21
5.6336271
0
LINE
8
DEFAULT_255_2_778
10
6.1357688
20
5.6336271
11
6.2034688
21
5.5727271
0
LINE
8
DEFAULT_255_2_778
10
6.2034688
20
5.5727271
11
6.2521688
21
5.5018271
0
LINE
8
DEFAULT_255_2_778
10
6.2521688
20
5.5018271
11
6.2844688
21
5.4341271
0
LINE
8
DEFAULT_255_2_778
10
6.2844688
20
5.4341271
11
6.3132688
21
5.3518271
0
LINE
8
DEFAULT_255_2_778
10
6.3132688
20
5.3518271
11
6.3302688
21
5.2854271
0
LINE
8
DEFAULT_255_2_778
10
6.3302688
20
5.2854271
11
6.3397688
21
5.2364271
0
LINE
8
DEFAULT_255_2_778
10
6.3397688
20
5.2364271
11
6.3471688
21
5.1870271
0
LINE
8
DEFAULT_255_2_778
10
6.3471688
20
5.1870271
11
6.3500688
21
5.1621271
0
LINE
8
DEFAULT_255_2_778
10
6.3500688
20
5.1621271
11
6.3532688
21
5.1293271
0
LINE
8
DEFAULT_255_2_778
10
6.3532688
20
5.1293271
11
6.3532688
21
4.8636271
0
LINE
8
DEFAULT_255_2_778
10
6.3532688
20
4.8636271
11
6.3500688
21
4.8303271
0
LINE
8
DEFAULT_255_2_778
10
6.3500688
20
4.8303271
11
6.3437688
21
4.7800271
0
LINE
8
DEFAULT_255_2_778
10
6.3437688
20
4.7800271
11
6.3355688
21
4.7300271
0
LINE
8
DEFAULT_255_2_778
10
6.3355688
20
4.7300271
11
6.3193688
21
4.6581271
0
LINE
8
DEFAULT_255_2_778
10
6.3193688
20
4.6581271
11
6.2992688
21
4.5917271
0
LINE
8
DEFAULT_255_2_778
10
6.2992688
20
4.5917271
11
6.2614688
21
4.4998271
0
LINE
8
DEFAULT_255_2_778
10
6.2614688
20
4.4998271
11
6.2153688
21
4.4247271
0
LINE
8
DEFAULT_255_2_778
10
6.2153688
20
4.4247271
11
6.1473688
21
4.3559271
0
LINE
8
DEFAULT_255_2_778
10
6.1473688
20
4.3559271
11
6.0545688
21
4.3107271
0
LINE
8
DEFAULT_255_2_778
10
6.0545688
20
4.3107271
11
5.9262688
21
4.3051271
0
LINE
8
DEFAULT_255_2_778
10
5.9262688
20
4.3051271
11
5.8298688
21
4.3408271
0
LINE
8
DEFAULT_255_2_778
10
5.8298688
20
4.3408271
11
5.7510688
21
4.4104271
0
LINE
8
DEFAULT_255_2_778
10
5.7510688
20
4.4104271
11
5.7020688
21
4.4837271
0
LINE
8
DEFAULT_255_2_778
10
5.7020688
20
4.4837271
11
5.6722688
21
4.5477271
0
LINE
8
DEFAULT_255_2_778
10
5.6722688
20
4.5477271
11
5.6486688
21
4.6131271
0
LINE
8
DEFAULT_255_2_778
10
5.6486688
20
4.6131271
11
5.6303688
21
4.6800271
0
LINE
8
DEFAULT_255_2_778
10
5.6303688
20
4.6800271
11
5.6198688
21
4.7295271
0
LINE
8
DEFAULT_255_2_778
10
5.6198688
20
4.7295271
11
5.6116688
21
4.7795271
0
LINE
8
DEFAULT_255_2_778
10
5.6116688
20
4.7795271
11
5.6052688
21
4.8298271
0
LINE
8
DEFAULT_255_2_778
10
5.6052688
20
4.8298271
11
5.6020688
21
4.8631271
0
LINE
8
DEFAULT_255_2_778
10
5.6020688
20
4.8631271
11
5.6020688
21
5.1288271
0
LINE
8
DEFAULT_255_2_778
10
5.6020688
20
5.1288271
11
5.6052688
21
5.1616271
0
LINE
8
DEFAULT_255_2_778
10
5.6052688
20
5.1616271
11
5.6116688
21
5.2110271
0
LINE
8
DEFAULT_255_2_778
10
5.6116688
20
5.2110271
11
5.6200688
21
5.2603271
0
LINE
8
DEFAULT_255_2_778
10
5.6200688
20
5.2603271
11
5.6364688
21
5.3312271
0
LINE
8
DEFAULT_255_2_778
10
5.6364688
20
5.3312271
11
5.6568688
21
5.3965271
0
LINE
8
DEFAULT_255_2_778
10
5.6568688
20
5.3965271
11
5.6949688
21
5.4862271
0
LINE
8
DEFAULT_255_2_778
10
5.6949688
20
5.4862271
11
5.7407688
21
5.5590271
0
LINE
8
DEFAULT_255_2_778
10
5.7407688
20
5.5590271
11
5.8193688
21
5.6331271
0
LINE
8
DEFAULT_255_2_778
10
5.8193688
20
5.6331271
11
5.9013688
21
5.6701271
0
LINE
8
DEFAULT_255_2_778
10
4.8789688
20
4.1649271
11
5.0366688
21
4.2302271
0
LINE
8
DEFAULT_255_2_778
10
5.0366688
20
4.2302271
11
5.1247688
21
4.3091271
0
LINE
8
DEFAULT_255_2_778
10
5.1247688
20
4.3091271
11
5.1620688
21
4.3641271
0
LINE
8
DEFAULT_255_2_778
10
5.1620688
20
4.3641271
11
5.1853688
21
4.4176271
0
LINE
8
DEFAULT_255_2_778
10
5.1853688
20
4.4176271
11
5.1978688
21
4.4599271
0
LINE
8
DEFAULT_255_2_778
10
5.1978688
20
4.4599271
11
5.2062688
21
4.5035271
0
LINE
8
DEFAULT_255_2_778
10
5.2062688
20
4.5035271
11
5.2038688
21
4.7187271
0
LINE
8
DEFAULT_255_2_778
10
5.2038688
20
4.7187271
11
5.1935688
21
4.7634271
0
LINE
8
DEFAULT_255_2_778
10
5.1935688
20
4.7634271
11
5.1747688
21
4.8165271
0
LINE
8
DEFAULT_255_2_778
10
5.1747688
20
4.8165271
11
5.1414688
21
4.8779271
0
LINE
8
DEFAULT_255_2_778
10
5.1414688
20
4.8779271
11
5.0681688
21
4.9578271
0
LINE
8
DEFAULT_255_2_778
10
5.0681688
20
4.9578271
11
4.9583688
21
5.0221271
0
LINE
8
DEFAULT_255_2_778
10
4.9583688
20
5.0221271
11
4.8943688
21
5.0433271
0
LINE
8
DEFAULT_255_2_778
10
4.8943688
20
5.0433271
11
5.0226688
21
5.1121271
0
LINE
8
DEFAULT_255_2_778
10
5.0226688
20
5.1121271
11
5.0954688
21
5.1936271
0
LINE
8
DEFAULT_255_2_778
10
5.0954688
20
5.1936271
11
5.1290688
21
5.2573271
0
LINE
8
DEFAULT_255_2_778
10
5.1290688
20
5.2573271
11
5.1454688
21
5.3084271
0
LINE
8
DEFAULT_255_2_778
10
5.1454688
20
5.3084271
11
5.1530688
21
5.3481271
0
LINE
8
DEFAULT_255_2_778
10
5.1530688
20
5.3481271
11
5.1507688
21
5.5201271
0
LINE
8
DEFAULT_255_2_778
10
5.1507688
20
5.5201271
11
5.1393688
21
5.5701271
0
LINE
8
DEFAULT_255_2_778
10
5.1393688
20
5.5701271
11
5.1163688
21
5.6288271
0
LINE
8
DEFAULT_255_2_778
10
5.1163688
20
5.6288271
11
5.0673688
21
5.6989271
0
LINE
8
DEFAULT_255_2_778
10
5.0673688
20
5.6989271
11
4.9371688
21
5.7905271
0
LINE
8
DEFAULT_255_2_778
10
4.9371688
20
5.7905271
11
4.7371688
21
5.8413271
0
LINE
8
DEFAULT_255_2_778
10
4.7371688
20
5.8413271
11
4.6098688
21
5.8466271
0
LINE
8
DEFAULT_255_2_778
10
4.6098688
20
5.8466271
11
4.1254688
21
5.8466271
0
LINE
8
DEFAULT_255_2_778
10
4.1254688
20
5.8466271
11
4.1254688
21
4.1466271
0
LINE
8
DEFAULT_255_2_778
10
4.1254688
20
4.1466271
11
4.8443688
21
4.1577271
0
LINE
8
DEFAULT_255_2_778
10
4.8443688
20
4.1577271
11
4.8789688
21
4.1649271
0
LINE
8
DEFAULT_255_2_778
10
4.8242688
20
4.3575271
11
4.6681688
21
4.3398271
0
LINE
8
DEFAULT_255_2_778
10
4.6681688
20
4.3398271
11
4.3299688
21
4.3398271
0
LINE
8
DEFAULT_255_2_778
10
4.3299688
20
4.3398271
11
4.3299688
21
4.9314271
0
LINE
8
DEFAULT_255_2_778
10
4.3299688
20
4.9314271
11
4.7953688
21
4.9147271
0
LINE
8
DEFAULT_255_2_778
10
4.7953688
20
4.9147271
11
4.9411688
21
4.8337271
0
LINE
8
DEFAULT_255_2_778
10
4.9411688
20
4.8337271
11
4.9805688
21
4.7771271
0
LINE
8
DEFAULT_255_2_778
10
4.9805688
20
4.7771271
11
4.9988688
21
4.7239271
0
LINE
8
DEFAULT_255_2_778
10
4.9988688
20
4.7239271
11
5.0054688
21
4.6864271
0
LINE
8
DEFAULT_255_2_778
10
5.0054688
20
4.6864271
11
5.0041688
21
4.5692271
0
LINE
8
DEFAULT_255_2_778
10
5.0041688
20
4.5692271
11
4.9927688
21
4.5181271
0
LINE
8
DEFAULT_255_2_778
10
4.9927688
20
4.5181271
11
4.9686688
21
4.4615271
0
LINE
8
DEFAULT_255_2_778
10
4.9686688
20
4.4615271
11
4.9086688
21
4.3953271
0
LINE
8
DEFAULT_255_2_778
10
4.9086688
20
4.3953271
11
4.8242688
21
4.3575271
0
LINE
8
DEFAULT_255_2_778
10
4.7570688
20
5.1433271
11
4.6212688
21
5.1290271
0
LINE
8
DEFAULT_255_2_778
10
4.6212688
20
5.1290271
11
4.3299688
21
5.1290271
0
LINE
8
DEFAULT_255_2_778
10
4.3299688
20
5.1290271
11
4.3299688
21
5.6542271
0
LINE
8
DEFAULT_255_2_778
10
4.3299688
20
5.6542271
11
4.7683688
21
5.6357271
0
LINE
8
DEFAULT_255_2_778
10
4.7683688
20
5.6357271
11
4.9017688
21
5.5521271
0
LINE
8
DEFAULT_255_2_778
10
4.9017688
20
5.5521271
11
4.9371688
21
5.4902271
0
LINE
8
DEFAULT_255_2_778
10
4.9371688
20
5.4902271
11
4.9493688
21
5.4420271
0
LINE
8
DEFAULT_255_2_778
10
4.9493688
20
5.4420271
11
4.9480688
21
5.3245271
0
LINE
8
DEFAULT_255_2_778
10
4.9480688
20
5.3245271
11
4.9342688
21
5.2772271
0
LINE
8
DEFAULT_255_2_778
10
4.9342688
20
5.2772271
11
4.8953688
21
5.2174271
0
LINE
8
DEFAULT_255_2_778
10
4.8953688
20
5.2174271
11
4.7900688
21
5.1528271
0
LINE
8
DEFAULT_255_2_778
10
4.7900688
20
5.1528271
11
4.7570688
21
5.1433271
0
LINE
8
DEFAULT_255_2_778
10
1.2478688
20
4.7581271
11
1.7685688
21
4.7581271
0
LINE
8
DEFAULT_255_2_778
10
1.7685688
20
4.7581271
11
1.7685688
21
5.6050271
0
LINE
8
DEFAULT_255_2_778
10
1.7685688
20
5.6050271
11
1.2478688
21
4.7581271
0
LINE
8
DEFAULT_255_2_778
10
1.7322688
20
5.8471271
11
1.9688688
21
5.8471271
0
LINE
8
DEFAULT_255_2_778
10
1.9688688
20
5.8471271
11
1.9688688
21
4.7581271
0
LINE
8
DEFAULT_255_2_778
10
1.9688688
20
4.7581271
11
2.2519688
21
4.7581271
0
LINE
8
DEFAULT_255_2_778
10
2.2519688
20
4.7581271
11
2.2519688
21
4.5726271
0
LINE
8
DEFAULT_255_2_778
10
2.2519688
20
4.5726271
11
1.9688688
21
4.5726271
0
LINE
8
DEFAULT_255_2_778
10
1.9688688
20
4.5726271
11
1.9688688
21
4.1474271
0
LINE
8
DEFAULT_255_2_778
10
1.9688688
20
4.1474271
11
1.7685688
21
4.1474271
0
LINE
8
DEFAULT_255_2_778
10
1.7685688
20
4.1474271
11
1.7685688
21
4.5726271
0
LINE
8
DEFAULT_255_2_778
10
1.7685688
20
4.5726271
11
1.0729688
21
4.5726271
0
LINE
8
DEFAULT_255_2_778
10
1.0729688
20
4.5726271
11
1.0729688
21
4.7774271
0
LINE
8
DEFAULT_255_2_778
10
1.0729688
20
4.7774271
11
1.7322688
21
5.8471271
0
ENDSEC
0
EOF