0
SECTION
2
HEADER
9
$MEASUREMENT
70
1
0
ENDSEC
0
SECTION
2
TABLES
0
TABLE
2
LTYPE
0
LTYPE
72
65
70
64
2
CONTINUOUS
3
______
73
0
40
0
0
ENDTAB
0
TABLE
2
LAYER
0
LAYER
2
DEFAULT_255_2_778
70
0
62
255
6
CONTINUOUS
0
LAYER
2
DEFAULT_255_1_234
70
0
62
255
6
CONTINUOUS
0
ENDTAB
0
ENDSEC
0
SECTION
2
ENTITIES
0
ARC
8
DEFAULT_255_2_778
10
3.5695693
20
83.7426529
40
0.7914215
50
129.1312896
51
180.1450914
0
ARC
8
DEFAULT_255_2_778
10
3.5698345
20
83.74314
40
0.7912112
50
89.854026
51
129.1684493
0
ARC
8
DEFAULT_255_2_778
10
25.7988937
20
83.7428266
40
0.7915249
50
39.4792447
51
90.147911
0
ARC
8
DEFAULT_255_2_778
10
25.7994935
20
83.7426732
40
0.7911595
50
359.8533901
51
39.5154338
0
ARC
8
DEFAULT_255_2_778
10
25.7991693
20
-1.9863993
40
0.7914836
50
309.4761667
51
0.1482649
0
ARC
8
DEFAULT_255_2_778
10
25.798898
20
-1.9868304
40
0.7913235
50
269.8517415
51
309.511178
0
ARC
8
DEFAULT_255_2_778
10
3.569842
20
-1.9867723
40
0.7913815
50
219.1282118
51
270.1454017
0
ARC
8
DEFAULT_255_2_778
10
3.5695247
20
-1.9863898
40
0.7913769
50
179.8524075
51
219.1641908
0
LINE
8
DEFAULT_255_2_778
10
3.5718503
20
84.5343488
11
25.7968503
21
84.5343488
0
LINE
8
DEFAULT_255_2_778
10
26.5906503
20
83.7406488
11
26.5906503
21
-1.9843512
0
LINE
8
DEFAULT_255_2_778
10
25.7968503
20
-2.7781512
11
3.5718503
21
-2.7781512
0
LINE
8
DEFAULT_255_2_778
10
2.7781503
20
-1.9843512
11
2.7781503
21
83.7406488
0
LINE
8
DEFAULT_255_1_234
10
6.7708835
20
0.5189243
11
6.7973882
21
0.5189243
0
LINE
8
DEFAULT_255_1_234
10
6.7973882
20
0.5189243
11
6.7973882
21
0.392826
0
LINE
8
DEFAULT_255_1_234
10
6.7973882
20
0.392826
11
6.7700803
21
0.392826
0
LINE
8
DEFAULT_255_1_234
10
6.2231189
20
-0.2063417
11
6.2231189
21
-0.1493164
0
LINE
8
DEFAULT_255_1_234
10
6.3725093
20
-0.1685925
11
6.3725093
21
-0.2232083
0
ARC
8
DEFAULT_255_1_234
10
6.7753151
20
-0.1069545
40
0.4998079
50
90.6001036
51
104.514704
0
ARC
8
DEFAULT_255_1_234
10
6.7364667
20
0.0375131
40
0.3502176
50
104.2855254
51
133.862935
0
ARC
8
DEFAULT_255_1_234
10
6.7528424
20
0.026683
40
0.3693984
50
134.5302688
51
161.6210873
0
ARC
8
DEFAULT_255_1_234
10
6.9181613
20
-0.0316105
40
0.5446739
50
161.2849839
51
174.2076652
0
ARC
8
DEFAULT_255_1_234
10
7.058855
20
-0.0510213
40
0.6866274
50
173.7810589
51
174.9254635
0
ARC
8
DEFAULT_255_1_234
10
6.6038382
20
-0.1893161
40
0.3033419
50
95.8330959
51
138.9954921
0
ARC
8
DEFAULT_255_1_234
10
6.6261738
20
-0.3171625
40
0.4328947
50
89.8753725
51
97.0544009
0
ARC
8
DEFAULT_255_1_234
10
6.6309204
20
-0.2336252
40
0.3493769
50
71.6407809
51
90.6240094
0
ARC
8
DEFAULT_255_1_234
10
6.6459777
20
-0.1781918
40
0.2920396
50
39.6367836
51
71.019018
0
ARC
8
DEFAULT_255_1_234
10
6.582325
20
-0.2332002
40
0.3761538
50
10.658731
51
39.9043955
0
ARC
8
DEFAULT_255_1_234
10
6.4275333
20
-0.2668314
40
0.5345136
50
359.682601
51
11.132623
0
ARC
8
DEFAULT_255_1_234
10
6.4235464
20
-0.273899
40
0.5385081
50
347.2486944
51
0.4369317
0
ARC
8
DEFAULT_255_1_234
10
6.5902941
20
-0.3140193
40
0.3670249
50
318.1409698
51
347.6118597
0
ARC
8
DEFAULT_255_1_234
10
6.6227934
20
-0.3407298
40
0.3250007
50
275.6342139
51
317.8248465
0
ARC
8
DEFAULT_255_1_234
10
6.6007045
20
-0.2107781
40
0.4565864
50
269.8874292
51
276.7917694
0
ARC
8
DEFAULT_255_1_234
10
6.5952116
20
-0.3133257
40
0.3540676
50
246.9140195
51
270.7437342
0
ARC
8
DEFAULT_255_1_234
10
6.5958506
20
-0.3275616
40
0.3412781
50
218.1665114
51
245.878116
0
ARC
8
DEFAULT_255_1_234
10
6.6837967
20
-0.2539721
40
0.455911
50
191.4115814
51
218.6077802
0
ARC
8
DEFAULT_255_1_234
10
6.8776056
20
-0.2105167
40
0.6545001
50
179.6345085
51
191.7836486
0
ARC
8
DEFAULT_255_1_234
10
7.4358393
20
-0.1426303
40
1.2127388
50
171.4525249
51
180.3158839
0
ARC
8
DEFAULT_255_1_234
10
6.9963269
20
-0.0742392
40
0.7679464
50
157.9802646
51
171.6246686
0
ARC
8
DEFAULT_255_1_234
10
6.774929
20
0.0140421
40
0.5296008
50
141.4298019
51
157.854097
0
ARC
8
DEFAULT_255_1_234
10
6.710761
20
0.0594381
40
0.4511509
50
102.8715806
51
140.8564722
0
ARC
8
DEFAULT_255_1_234
10
6.7755226
20
-0.1845448
40
0.7034845
50
90.3778349
51
103.5869322
0
ARC
8
DEFAULT_255_1_234
10
6.6017002
20
-0.245027
40
0.2370698
50
89.8751008
51
126.2071704
0
ARC
8
DEFAULT_255_1_234
10
6.6062792
20
-0.2604697
40
0.2522934
50
124.9745049
51
144.895901
0
ARC
8
DEFAULT_255_1_234
10
6.5886982
20
-0.246144
40
0.2296779
50
145.2974905
51
160.2660252
0
ARC
8
DEFAULT_255_1_234
10
6.8959521
20
-0.2263929
40
0.5234525
50
179.6514266
51
190.2855912
0
ARC
8
DEFAULT_255_1_234
10
6.7265658
20
-0.2583214
40
0.3510893
50
190.0945431
51
207.5098196
0
ARC
8
DEFAULT_255_1_234
10
6.6699928
20
-0.2852377
40
0.288489
50
207.9583163
51
216.3251085
0
ARC
8
DEFAULT_255_1_234
10
6.6360036
20
-0.3131895
40
0.2445587
50
215.7661442
51
232.5456785
0
ARC
8
DEFAULT_255_1_234
10
6.5977019
20
-0.3618518
40
0.1826382
50
232.8005391
51
270.6605633
0
ARC
8
DEFAULT_255_1_234
10
6.602272
20
-0.3254388
40
0.2190529
50
269.35537
51
288.4744281
0
ARC
8
DEFAULT_255_1_234
10
6.6115617
20
-0.3603882
40
0.1829749
50
289.1833337
51
322.9683818
0
ARC
8
DEFAULT_255_1_234
10
6.5504139
20
-0.3121609
40
0.2608399
50
322.6007884
51
346.5182367
0
ARC
8
DEFAULT_255_1_234
10
6.4346735
20
-0.2826384
40
0.3802777
50
346.2582162
51
358.7741648
0
ARC
8
DEFAULT_255_1_234
10
6.3328404
20
-0.2771035
40
0.4822176
50
358.3755224
51
0.0098023
0
ARC
8
DEFAULT_255_1_234
10
6.4084591
20
-0.2743343
40
0.4066078
50
359.6214041
51
11.2839074
0
ARC
8
DEFAULT_255_1_234
10
6.5361738
20
-0.2476934
40
0.2761514
50
11.0482309
51
31.8146458
0
ARC
8
DEFAULT_255_1_234
10
6.5670781
20
-0.2309416
40
0.2410679
50
32.3035391
51
38.082671
0
ARC
8
DEFAULT_255_1_234
10
6.6091441
20
-0.1928338
40
0.1844966
50
36.825067
51
85.7415724
0
ARC
8
DEFAULT_255_1_234
10
6.6024274
20
-0.2428699
40
0.2349122
50
85.0140713
51
90.0513278
0
LINE
8
DEFAULT_255_1_234
10
7.8374983
20
0.0153343
11
7.8374983
21
-0.110764
0
LINE
8
DEFAULT_255_1_234
10
7.8374983
20
-0.110764
11
7.3306957
21
-0.110764
0
LINE
8
DEFAULT_255_1_234
10
7.3306957
20
-0.110764
11
7.3306957
21
-0.5252017
0
LINE
8
DEFAULT_255_1_234
10
7.3306957
20
-0.5252017
11
7.9194221
21
-0.5252017
0
LINE
8
DEFAULT_255_1_234
10
7.9194221
20
-0.5252017
11
7.9194221
21
-0.6513
0
LINE
8
DEFAULT_255_1_234
10
7.9194221
20
-0.6513
11
7.1764863
21
-0.6513
0
LINE
8
DEFAULT_255_1_234
10
7.1764863
20
-0.6513
11
7.1764863
21
0.5181211
0
LINE
8
DEFAULT_255_1_234
10
7.1764863
20
0.5181211
11
7.9113903
21
0.5181211
0
LINE
8
DEFAULT_255_1_234
10
7.9113903
20
0.5181211
11
7.9113903
21
0.3912196
0
LINE
8
DEFAULT_255_1_234
10
7.9113903
20
0.3912196
11
7.3306957
21
0.3912196
0
LINE
8
DEFAULT_255_1_234
10
7.3306957
20
0.3912196
11
7.3306957
21
0.0153343
0
LINE
8
DEFAULT_255_1_234
10
7.3306957
20
0.0153343
11
7.8374983
21
0.0153343
0
LINE
8
DEFAULT_255_1_234
10
8.8872465
20
0.1799849
11
8.732234
21
0.1799849
0
LINE
8
DEFAULT_255_1_234
10
8.0398981
20
-0.3123606
11
8.1949107
21
-0.3123606
0
ARC
8
DEFAULT_255_1_234
10
8.7981153
20
1.0746768
40
1.252368
50
248.9199003
51
254.1439814
0
ARC
8
DEFAULT_255_1_234
10
8.6300648
20
0.6420234
40
0.788226
50
241.633709
51
249.0064503
0
ARC
8
DEFAULT_255_1_234
10
8.4772042
20
0.3619317
40
0.4691427
50
230.498225
51
241.8087113
0
ARC
8
DEFAULT_255_1_234
10
8.3987616
20
0.2619906
40
0.3421437
50
227.4064532
51
229.9881192
0
ARC
8
DEFAULT_255_1_234
10
8.3500137
20
0.2144088
40
0.2741476
50
200.6781896
51
228.1763934
0
ARC
8
DEFAULT_255_1_234
10
8.3572447
20
0.2129077
40
0.2804109
50
179.5061581
51
199.8694617
0
ARC
8
DEFAULT_255_1_234
10
8.3563199
20
0.220321
40
0.2795204
50
132.4834203
51
181.0242172
0
ARC
8
DEFAULT_255_1_234
10
8.4158782
20
0.1640704
40
0.3612768
50
129.2532479
51
133.4242687
0
ARC
8
DEFAULT_255_1_234
10
8.4305231
20
0.1420965
40
0.3875675
50
101.98776
51
128.8742646
0
ARC
8
DEFAULT_255_1_234
10
8.4703842
20
-0.0300259
40
0.5642249
50
89.5906553
51
102.3169264
0
ARC
8
DEFAULT_255_1_234
10
8.4774334
20
0.0018148
40
0.5323783
50
77.2360837
51
90.3248275
0
ARC
8
DEFAULT_255_1_234
10
8.4981413
20
0.09854
40
0.4334697
50
63.837784
51
77.0809408
0
ARC
8
DEFAULT_255_1_234
10
8.5259175
20
0.1502911
40
0.3747796
50
45.9864267
51
64.1607727
0
ARC
8
DEFAULT_255_1_234
10
8.5520056
20
0.1800866
40
0.3352302
50
32.2747395
51
45.6547121
0
ARC
8
DEFAULT_255_1_234
10
8.5586497
20
0.181988
40
0.328603
50
359.6507365
51
32.6130309
0
ARC
8
DEFAULT_255_1_234
10
8.4643592
20
0.182466
40
0.2678863
50
359.469343
51
14.9832209
0
ARC
8
DEFAULT_255_1_234
10
8.5348654
20
0.2013539
40
0.1948938
50
14.9781179
51
48.2004265
0
ARC
8
DEFAULT_255_1_234
10
8.5184299
20
0.1806983
40
0.2212521
50
48.5927837
51
74.1241538
0
ARC
8
DEFAULT_255_1_234
10
8.4850788
20
0.0706248
40
0.3362561
50
73.7888341
51
86.6652678
0
ARC
8
DEFAULT_255_1_234
10
8.4748354
20
-0.0501119
40
0.4573953
50
86.2640471
51
90.0526343
0
ARC
8
DEFAULT_255_1_234
10
8.4720066
20
-0.0105808
40
0.4178709
50
89.6697524
51
99.2309573
0
ARC
8
DEFAULT_255_1_234
10
8.4477517
20
0.1338964
40
0.2713749
50
99.069534
51
113.7658566
0
ARC
8
DEFAULT_255_1_234
10
8.4203708
20
0.1984677
40
0.2012469
50
114.0401004
51
127.9850673
0
ARC
8
DEFAULT_255_1_234
10
8.3963272
20
0.228073
40
0.1631167
50
127.7287463
51
176.7105154
0
ARC
8
DEFAULT_255_1_234
10
8.464199
20
0.2179693
40
0.2315392
50
175.1779447
51
180.0581938
0
ARC
8
DEFAULT_255_1_234
10
8.3798836
20
0.2167428
40
0.1472271
50
179.6142195
51
228.1246017
0
ARC
8
DEFAULT_255_1_234
10
8.4240505
20
0.2576308
40
0.2072299
50
226.5779593
51
230.8800004
0
ARC
8
DEFAULT_255_1_234
10
8.4711584
20
0.3201636
40
0.2854818
50
231.4635071
51
241.9260842
0
ARC
8
DEFAULT_255_1_234
10
8.5908762
20
0.54048
40
0.53622
50
241.7178533
51
248.3259551
0
ARC
8
DEFAULT_255_1_234
10
8.7294134
20
0.8837064
40
0.9063478
50
248.2007737
51
252.4528373
0
ARC
8
DEFAULT_255_1_234
10
8.8497858
20
1.2558441
40
1.2974635
50
252.3391078
51
254.3469452
0
ARC
8
DEFAULT_255_1_234
10
8.0955561
20
-1.4418852
40
1.5037162
50
71.0197183
51
74.4087047
0
ARC
8
DEFAULT_255_1_234
10
8.2650246
20
-0.9526889
40
0.9859993
50
66.1847285
51
71.086374
0
ARC
8
DEFAULT_255_1_234
10
8.4206559
20
-0.60228
40
0.6025855
50
59.3536294
51
66.2691831
0
ARC
8
DEFAULT_255_1_234
10
8.5095211
20
-0.4519391
40
0.4279449
50
49.1020879
51
59.3293958
0
ARC
8
DEFAULT_255_1_234
10
8.5913951
20
-0.3586166
40
0.3038015
50
32.7919921
51
49.2505539
0
ARC
8
DEFAULT_255_1_234
10
8.6235041
20
-0.3357809
40
0.264448
50
31.1181161
51
32.4005348
0
ARC
8
DEFAULT_255_1_234
10
8.6146579
20
-0.3393221
40
0.2738556
50
8.1116974
51
30.7958831
0
ARC
8
DEFAULT_255_1_234
10
8.5336247
20
-0.3531247
40
0.3560327
50
359.8389159
51
8.4706516
0
ARC
8
DEFAULT_255_1_234
10
8.5962038
20
-0.3579863
40
0.2934776
50
337.4731098
51
0.7537279
0
ARC
8
DEFAULT_255_1_234
10
8.6140733
20
-0.3599613
40
0.2762607
50
307.5917067
51
336.4315538
0
ARC
8
DEFAULT_255_1_234
10
8.5680561
20
-0.3086898
40
0.3449979
50
307.6551545
51
308.4529766
0
ARC
8
DEFAULT_255_1_234
10
8.545028
20
-0.273175
40
0.3871988
50
284.3734338
51
307.1424381
0
ARC
8
DEFAULT_255_1_234
10
8.495511
20
-0.0910068
40
0.5759636
50
272.4382747
51
284.646547
0
ARC
8
DEFAULT_255_1_234
10
8.4828319
20
0.0889893
40
0.7563528
50
269.9708387
51
272.8178037
0
ARC
8
DEFAULT_255_1_234
10
8.4785358
20
-0.1148284
40
0.5525489
50
248.2707594
51
270.4055579
0
ARC
8
DEFAULT_255_1_234
10
8.47311
20
-0.1338808
40
0.5328452
50
246.1383403
51
248.0542782
0
ARC
8
DEFAULT_255_1_234
10
8.4312478
20
-0.2218157
40
0.4355005
50
233.1670131
51
246.4950969
0
ARC
8
DEFAULT_255_1_234
10
8.3758383
20
-0.2966188
40
0.3424126
50
215.3403242
51
233.0843104
0
ARC
8
DEFAULT_255_1_234
10
8.3485815
20
-0.3164451
40
0.3087104
50
179.2419209
51
215.2648451
0
ARC
8
DEFAULT_255_1_234
10
8.4253409
20
-0.3150334
40
0.2304457
50
179.335461
51
199.1045811
0
ARC
8
DEFAULT_255_1_234
10
8.3921085
20
-0.3237234
40
0.1962176
50
199.8828939
51
232.7063202
0
ARC
8
DEFAULT_255_1_234
10
8.4393353
20
-0.2643212
40
0.2720938
50
232.3738199
51
255.5136649
0
ARC
8
DEFAULT_255_1_234
10
8.473422
20
-0.1399165
40
0.4010747
50
255.2446292
51
267.5320849
0
ARC
8
DEFAULT_255_1_234
10
8.4821843
20
-0.0166298
40
0.5246356
50
267.1557994
51
270.0286766
0
ARC
8
DEFAULT_255_1_234
10
8.4849616
20
-0.061005
40
0.4802668
50
269.7000017
51
278.1660162
0
ARC
8
DEFAULT_255_1_234
10
8.510562
20
-0.2340485
40
0.3053425
50
278.0231263
51
290.625471
0
ARC
8
DEFAULT_255_1_234
10
8.5453308
20
-0.3267975
40
0.206291
50
290.6619762
51
307.0370976
0
ARC
8
DEFAULT_255_1_234
10
8.5753697
20
-0.3636496
40
0.1587906
50
306.3943566
51
355.3030547
0
ARC
8
DEFAULT_255_1_234
10
8.5241628
20
-0.3559887
40
0.2104809
50
354.3660432
51
0.0698737
0
ARC
8
DEFAULT_255_1_234
10
8.5383973
20
-0.3537383
40
0.1962563
50
359.417946
51
16.1971788
0
ARC
8
DEFAULT_255_1_234
10
8.5839284
20
-0.3412582
40
0.149053
50
16.4723299
51
52.6262157
0
ARC
8
DEFAULT_255_1_234
10
8.5018338
20
-0.4496567
40
0.2850296
50
52.7386432
51
62.4979148
0
ARC
8
DEFAULT_255_1_234
10
8.3633415
20
-0.7102717
40
0.5801521
50
62.2515216
51
68.1220564
0
ARC
8
DEFAULT_255_1_234
10
8.1913325
20
-1.1330128
40
1.0365451
50
68.0062803
51
71.8053402
0
ARC
8
DEFAULT_255_1_234
10
8.0117697
20
-1.6715242
40
1.6042013
50
71.7183119
51
73.9258742
0
LINE
8
DEFAULT_255_1_234
10
9.8036679
20
0.5181211
11
9.8036679
21
0.434591
0
LINE
8
DEFAULT_255_1_234
10
9.8036679
20
0.434591
11
9.3193541
21
-0.6513
0
LINE
8
DEFAULT_255_1_234
10
9.3193541
20
-0.6513
11
9.1635383
21
-0.6513
0
LINE
8
DEFAULT_255_1_234
10
9.1635383
20
-0.6513
11
9.6462458
21
0.3960387
0
LINE
8
DEFAULT_255_1_234
10
9.6462458
20
0.3960387
11
9.0133448
21
0.3960387
0
LINE
8
DEFAULT_255_1_234
10
9.0133448
20
0.3960387
11
9.0133448
21
0.5181211
0
LINE
8
DEFAULT_255_1_234
10
9.0133448
20
0.5181211
11
9.8036679
21
0.5181211
0
LINE
8
DEFAULT_255_1_234
10
10.4606641
20
0.5237433
11
10.4606641
21
-0.6513
0
LINE
8
DEFAULT_255_1_234
10
10.4606641
20
-0.6513
11
10.3112737
21
-0.6513
0
LINE
8
DEFAULT_255_1_234
10
10.3112737
20
-0.6513
11
10.3112737
21
0.3390133
0
LINE
8
DEFAULT_255_1_234
10
10.3112737
20
0.3390133
11
10.0116899
21
0.2289785
0
LINE
8
DEFAULT_255_1_234
10
10.0116899
20
0.2289785
11
10.0116899
21
0.3639117
0
LINE
8
DEFAULT_255_1_234
10
10.0116899
20
0.3639117
11
10.437372
21
0.5237433
0
LINE
8
DEFAULT_255_1_234
10
10.437372
20
0.5237433
11
10.4606641
21
0.5237433
0
LINE
8
DEFAULT_255_1_234
10
11.112038
20
-0.1155831
11
11.112038
21
0.0056962
0
LINE
8
DEFAULT_255_1_234
10
11.112038
20
0.0056962
11
11.2236792
21
0.0056962
0
LINE
8
DEFAULT_255_1_234
10
11.033327
20
0.2113087
11
10.8847398
21
0.2113087
0
LINE
8
DEFAULT_255_1_234
10
10.8742986
20
-0.3428813
11
11.0236889
21
-0.3428813
0
LINE
8
DEFAULT_255_1_234
10
11.2236792
20
-0.1155831
11
11.112038
21
-0.1155831
0
ARC
8
DEFAULT_255_1_234
10
11.2207658
20
0.3449713
40
0.3392876
50
270.4919872
51
281.8951556
0
ARC
8
DEFAULT_255_1_234
10
11.244892
20
0.2347702
40
0.2264817
50
281.6691735
51
301.2943132
0
ARC
8
DEFAULT_255_1_234
10
11.261913
20
0.2036304
40
0.1910381
50
301.7833094
51
311.7545298
0
ARC
8
DEFAULT_255_1_234
10
11.2710706
20
0.1934748
40
0.1773635
50
311.7323931
51
354.2802411
0
ARC
8
DEFAULT_255_1_234
10
11.1984331
20
0.2059722
40
0.2509385
50
353.0937916
51
0.1181479
0
ARC
8
DEFAULT_255_1_234
10
11.1523116
20
0.2107386
40
0.2970898
50
359.1805295
51
15.0453146
0
ARC
8
DEFAULT_255_1_234
10
11.2868953
20
0.2499992
40
0.1569564
50
13.9577229
51
77.6713066
0
ARC
8
DEFAULT_255_1_234
10
11.2482482
20
0.1114949
40
0.3006298
50
76.1116566
51
90.7026153
0
ARC
8
DEFAULT_255_1_234
10
11.2423321
20
0.1388545
40
0.2732568
50
89.5324876
51
103.531937
0
ARC
8
DEFAULT_255_1_234
10
11.2222765
20
0.2187884
40
0.1908508
50
103.2931773
51
133.5619022
0
ARC
8
DEFAULT_255_1_234
10
11.2178253
20
0.2247375
40
0.1834746
50
133.8349307
51
173.5344437
0
ARC
8
DEFAULT_255_1_234
10
11.2901296
20
0.2119213
40
0.2568033
50
172.5096846
51
180.1366907
0
ARC
8
DEFAULT_255_1_234
10
11.195019
20
0.2153622
40
0.3103056
50
155.3484492
51
180.7484736
0
ARC
8
DEFAULT_255_1_234
10
11.1901279
20
0.2124846
40
0.3070957
50
131.5744599
51
154.4798489
0
ARC
8
DEFAULT_255_1_234
10
11.2214427
20
0.180831
40
0.3515643
50
96.9875458
51
131.9690667
0
ARC
8
DEFAULT_255_1_234
10
11.2433906
20
0.0562636
40
0.4779224
50
89.8596053
51
97.7825159
0
ARC
8
DEFAULT_255_1_234
10
11.248197
20
0.0300616
40
0.5041361
50
78.3655447
51
90.4131539
0
ARC
8
DEFAULT_255_1_234
10
11.2839887
20
0.1959887
40
0.3344039
50
56.6229102
51
78.638727
0
ARC
8
DEFAULT_255_1_234
10
11.3054831
20
0.2335805
40
0.2912001
50
47.0253525
51
56.0854072
0
ARC
8
DEFAULT_255_1_234
10
11.3074611
20
0.2375223
40
0.2869704
50
10.9208013
51
46.7778124
0
ARC
8
DEFAULT_255_1_234
10
11.1710678
20
0.2059857
40
0.426899
50
359.6364486
51
11.6087304
0
ARC
8
DEFAULT_255_1_234
10
11.3545522
20
0.2044752
40
0.243409
50
332.3549906
51
359.7179418
0
ARC
8
DEFAULT_255_1_234
10
11.2895123
20
0.2353142
40
0.3153459
50
325.2333722
51
332.8745602
0
ARC
8
DEFAULT_255_1_234
10
11.3047747
20
0.2246828
40
0.2967456
50
292.9802137
51
325.2392345
0
ARC
8
DEFAULT_255_1_234
10
11.2773121
20
0.2780863
40
0.3566604
50
292.5402179
51
293.6924929
0
ARC
8
DEFAULT_255_1_234
10
11.3165717
20
-0.3673909
40
0.3307468
50
57.6435486
51
72.8625112
0
ARC
8
DEFAULT_255_1_234
10
11.3520216
20
-0.3099451
40
0.2632492
50
36.7248896
51
57.4697979
0
ARC
8
DEFAULT_255_1_234
10
11.3508849
20
-0.308678
40
0.2634081
50
8.0545065
51
36.356114
0
ARC
8
DEFAULT_255_1_234
10
11.2646034
20
-0.3241826
40
0.3510261
50
359.8320645
51
8.5869982
0
ARC
8
DEFAULT_255_1_234
10
11.2270811
20
-0.3289899
40
0.3885653
50
343.9829931
51
0.5571613
0
ARC
8
DEFAULT_255_1_234
10
11.3157008
20
-0.3532562
40
0.2966924
50
311.6359546
51
343.7651759
0
ARC
8
DEFAULT_255_1_234
10
11.2778577
20
-0.3105898
40
0.3537231
50
279.7829875
51
311.6255694
0
ARC
8
DEFAULT_255_1_234
10
11.2477353
20
-0.166872
40
0.5004971
50
269.7286406
51
280.3856417
0
ARC
8
DEFAULT_255_1_234
10
11.2415426
20
-0.1710004
40
0.4963778
50
256.6828919
51
270.4412052
0
ARC
8
DEFAULT_255_1_234
10
11.2076722
20
-0.3094606
40
0.3538406
50
229.4223008
51
256.8556159
0
ARC
8
DEFAULT_255_1_234
10
11.1662114
20
-0.3561264
40
0.2914296
50
181.818294
51
229.6455059
0
ARC
8
DEFAULT_255_1_234
10
11.2702071
20
-0.3430504
40
0.3959084
50
179.9755256
51
183.2323064
0
ARC
8
DEFAULT_255_1_234
10
11.2529816
20
-0.3450963
40
0.2293034
50
179.4465117
51
196.2869258
0
ARC
8
DEFAULT_255_1_234
10
11.2042224
20
-0.3584349
40
0.1787621
50
196.5661473
51
227.705904
0
ARC
8
DEFAULT_255_1_234
10
11.2206319
20
-0.3400845
40
0.2033784
50
227.7652068
51
257.8762805
0
ARC
8
DEFAULT_255_1_234
10
11.2431289
20
-0.2457844
40
0.3003081
50
257.4584385
51
270.426602
0
ARC
8
DEFAULT_255_1_234
10
11.2476856
20
-0.2168004
40
0.329292
50
269.5962073
51
280.8789248
0
ARC
8
DEFAULT_255_1_234
10
11.2706384
20
-0.3314315
40
0.2123908
50
280.6346389
51
299.8595945
0
ARC
8
DEFAULT_255_1_234
10
11.2897291
20
-0.3676788
40
0.171457
50
300.3576302
51
314.5517981
0
ARC
8
DEFAULT_255_1_234
10
11.2814351
20
-0.3616081
40
0.1816095
50
315.0728369
51
345.0431014
0
ARC
8
DEFAULT_255_1_234
10
11.1891166
20
-0.3347159
40
0.2777492
50
344.5986631
51
357.9269593
0
ARC
8
DEFAULT_255_1_234
10
11.0995492
20
-0.3285724
40
0.3674917
50
357.4748886
51
0.0231117
0
ARC
8
DEFAULT_255_1_234
10
11.2018601
20
-0.3261321
40
0.2651907
50
359.5047933
51
13.4239635
0
ARC
8
DEFAULT_255_1_234
10
11.2885245
20
-0.3039522
40
0.1757509
50
12.9498199
51
48.7551375
0
ARC
8
DEFAULT_255_1_234
10
11.2702979
20
-0.32886
40
0.2065134
50
49.5088623
51
72.1836453
0
ARC
8
DEFAULT_255_1_234
10
11.2345131
20
-0.4350709
40
0.3185836
50
71.9010081
51
84.3554254
0
ARC
8
DEFAULT_255_1_234
10
11.2183763
20
-0.5711674
40
0.4556151
50
84.0193428
51
89.333121
0
LINE
8
DEFAULT_255_1_234
10
12.585862
20
-0.5300208
11
12.585862
21
-0.6513
0
LINE
8
DEFAULT_255_1_234
10
12.585862
20
-0.6513
11
11.8196342
21
-0.6513
0
LINE
8
DEFAULT_255_1_234
10
11.8196342
20
-0.6513
11
11.8196342
21
-0.5444779
0
LINE
8
DEFAULT_255_1_234
10
11.8196342
20
-0.5444779
11
12.2244338
21
-0.0947005
0
LINE
8
DEFAULT_255_1_234
10
11.9457325
20
0.1735595
11
11.7971453
21
0.1735595
0
LINE
8
DEFAULT_255_1_234
10
12.3119797
20
-0.1902782
11
11.9987419
21
-0.5300208
0
LINE
8
DEFAULT_255_1_234
10
11.9987419
20
-0.5300208
11
12.585862
21
-0.5300208
0
ARC
8
DEFAULT_255_1_234
10
10.8754171
20
1.0982527
40
1.8008286
50
318.5132453
51
320.7828378
0
ARC
8
DEFAULT_255_1_234
10
11.4041146
20
0.6679426
40
1.1191493
50
320.7372736
51
323.9737074
0
ARC
8
DEFAULT_255_1_234
10
11.7961002
20
0.3839361
40
0.6350923
50
323.8961724
51
328.6421089
0
ARC
8
DEFAULT_255_1_234
10
12.0007597
20
0.2577031
40
0.3946393
50
328.8299013
51
331.789948
0
ARC
8
DEFAULT_255_1_234
10
12.1004776
20
0.2062509
40
0.2824501
50
331.4255242
51
352.9364833
0
ARC
8
DEFAULT_255_1_234
10
12.1141277
20
0.2031976
40
0.2685315
50
353.2248685
51
0.0169286
0
ARC
8
DEFAULT_255_1_234
10
12.1351153
20
0.205495
40
0.2475536
50
359.4866256
51
15.9339782
0
ARC
8
DEFAULT_255_1_234
10
12.1858139
20
0.2191286
40
0.1950618
50
16.1714718
51
43.5284424
0
ARC
8
DEFAULT_255_1_234
10
12.1935447
20
0.2268573
40
0.184134
50
43.4415429
51
83.1661404
0
ARC
8
DEFAULT_255_1_234
10
12.1801365
20
0.1531771
40
0.258926
50
82.160215
51
90.1505798
0
ARC
8
DEFAULT_255_1_234
10
12.1769793
20
0.0994865
40
0.3126255
50
89.5460705
51
102.5418777
0
ARC
8
DEFAULT_255_1_234
10
12.1526879
20
0.2025665
40
0.2067346
50
102.1739365
51
129.2061916
0
ARC
8
DEFAULT_255_1_234
10
12.1447951
20
0.2150094
40
0.1921118
50
129.7279328
51
135.7542026
0
ARC
8
DEFAULT_255_1_234
10
12.1569478
20
0.2053045
40
0.2075944
50
136.175737
51
166.3674722
0
ARC
8
DEFAULT_255_1_234
10
12.2576398
20
0.1783182
40
0.3118201
50
165.9092917
51
178.8683903
0
ARC
8
DEFAULT_255_1_234
10
12.3441259
20
0.1736179
40
0.3983935
50
178.438168
51
180.0083905
0
ARC
8
DEFAULT_255_1_234
10
12.2039861
20
0.1775231
40
0.4068601
50
163.2878735
51
180.5581814
0
ARC
8
DEFAULT_255_1_234
10
12.1238122
20
0.199584
40
0.3237344
50
133.454115
51
162.9470031
0
ARC
8
DEFAULT_255_1_234
10
12.1416664
20
0.1806
40
0.349795
50
100.7869394
51
133.4384016
0
ARC
8
DEFAULT_255_1_234
10
12.1764435
20
0.0257319
40
0.5084616
50
89.6605301
51
101.3704185
0
ARC
8
DEFAULT_255_1_234
10
12.1830774
20
0.0318496
40
0.502348
50
78.2171172
51
90.4130393
0
ARC
8
DEFAULT_255_1_234
10
12.2185852
20
0.1942637
40
0.3361092
50
55.9268222
51
78.4888551
0
ARC
8
DEFAULT_255_1_234
10
12.2382292
20
0.2281324
40
0.2970617
50
47.9292255
51
55.4054003
0
ARC
8
DEFAULT_255_1_234
10
12.2483853
20
0.2384502
40
0.2825983
50
4.3347696
51
48.0560701
0
ARC
8
DEFAULT_255_1_234
10
12.1388247
20
0.2214601
40
0.393225
50
359.925209
51
5.5967654
0
ARC
8
DEFAULT_255_1_234
10
12.1817138
20
0.2270816
40
0.3503892
50
337.8914096
51
358.9967724
0
ARC
8
DEFAULT_255_1_234
10
11.9103551
20
0.3317706
40
0.6412172
50
326.9135351
51
338.3505194
0
ARC
8
DEFAULT_255_1_234
10
11.5117854
20
0.5872284
40
1.1146189
50
319.6472867
51
327.095818
0
ARC
8
DEFAULT_255_1_234
10
11.1284857
20
0.9034
40
1.6114559
50
317.2586784
51
319.9046139
0
LINE
8
DEFAULT_255_1_234
10
13.0677663
20
-0.0938974
11
13.0677663
21
-0.2151766
0
LINE
8
DEFAULT_255_1_234
10
13.0677663
20
-0.2151766
11
12.6758175
21
-0.2151766
0
LINE
8
DEFAULT_255_1_234
10
12.6758175
20
-0.2151766
11
12.6758175
21
-0.0938974
0
LINE
8
DEFAULT_255_1_234
10
12.6758175
20
-0.0938974
11
13.0677663
21
-0.0938974
0
LINE
8
DEFAULT_255_1_234
10
13.8243561
20
0.5181211
11
13.8243561
21
-0.258548
0
LINE
8
DEFAULT_255_1_234
10
13.8243561
20
-0.258548
11
13.9865972
21
-0.258548
0
LINE
8
DEFAULT_255_1_234
10
13.9865972
20
-0.258548
11
13.9865972
21
-0.3798272
0
LINE
8
DEFAULT_255_1_234
10
13.9865972
20
-0.3798272
11
13.8243561
21
-0.3798272
0
LINE
8
DEFAULT_255_1_234
10
13.8243561
20
-0.3798272
11
13.8243561
21
-0.6513
0
LINE
8
DEFAULT_255_1_234
10
13.8243561
20
-0.6513
11
13.6749657
21
-0.6513
0
LINE
8
DEFAULT_255_1_234
10
13.6749657
20
-0.6513
11
13.6749657
21
-0.3798272
0
LINE
8
DEFAULT_255_1_234
10
13.6749657
20
-0.3798272
11
13.1424615
21
-0.3798272
0
LINE
8
DEFAULT_255_1_234
10
13.1424615
20
-0.3798272
11
13.1424615
21
-0.2922813
0
LINE
8
DEFAULT_255_1_234
10
13.1424615
20
-0.2922813
11
13.6661308
21
0.5181211
0
LINE
8
DEFAULT_255_1_234
10
13.6661308
20
0.5181211
11
13.8243561
21
0.5181211
0
LINE
8
DEFAULT_255_1_234
10
13.6572959
20
0.2827912
11
13.311128
21
-0.258548
0
LINE
8
DEFAULT_255_1_234
10
13.311128
20
-0.258548
11
13.6749657
21
-0.258548
0
LINE
8
DEFAULT_255_1_234
10
13.6749657
20
-0.258548
11
13.6749657
21
0.3149181
0
LINE
8
DEFAULT_255_1_234
10
13.6749657
20
0.3149181
11
13.6572959
21
0.2827912
0
LINE
8
DEFAULT_255_1_234
10
14.5648823
20
-0.6513
11
14.1592795
21
-0.6513
0
LINE
8
DEFAULT_255_1_234
10
14.1592795
20
-0.6513
11
14.1592795
21
0.5181211
0
LINE
8
DEFAULT_255_1_234
10
14.1592795
20
0.5181211
11
14.5415903
21
0.5181211
0
LINE
8
DEFAULT_255_1_234
10
14.5705045
20
-0.1043386
11
14.3134889
21
-0.1043386
0
LINE
8
DEFAULT_255_1_234
10
14.3134889
20
-0.1043386
11
14.3134889
21
-0.5252017
0
LINE
8
DEFAULT_255_1_234
10
14.3134889
20
-0.5252017
11
14.568095
21
-0.5252017
0
LINE
8
DEFAULT_255_1_234
10
14.3134889
20
0.3912196
11
14.3134889
21
0.0193501
0
LINE
8
DEFAULT_255_1_234
10
14.3134889
20
0.0193501
11
14.5464093
21
0.0193501
0
LINE
8
DEFAULT_255_1_234
10
14.5415903
20
0.3912196
11
14.3134889
21
0.3912196
0
ARC
8
DEFAULT_255_1_234
10
14.5453612
20
-0.2186099
40
0.7367406
50
82.1257326
51
90.2932599
0
ARC
8
DEFAULT_255_1_234
10
14.5842566
20
0.0532013
40
0.4621653
50
69.9044149
51
82.2857423
0
ARC
8
DEFAULT_255_1_234
10
14.6413244
20
0.2074637
40
0.2976871
50
51.1838526
51
70.0181538
0
ARC
8
DEFAULT_255_1_234
10
14.666821
20
0.244524
40
0.2528517
50
12.1017251
51
50.4214761
0
ARC
8
DEFAULT_255_1_234
10
14.5284084
20
0.2097676
40
0.3955061
50
359.5251267
51
12.8211707
0
ARC
8
DEFAULT_255_1_234
10
14.6864011
20
0.2028344
40
0.2375281
50
323.4908128
51
0.8817314
0
ARC
8
DEFAULT_255_1_234
10
14.6445698
20
0.235155
40
0.2903817
50
298.6825083
51
323.2756573
0
ARC
8
DEFAULT_255_1_234
10
14.6084061
20
0.2952649
40
0.3604842
50
293.1999386
51
299.1396394
0
ARC
8
DEFAULT_255_1_234
10
14.6757033
20
-0.3132874
40
0.2871098
50
54.0011765
51
74.9167975
0
ARC
8
DEFAULT_255_1_234
10
14.6873393
20
-0.2935668
40
0.2643248
50
36.3580696
51
53.5291921
0
ARC
8
DEFAULT_255_1_234
10
14.6746635
20
-0.3026002
40
0.2798884
50
4.8189881
51
36.3089977
0
ARC
8
DEFAULT_255_1_234
10
14.596747
20
-0.313573
40
0.358478
50
359.9370252
51
5.5204067
0
ARC
8
DEFAULT_255_1_234
10
14.5642991
20
-0.3176333
40
0.3909429
50
344.7478609
51
0.5373281
0
ARC
8
DEFAULT_255_1_234
10
14.6633963
20
-0.3443456
40
0.2883093
50
311.1786488
51
344.6886812
0
ARC
8
DEFAULT_255_1_234
10
14.634201
20
-0.3080013
40
0.3348923
50
286.0418249
51
310.8441291
0
ARC
8
DEFAULT_255_1_234
10
14.5834842
20
-0.1433193
40
0.5071869
50
274.1042341
51
286.4071509
0
ARC
8
DEFAULT_255_1_234
10
14.5658098
20
0.0450229
40
0.6963234
50
269.9236873
51
274.445647
0
ARC
8
DEFAULT_255_1_234
10
14.5704098
20
-0.1889463
40
0.3362634
50
269.6055768
51
281.3740047
0
ARC
8
DEFAULT_255_1_234
10
14.5934736
20
-0.2982647
40
0.224546
50
281.1055983
51
302.5132223
0
ARC
8
DEFAULT_255_1_234
10
14.6081636
20
-0.3246177
40
0.1944357
50
303.0368945
51
311.8811219
0
ARC
8
DEFAULT_255_1_234
10
14.6153042
20
-0.333111
40
0.1833454
50
311.9916004
51
351.7143462
0
ARC
8
DEFAULT_255_1_234
10
14.5336272
20
-0.316607
40
0.2665871
50
350.7339597
51
0.2221581
0
ARC
8
DEFAULT_255_1_234
10
14.5228718
20
-0.3109533
40
0.2773789
50
359.0456241
51
17.2296242
0
ARC
8
DEFAULT_255_1_234
10
14.6267836
20
-0.2800837
40
0.1689915
50
17.6685481
51
78.9940892
0
ARC
8
DEFAULT_255_1_234
10
14.5750999
20
-0.4655776
40
0.3612658
50
76.5635957
51
90.6980921
0
LINE
8
DEFAULT_255_1_234
10
14.5706984
20
-0.1043387
11
14.5705045
21
-0.1043386
0
ARC
8
DEFAULT_255_1_234
10
14.548666
20
0.3479036
40
0.3285612
50
269.6064736
51
281.4533503
0
ARC
8
DEFAULT_255_1_234
10
14.5709479
20
0.2427688
40
0.2210975
50
281.2041486
51
302.5148063
0
ARC
8
DEFAULT_255_1_234
10
14.5846329
20
0.2181241
40
0.1929674
50
303.021671
51
309.8369575
0
ARC
8
DEFAULT_255_1_234
10
14.6029791
20
0.1975488
40
0.1654181
50
309.5228395
51
356.9509836
0
ARC
8
DEFAULT_255_1_234
10
14.5366373
20
0.2070932
40
0.2322512
50
355.4701227
51
0.0492546
0
ARC
8
DEFAULT_255_1_234
10
14.5087465
20
0.2093094
40
0.2601498
50
359.5558597
51
11.2096359
0
ARC
8
DEFAULT_255_1_234
10
14.6044754
20
0.229123
40
0.1623975
50
10.9182341
51
31.3230275
0
ARC
8
DEFAULT_255_1_234
10
14.6330488
20
0.2450214
40
0.1297302
50
31.8852677
51
52.1412565
0
ARC
8
DEFAULT_255_1_234
10
14.6056221
20
0.206275
40
0.1771663
50
52.8285564
51
71.9850297
0
ARC
8
DEFAULT_255_1_234
10
14.5680397
20
0.0956664
40
0.2939794
50
71.6863486
51
82.8455995
0
ARC
8
DEFAULT_255_1_234
10
14.5440933
20
-0.0852851
40
0.476506
50
82.6984714
51
90.1729175
0
ARC
8
DEFAULT_255_1_234
10
14.5418568
20
0.0370623
40
0.3541573
50
89.8708275
51
90.0431131
0
LINE
8
DEFAULT_255_1_234
10
15.8282748
20
-0.0087609
11
15.8282748
21
-0.1348592
0
LINE
8
DEFAULT_255_1_234
10
15.8282748
20
-0.1348592
11
15.3375355
21
-0.1348592
0
LINE
8
DEFAULT_255_1_234
10
15.3375355
20
-0.1348592
11
15.3375355
21
-0.6513
0
LINE
8
DEFAULT_255_1_234
10
15.3375355
20
-0.6513
11
15.1833262
21
-0.6513
0
LINE
8
DEFAULT_255_1_234
10
15.1833262
20
-0.6513
11
15.1833262
21
0.5181211
0
LINE
8
DEFAULT_255_1_234
10
15.1833262
20
0.5181211
11
15.907789
21
0.5181211
0
LINE
8
DEFAULT_255_1_234
10
15.907789
20
0.5181211
11
15.907789
21
0.3912196
0
LINE
8
DEFAULT_255_1_234
10
15.907789
20
0.3912196
11
15.3375355
21
0.3912196
0
LINE
8
DEFAULT_255_1_234
10
15.3375355
20
0.3912196
11
15.3375355
21
-0.0087609
0
LINE
8
DEFAULT_255_1_234
10
15.3375355
20
-0.0087609
11
15.8282748
21
-0.0087609
0
LINE
8
DEFAULT_255_1_234
10
16.7872643
20
0.0402327
11
16.7872643
21
-0.1525291
0
LINE
8
DEFAULT_255_1_234
10
16.0491476
20
-0.1726084
11
16.0491476
21
0.0257755
0
LINE
8
DEFAULT_255_1_234
10
16.6386771
20
-0.1926877
11
16.6386771
21
0.0506739
0
LINE
8
DEFAULT_255_1_234
10
16.1977347
20
0.0619184
11
16.1977347
21
-0.1758211
0
ARC
8
DEFAULT_255_1_234
10
15.5625533
20
-0.1574195
40
1.2247208
50
353.8441951
51
0.2287902
0
ARC
8
DEFAULT_255_1_234
10
16.0265036
20
-0.2092194
40
0.7578929
50
344.4934747
51
353.9765454
0
ARC
8
DEFAULT_255_1_234
10
16.3257626
20
-0.2943019
40
0.4467846
50
329.2803592
51
344.7472793
0
ARC
8
DEFAULT_255_1_234
10
16.4250451
20
-0.3487982
40
0.3336173
50
324.9352394
51
328.6160465
0
ARC
8
DEFAULT_255_1_234
10
16.462756
20
-0.3751573
40
0.2876076
50
280.580143
51
324.9173126
0
ARC
8
DEFAULT_255_1_234
10
16.4226353
20
-0.2080901
40
0.4592847
50
269.5977311
51
281.6734359
0
ARC
8
DEFAULT_255_1_234
10
16.4154258
20
-0.2200827
40
0.4472986
50
256.6228859
51
270.51044
0
ARC
8
DEFAULT_255_1_234
10
16.3752236
20
-0.3749123
40
0.2873874
50
215.8618325
51
257.2788573
0
ARC
8
DEFAULT_255_1_234
10
16.4773268
20
-0.3064023
40
0.4102928
50
197.9693508
51
215.2623606
0
ARC
8
DEFAULT_255_1_234
10
16.7258383
20
-0.2225291
40
0.6725652
50
187.8816417
51
198.2346507
0
ARC
8
DEFAULT_255_1_234
10
17.1216592
20
-0.1653921
40
1.0724845
50
180.8976217
51
188.0055519
0
ARC
8
DEFAULT_255_1_234
10
17.401678
20
-0.1550223
40
1.3526448
50
180.7449369
51
181.1510016
0
ARC
8
DEFAULT_255_1_234
10
17.2439509
20
0.0306042
40
1.1948131
50
173.7675579
51
180.231553
0
ARC
8
DEFAULT_255_1_234
10
16.7921655
20
0.0816666
40
0.7401564
50
164.3058563
51
173.9002247
0
ARC
8
DEFAULT_255_1_234
10
16.5009724
20
0.1655656
40
0.4371288
50
148.7922025
51
164.568378
0
ARC
8
DEFAULT_255_1_234
10
16.4058176
20
0.2186929
40
0.3282386
50
144.5883898
51
148.1176286
0
ARC
8
DEFAULT_255_1_234
10
16.3715074
20
0.2426315
40
0.2864044
50
101.6440918
51
144.514236
0
ARC
8
DEFAULT_255_1_234
10
16.4140141
20
0.0737069
40
0.4604934
50
89.5284041
51
102.5819763
0
ARC
8
DEFAULT_255_1_234
10
16.4219229
20
0.0698018
40
0.464401
50
77.0437873
51
90.5081339
0
ARC
8
DEFAULT_255_1_234
10
16.4621231
20
0.2340615
40
0.2953195
50
48.2778575
51
77.4994676
0
ARC
8
DEFAULT_255_1_234
10
16.4693862
20
0.2469746
40
0.2808655
50
36.3142134
51
47.6305865
0
ARC
8
DEFAULT_255_1_234
10
16.3825169
20
0.1884515
40
0.3855453
50
18.2931786
51
35.6769206
0
ARC
8
DEFAULT_255_1_234
10
16.1281928
20
0.1011593
40
0.654423
50
8.024666
51
18.5605216
0
ARC
8
DEFAULT_255_1_234
10
15.7118848
20
0.0396792
40
1.0752407
50
1.1274072
51
8.1718305
0
ARC
8
DEFAULT_255_1_234
10
15.3883038
20
0.0269885
40
1.3990231
50
0.5424119
51
1.3863029
0
ARC
8
DEFAULT_255_1_234
10
15.5704416
20
0.0542342
40
1.0682415
50
359.8090433
51
4.9407866
0
ARC
8
DEFAULT_255_1_234
10
15.991443
20
0.0918113
40
0.6455691
50
4.8362157
51
12.2904523
0
ARC
8
DEFAULT_255_1_234
10
16.2669545
20
0.1531965
40
0.3633074
50
12.0805627
51
23.8173984
0
ARC
8
DEFAULT_255_1_234
10
16.384325
20
0.2028919
40
0.2358723
50
24.2871213
51
31.3935614
0
ARC
8
DEFAULT_255_1_234
10
16.4367947
20
0.2372233
40
0.1732111
50
30.7407893
51
82.4657128
0
ARC
8
DEFAULT_255_1_234
10
16.4188082
20
0.1488691
40
0.263235
50
81.1060089
51
90.2184952
0
ARC
8
DEFAULT_255_1_234
10
16.4152381
20
0.1746924
40
0.2374236
50
89.3806855
51
105.6762551
0
ARC
8
DEFAULT_255_1_234
10
16.3969011
20
0.2413567
40
0.1682847
50
105.7981136
51
149.7388061
0
ARC
8
DEFAULT_255_1_234
10
16.503309
20
0.177395
40
0.2924306
50
149.4208916
51
163.6286378
0
ARC
8
DEFAULT_255_1_234
10
16.7123978
20
0.113625
40
0.5110213
50
163.3763315
51
172.1410975
0
ARC
8
DEFAULT_255_1_234
10
17.0424697
20
0.0663518
40
0.8444586
50
172.0259487
51
178.0703232
0
ARC
8
DEFAULT_255_1_234
10
17.3454786
20
0.0519906
40
1.1477868
50
177.8631668
51
179.5044149
0
ARC
8
DEFAULT_255_1_234
10
17.2382191
20
-0.1794611
40
1.0404907
50
179.7995573
51
185.2460446
0
ARC
8
DEFAULT_255_1_234
10
16.833923
20
-0.2177487
40
0.6343885
50
185.1411642
51
193.0079639
0
ARC
8
DEFAULT_255_1_234
10
16.5695702
20
-0.2802359
40
0.3627568
50
192.7897626
51
205.2507664
0
ARC
8
DEFAULT_255_1_234
10
16.4649249
20
-0.3269585
40
0.2481908
50
205.8005384
51
211.2537509
0
ARC
8
DEFAULT_255_1_234
10
16.412569
20
-0.362042
40
0.1852521
50
210.3789793
51
238.4008143
0
ARC
8
DEFAULT_255_1_234
10
16.4106212
20
-0.3573624
40
0.1882621
50
239.6520629
51
265.9793761
0
ARC
8
DEFAULT_255_1_234
10
16.4191412
20
-0.2901573
40
0.2559272
50
265.1315437
51
270.060332
0
ARC
8
DEFAULT_255_1_234
10
16.4220191
20
-0.3225466
40
0.2235528
50
269.3314664
51
287.2178029
0
ARC
8
DEFAULT_255_1_234
10
16.4358043
20
-0.3728721
40
0.1714108
50
287.7958004
51
329.080874
0
ARC
8
DEFAULT_255_1_234
10
16.3400499
20
-0.313107
40
0.2842745
50
328.6634704
51
343.3325132
0
ARC
8
DEFAULT_255_1_234
10
16.122752
20
-0.2454137
40
0.5118644
50
343.0499468
51
351.9393422
0
ARC
8
DEFAULT_255_1_234
10
15.776082
20
-0.1943051
40
0.8622784
50
351.8069023
51
357.7959224
0
ARC
8
DEFAULT_255_1_234
10
15.4525376
20
-0.1775279
40
1.1862365
50
357.5871873
51
359.2677531
0
LINE
8
DEFAULT_255_1_234
10
17.7109142
20
0.0402327
11
17.7109142
21
-0.1525291
0
LINE
8
DEFAULT_255_1_234
10
16.9727975
20
-0.1726084
11
16.9727975
21
0.0257755
0
LINE
8
DEFAULT_255_1_234
10
17.5623271
20
-0.1926877
11
17.5623271
21
0.0506739
0
LINE
8
DEFAULT_255_1_234
10
17.1213846
20
0.0619184
11
17.1213846
21
-0.1758211
0
ARC
8
DEFAULT_255_1_234
10
16.4862032
20
-0.1574195
40
1.2247208
50
353.8441951
51
0.2287902
0
ARC
8
DEFAULT_255_1_234
10
16.9501535
20
-0.2092194
40
0.7578929
50
344.4934747
51
353.9765454
0
ARC
8
DEFAULT_255_1_234
10
17.2494126
20
-0.2943019
40
0.4467846
50
329.2803592
51
344.7472793
0
ARC
8
DEFAULT_255_1_234
10
17.348695
20
-0.3487982
40
0.3336173
50
324.9352394
51
328.6160465
0
ARC
8
DEFAULT_255_1_234
10
17.3864059
20
-0.3751573
40
0.2876076
50
280.580143
51
324.9173126
0
ARC
8
DEFAULT_255_1_234
10
17.3462852
20
-0.2080901
40
0.4592847
50
269.5977311
51
281.6734359
0
ARC
8
DEFAULT_255_1_234
10
17.3390757
20
-0.2200827
40
0.4472986
50
256.6228859
51
270.51044
0
ARC
8
DEFAULT_255_1_234
10
17.2988735
20
-0.3749123
40
0.2873874
50
215.8618325
51
257.2788573
0
ARC
8
DEFAULT_255_1_234
10
17.4009767
20
-0.3064023
40
0.4102928
50
197.9693508
51
215.2623606
0
ARC
8
DEFAULT_255_1_234
10
17.6494882
20
-0.2225291
40
0.6725652
50
187.8816417
51
198.2346507
0
ARC
8
DEFAULT_255_1_234
10
18.0453091
20
-0.1653921
40
1.0724845
50
180.8976217
51
188.0055519
0
ARC
8
DEFAULT_255_1_234
10
18.3253279
20
-0.1550223
40
1.3526448
50
180.7449369
51
181.1510016
0
ARC
8
DEFAULT_255_1_234
10
18.1676008
20
0.0306042
40
1.1948131
50
173.7675579
51
180.231553
0
ARC
8
DEFAULT_255_1_234
10
17.7158154
20
0.0816666
40
0.7401564
50
164.3058563
51
173.9002247
0
ARC
8
DEFAULT_255_1_234
10
17.4246223
20
0.1655656
40
0.4371288
50
148.7922025
51
164.568378
0
ARC
8
DEFAULT_255_1_234
10
17.3294675
20
0.2186929
40
0.3282386
50
144.5883898
51
148.1176286
0
ARC
8
DEFAULT_255_1_234
10
17.2951573
20
0.2426315
40
0.2864044
50
101.6440918
51
144.514236
0
ARC
8
DEFAULT_255_1_234
10
17.337664
20
0.0737069
40
0.4604934
50
89.5284041
51
102.5819763
0
ARC
8
DEFAULT_255_1_234
10
17.3455728
20
0.0698018
40
0.464401
50
77.0437873
51
90.5081339
0
ARC
8
DEFAULT_255_1_234
10
17.385773
20
0.2340615
40
0.2953195
50
48.2778575
51
77.4994676
0
ARC
8
DEFAULT_255_1_234
10
17.3930361
20
0.2469746
40
0.2808655
50
36.3142134
51
47.6305865
0
ARC
8
DEFAULT_255_1_234
10
17.3061668
20
0.1884515
40
0.3855453
50
18.2931786
51
35.6769206
0
ARC
8
DEFAULT_255_1_234
10
17.0518427
20
0.1011593
40
0.654423
50
8.024666
51
18.5605216
0
ARC
8
DEFAULT_255_1_234
10
16.6355347
20
0.0396792
40
1.0752407
50
1.1274072
51
8.1718305
0
ARC
8
DEFAULT_255_1_234
10
16.3119537
20
0.0269885
40
1.3990231
50
0.5424119
51
1.3863029
0
ARC
8
DEFAULT_255_1_234
10
16.4940915
20
0.0542342
40
1.0682415
50
359.8090433
51
4.9407866
0
ARC
8
DEFAULT_255_1_234
10
16.9150929
20
0.0918113
40
0.6455691
50
4.8362157
51
12.2904523
0
ARC
8
DEFAULT_255_1_234
10
17.1906044
20
0.1531965
40
0.3633074
50
12.0805627
51
23.8173984
0
ARC
8
DEFAULT_255_1_234
10
17.3079749
20
0.2028919
40
0.2358723
50
24.2871213
51
31.3935614
0
ARC
8
DEFAULT_255_1_234
10
17.3604446
20
0.2372233
40
0.1732111
50
30.7407893
51
82.4657128
0
ARC
8
DEFAULT_255_1_234
10
17.3424581
20
0.1488691
40
0.263235
50
81.1060089
51
90.2184952
0
ARC
8
DEFAULT_255_1_234
10
17.338888
20
0.1746924
40
0.2374236
50
89.3806855
51
105.6762551
0
ARC
8
DEFAULT_255_1_234
10
17.320551
20
0.2413567
40
0.1682847
50
105.7981136
51
149.7388061
0
ARC
8
DEFAULT_255_1_234
10
17.4269589
20
0.177395
40
0.2924306
50
149.4208916
51
163.6286378
0
ARC
8
DEFAULT_255_1_234
10
17.6360477
20
0.113625
40
0.5110213
50
163.3763315
51
172.1410975
0
ARC
8
DEFAULT_255_1_234
10
17.9661196
20
0.0663518
40
0.8444586
50
172.0259487
51
178.0703232
0
ARC
8
DEFAULT_255_1_234
10
18.2691285
20
0.0519906
40
1.1477868
50
177.8631668
51
179.5044149
0
ARC
8
DEFAULT_255_1_234
10
18.161869
20
-0.1794611
40
1.0404907
50
179.7995573
51
185.2460446
0
ARC
8
DEFAULT_255_1_234
10
17.7575729
20
-0.2177487
40
0.6343885
50
185.1411642
51
193.0079639
0
ARC
8
DEFAULT_255_1_234
10
17.4932201
20
-0.2802359
40
0.3627568
50
192.7897626
51
205.2507664
0
ARC
8
DEFAULT_255_1_234
10
17.3885748
20
-0.3269585
40
0.2481908
50
205.8005384
51
211.2537509
0
ARC
8
DEFAULT_255_1_234
10
17.3362189
20
-0.362042
40
0.1852521
50
210.3789793
51
238.4008143
0
ARC
8
DEFAULT_255_1_234
10
17.3342711
20
-0.3573624
40
0.1882621
50
239.6520629
51
265.9793761
0
ARC
8
DEFAULT_255_1_234
10
17.3427911
20
-0.2901573
40
0.2559272
50
265.1315437
51
270.060332
0
ARC
8
DEFAULT_255_1_234
10
17.345669
20
-0.3225466
40
0.2235528
50
269.3314664
51
287.2178029
0
ARC
8
DEFAULT_255_1_234
10
17.3594542
20
-0.3728721
40
0.1714108
50
287.7958004
51
329.080874
0
ARC
8
DEFAULT_255_1_234
10
17.2636998
20
-0.313107
40
0.2842745
50
328.6634704
51
343.3325132
0
ARC
8
DEFAULT_255_1_234
10
17.0464019
20
-0.2454137
40
0.5118644
50
343.0499468
51
351.9393422
0
ARC
8
DEFAULT_255_1_234
10
16.6997319
20
-0.1943051
40
0.8622784
50
351.8069023
51
357.7959224
0
ARC
8
DEFAULT_255_1_234
10
16.3761875
20
-0.1775279
40
1.1862365
50
357.5871873
51
359.2677531
0
LINE
8
DEFAULT_255_1_234
10
18.2257486
20
-0.0938974
11
18.2257486
21
-0.2151766
0
LINE
8
DEFAULT_255_1_234
10
18.2257486
20
-0.2151766
11
17.8337998
21
-0.2151766
0
LINE
8
DEFAULT_255_1_234
10
17.8337998
20
-0.2151766
11
17.8337998
21
-0.0938974
0
LINE
8
DEFAULT_255_1_234
10
17.8337998
20
-0.0938974
11
18.2257486
21
-0.0938974
0
LINE
8
DEFAULT_255_1_234
10
19.0883573
20
0.0402327
11
19.0883573
21
-0.1525291
0
LINE
8
DEFAULT_255_1_234
10
18.3502406
20
-0.1726084
11
18.3502406
21
0.0257755
0
LINE
8
DEFAULT_255_1_234
10
18.9397702
20
-0.1926877
11
18.9397702
21
0.0506739
0
LINE
8
DEFAULT_255_1_234
10
18.4988277
20
0.0619184
11
18.4988277
21
-0.1758211
0
ARC
8
DEFAULT_255_1_234
10
17.8636463
20
-0.1574195
40
1.2247208
50
353.8441951
51
0.2287902
0
ARC
8
DEFAULT_255_1_234
10
18.3275966
20
-0.2092194
40
0.7578929
50
344.4934747
51
353.9765454
0
ARC
8
DEFAULT_255_1_234
10
18.6268557
20
-0.2943019
40
0.4467846
50
329.2803592
51
344.7472793
0
ARC
8
DEFAULT_255_1_234
10
18.7261382
20
-0.3487982
40
0.3336173
50
324.9352394
51
328.6160465
0
ARC
8
DEFAULT_255_1_234
10
18.763849
20
-0.3751573
40
0.2876076
50
280.580143
51
324.9173126
0
ARC
8
DEFAULT_255_1_234
10
18.7237283
20
-0.2080901
40
0.4592847
50
269.5977311
51
281.6734359
0
ARC
8
DEFAULT_255_1_234
10
18.7165188
20
-0.2200827
40
0.4472986
50
256.6228859
51
270.51044
0
ARC
8
DEFAULT_255_1_234
10
18.6763166
20
-0.3749123
40
0.2873874
50
215.8618325
51
257.2788573
0
ARC
8
DEFAULT_255_1_234
10
18.7784198
20
-0.3064023
40
0.4102928
50
197.9693508
51
215.2623606
0
ARC
8
DEFAULT_255_1_234
10
19.0269313
20
-0.2225291
40
0.6725652
50
187.8816417
51
198.2346507
0
ARC
8
DEFAULT_255_1_234
10
19.4227522
20
-0.1653921
40
1.0724845
50
180.8976217
51
188.0055519
0
ARC
8
DEFAULT_255_1_234
10
19.702771
20
-0.1550223
40
1.3526448
50
180.7449369
51
181.1510016
0
ARC
8
DEFAULT_255_1_234
10
19.5450439
20
0.0306042
40
1.1948131
50
173.7675579
51
180.231553
0
ARC
8
DEFAULT_255_1_234
10
19.0932586
20
0.0816666
40
0.7401564
50
164.3058563
51
173.9002247
0
ARC
8
DEFAULT_255_1_234
10
18.8020654
20
0.1655656
40
0.4371288
50
148.7922025
51
164.568378
0
ARC
8
DEFAULT_255_1_234
10
18.7069107
20
0.2186929
40
0.3282386
50
144.5883898
51
148.1176286
0
ARC
8
DEFAULT_255_1_234
10
18.6726004
20
0.2426315
40
0.2864044
50
101.6440918
51
144.514236
0
ARC
8
DEFAULT_255_1_234
10
18.7151071
20
0.0737069
40
0.4604934
50
89.5284041
51
102.5819763
0
ARC
8
DEFAULT_255_1_234
10
18.7230159
20
0.0698018
40
0.464401
50
77.0437873
51
90.5081339
0
ARC
8
DEFAULT_255_1_234
10
18.7632161
20
0.2340615
40
0.2953195
50
48.2778575
51
77.4994676
0
ARC
8
DEFAULT_255_1_234
10
18.7704792
20
0.2469746
40
0.2808655
50
36.3142134
51
47.6305865
0
ARC
8
DEFAULT_255_1_234
10
18.6836099
20
0.1884515
40
0.3855453
50
18.2931786
51
35.6769206
0
ARC
8
DEFAULT_255_1_234
10
18.4292858
20
0.1011593
40
0.654423
50
8.024666
51
18.5605216
0
ARC
8
DEFAULT_255_1_234
10
18.0129778
20
0.0396792
40
1.0752407
50
1.1274072
51
8.1718305
0
ARC
8
DEFAULT_255_1_234
10
17.6893968
20
0.0269885
40
1.3990231
50
0.5424119
51
1.3863029
0
ARC
8
DEFAULT_255_1_234
10
17.8715346
20
0.0542342
40
1.0682415
50
359.8090433
51
4.9407866
0
ARC
8
DEFAULT_255_1_234
10
18.292536
20
0.0918113
40
0.6455691
50
4.8362157
51
12.2904523
0
ARC
8
DEFAULT_255_1_234
10
18.5680475
20
0.1531965
40
0.3633074
50
12.0805627
51
23.8173984
0
ARC
8
DEFAULT_255_1_234
10
18.685418
20
0.2028919
40
0.2358723
50
24.2871213
51
31.3935614
0
ARC
8
DEFAULT_255_1_234
10
18.7378878
20
0.2372233
40
0.1732111
50
30.7407893
51
82.4657128
0
ARC
8
DEFAULT_255_1_234
10
18.7199012
20
0.1488691
40
0.263235
50
81.1060089
51
90.2184952
0
ARC
8
DEFAULT_255_1_234
10
18.7163311
20
0.1746924
40
0.2374236
50
89.3806855
51
105.6762551
0
ARC
8
DEFAULT_255_1_234
10
18.6979941
20
0.2413567
40
0.1682847
50
105.7981136
51
149.7388061
0
ARC
8
DEFAULT_255_1_234
10
18.804402
20
0.177395
40
0.2924306
50
149.4208916
51
163.6286378
0
ARC
8
DEFAULT_255_1_234
10
19.0134908
20
0.113625
40
0.5110213
50
163.3763315
51
172.1410975
0
ARC
8
DEFAULT_255_1_234
10
19.3435627
20
0.0663518
40
0.8444586
50
172.0259487
51
178.0703232
0
ARC
8
DEFAULT_255_1_234
10
19.6465716
20
0.0519906
40
1.1477868
50
177.8631668
51
179.5044149
0
ARC
8
DEFAULT_255_1_234
10
19.5393121
20
-0.1794611
40
1.0404907
50
179.7995573
51
185.2460446
0
ARC
8
DEFAULT_255_1_234
10
19.135016
20
-0.2177487
40
0.6343885
50
185.1411642
51
193.0079639
0
ARC
8
DEFAULT_255_1_234
10
18.8706633
20
-0.2802359
40
0.3627568
50
192.7897626
51
205.2507664
0
ARC
8
DEFAULT_255_1_234
10
18.766018
20
-0.3269585
40
0.2481908
50
205.8005384
51
211.2537509
0
ARC
8
DEFAULT_255_1_234
10
18.713662
20
-0.362042
40
0.1852521
50
210.3789793
51
238.4008143
0
ARC
8
DEFAULT_255_1_234
10
18.7117142
20
-0.3573624
40
0.1882621
50
239.6520629
51
265.9793761
0
ARC
8
DEFAULT_255_1_234
10
18.7202342
20
-0.2901573
40
0.2559272
50
265.1315437
51
270.060332
0
ARC
8
DEFAULT_255_1_234
10
18.7231121
20
-0.3225466
40
0.2235528
50
269.3314664
51
287.2178029
0
ARC
8
DEFAULT_255_1_234
10
18.7368973
20
-0.3728721
40
0.1714108
50
287.7958004
51
329.080874
0
ARC
8
DEFAULT_255_1_234
10
18.641143
20
-0.313107
40
0.2842745
50
328.6634704
51
343.3325132
0
ARC
8
DEFAULT_255_1_234
10
18.423845
20
-0.2454137
40
0.5118644
50
343.0499468
51
351.9393422
0
ARC
8
DEFAULT_255_1_234
10
18.077175
20
-0.1943051
40
0.8622784
50
351.8069023
51
357.7959224
0
ARC
8
DEFAULT_255_1_234
10
17.7536306
20
-0.1775279
40
1.1862365
50
357.5871873
51
359.2677531
0
LINE
8
DEFAULT_255_1_234
10
20.0746548
20
-0.6513
11
19.9630136
21
-0.3460939
0
LINE
8
DEFAULT_255_1_234
10
19.9630136
20
-0.3460939
11
19.4730776
21
-0.3460939
0
LINE
8
DEFAULT_255_1_234
10
19.4730776
20
-0.3460939
11
19.3630428
21
-0.6513
0
LINE
8
DEFAULT_255_1_234
10
19.3630428
20
-0.6513
11
19.2040144
21
-0.6513
0
LINE
8
DEFAULT_255_1_234
10
19.2040144
20
-0.6513
11
19.650579
21
0.5181211
0
LINE
8
DEFAULT_255_1_234
10
19.650579
20
0.5181211
11
19.7855122
21
0.5181211
0
LINE
8
DEFAULT_255_1_234
10
19.7855122
20
0.5181211
11
20.23288
21
-0.6513
0
LINE
8
DEFAULT_255_1_234
10
20.23288
20
-0.6513
11
20.0746548
21
-0.6513
0
LINE
8
DEFAULT_255_1_234
10
19.7180456
20
0.3277689
11
19.5196617
21
-0.2191925
0
LINE
8
DEFAULT_255_1_234
10
19.5196617
20
-0.2191925
11
19.9172327
21
-0.2191925
0
LINE
8
DEFAULT_255_1_234
10
19.9172327
20
-0.2191925
11
19.7180456
21
0.3277689
0
LINE
8
DEFAULT_255_1_234
10
20.7959049
20
-0.6513
11
20.3903021
21
-0.6513
0
LINE
8
DEFAULT_255_1_234
10
20.3903021
20
-0.6513
11
20.3903021
21
0.5181211
0
LINE
8
DEFAULT_255_1_234
10
20.3903021
20
0.5181211
11
20.7726128
21
0.5181211
0
LINE
8
DEFAULT_255_1_234
10
20.8015271
20
-0.1043386
11
20.5445115
21
-0.1043386
0
LINE
8
DEFAULT_255_1_234
10
20.5445115
20
-0.1043386
11
20.5445115
21
-0.5252017
0
LINE
8
DEFAULT_255_1_234
10
20.5445115
20
-0.5252017
11
20.7991176
21
-0.5252017
0
LINE
8
DEFAULT_255_1_234
10
20.5445115
20
0.3912196
11
20.5445115
21
0.0193501
0
LINE
8
DEFAULT_255_1_234
10
20.5445115
20
0.0193501
11
20.7774319
21
0.0193501
0
LINE
8
DEFAULT_255_1_234
10
20.7726128
20
0.3912196
11
20.5445115
21
0.3912196
0
ARC
8
DEFAULT_255_1_234
10
20.7763837
20
-0.2186099
40
0.7367406
50
82.1257326
51
90.2932599
0
ARC
8
DEFAULT_255_1_234
10
20.8152792
20
0.0532013
40
0.4621653
50
69.9044149
51
82.2857423
0
ARC
8
DEFAULT_255_1_234
10
20.872347
20
0.2074637
40
0.2976871
50
51.1838526
51
70.0181538
0
ARC
8
DEFAULT_255_1_234
10
20.8978436
20
0.244524
40
0.2528517
50
12.1017251
51
50.4214761
0
ARC
8
DEFAULT_255_1_234
10
20.759431
20
0.2097676
40
0.3955061
50
359.5251267
51
12.8211707
0
ARC
8
DEFAULT_255_1_234
10
20.9174237
20
0.2028344
40
0.2375281
50
323.4908128
51
0.8817314
0
ARC
8
DEFAULT_255_1_234
10
20.8755923
20
0.235155
40
0.2903817
50
298.6825083
51
323.2756573
0
ARC
8
DEFAULT_255_1_234
10
20.8394286
20
0.2952649
40
0.3604842
50
293.1999386
51
299.1396394
0
ARC
8
DEFAULT_255_1_234
10
20.9067259
20
-0.3132874
40
0.2871098
50
54.0011765
51
74.9167975
0
ARC
8
DEFAULT_255_1_234
10
20.9183618
20
-0.2935668
40
0.2643248
50
36.3580696
51
53.5291921
0
ARC
8
DEFAULT_255_1_234
10
20.905686
20
-0.3026002
40
0.2798884
50
4.8189881
51
36.3089977
0
ARC
8
DEFAULT_255_1_234
10
20.8277696
20
-0.313573
40
0.358478
50
359.9370252
51
5.5204067
0
ARC
8
DEFAULT_255_1_234
10
20.7953217
20
-0.3176333
40
0.3909429
50
344.7478609
51
0.5373281
0
ARC
8
DEFAULT_255_1_234
10
20.8944188
20
-0.3443456
40
0.2883093
50
311.1786488
51
344.6886812
0
ARC
8
DEFAULT_255_1_234
10
20.8652236
20
-0.3080013
40
0.3348923
50
286.0418249
51
310.8441291
0
ARC
8
DEFAULT_255_1_234
10
20.8145067
20
-0.1433193
40
0.5071869
50
274.1042341
51
286.4071509
0
ARC
8
DEFAULT_255_1_234
10
20.7968323
20
0.0450229
40
0.6963234
50
269.9236873
51
274.445647
0
ARC
8
DEFAULT_255_1_234
10
20.8014324
20
-0.1889463
40
0.3362634
50
269.6055768
51
281.3740047
0
ARC
8
DEFAULT_255_1_234
10
20.8244962
20
-0.2982647
40
0.224546
50
281.1055983
51
302.5132223
0
ARC
8
DEFAULT_255_1_234
10
20.8391861
20
-0.3246177
40
0.1944357
50
303.0368945
51
311.8811219
0
ARC
8
DEFAULT_255_1_234
10
20.8463268
20
-0.333111
40
0.1833454
50
311.9916004
51
351.7143462
0
ARC
8
DEFAULT_255_1_234
10
20.7646498
20
-0.316607
40
0.2665871
50
350.7339597
51
0.2221581
0
ARC
8
DEFAULT_255_1_234
10
20.7538944
20
-0.3109533
40
0.2773789
50
359.0456241
51
17.2296242
0
ARC
8
DEFAULT_255_1_234
10
20.8578061
20
-0.2800837
40
0.1689915
50
17.6685481
51
78.9940892
0
ARC
8
DEFAULT_255_1_234
10
20.8061225
20
-0.4655776
40
0.3612658
50
76.5635957
51
90.6980921
0
LINE
8
DEFAULT_255_1_234
10
20.8017209
20
-0.1043387
11
20.8015271
21
-0.1043386
0
ARC
8
DEFAULT_255_1_234
10
20.7796885
20
0.3479036
40
0.3285612
50
269.6064736
51
281.4533503
0
ARC
8
DEFAULT_255_1_234
10
20.8019705
20
0.2427688
40
0.2210975
50
281.2041486
51
302.5148063
0
ARC
8
DEFAULT_255_1_234
10
20.8156555
20
0.2181241
40
0.1929674
50
303.021671
51
309.8369575
0
ARC
8
DEFAULT_255_1_234
10
20.8340017
20
0.1975488
40
0.1654181
50
309.5228395
51
356.9509836
0
ARC
8
DEFAULT_255_1_234
10
20.7676599
20
0.2070932
40
0.2322512
50
355.4701227
51
0.0492546
0
ARC
8
DEFAULT_255_1_234
10
20.739769
20
0.2093094
40
0.2601498
50
359.5558597
51
11.2096359
0
ARC
8
DEFAULT_255_1_234
10
20.835498
20
0.229123
40
0.1623975
50
10.9182341
51
31.3230275
0
ARC
8
DEFAULT_255_1_234
10
20.8640713
20
0.2450214
40
0.1297302
50
31.8852677
51
52.1412565
0
ARC
8
DEFAULT_255_1_234
10
20.8366446
20
0.206275
40
0.1771663
50
52.8285564
51
71.9850297
0
ARC
8
DEFAULT_255_1_234
10
20.7990623
20
0.0956664
40
0.2939794
50
71.6863486
51
82.8455995
0
ARC
8
DEFAULT_255_1_234
10
20.7751159
20
-0.0852851
40
0.476506
50
82.6984714
51
90.1729175
0
ARC
8
DEFAULT_255_1_234
10
20.7728793
20
0.0370623
40
0.3541573
50
89.8708275
51
90.0431131
0
LINE
8
DEFAULT_255_1_234
10
22.1090941
20
0.0402327
11
22.1090941
21
-0.1525291
0
LINE
8
DEFAULT_255_1_234
10
21.3709773
20
-0.1726084
11
21.3709773
21
0.0257755
0
LINE
8
DEFAULT_255_1_234
10
21.9605069
20
-0.1926877
11
21.9605069
21
0.0506739
0
LINE
8
DEFAULT_255_1_234
10
21.5195645
20
0.0619184
11
21.5195645
21
-0.1758211
0
ARC
8
DEFAULT_255_1_234
10
20.884383
20
-0.1574195
40
1.2247208
50
353.8441951
51
0.2287902
0
ARC
8
DEFAULT_255_1_234
10
21.3483334
20
-0.2092194
40
0.7578929
50
344.4934747
51
353.9765454
0
ARC
8
DEFAULT_255_1_234
10
21.6475924
20
-0.2943019
40
0.4467846
50
329.2803592
51
344.7472793
0
ARC
8
DEFAULT_255_1_234
10
21.7468749
20
-0.3487982
40
0.3336173
50
324.9352394
51
328.6160465
0
ARC
8
DEFAULT_255_1_234
10
21.7845858
20
-0.3751573
40
0.2876076
50
280.580143
51
324.9173126
0
ARC
8
DEFAULT_255_1_234
10
21.7444651
20
-0.2080901
40
0.4592847
50
269.5977311
51
281.6734359
0
ARC
8
DEFAULT_255_1_234
10
21.7372556
20
-0.2200827
40
0.4472986
50
256.6228859
51
270.51044
0
ARC
8
DEFAULT_255_1_234
10
21.6970534
20
-0.3749123
40
0.2873874
50
215.8618325
51
257.2788573
0
ARC
8
DEFAULT_255_1_234
10
21.7991566
20
-0.3064023
40
0.4102928
50
197.9693508
51
215.2623606
0
ARC
8
DEFAULT_255_1_234
10
22.0476681
20
-0.2225291
40
0.6725652
50
187.8816417
51
198.2346507
0
ARC
8
DEFAULT_255_1_234
10
22.4434889
20
-0.1653921
40
1.0724845
50
180.8976217
51
188.0055519
0
ARC
8
DEFAULT_255_1_234
10
22.7235078
20
-0.1550223
40
1.3526448
50
180.7449369
51
181.1510016
0
ARC
8
DEFAULT_255_1_234
10
22.5657807
20
0.0306042
40
1.1948131
50
173.7675579
51
180.231553
0
ARC
8
DEFAULT_255_1_234
10
22.1139953
20
0.0816666
40
0.7401564
50
164.3058563
51
173.9002247
0
ARC
8
DEFAULT_255_1_234
10
21.8228022
20
0.1655656
40
0.4371288
50
148.7922025
51
164.568378
0
ARC
8
DEFAULT_255_1_234
10
21.7276474
20
0.2186929
40
0.3282386
50
144.5883898
51
148.1176286
0
ARC
8
DEFAULT_255_1_234
10
21.6933372
20
0.2426315
40
0.2864044
50
101.6440918
51
144.514236
0
ARC
8
DEFAULT_255_1_234
10
21.7358439
20
0.0737069
40
0.4604934
50
89.5284041
51
102.5819763
0
ARC
8
DEFAULT_255_1_234
10
21.7437527
20
0.0698018
40
0.464401
50
77.0437873
51
90.5081339
0
ARC
8
DEFAULT_255_1_234
10
21.7839528
20
0.2340615
40
0.2953195
50
48.2778575
51
77.4994676
0
ARC
8
DEFAULT_255_1_234
10
21.791216
20
0.2469746
40
0.2808655
50
36.3142134
51
47.6305865
0
ARC
8
DEFAULT_255_1_234
10
21.7043467
20
0.1884515
40
0.3855453
50
18.2931786
51
35.6769206
0
ARC
8
DEFAULT_255_1_234
10
21.4500225
20
0.1011593
40
0.654423
50
8.024666
51
18.5605216
0
ARC
8
DEFAULT_255_1_234
10
21.0337146
20
0.0396792
40
1.0752407
50
1.1274072
51
8.1718305
0
ARC
8
DEFAULT_255_1_234
10
20.7101336
20
0.0269885
40
1.3990231
50
0.5424119
51
1.3863029
0
ARC
8
DEFAULT_255_1_234
10
20.8922714
20
0.0542342
40
1.0682415
50
359.8090433
51
4.9407866
0
ARC
8
DEFAULT_255_1_234
10
21.3132728
20
0.0918113
40
0.6455691
50
4.8362157
51
12.2904523
0
ARC
8
DEFAULT_255_1_234
10
21.5887843
20
0.1531965
40
0.3633074
50
12.0805627
51
23.8173984
0
ARC
8
DEFAULT_255_1_234
10
21.7061548
20
0.2028919
40
0.2358723
50
24.2871213
51
31.3935614
0
ARC
8
DEFAULT_255_1_234
10
21.7586245
20
0.2372233
40
0.1732111
50
30.7407893
51
82.4657128
0
ARC
8
DEFAULT_255_1_234
10
21.740638
20
0.1488691
40
0.263235
50
81.1060089
51
90.2184952
0
ARC
8
DEFAULT_255_1_234
10
21.7370679
20
0.1746924
40
0.2374236
50
89.3806855
51
105.6762551
0
ARC
8
DEFAULT_255_1_234
10
21.7187309
20
0.2413567
40
0.1682847
50
105.7981136
51
149.7388061
0
ARC
8
DEFAULT_255_1_234
10
21.8251387
20
0.177395
40
0.2924306
50
149.4208916
51
163.6286378
0
ARC
8
DEFAULT_255_1_234
10
22.0342275
20
0.113625
40
0.5110213
50
163.3763315
51
172.1410975
0
ARC
8
DEFAULT_255_1_234
10
22.3642994
20
0.0663518
40
0.8444586
50
172.0259487
51
178.0703232
0
ARC
8
DEFAULT_255_1_234
10
22.6673084
20
0.0519906
40
1.1477868
50
177.8631668
51
179.5044149
0
ARC
8
DEFAULT_255_1_234
10
22.5600488
20
-0.1794611
40
1.0404907
50
179.7995573
51
185.2460446
0
ARC
8
DEFAULT_255_1_234
10
22.1557528
20
-0.2177487
40
0.6343885
50
185.1411642
51
193.0079639
0
ARC
8
DEFAULT_255_1_234
10
21.8914
20
-0.2802359
40
0.3627568
50
192.7897626
51
205.2507664
0
ARC
8
DEFAULT_255_1_234
10
21.7867547
20
-0.3269585
40
0.2481908
50
205.8005384
51
211.2537509
0
ARC
8
DEFAULT_255_1_234
10
21.7343988
20
-0.362042
40
0.1852521
50
210.3789793
51
238.4008143
0
ARC
8
DEFAULT_255_1_234
10
21.732451
20
-0.3573624
40
0.1882621
50
239.6520629
51
265.9793761
0
ARC
8
DEFAULT_255_1_234
10
21.740971
20
-0.2901573
40
0.2559272
50
265.1315437
51
270.060332
0
ARC
8
DEFAULT_255_1_234
10
21.7438489
20
-0.3225466
40
0.2235528
50
269.3314664
51
287.2178029
0
ARC
8
DEFAULT_255_1_234
10
21.7576341
20
-0.3728721
40
0.1714108
50
287.7958004
51
329.080874
0
ARC
8
DEFAULT_255_1_234
10
21.6618797
20
-0.313107
40
0.2842745
50
328.6634704
51
343.3325132
0
ARC
8
DEFAULT_255_1_234
10
21.4445817
20
-0.2454137
40
0.5118644
50
343.0499468
51
351.9393422
0
ARC
8
DEFAULT_255_1_234
10
21.0979117
20
-0.1943051
40
0.8622784
50
351.8069023
51
357.7959224
0
ARC
8
DEFAULT_255_1_234
10
20.7743673
20
-0.1775279
40
1.1862365
50
357.5871873
51
359.2677531
0
ARC
8
DEFAULT_255_2_778
10
7.7537338
20
84.0887992
40
3.0484709
50
251.6854144
51
258.6071955
0
ARC
8
DEFAULT_255_2_778
10
7.539521
20
83.0071738
40
1.9458471
50
258.4992492
51
268.3986479
0
ARC
8
DEFAULT_255_2_778
10
7.5172314
20
82.5769206
40
1.5151737
50
268.7865272
51
269.9950384
0
ARC
8
DEFAULT_255_2_778
10
7.5277432
20
82.1257355
40
1.0640417
50
269.426895
51
279.6711067
0
ARC
8
DEFAULT_255_2_778
10
7.6417753
20
81.4961746
40
0.4243233
50
278.7731084
51
300.3324923
0
ARC
8
DEFAULT_255_2_778
10
7.760746
20
81.2935552
40
0.1893587
50
300.2240287
51
1.9041213
0
ARC
8
DEFAULT_255_2_778
10
7.7452705
20
81.3027089
40
0.2047497
50
359.1991369
51
359.99965
0
ARC
8
DEFAULT_255_2_778
10
7.7523233
20
81.3035378
40
0.1976988
50
359.7594145
51
47.1793976
0
ARC
8
DEFAULT_255_2_778
10
7.6187277
20
81.154931
40
0.3975169
50
47.6144502
51
60.8366176
0
ARC
8
DEFAULT_255_2_778
10
7.0190958
20
80.1389865
40
1.5771337
50
59.799464
51
64.8885807
0
ARC
8
DEFAULT_255_2_778
10
6.0948833
20
78.2099682
40
3.7160912
50
64.6076081
51
66.8386974
0
ARC
8
DEFAULT_255_2_778
10
9.6419609
20
86.5730052
40
5.368109
50
244.3032309
51
247.1393781
0
ARC
8
DEFAULT_255_2_778
10
8.5507088
20
84.313018
40
2.8584574
50
240.2323579
51
244.3709759
0
ARC
8
DEFAULT_255_2_778
10
7.7800475
20
82.9761591
40
1.315392
50
233.2209971
51
240.4606284
0
ARC
8
DEFAULT_255_2_778
10
7.3561477
20
82.4050187
40
0.6041399
50
225.6990744
51
232.9899679
0
ARC
8
DEFAULT_255_2_778
10
7.3965073
20
82.4294214
40
0.6499005
50
178.2783416
51
224.6550883
0
ARC
8
DEFAULT_255_2_778
10
7.5059624
20
82.4627974
40
0.7591885
50
157.033673
51
181.0453383
0
ARC
8
DEFAULT_255_2_778
10
7.378439
20
82.5036396
40
0.6259551
50
124.9113017
51
155.9211516
0
ARC
8
DEFAULT_255_2_778
10
7.5960466
20
82.1950681
40
1.0035357
50
100.4079723
51
125.0168617
0
ARC
8
DEFAULT_255_2_778
10
7.6991199
20
81.7010046
40
1.5081396
50
89.6483922
51
100.8684975
0
ARC
8
DEFAULT_255_2_778
10
7.7083242
20
81.3487988
40
1.8603169
50
89.5079487
51
89.9984402
0
ARC
8
DEFAULT_255_2_778
10
7.7099573
20
81.2835694
40
1.9255311
50
83.9170631
51
89.5732113
0
ARC
8
DEFAULT_255_2_778
10
7.5071517
20
79.2759957
40
3.9433074
50
80.7325723
51
84.0779772
0
ARC
8
DEFAULT_255_2_778
10
7.0208457
20
76.253082
40
7.0050837
50
78.5086351
51
80.7886813
0
ARC
8
DEFAULT_255_2_778
10
7.6620177
20
80.8525544
40
1.9415426
50
67.135818
51
78.0934208
0
ARC
8
DEFAULT_255_2_778
10
7.7851814
20
81.4229809
40
1.3579807
50
78.2126325
51
89.7333975
0
ARC
8
DEFAULT_255_2_778
10
7.7793853
20
81.8381211
40
0.9429038
50
89.2638155
51
100.5666868
0
ARC
8
DEFAULT_255_2_778
10
7.6660949
20
82.4079419
40
0.362036
50
99.4784875
51
124.329414
0
ARC
8
DEFAULT_255_2_778
10
7.5705593
20
82.556051
40
0.1859067
50
125.7571195
51
182.2824883
0
ARC
8
DEFAULT_255_2_778
10
7.5493239
20
82.5493629
40
0.1645253
50
180.2492993
51
239.8144161
0
ARC
8
DEFAULT_255_2_778
10
7.932718
20
83.1494128
40
0.876484
50
237.8725734
51
242.8068846
0
ARC
8
DEFAULT_255_2_778
10
9.4175857
20
85.9659958
40
4.0604642
50
242.3328458
51
244.031083
0
ARC
8
DEFAULT_255_2_778
10
12.3804066
20
92.0144314
40
10.7955807
50
243.950624
51
244.8024316
0
ARC
8
DEFAULT_255_2_778
10
15.4009918
20
98.3984175
40
17.8580926
50
244.7535425
51
244.9563234
0
ARC
8
DEFAULT_255_2_778
10
5.8652927
20
77.8968264
40
4.7527588
50
62.2505456
51
65.4301556
0
ARC
8
DEFAULT_255_2_778
10
6.9275435
20
79.9049172
40
2.4810291
50
57.2951304
51
62.3684211
0
ARC
8
DEFAULT_255_2_778
10
7.6807233
20
81.0682235
40
1.0952081
50
48.7345704
51
57.5685367
0
ARC
8
DEFAULT_255_2_778
10
8.0117486
20
81.4557722
40
0.5856147
50
44.3236031
51
48.0704418
0
ARC
8
DEFAULT_255_2_778
10
7.9783002
20
81.4357468
40
0.6236013
50
1.3523843
51
43.4925744
0
ARC
8
DEFAULT_255_2_778
10
7.7103531
20
81.4028151
40
0.8926473
50
359.9763756
51
3.0599076
0
ARC
8
DEFAULT_255_2_778
10
7.8645343
20
81.3877407
40
0.7386124
50
333.0361889
51
1.1408766
0
ARC
8
DEFAULT_255_2_778
10
7.8947908
20
81.3946919
40
0.7150741
50
300.8430083
51
331.4403095
0
ARC
8
DEFAULT_255_2_778
10
7.694568
20
81.7082162
40
1.0869673
50
281.4258583
51
301.4316118
0
ARC
8
DEFAULT_255_2_778
10
7.5632666
20
82.3164414
40
1.7091691
50
270.2273513
51
281.7010805
0
ARC
8
DEFAULT_255_2_778
10
7.5453797
20
82.7931043
40
2.1859577
50
269.9983113
51
270.6466065
0
LINE
8
DEFAULT_255_2_778
10
7.5453153
20
80.6071465
11
7.5438002
21
80.607147
0
ARC
8
DEFAULT_255_2_778
10
7.5509161
20
83.7900969
40
3.1829579
50
256.2431122
51
269.871909
0
ARC
8
DEFAULT_255_2_778
10
21.7538511
20
84.0146629
40
2.9720345
50
251.5709223
51
258.7508181
0
ARC
8
DEFAULT_255_2_778
10
21.5538128
20
82.9914385
40
1.9294488
50
258.6495077
51
268.8281511
0
ARC
8
DEFAULT_255_2_778
10
21.5355488
20
82.5966193
40
1.5343723
50
269.2085037
51
269.9981866
0
ARC
8
DEFAULT_255_2_778
10
21.5473849
20
82.1282184
40
1.0660376
50
269.3612297
51
279.5899087
0
ARC
8
DEFAULT_255_2_778
10
21.6608439
20
81.4967324
40
0.424527
50
278.6895227
51
300.2363944
0
ARC
8
DEFAULT_255_2_778
10
21.7799083
20
81.2932793
40
0.188796
50
300.1108484
51
1.9024905
0
ARC
8
DEFAULT_255_2_778
10
21.7439577
20
81.3039221
40
0.2246851
50
358.8842611
51
0.0019649
0
ARC
8
DEFAULT_255_2_778
10
21.7769791
20
81.3078385
40
0.1917038
50
358.831716
51
47.0900458
0
ARC
8
DEFAULT_255_2_778
10
21.6364654
20
81.148484
40
0.4041259
50
47.8812665
51
61.174665
0
ARC
8
DEFAULT_255_2_778
10
21.0418848
20
80.1285117
40
1.5846568
50
60.1210877
51
65.1917015
0
ARC
8
DEFAULT_255_2_778
10
20.1415278
20
78.2229122
40
3.6922188
50
64.9168629
51
67.1565628
0
ARC
8
DEFAULT_255_2_778
10
23.6275467
20
86.4944888
40
5.2839333
50
244.2656926
51
247.1407051
0
ARC
8
DEFAULT_255_2_778
10
22.5594997
20
84.286265
40
2.8309849
50
240.1545061
51
244.3326325
0
ARC
8
DEFAULT_255_2_778
10
21.7856548
20
82.9502346
40
1.2870531
50
232.697515
51
240.4357497
0
ARC
8
DEFAULT_255_2_778
10
21.3705506
20
82.3992218
40
0.5972006
50
225.5850892
51
232.3393736
0
ARC
8
DEFAULT_255_2_778
10
21.4133941
20
82.4287933
40
0.6483829
50
178.7795739
51
224.7095916
0
ARC
8
DEFAULT_255_2_778
10
21.6669319
20
82.4528135
40
0.9018316
50
179.997867
51
180.6487041
0
ARC
8
DEFAULT_255_2_778
10
21.5167738
20
82.4666249
40
0.7517998
50
156.9195758
51
181.050088
0
ARC
8
DEFAULT_255_2_778
10
21.3928482
20
82.5060712
40
0.6224513
50
124.7111133
51
155.7879672
0
ARC
8
DEFAULT_255_2_778
10
21.6055459
20
82.2141942
40
0.9835402
50
101.7934503
51
125.2143527
0
ARC
8
DEFAULT_255_2_778
10
21.729848
20
81.6616326
40
1.5498677
50
89.5248728
51
102.1166783
0
ARC
8
DEFAULT_255_2_778
10
21.7283109
20
81.1080834
40
2.1034129
50
83.2889725
51
89.6080411
0
ARC
8
DEFAULT_255_2_778
10
21.529975
20
79.3402668
40
3.8823067
50
79.4764054
51
83.4308492
0
ARC
8
DEFAULT_255_2_778
10
21.2186357
20
77.5870673
40
5.6628977
50
78.2224868
51
79.6190915
0
ARC
8
DEFAULT_255_2_778
10
21.6838473
20
80.8645715
40
1.9311543
50
67.1323814
51
78.3148813
0
ARC
8
DEFAULT_255_2_778
10
21.801359
20
81.4160614
40
1.3672981
50
78.4565774
51
89.7552271
0
ARC
8
DEFAULT_255_2_778
10
21.7951366
20
81.846947
40
0.9364778
50
89.2619009
51
100.5950934
0
ARC
8
DEFAULT_255_2_778
10
21.6824182
20
82.4124169
40
0.3599879
50
99.5087086
51
124.406715
0
ARC
8
DEFAULT_255_2_778
10
21.5878565
20
82.558843
40
0.1858061
50
125.8630185
51
182.2986975
0
ARC
8
DEFAULT_255_2_778
10
21.5497296
20
82.5513047
40
0.1475296
50
179.9666559
51
180.100057
0
ARC
8
DEFAULT_255_2_778
10
21.566185
20
82.551293
40
0.163985
50
180.0859454
51
239.8819968
0
ARC
8
DEFAULT_255_2_778
10
21.9379018
20
83.1380619
40
0.8584853
50
238.072871
51
243.0442008
0
ARC
8
DEFAULT_255_2_778
10
23.4872034
20
86.1030845
40
4.2038426
50
242.5409111
51
244.1884903
0
ARC
8
DEFAULT_255_2_778
10
26.6463384
20
92.597696
40
11.4260319
50
244.1076525
51
244.9219574
0
ARC
8
DEFAULT_255_2_778
10
29.9038827
20
99.521355
40
19.0777309
50
244.8743531
51
245.066969
0
ARC
8
DEFAULT_255_2_778
10
19.8865272
20
77.9291274
40
4.7250654
50
62.0340028
51
65.293009
0
ARC
8
DEFAULT_255_2_778
10
20.9507744
20
79.9240758
40
2.464003
50
57.1127289
51
62.13736
0
ARC
8
DEFAULT_255_2_778
10
21.7037139
20
81.0777906
40
1.0863604
50
48.3695509
51
57.4197129
0
ARC
8
DEFAULT_255_2_778
10
22.0286268
20
81.4545419
40
0.5889589
50
44.472493
51
47.6467012
0
ARC
8
DEFAULT_255_2_778
10
21.9979457
20
81.4374032
40
0.6229283
50
1.2061613
51
43.6203607
0
ARC
8
DEFAULT_255_2_778
10
21.7312413
20
81.4049903
40
0.890659
50
359.9779196
51
2.9299178
0
ARC
8
DEFAULT_255_2_778
10
21.8802547
20
81.3898837
40
0.7417924
50
333.172934
51
1.140392
0
ARC
8
DEFAULT_255_2_778
10
21.9146167
20
81.3945736
40
0.7135172
50
300.9808035
51
331.5913995
0
ARC
8
DEFAULT_255_2_778
10
21.7182603
20
81.7044862
40
1.0803281
50
281.9040909
51
301.4483918
0
ARC
8
DEFAULT_255_2_778
10
21.5848425
20
82.3030518
40
1.6935565
50
270.5796874
51
282.1436175
0
ARC
8
DEFAULT_255_2_778
10
21.5636722
20
82.7979735
40
2.1887267
50
269.9959074
51
271.0027751
0
LINE
8
DEFAULT_255_2_778
10
21.5635158
20
80.6092468
11
21.5625002
21
80.609247
0
ARC
8
DEFAULT_255_2_778
10
21.5700221
20
83.7980174
40
3.1887792
50
256.2556596
51
269.8648469
0
LINE
8
DEFAULT_255_2_778
10
6.7958002
20
80.700047
11
6.7958002
21
81.194747
0
LINE
8
DEFAULT_255_2_778
10
8.4164002
20
83.117747
11
8.4164002
21
82.641547
0
LINE
8
DEFAULT_255_2_778
10
6.7940002
20
80.698447
11
6.7958002
21
80.700047
0
LINE
8
DEFAULT_255_2_778
10
8.9866002
20
83.167247
11
9.6629002
21
83.167247
0
LINE
8
DEFAULT_255_2_778
10
9.6629002
20
83.167247
11
9.6629002
21
80.659847
0
LINE
8
DEFAULT_255_2_778
10
9.6629002
20
80.659847
11
8.9866002
21
80.659847
0
LINE
8
DEFAULT_255_2_778
10
8.9866002
20
80.659847
11
8.9866002
21
83.167247
0
LINE
8
DEFAULT_255_2_778
10
10.2809002
20
80.659847
11
10.2809002
21
83.167247
0
LINE
8
DEFAULT_255_2_778
10
10.2809002
20
83.167247
11
12.0132002
21
83.167247
0
LINE
8
DEFAULT_255_2_778
10
12.0132002
20
83.167247
11
12.0132002
21
82.713547
0
LINE
8
DEFAULT_255_2_778
10
12.0132002
20
82.713547
11
10.9321002
21
82.713547
0
LINE
8
DEFAULT_255_2_778
10
10.9321002
20
82.713547
11
10.9321002
21
82.147247
0
LINE
8
DEFAULT_255_2_778
10
10.9321002
20
82.147247
11
11.8735002
21
82.147247
0
LINE
8
DEFAULT_255_2_778
10
11.8735002
20
82.147247
11
11.8735002
21
81.733747
0
LINE
8
DEFAULT_255_2_778
10
11.8735002
20
81.733747
11
10.9321002
21
81.733747
0
LINE
8
DEFAULT_255_2_778
10
10.9321002
20
81.733747
11
10.9321002
21
81.138447
0
LINE
8
DEFAULT_255_2_778
10
10.9321002
20
81.138447
11
12.0412002
21
81.138447
0
LINE
8
DEFAULT_255_2_778
10
12.0412002
20
81.138447
11
12.0412002
21
80.658247
0
LINE
8
DEFAULT_255_2_778
10
12.0412002
20
80.658247
11
10.2809002
21
80.659847
0
LINE
8
DEFAULT_255_2_778
10
12.4817002
20
80.659847
11
12.4817002
21
83.167247
0
LINE
8
DEFAULT_255_2_778
10
12.4817002
20
83.167247
11
13.3575002
21
83.167247
0
LINE
8
DEFAULT_255_2_778
10
13.3575002
20
83.167247
11
13.9671002
21
81.564947
0
LINE
8
DEFAULT_255_2_778
10
13.9671002
20
81.564947
11
14.5897002
21
83.167247
0
LINE
8
DEFAULT_255_2_778
10
14.5897002
20
83.167247
11
15.4215002
21
83.167247
0
LINE
8
DEFAULT_255_2_778
10
15.4215002
20
83.167247
11
15.4215002
21
80.659847
0
LINE
8
DEFAULT_255_2_778
10
15.4215002
20
80.659847
11
14.7812002
21
80.659847
0
LINE
8
DEFAULT_255_2_778
10
14.7812002
20
80.659847
11
14.7812002
21
82.435647
0
LINE
8
DEFAULT_255_2_778
10
14.7812002
20
82.435647
11
14.0724002
21
80.635447
0
LINE
8
DEFAULT_255_2_778
10
14.0724002
20
80.635447
11
13.6515002
21
80.635447
0
LINE
8
DEFAULT_255_2_778
10
13.6515002
20
80.635447
11
12.9559002
21
82.435647
0
LINE
8
DEFAULT_255_2_778
10
12.9559002
20
82.435647
11
12.9559002
21
80.659547
0
LINE
8
DEFAULT_255_2_778
10
12.9559002
20
80.659547
11
12.4817002
21
80.659847
0
LINE
8
DEFAULT_255_2_778
10
16.0409002
20
80.659847
11
16.0409002
21
83.167247
0
LINE
8
DEFAULT_255_2_778
10
16.0409002
20
83.167247
11
17.7731002
21
83.167247
0
LINE
8
DEFAULT_255_2_778
10
17.7731002
20
83.167247
11
17.7731002
21
82.713547
0
LINE
8
DEFAULT_255_2_778
10
17.7731002
20
82.713547
11
16.6921002
21
82.713547
0
LINE
8
DEFAULT_255_2_778
10
16.6921002
20
82.713547
11
16.6921002
21
82.147247
0
LINE
8
DEFAULT_255_2_778
10
16.6921002
20
82.147247
11
17.6334002
21
82.147247
0
LINE
8
DEFAULT_255_2_778
10
17.6334002
20
82.147247
11
17.6334002
21
81.733747
0
LINE
8
DEFAULT_255_2_778
10
17.6334002
20
81.733747
11
16.6921002
21
81.733747
0
LINE
8
DEFAULT_255_2_778
10
16.6921002
20
81.733747
11
16.6921002
21
81.138447
0
LINE
8
DEFAULT_255_2_778
10
16.6921002
20
81.138447
11
17.8030002
21
81.138447
0
LINE
8
DEFAULT_255_2_778
10
17.8030002
20
81.138447
11
17.8030002
21
80.658247
0
LINE
8
DEFAULT_255_2_778
10
17.8030002
20
80.658247
11
16.0409002
21
80.659847
0
LINE
8
DEFAULT_255_2_778
10
18.2454002
20
80.659847
11
18.2454002
21
83.167247
0
LINE
8
DEFAULT_255_2_778
10
18.2454002
20
83.167247
11
19.0283002
21
83.167247
0
LINE
8
DEFAULT_255_2_778
10
19.0283002
20
83.167247
11
19.8586002
21
81.488447
0
LINE
8
DEFAULT_255_2_778
10
19.8586002
20
81.488447
11
19.8586002
21
83.167247
0
LINE
8
DEFAULT_255_2_778
10
19.8586002
20
83.167247
11
20.3343002
21
83.167247
0
LINE
8
DEFAULT_255_2_778
10
20.3343002
20
83.167247
11
20.3343002
21
80.659847
0
LINE
8
DEFAULT_255_2_778
10
20.3343002
20
80.659847
11
19.5739002
21
80.659847
0
LINE
8
DEFAULT_255_2_778
10
19.5739002
20
80.659847
11
18.7214002
21
82.361047
0
LINE
8
DEFAULT_255_2_778
10
18.7214002
20
82.361047
11
18.7214002
21
80.659847
0
LINE
8
DEFAULT_255_2_778
10
18.7214002
20
80.659847
11
18.2454002
21
80.659847
0
LINE
8
DEFAULT_255_2_778
10
20.8143002
20
80.700247
11
20.8143002
21
81.195047
0
LINE
8
DEFAULT_255_2_778
10
22.3745002
20
83.130747
11
22.4343002
21
83.120147
0
LINE
8
DEFAULT_255_2_778
10
22.4343002
20
83.120147
11
22.4343002
21
82.643947
0
LINE
8
DEFAULT_255_2_778
10
20.8124002
20
80.700547
11
20.8143002
21
80.700247
0
LINE
8
DEFAULT_255_1_234
10
8.8546023
20
78.8934849
11
8.6995897
21
78.8934849
0
LINE
8
DEFAULT_255_1_234
10
8.0072539
20
78.4011394
11
8.1622665
21
78.4011394
0
ARC
8
DEFAULT_255_1_234
10
8.765471
20
79.7881768
40
1.252368
50
248.9199003
51
254.1439814
0
ARC
8
DEFAULT_255_1_234
10
8.5974205
20
79.3555234
40
0.788226
50
241.633709
51
249.0064503
0
ARC
8
DEFAULT_255_1_234
10
8.44456
20
79.0754317
40
0.4691427
50
230.498225
51
241.8087113
0
ARC
8
DEFAULT_255_1_234
10
8.3661174
20
78.9754906
40
0.3421437
50
227.4064532
51
229.9881192
0
ARC
8
DEFAULT_255_1_234
10
8.3173694
20
78.9279088
40
0.2741476
50
200.6781896
51
228.1763934
0
ARC
8
DEFAULT_255_1_234
10
8.3246005
20
78.9264077
40
0.2804109
50
179.5061581
51
199.8694617
0
ARC
8
DEFAULT_255_1_234
10
8.3236757
20
78.933821
40
0.2795204
50
132.4834203
51
181.0242172
0
ARC
8
DEFAULT_255_1_234
10
8.3832339
20
78.8775704
40
0.3612768
50
129.2532479
51
133.4242687
0
ARC
8
DEFAULT_255_1_234
10
8.3978789
20
78.8555965
40
0.3875675
50
101.98776
51
128.8742646
0
ARC
8
DEFAULT_255_1_234
10
8.4377399
20
78.6834741
40
0.5642249
50
89.5906553
51
102.3169264
0
ARC
8
DEFAULT_255_1_234
10
8.4447891
20
78.7153148
40
0.5323783
50
77.2360837
51
90.3248275
0
ARC
8
DEFAULT_255_1_234
10
8.4654971
20
78.81204
40
0.4334697
50
63.837784
51
77.0809408
0
ARC
8
DEFAULT_255_1_234
10
8.4932732
20
78.8637911
40
0.3747796
50
45.9864267
51
64.1607727
0
ARC
8
DEFAULT_255_1_234
10
8.5193614
20
78.8935866
40
0.3352302
50
32.2747395
51
45.6547121
0
ARC
8
DEFAULT_255_1_234
10
8.5260054
20
78.895488
40
0.328603
50
359.6507365
51
32.6130309
0
ARC
8
DEFAULT_255_1_234
10
8.431715
20
78.895966
40
0.2678863
50
359.469343
51
14.9832209
0
ARC
8
DEFAULT_255_1_234
10
8.5022212
20
78.9148539
40
0.1948938
50
14.9781179
51
48.2004265
0
ARC
8
DEFAULT_255_1_234
10
8.4857856
20
78.8941983
40
0.2212521
50
48.5927837
51
74.1241538
0
ARC
8
DEFAULT_255_1_234
10
8.4524346
20
78.7841248
40
0.3362561
50
73.7888341
51
86.6652678
0
ARC
8
DEFAULT_255_1_234
10
8.4421911
20
78.6633881
40
0.4573953
50
86.2640471
51
90.0526343
0
ARC
8
DEFAULT_255_1_234
10
8.4393624
20
78.7029192
40
0.4178709
50
89.6697524
51
99.2309573
0
ARC
8
DEFAULT_255_1_234
10
8.4151075
20
78.8473964
40
0.2713749
50
99.069534
51
113.7658566
0
ARC
8
DEFAULT_255_1_234
10
8.3877266
20
78.9119677
40
0.2012469
50
114.0401004
51
127.9850673
0
ARC
8
DEFAULT_255_1_234
10
8.363683
20
78.941573
40
0.1631167
50
127.7287463
51
176.7105154
0
ARC
8
DEFAULT_255_1_234
10
8.4315547
20
78.9314693
40
0.2315392
50
175.1779447
51
180.0581938
0
ARC
8
DEFAULT_255_1_234
10
8.3472394
20
78.9302428
40
0.1472271
50
179.6142195
51
228.1246017
0
ARC
8
DEFAULT_255_1_234
10
8.3914063
20
78.9711308
40
0.2072299
50
226.5779593
51
230.8800004
0
ARC
8
DEFAULT_255_1_234
10
8.4385141
20
79.0336636
40
0.2854818
50
231.4635071
51
241.9260842
0
ARC
8
DEFAULT_255_1_234
10
8.5582319
20
79.25398
40
0.53622
50
241.7178533
51
248.3259551
0
ARC
8
DEFAULT_255_1_234
10
8.6967691
20
79.5972064
40
0.9063478
50
248.2007737
51
252.4528373
0
ARC
8
DEFAULT_255_1_234
10
8.8171416
20
79.9693441
40
1.2974635
50
252.3391078
51
254.3469452
0
ARC
8
DEFAULT_255_1_234
10
8.0629119
20
77.2716148
40
1.5037162
50
71.0197183
51
74.4087047
0
ARC
8
DEFAULT_255_1_234
10
8.2323804
20
77.7608111
40
0.9859993
50
66.1847285
51
71.086374
0
ARC
8
DEFAULT_255_1_234
10
8.3880116
20
78.11122
40
0.6025855
50
59.3536294
51
66.2691831
0
ARC
8
DEFAULT_255_1_234
10
8.4768769
20
78.2615609
40
0.4279449
50
49.1020879
51
59.3293958
0
ARC
8
DEFAULT_255_1_234
10
8.5587509
20
78.3548834
40
0.3038015
50
32.7919921
51
49.2505539
0
ARC
8
DEFAULT_255_1_234
10
8.5908599
20
78.3777191
40
0.264448
50
31.1181161
51
32.4005348
0
ARC
8
DEFAULT_255_1_234
10
8.5820136
20
78.3741779
40
0.2738556
50
8.1116974
51
30.7958831
0
ARC
8
DEFAULT_255_1_234
10
8.5009804
20
78.3603753
40
0.3560327
50
359.8389159
51
8.4706516
0
ARC
8
DEFAULT_255_1_234
10
8.5635596
20
78.3555137
40
0.2934776
50
337.4731098
51
0.7537279
0
ARC
8
DEFAULT_255_1_234
10
8.5814291
20
78.3535387
40
0.2762607
50
307.5917067
51
336.4315538
0
ARC
8
DEFAULT_255_1_234
10
8.5354119
20
78.4048102
40
0.3449979
50
307.6551545
51
308.4529766
0
ARC
8
DEFAULT_255_1_234
10
8.5123838
20
78.440325
40
0.3871988
50
284.3734338
51
307.1424381
0
ARC
8
DEFAULT_255_1_234
10
8.4628668
20
78.6224932
40
0.5759636
50
272.4382747
51
284.646547
0
ARC
8
DEFAULT_255_1_234
10
8.4501876
20
78.8024893
40
0.7563528
50
269.9708387
51
272.8178037
0
ARC
8
DEFAULT_255_1_234
10
8.4458916
20
78.5986716
40
0.5525489
50
248.2707594
51
270.4055579
0
ARC
8
DEFAULT_255_1_234
10
8.4404657
20
78.5796192
40
0.5328452
50
246.1383403
51
248.0542782
0
ARC
8
DEFAULT_255_1_234
10
8.3986036
20
78.4916843
40
0.4355005
50
233.1670131
51
246.4950969
0
ARC
8
DEFAULT_255_1_234
10
8.3431941
20
78.4168812
40
0.3424126
50
215.3403242
51
233.0843104
0
ARC
8
DEFAULT_255_1_234
10
8.3159372
20
78.3970549
40
0.3087104
50
179.2419209
51
215.2648451
0
ARC
8
DEFAULT_255_1_234
10
8.3926966
20
78.3984666
40
0.2304457
50
179.335461
51
199.1045811
0
ARC
8
DEFAULT_255_1_234
10
8.3594643
20
78.3897766
40
0.1962176
50
199.8828939
51
232.7063202
0
ARC
8
DEFAULT_255_1_234
10
8.4066911
20
78.4491788
40
0.2720938
50
232.3738199
51
255.5136649
0
ARC
8
DEFAULT_255_1_234
10
8.4407778
20
78.5735835
40
0.4010747
50
255.2446292
51
267.5320849
0
ARC
8
DEFAULT_255_1_234
10
8.4495401
20
78.6968702
40
0.5246356
50
267.1557994
51
270.0286766
0
ARC
8
DEFAULT_255_1_234
10
8.4523173
20
78.652495
40
0.4802668
50
269.7000017
51
278.1660162
0
ARC
8
DEFAULT_255_1_234
10
8.4779178
20
78.4794515
40
0.3053425
50
278.0231263
51
290.625471
0
ARC
8
DEFAULT_255_1_234
10
8.5126865
20
78.3867025
40
0.206291
50
290.6619762
51
307.0370976
0
ARC
8
DEFAULT_255_1_234
10
8.5427254
20
78.3498504
40
0.1587906
50
306.3943566
51
355.3030547
0
ARC
8
DEFAULT_255_1_234
10
8.4915186
20
78.3575113
40
0.2104809
50
354.3660432
51
0.0698737
0
ARC
8
DEFAULT_255_1_234
10
8.5057531
20
78.3597617
40
0.1962563
50
359.417946
51
16.1971788
0
ARC
8
DEFAULT_255_1_234
10
8.5512841
20
78.3722418
40
0.149053
50
16.4723299
51
52.6262157
0
ARC
8
DEFAULT_255_1_234
10
8.4691895
20
78.2638433
40
0.2850296
50
52.7386432
51
62.4979148
0
ARC
8
DEFAULT_255_1_234
10
8.3306972
20
78.0032283
40
0.5801521
50
62.2515216
51
68.1220564
0
ARC
8
DEFAULT_255_1_234
10
8.1586883
20
77.5804872
40
1.0365451
50
68.0062803
51
71.8053402
0
ARC
8
DEFAULT_255_1_234
10
7.9791255
20
77.0419758
40
1.6042013
50
71.7183119
51
73.9258742
0
LINE
8
DEFAULT_255_1_234
10
9.2200464
20
79.2316211
11
9.2200464
21
78.0622
0
LINE
8
DEFAULT_255_1_234
10
9.2200464
20
78.0622
11
9.065837
21
78.0622
0
LINE
8
DEFAULT_255_1_234
10
9.065837
20
78.0622
11
9.065837
21
79.2316211
0
LINE
8
DEFAULT_255_1_234
10
9.065837
20
79.2316211
11
9.2200464
21
79.2316211
0
LINE
8
DEFAULT_255_1_234
10
9.5019604
20
79.2316211
11
9.7011475
21
79.2316211
0
LINE
8
DEFAULT_255_1_234
10
9.7011475
20
79.2316211
11
10.0834583
21
78.2774506
0
LINE
8
DEFAULT_255_1_234
10
10.0834583
20
78.2774506
11
10.465769
21
79.2316211
0
LINE
8
DEFAULT_255_1_234
10
10.465769
20
79.2316211
11
10.6657593
21
79.2316211
0
LINE
8
DEFAULT_255_1_234
10
10.6657593
20
79.2316211
11
10.6657593
21
78.0622
0
LINE
8
DEFAULT_255_1_234
10
10.6657593
20
78.0622
11
10.5115499
21
78.0622
0
LINE
8
DEFAULT_255_1_234
10
10.5115499
20
78.0622
11
10.5115499
21
78.5175996
0
LINE
8
DEFAULT_255_1_234
10
10.5115499
20
78.5175996
11
10.526007
21
79.0091419
0
LINE
8
DEFAULT_255_1_234
10
10.526007
20
79.0091419
11
10.1420899
21
78.0622
0
LINE
8
DEFAULT_255_1_234
10
10.1420899
20
78.0622
11
10.0240234
21
78.0622
0
LINE
8
DEFAULT_255_1_234
10
10.0240234
20
78.0622
11
9.6409095
21
79.0067324
0
LINE
8
DEFAULT_255_1_234
10
9.6409095
20
79.0067324
11
9.6561698
21
78.5175996
0
LINE
8
DEFAULT_255_1_234
10
9.6561698
20
78.5175996
11
9.6561698
21
78.0622
0
LINE
8
DEFAULT_255_1_234
10
9.6561698
20
78.0622
11
9.5019604
21
78.0622
0
LINE
8
DEFAULT_255_1_234
10
9.5019604
20
78.0622
11
9.5019604
21
79.2316211
0
LINE
8
DEFAULT_255_1_234
10
11.7098853
20
78.0622
11
11.5982441
21
78.3674061
0
LINE
8
DEFAULT_255_1_234
10
11.5982441
20
78.3674061
11
11.1083081
21
78.3674061
0
LINE
8
DEFAULT_255_1_234
10
11.1083081
20
78.3674061
11
10.9982732
21
78.0622
0
LINE
8
DEFAULT_255_1_234
10
10.9982732
20
78.0622
11
10.8392448
21
78.0622
0
LINE
8
DEFAULT_255_1_234
10
10.8392448
20
78.0622
11
11.2858095
21
79.2316211
0
LINE
8
DEFAULT_255_1_234
10
11.2858095
20
79.2316211
11
11.4207427
21
79.2316211
0
LINE
8
DEFAULT_255_1_234
10
11.4207427
20
79.2316211
11
11.8681105
21
78.0622
0
LINE
8
DEFAULT_255_1_234
10
11.8681105
20
78.0622
11
11.7098853
21
78.0622
0
LINE
8
DEFAULT_255_1_234
10
11.3532761
20
79.0412689
11
11.1548921
21
78.4943075
0
LINE
8
DEFAULT_255_1_234
10
11.1548921
20
78.4943075
11
11.5524632
21
78.4943075
0
LINE
8
DEFAULT_255_1_234
10
11.5524632
20
78.4943075
11
11.3532761
21
79.0412689
0
LINE
8
DEFAULT_255_1_234
10
12.729916
20
79.2316211
11
12.729916
21
79.1047196
0
LINE
8
DEFAULT_255_1_234
10
12.729916
20
79.1047196
11
12.3540307
21
79.1047196
0
LINE
8
DEFAULT_255_1_234
10
12.3540307
20
79.1047196
11
12.3540307
21
78.0622
0
LINE
8
DEFAULT_255_1_234
10
12.3540307
20
78.0622
11
12.2006245
21
78.0622
0
LINE
8
DEFAULT_255_1_234
10
12.2006245
20
78.0622
11
12.2006245
21
79.1047196
0
LINE
8
DEFAULT_255_1_234
10
12.2006245
20
79.1047196
11
11.8255423
21
79.1047196
0
LINE
8
DEFAULT_255_1_234
10
11.8255423
20
79.1047196
11
11.8255423
21
79.2316211
0
LINE
8
DEFAULT_255_1_234
10
11.8255423
20
79.2316211
11
12.729916
21
79.2316211
0
LINE
8
DEFAULT_255_1_234
10
13.0688554
20
79.2316211
11
13.0688554
21
78.0622
0
LINE
8
DEFAULT_255_1_234
10
13.0688554
20
78.0622
11
12.914646
21
78.0622
0
LINE
8
DEFAULT_255_1_234
10
12.914646
20
78.0622
11
12.914646
21
79.2316211
0
LINE
8
DEFAULT_255_1_234
10
12.914646
20
79.2316211
11
13.0688554
21
79.2316211
0
LINE
8
DEFAULT_255_1_234
10
14.055956
20
78.4332663
11
14.2109686
21
78.4332663
0
LINE
8
DEFAULT_255_1_234
10
13.3106107
20
78.5922947
11
13.3106107
21
78.7047391
0
LINE
8
DEFAULT_255_1_234
10
14.2109686
20
78.8557357
11
14.055956
21
78.8557357
0
LINE
8
DEFAULT_255_1_234
10
13.4656232
20
78.7007232
11
13.4656232
21
78.5874757
0
ARC
8
DEFAULT_255_1_234
10
13.6629072
20
78.4929846
40
0.5513052
50
340.1774281
51
353.7814284
0
ARC
8
DEFAULT_255_1_234
10
13.8200425
20
78.4344582
40
0.3836379
50
311.4558989
51
340.4421614
0
ARC
8
DEFAULT_255_1_234
10
13.8167093
20
78.4455528
40
0.3941894
50
282.4333181
51
310.7513653
0
ARC
8
DEFAULT_255_1_234
10
13.7727832
20
78.6270679
40
0.5809175
50
269.9358511
51
282.809604
0
ARC
8
DEFAULT_255_1_234
10
13.7675899
20
78.7728212
40
0.7266847
50
270.0021091
51
270.3581957
0
ARC
8
DEFAULT_255_1_234
10
13.7623315
20
78.5127585
40
0.4666519
50
250.7884749
51
270.6489167
0
ARC
8
DEFAULT_255_1_234
10
13.745515
20
78.4490319
40
0.4009729
50
219.3627325
51
250.0611886
0
ARC
8
DEFAULT_255_1_234
10
13.8284361
20
78.5195042
40
0.5097822
50
193.5479632
51
219.5756669
0
ARC
8
DEFAULT_255_1_234
10
14.0655982
20
78.5810919
40
0.7547848
50
181.1218675
51
193.87563
0
ARC
8
DEFAULT_255_1_234
10
14.2726163
20
78.592158
40
0.9620055
50
179.9918545
51
181.5394234
0
ARC
8
DEFAULT_255_1_234
10
14.0875265
20
78.7084788
40
0.7769248
50
169.5837241
51
180.2757934
0
ARC
8
DEFAULT_255_1_234
10
13.9038203
20
78.7424229
40
0.590109
50
155.0365899
51
169.6003176
0
ARC
8
DEFAULT_255_1_234
10
13.7902667
20
78.7971677
40
0.4640625
50
136.783148
51
155.2472683
0
ARC
8
DEFAULT_255_1_234
10
13.7513144
20
78.8302562
40
0.4130255
50
121.7633186
51
136.428115
0
ARC
8
DEFAULT_255_1_234
10
13.7648106
20
78.8053227
40
0.4413323
50
95.6459699
51
121.5490577
0
ARC
8
DEFAULT_255_1_234
10
13.7805388
20
78.6944949
40
0.55319
50
89.924208
51
96.1377933
0
ARC
8
DEFAULT_255_1_234
10
13.7855821
20
78.7063542
40
0.5413475
50
76.6779277
51
90.4563316
0
ARC
8
DEFAULT_255_1_234
10
13.8249444
20
78.8654114
40
0.3775041
50
47.485847
51
76.9287264
0
ARC
8
DEFAULT_255_1_234
10
13.8102417
20
78.8554159
40
0.3948286
50
16.5424086
51
46.8933463
0
ARC
8
DEFAULT_255_1_234
10
13.6494574
20
78.8025861
40
0.564021
50
5.4072051
51
17.0365086
0
ARC
8
DEFAULT_255_1_234
10
13.5055591
20
78.7794679
40
0.5556559
50
7.8891745
51
15.9239216
0
ARC
8
DEFAULT_255_1_234
10
13.7042605
20
78.8371631
40
0.3487515
50
15.7653144
51
27.9410532
0
ARC
8
DEFAULT_255_1_234
10
13.8146822
20
78.896279
40
0.2235026
50
27.8166557
51
46.4008329
0
ARC
8
DEFAULT_255_1_234
10
13.8196465
20
78.8957082
40
0.2205286
50
47.4371857
51
75.0698205
0
ARC
8
DEFAULT_255_1_234
10
13.788786
20
78.7882765
40
0.3322915
50
74.7008593
51
87.8124495
0
ARC
8
DEFAULT_255_1_234
10
13.7814547
20
78.6826844
40
0.4380987
50
87.3814673
51
90.0240855
0
ARC
8
DEFAULT_255_1_234
10
13.7776091
20
78.8004291
40
0.3203749
50
89.3451631
51
108.5745436
0
ARC
8
DEFAULT_255_1_234
10
13.7639196
20
78.8517908
40
0.2673494
50
109.2998449
51
143.3037509
0
ARC
8
DEFAULT_255_1_234
10
13.8401268
20
78.7931881
40
0.3634757
50
143.0753173
51
163.1916937
0
ARC
8
DEFAULT_255_1_234
10
14.0352996
20
78.7315967
40
0.5681262
50
162.9373603
51
174.6208611
0
ARC
8
DEFAULT_255_1_234
10
14.2979038
20
78.702801
40
0.8322832
50
174.3419979
51
180.1430411
0
ARC
8
DEFAULT_255_1_234
10
14.2048194
20
78.5833698
40
0.7392076
50
179.6817502
51
189.150529
0
ARC
8
DEFAULT_255_1_234
10
13.9547443
20
78.541719
40
0.4856932
50
188.9910863
51
203.5773039
0
ARC
8
DEFAULT_255_1_234
10
13.8467775
20
78.4969211
40
0.3688271
50
203.9077269
51
215.1312379
0
ARC
8
DEFAULT_255_1_234
10
13.7544869
20
78.4253941
40
0.2522457
50
213.9071664
51
263.8849284
0
ARC
8
DEFAULT_255_1_234
10
13.7670198
20
78.5038518
40
0.3316174
50
263.1758525
51
270.1031083
0
ARC
8
DEFAULT_255_1_234
10
13.770229
20
78.6285365
40
0.4563091
50
269.6719807
51
279.0609165
0
ARC
8
DEFAULT_255_1_234
10
13.7969058
20
78.4672907
40
0.2928759
50
278.8750225
51
293.6346586
0
ARC
8
DEFAULT_255_1_234
10
13.8289266
20
78.39209
40
0.2111472
50
293.8553404
51
310.0518804
0
ARC
8
DEFAULT_255_1_234
10
13.829412
20
78.3858516
40
0.2060917
50
311.0646779
51
332.0108348
0
ARC
8
DEFAULT_255_1_234
10
13.7101847
20
78.4515978
40
0.3422352
50
331.6588543
51
343.2878891
0
ARC
8
DEFAULT_255_1_234
10
13.5039362
20
78.5149798
40
0.5580003
50
343.1446044
51
351.010618
0
ARC
8
DEFAULT_255_1_234
10
13.3498008
20
78.5430871
40
0.7146438
50
350.7157277
51
351.1602153
0
LINE
8
DEFAULT_255_1_234
10
15.4896213
20
78.7288343
11
15.4896213
21
78.602736
0
LINE
8
DEFAULT_255_1_234
10
15.4896213
20
78.602736
11
14.9828186
21
78.602736
0
LINE
8
DEFAULT_255_1_234
10
14.9828186
20
78.602736
11
14.9828186
21
78.1882983
0
LINE
8
DEFAULT_255_1_234
10
14.9828186
20
78.1882983
11
15.571545
21
78.1882983
0
LINE
8
DEFAULT_255_1_234
10
15.571545
20
78.1882983
11
15.571545
21
78.0622
0
LINE
8
DEFAULT_255_1_234
10
15.571545
20
78.0622
11
14.8286092
21
78.0622
0
LINE
8
DEFAULT_255_1_234
10
14.8286092
20
78.0622
11
14.8286092
21
79.2316211
0
LINE
8
DEFAULT_255_1_234
10
14.8286092
20
79.2316211
11
15.5635133
21
79.2316211
0
LINE
8
DEFAULT_255_1_234
10
15.5635133
20
79.2316211
11
15.5635133
21
79.1047196
0
LINE
8
DEFAULT_255_1_234
10
15.5635133
20
79.1047196
11
14.9828186
21
79.1047196
0
LINE
8
DEFAULT_255_1_234
10
14.9828186
20
79.1047196
11
14.9828186
21
78.7288343
0
LINE
8
DEFAULT_255_1_234
10
14.9828186
20
78.7288343
11
15.4896213
21
78.7288343
0
LINE
8
DEFAULT_255_1_234
10
16.5875599
20
79.2316211
11
16.5875599
21
79.1047196
0
LINE
8
DEFAULT_255_1_234
10
16.5875599
20
79.1047196
11
16.2116746
21
79.1047196
0
LINE
8
DEFAULT_255_1_234
10
16.2116746
20
79.1047196
11
16.2116746
21
78.0622
0
LINE
8
DEFAULT_255_1_234
10
16.2116746
20
78.0622
11
16.0582684
21
78.0622
0
LINE
8
DEFAULT_255_1_234
10
16.0582684
20
78.0622
11
16.0582684
21
79.1047196
0
LINE
8
DEFAULT_255_1_234
10
16.0582684
20
79.1047196
11
15.6831862
21
79.1047196
0
LINE
8
DEFAULT_255_1_234
10
15.6831862
20
79.1047196
11
15.6831862
21
79.2316211
0
LINE
8
DEFAULT_255_1_234
10
15.6831862
20
79.2316211
11
16.5875599
21
79.2316211
0
LINE
8
DEFAULT_255_1_234
10
17.4887209
20
78.1834792
11
17.4887209
21
78.0622
0
LINE
8
DEFAULT_255_1_234
10
17.4887209
20
78.0622
11
16.7224931
21
78.0622
0
LINE
8
DEFAULT_255_1_234
10
16.7224931
20
78.0622
11
16.7224931
21
78.1690221
0
LINE
8
DEFAULT_255_1_234
10
16.7224931
20
78.1690221
11
17.1272927
21
78.6187995
0
LINE
8
DEFAULT_255_1_234
10
16.8485914
20
78.8870595
11
16.7000042
21
78.8870595
0
LINE
8
DEFAULT_255_1_234
10
17.2148387
20
78.5232218
11
16.9016009
21
78.1834792
0
LINE
8
DEFAULT_255_1_234
10
16.9016009
20
78.1834792
11
17.4887209
21
78.1834792
0
ARC
8
DEFAULT_255_1_234
10
15.7782761
20
79.8117527
40
1.8008286
50
318.5132453
51
320.7828378
0
ARC
8
DEFAULT_255_1_234
10
16.3069735
20
79.3814426
40
1.1191493
50
320.7372736
51
323.9737074
0
ARC
8
DEFAULT_255_1_234
10
16.6989591
20
79.0974361
40
0.6350923
50
323.8961724
51
328.6421089
0
ARC
8
DEFAULT_255_1_234
10
16.9036187
20
78.9712031
40
0.3946393
50
328.8299013
51
331.789948
0
ARC
8
DEFAULT_255_1_234
10
17.0033365
20
78.9197509
40
0.2824501
50
331.4255242
51
352.9364833
0
ARC
8
DEFAULT_255_1_234
10
17.0169866
20
78.9166976
40
0.2685315
50
353.2248685
51
0.0169286
0
ARC
8
DEFAULT_255_1_234
10
17.0379743
20
78.918995
40
0.2475536
50
359.4866256
51
15.9339782
0
ARC
8
DEFAULT_255_1_234
10
17.0886728
20
78.9326286
40
0.1950618
50
16.1714718
51
43.5284424
0
ARC
8
DEFAULT_255_1_234
10
17.0964037
20
78.9403573
40
0.184134
50
43.4415429
51
83.1661404
0
ARC
8
DEFAULT_255_1_234
10
17.0829955
20
78.8666771
40
0.258926
50
82.160215
51
90.1505798
0
ARC
8
DEFAULT_255_1_234
10
17.0798382
20
78.8129865
40
0.3126255
50
89.5460705
51
102.5418777
0
ARC
8
DEFAULT_255_1_234
10
17.0555468
20
78.9160665
40
0.2067346
50
102.1739365
51
129.2061916
0
ARC
8
DEFAULT_255_1_234
10
17.047654
20
78.9285094
40
0.1921118
50
129.7279328
51
135.7542026
0
ARC
8
DEFAULT_255_1_234
10
17.0598068
20
78.9188045
40
0.2075944
50
136.175737
51
166.3674722
0
ARC
8
DEFAULT_255_1_234
10
17.1604987
20
78.8918182
40
0.3118201
50
165.9092917
51
178.8683903
0
ARC
8
DEFAULT_255_1_234
10
17.2469848
20
78.8871179
40
0.3983935
50
178.438168
51
180.0083905
0
ARC
8
DEFAULT_255_1_234
10
17.106845
20
78.8910231
40
0.4068601
50
163.2878735
51
180.5581814
0
ARC
8
DEFAULT_255_1_234
10
17.0266712
20
78.913084
40
0.3237344
50
133.454115
51
162.9470031
0
ARC
8
DEFAULT_255_1_234
10
17.0445253
20
78.8941
40
0.349795
50
100.7869394
51
133.4384016
0
ARC
8
DEFAULT_255_1_234
10
17.0793024
20
78.7392319
40
0.5084616
50
89.6605301
51
101.3704185
0
ARC
8
DEFAULT_255_1_234
10
17.0859363
20
78.7453496
40
0.502348
50
78.2171172
51
90.4130393
0
ARC
8
DEFAULT_255_1_234
10
17.1214442
20
78.9077637
40
0.3361092
50
55.9268222
51
78.4888551
0
ARC
8
DEFAULT_255_1_234
10
17.1410882
20
78.9416324
40
0.2970617
50
47.9292255
51
55.4054003
0
ARC
8
DEFAULT_255_1_234
10
17.1512442
20
78.9519502
40
0.2825983
50
4.3347696
51
48.0560701
0
ARC
8
DEFAULT_255_1_234
10
17.0416836
20
78.9349601
40
0.393225
50
359.925209
51
5.5967654
0
ARC
8
DEFAULT_255_1_234
10
17.0845728
20
78.9405816
40
0.3503892
50
337.8914096
51
358.9967724
0
ARC
8
DEFAULT_255_1_234
10
16.813214
20
79.0452706
40
0.6412172
50
326.9135351
51
338.3505194
0
ARC
8
DEFAULT_255_1_234
10
16.4146444
20
79.3007284
40
1.1146189
50
319.6472867
51
327.095818
0
ARC
8
DEFAULT_255_1_234
10
16.0313447
20
79.6169
40
1.6114559
50
317.2586784
51
319.9046139
0
LINE
8
DEFAULT_255_1_234
10
18.3794407
20
78.7537327
11
18.3794407
21
78.5609709
0
LINE
8
DEFAULT_255_1_234
10
17.641324
20
78.5408916
11
17.641324
21
78.7392755
0
LINE
8
DEFAULT_255_1_234
10
18.2308536
20
78.5208123
11
18.2308536
21
78.7641739
0
LINE
8
DEFAULT_255_1_234
10
17.7899111
20
78.7754184
11
17.7899111
21
78.5376789
0
ARC
8
DEFAULT_255_1_234
10
17.1547297
20
78.5560805
40
1.2247208
50
353.8441951
51
0.2287902
0
ARC
8
DEFAULT_255_1_234
10
17.61868
20
78.5042806
40
0.7578929
50
344.4934747
51
353.9765454
0
ARC
8
DEFAULT_255_1_234
10
17.9179391
20
78.4191981
40
0.4467846
50
329.2803592
51
344.7472793
0
ARC
8
DEFAULT_255_1_234
10
18.0172216
20
78.3647018
40
0.3336173
50
324.9352394
51
328.6160465
0
ARC
8
DEFAULT_255_1_234
10
18.0549324
20
78.3383427
40
0.2876076
50
280.580143
51
324.9173126
0
ARC
8
DEFAULT_255_1_234
10
18.0148117
20
78.5054099
40
0.4592847
50
269.5977311
51
281.6734359
0
ARC
8
DEFAULT_255_1_234
10
18.0076022
20
78.4934173
40
0.4472986
50
256.6228859
51
270.51044
0
ARC
8
DEFAULT_255_1_234
10
17.9674
20
78.3385877
40
0.2873874
50
215.8618325
51
257.2788573
0
ARC
8
DEFAULT_255_1_234
10
18.0695032
20
78.4070977
40
0.4102928
50
197.9693508
51
215.2623606
0
ARC
8
DEFAULT_255_1_234
10
18.3180147
20
78.4909709
40
0.6725652
50
187.8816417
51
198.2346507
0
ARC
8
DEFAULT_255_1_234
10
18.7138356
20
78.5481079
40
1.0724845
50
180.8976217
51
188.0055519
0
ARC
8
DEFAULT_255_1_234
10
18.9938544
20
78.5584777
40
1.3526448
50
180.7449369
51
181.1510016
0
ARC
8
DEFAULT_255_1_234
10
18.8361273
20
78.7441042
40
1.1948131
50
173.7675579
51
180.231553
0
ARC
8
DEFAULT_255_1_234
10
18.384342
20
78.7951666
40
0.7401564
50
164.3058563
51
173.9002247
0
ARC
8
DEFAULT_255_1_234
10
18.0931488
20
78.8790656
40
0.4371288
50
148.7922025
51
164.568378
0
ARC
8
DEFAULT_255_1_234
10
17.9979941
20
78.9321929
40
0.3282386
50
144.5883898
51
148.1176286
0
ARC
8
DEFAULT_255_1_234
10
17.9636838
20
78.9561315
40
0.2864044
50
101.6440918
51
144.514236
0
ARC
8
DEFAULT_255_1_234
10
18.0061905
20
78.7872069
40
0.4604934
50
89.5284041
51
102.5819763
0
ARC
8
DEFAULT_255_1_234
10
18.0140993
20
78.7833018
40
0.464401
50
77.0437873
51
90.5081339
0
ARC
8
DEFAULT_255_1_234
10
18.0542995
20
78.9475615
40
0.2953195
50
48.2778575
51
77.4994676
0
ARC
8
DEFAULT_255_1_234
10
18.0615626
20
78.9604746
40
0.2808655
50
36.3142134
51
47.6305865
0
ARC
8
DEFAULT_255_1_234
10
17.9746933
20
78.9019515
40
0.3855453
50
18.2931786
51
35.6769206
0
ARC
8
DEFAULT_255_1_234
10
17.7203692
20
78.8146593
40
0.654423
50
8.024666
51
18.5605216
0
ARC
8
DEFAULT_255_1_234
10
17.3040612
20
78.7531792
40
1.0752407
50
1.1274072
51
8.1718305
0
ARC
8
DEFAULT_255_1_234
10
16.9804802
20
78.7404885
40
1.3990231
50
0.5424119
51
1.3863029
0
ARC
8
DEFAULT_255_1_234
10
17.162618
20
78.7677342
40
1.0682415
50
359.8090433
51
4.9407866
0
ARC
8
DEFAULT_255_1_234
10
17.5836194
20
78.8053113
40
0.6455691
50
4.8362157
51
12.2904523
0
ARC
8
DEFAULT_255_1_234
10
17.8591309
20
78.8666965
40
0.3633074
50
12.0805627
51
23.8173984
0
ARC
8
DEFAULT_255_1_234
10
17.9765014
20
78.9163919
40
0.2358723
50
24.2871213
51
31.3935614
0
ARC
8
DEFAULT_255_1_234
10
18.0289712
20
78.9507233
40
0.1732111
50
30.7407893
51
82.4657128
0
ARC
8
DEFAULT_255_1_234
10
18.0109846
20
78.8623691
40
0.263235
50
81.1060089
51
90.2184952
0
ARC
8
DEFAULT_255_1_234
10
18.0074145
20
78.8881924
40
0.2374236
50
89.3806855
51
105.6762551
0
ARC
8
DEFAULT_255_1_234
10
17.9890775
20
78.9548567
40
0.1682847
50
105.7981136
51
149.7388061
0
ARC
8
DEFAULT_255_1_234
10
18.0954854
20
78.890895
40
0.2924306
50
149.4208916
51
163.6286378
0
ARC
8
DEFAULT_255_1_234
10
18.3045742
20
78.827125
40
0.5110213
50
163.3763315
51
172.1410975
0
ARC
8
DEFAULT_255_1_234
10
18.6346461
20
78.7798518
40
0.8444586
50
172.0259487
51
178.0703232
0
ARC
8
DEFAULT_255_1_234
10
18.937655
20
78.7654906
40
1.1477868
50
177.8631668
51
179.5044149
0
ARC
8
DEFAULT_255_1_234
10
18.8303955
20
78.5340389
40
1.0404907
50
179.7995573
51
185.2460446
0
ARC
8
DEFAULT_255_1_234
10
18.4260994
20
78.4957513
40
0.6343885
50
185.1411642
51
193.0079639
0
ARC
8
DEFAULT_255_1_234
10
18.1617467
20
78.4332641
40
0.3627568
50
192.7897626
51
205.2507664
0
ARC
8
DEFAULT_255_1_234
10
18.0571014
20
78.3865415
40
0.2481908
50
205.8005384
51
211.2537509
0
ARC
8
DEFAULT_255_1_234
10
18.0047454
20
78.351458
40
0.1852521
50
210.3789793
51
238.4008143
0
ARC
8
DEFAULT_255_1_234
10
18.0027976
20
78.3561376
40
0.1882621
50
239.6520629
51
265.9793761
0
ARC
8
DEFAULT_255_1_234
10
18.0113176
20
78.4233427
40
0.2559272
50
265.1315437
51
270.060332
0
ARC
8
DEFAULT_255_1_234
10
18.0141955
20
78.3909534
40
0.2235528
50
269.3314664
51
287.2178029
0
ARC
8
DEFAULT_255_1_234
10
18.0279807
20
78.3406279
40
0.1714108
50
287.7958004
51
329.080874
0
ARC
8
DEFAULT_255_1_234
10
17.9322264
20
78.400393
40
0.2842745
50
328.6634704
51
343.3325132
0
ARC
8
DEFAULT_255_1_234
10
17.7149284
20
78.4680863
40
0.5118644
50
343.0499468
51
351.9393422
0
ARC
8
DEFAULT_255_1_234
10
17.3682584
20
78.5191949
40
0.8622784
50
351.8069023
51
357.7959224
0
ARC
8
DEFAULT_255_1_234
10
17.044714
20
78.5359721
40
1.1862365
50
357.5871873
51
359.2677531
0
LINE
8
DEFAULT_255_1_234
10
19.3030906
20
78.7537327
11
19.3030906
21
78.5609709
0
LINE
8
DEFAULT_255_1_234
10
18.5649739
20
78.5408916
11
18.5649739
21
78.7392755
0
LINE
8
DEFAULT_255_1_234
10
19.1545035
20
78.5208123
11
19.1545035
21
78.7641739
0
LINE
8
DEFAULT_255_1_234
10
18.713561
20
78.7754184
11
18.713561
21
78.5376789
0
ARC
8
DEFAULT_255_1_234
10
18.0783796
20
78.5560805
40
1.2247208
50
353.8441951
51
0.2287902
0
ARC
8
DEFAULT_255_1_234
10
18.5423299
20
78.5042806
40
0.7578929
50
344.4934747
51
353.9765454
0
ARC
8
DEFAULT_255_1_234
10
18.841589
20
78.4191981
40
0.4467846
50
329.2803592
51
344.7472793
0
ARC
8
DEFAULT_255_1_234
10
18.9408715
20
78.3647018
40
0.3336173
50
324.9352394
51
328.6160465
0
ARC
8
DEFAULT_255_1_234
10
18.9785823
20
78.3383427
40
0.2876076
50
280.580143
51
324.9173126
0
ARC
8
DEFAULT_255_1_234
10
18.9384616
20
78.5054099
40
0.4592847
50
269.5977311
51
281.6734359
0
ARC
8
DEFAULT_255_1_234
10
18.9312521
20
78.4934173
40
0.4472986
50
256.6228859
51
270.51044
0
ARC
8
DEFAULT_255_1_234
10
18.8910499
20
78.3385877
40
0.2873874
50
215.8618325
51
257.2788573
0
ARC
8
DEFAULT_255_1_234
10
18.9931531
20
78.4070977
40
0.4102928
50
197.9693508
51
215.2623606
0
ARC
8
DEFAULT_255_1_234
10
19.2416647
20
78.4909709
40
0.6725652
50
187.8816417
51
198.2346507
0
ARC
8
DEFAULT_255_1_234
10
19.6374855
20
78.5481079
40
1.0724845
50
180.8976217
51
188.0055519
0
ARC
8
DEFAULT_255_1_234
10
19.9175043
20
78.5584777
40
1.3526448
50
180.7449369
51
181.1510016
0
ARC
8
DEFAULT_255_1_234
10
19.7597772
20
78.7441042
40
1.1948131
50
173.7675579
51
180.231553
0
ARC
8
DEFAULT_255_1_234
10
19.3079919
20
78.7951666
40
0.7401564
50
164.3058563
51
173.9002247
0
ARC
8
DEFAULT_255_1_234
10
19.0167987
20
78.8790656
40
0.4371288
50
148.7922025
51
164.568378
0
ARC
8
DEFAULT_255_1_234
10
18.921644
20
78.9321929
40
0.3282386
50
144.5883898
51
148.1176286
0
ARC
8
DEFAULT_255_1_234
10
18.8873337
20
78.9561315
40
0.2864044
50
101.6440918
51
144.514236
0
ARC
8
DEFAULT_255_1_234
10
18.9298404
20
78.7872069
40
0.4604934
50
89.5284041
51
102.5819763
0
ARC
8
DEFAULT_255_1_234
10
18.9377492
20
78.7833018
40
0.464401
50
77.0437873
51
90.5081339
0
ARC
8
DEFAULT_255_1_234
10
18.9779494
20
78.9475615
40
0.2953195
50
48.2778575
51
77.4994676
0
ARC
8
DEFAULT_255_1_234
10
18.9852125
20
78.9604746
40
0.2808655
50
36.3142134
51
47.6305865
0
ARC
8
DEFAULT_255_1_234
10
18.8983432
20
78.9019515
40
0.3855453
50
18.2931786
51
35.6769206
0
ARC
8
DEFAULT_255_1_234
10
18.6440191
20
78.8146593
40
0.654423
50
8.024666
51
18.5605216
0
ARC
8
DEFAULT_255_1_234
10
18.2277111
20
78.7531792
40
1.0752407
50
1.1274072
51
8.1718305
0
ARC
8
DEFAULT_255_1_234
10
17.9041301
20
78.7404885
40
1.3990231
50
0.5424119
51
1.3863029
0
ARC
8
DEFAULT_255_1_234
10
18.0862679
20
78.7677342
40
1.0682415
50
359.8090433
51
4.9407866
0
ARC
8
DEFAULT_255_1_234
10
18.5072693
20
78.8053113
40
0.6455691
50
4.8362157
51
12.2904523
0
ARC
8
DEFAULT_255_1_234
10
18.7827808
20
78.8666965
40
0.3633074
50
12.0805627
51
23.8173984
0
ARC
8
DEFAULT_255_1_234
10
18.9001513
20
78.9163919
40
0.2358723
50
24.2871213
51
31.3935614
0
ARC
8
DEFAULT_255_1_234
10
18.9526211
20
78.9507233
40
0.1732111
50
30.7407893
51
82.4657128
0
ARC
8
DEFAULT_255_1_234
10
18.9346345
20
78.8623691
40
0.263235
50
81.1060089
51
90.2184952
0
ARC
8
DEFAULT_255_1_234
10
18.9310644
20
78.8881924
40
0.2374236
50
89.3806855
51
105.6762551
0
ARC
8
DEFAULT_255_1_234
10
18.9127274
20
78.9548567
40
0.1682847
50
105.7981136
51
149.7388061
0
ARC
8
DEFAULT_255_1_234
10
19.0191353
20
78.890895
40
0.2924306
50
149.4208916
51
163.6286378
0
ARC
8
DEFAULT_255_1_234
10
19.2282241
20
78.827125
40
0.5110213
50
163.3763315
51
172.1410975
0
ARC
8
DEFAULT_255_1_234
10
19.558296
20
78.7798518
40
0.8444586
50
172.0259487
51
178.0703232
0
ARC
8
DEFAULT_255_1_234
10
19.8613049
20
78.7654906
40
1.1477868
50
177.8631668
51
179.5044149
0
ARC
8
DEFAULT_255_1_234
10
19.7540454
20
78.5340389
40
1.0404907
50
179.7995573
51
185.2460446
0
ARC
8
DEFAULT_255_1_234
10
19.3497493
20
78.4957513
40
0.6343885
50
185.1411642
51
193.0079639
0
ARC
8
DEFAULT_255_1_234
10
19.0853966
20
78.4332641
40
0.3627568
50
192.7897626
51
205.2507664
0
ARC
8
DEFAULT_255_1_234
10
18.9807513
20
78.3865415
40
0.2481908
50
205.8005384
51
211.2537509
0
ARC
8
DEFAULT_255_1_234
10
18.9283953
20
78.351458
40
0.1852521
50
210.3789793
51
238.4008143
0
ARC
8
DEFAULT_255_1_234
10
18.9264475
20
78.3561376
40
0.1882621
50
239.6520629
51
265.9793761
0
ARC
8
DEFAULT_255_1_234
10
18.9349675
20
78.4233427
40
0.2559272
50
265.1315437
51
270.060332
0
ARC
8
DEFAULT_255_1_234
10
18.9378454
20
78.3909534
40
0.2235528
50
269.3314664
51
287.2178029
0
ARC
8
DEFAULT_255_1_234
10
18.9516306
20
78.3406279
40
0.1714108
50
287.7958004
51
329.080874
0
ARC
8
DEFAULT_255_1_234
10
18.8558763
20
78.400393
40
0.2842745
50
328.6634704
51
343.3325132
0
ARC
8
DEFAULT_255_1_234
10
18.6385783
20
78.4680863
40
0.5118644
50
343.0499468
51
351.9393422
0
ARC
8
DEFAULT_255_1_234
10
18.2919083
20
78.5191949
40
0.8622784
50
351.8069023
51
357.7959224
0
ARC
8
DEFAULT_255_1_234
10
17.9683639
20
78.5359721
40
1.1862365
50
357.5871873
51
359.2677531
0
LINE
8
DEFAULT_255_1_234
10
20.3078611
20
78.8934849
11
20.1528485
21
78.8934849
0
LINE
8
DEFAULT_255_1_234
10
19.4605127
20
78.4011394
11
19.6155252
21
78.4011394
0
ARC
8
DEFAULT_255_1_234
10
20.2187298
20
79.7881768
40
1.252368
50
248.9199003
51
254.1439814
0
ARC
8
DEFAULT_255_1_234
10
20.0506793
20
79.3555234
40
0.788226
50
241.633709
51
249.0064503
0
ARC
8
DEFAULT_255_1_234
10
19.8978187
20
79.0754317
40
0.4691427
50
230.498225
51
241.8087113
0
ARC
8
DEFAULT_255_1_234
10
19.8193762
20
78.9754906
40
0.3421437
50
227.4064532
51
229.9881192
0
ARC
8
DEFAULT_255_1_234
10
19.7706282
20
78.9279088
40
0.2741476
50
200.6781896
51
228.1763934
0
ARC
8
DEFAULT_255_1_234
10
19.7778593
20
78.9264077
40
0.2804109
50
179.5061581
51
199.8694617
0
ARC
8
DEFAULT_255_1_234
10
19.7769345
20
78.933821
40
0.2795204
50
132.4834203
51
181.0242172
0
ARC
8
DEFAULT_255_1_234
10
19.8364927
20
78.8775704
40
0.3612768
50
129.2532479
51
133.4242687
0
ARC
8
DEFAULT_255_1_234
10
19.8511377
20
78.8555965
40
0.3875675
50
101.98776
51
128.8742646
0
ARC
8
DEFAULT_255_1_234
10
19.8909987
20
78.6834741
40
0.5642249
50
89.5906553
51
102.3169264
0
ARC
8
DEFAULT_255_1_234
10
19.8980479
20
78.7153148
40
0.5323783
50
77.2360837
51
90.3248275
0
ARC
8
DEFAULT_255_1_234
10
19.9187558
20
78.81204
40
0.4334697
50
63.837784
51
77.0809408
0
ARC
8
DEFAULT_255_1_234
10
19.946532
20
78.8637911
40
0.3747796
50
45.9864267
51
64.1607727
0
ARC
8
DEFAULT_255_1_234
10
19.9726201
20
78.8935866
40
0.3352302
50
32.2747395
51
45.6547121
0
ARC
8
DEFAULT_255_1_234
10
19.9792642
20
78.895488
40
0.328603
50
359.6507365
51
32.6130309
0
ARC
8
DEFAULT_255_1_234
10
19.8849737
20
78.895966
40
0.2678863
50
359.469343
51
14.9832209
0
ARC
8
DEFAULT_255_1_234
10
19.95548
20
78.9148539
40
0.1948938
50
14.9781179
51
48.2004265
0
ARC
8
DEFAULT_255_1_234
10
19.9390444
20
78.8941983
40
0.2212521
50
48.5927837
51
74.1241538
0
ARC
8
DEFAULT_255_1_234
10
19.9056934
20
78.7841248
40
0.3362561
50
73.7888341
51
86.6652678
0
ARC
8
DEFAULT_255_1_234
10
19.8954499
20
78.6633881
40
0.4573953
50
86.2640471
51
90.0526343
0
ARC
8
DEFAULT_255_1_234
10
19.8926212
20
78.7029192
40
0.4178709
50
89.6697524
51
99.2309573
0
ARC
8
DEFAULT_255_1_234
10
19.8683663
20
78.8473964
40
0.2713749
50
99.069534
51
113.7658566
0
ARC
8
DEFAULT_255_1_234
10
19.8409854
20
78.9119677
40
0.2012469
50
114.0401004
51
127.9850673
0
ARC
8
DEFAULT_255_1_234
10
19.8169418
20
78.941573
40
0.1631167
50
127.7287463
51
176.7105154
0
ARC
8
DEFAULT_255_1_234
10
19.8848135
20
78.9314693
40
0.2315392
50
175.1779447
51
180.0581938
0
ARC
8
DEFAULT_255_1_234
10
19.8004982
20
78.9302428
40
0.1472271
50
179.6142195
51
228.1246017
0
ARC
8
DEFAULT_255_1_234
10
19.8446651
20
78.9711308
40
0.2072299
50
226.5779593
51
230.8800004
0
ARC
8
DEFAULT_255_1_234
10
19.8917729
20
79.0336636
40
0.2854818
50
231.4635071
51
241.9260842
0
ARC
8
DEFAULT_255_1_234
10
20.0114907
20
79.25398
40
0.53622
50
241.7178533
51
248.3259551
0
ARC
8
DEFAULT_255_1_234
10
20.1500279
20
79.5972064
40
0.9063478
50
248.2007737
51
252.4528373
0
ARC
8
DEFAULT_255_1_234
10
20.2704004
20
79.9693441
40
1.2974635
50
252.3391078
51
254.3469452
0
ARC
8
DEFAULT_255_1_234
10
19.5161707
20
77.2716148
40
1.5037162
50
71.0197183
51
74.4087047
0
ARC
8
DEFAULT_255_1_234
10
19.6856392
20
77.7608111
40
0.9859993
50
66.1847285
51
71.086374
0
ARC
8
DEFAULT_255_1_234
10
19.8412704
20
78.11122
40
0.6025855
50
59.3536294
51
66.2691831
0
ARC
8
DEFAULT_255_1_234
10
19.9301357
20
78.2615609
40
0.4279449
50
49.1020879
51
59.3293958
0
ARC
8
DEFAULT_255_1_234
10
20.0120097
20
78.3548834
40
0.3038015
50
32.7919921
51
49.2505539
0
ARC
8
DEFAULT_255_1_234
10
20.0441186
20
78.3777191
40
0.264448
50
31.1181161
51
32.4005348
0
ARC
8
DEFAULT_255_1_234
10
20.0352724
20
78.3741779
40
0.2738556
50
8.1116974
51
30.7958831
0
ARC
8
DEFAULT_255_1_234
10
19.9542392
20
78.3603753
40
0.3560327
50
359.8389159
51
8.4706516
0
ARC
8
DEFAULT_255_1_234
10
20.0168184
20
78.3555137
40
0.2934776
50
337.4731098
51
0.7537279
0
ARC
8
DEFAULT_255_1_234
10
20.0346879
20
78.3535387
40
0.2762607
50
307.5917067
51
336.4315538
0
ARC
8
DEFAULT_255_1_234
10
19.9886707
20
78.4048102
40
0.3449979
50
307.6551545
51
308.4529766
0
ARC
8
DEFAULT_255_1_234
10
19.9656425
20
78.440325
40
0.3871988
50
284.3734338
51
307.1424381
0
ARC
8
DEFAULT_255_1_234
10
19.9161256
20
78.6224932
40
0.5759636
50
272.4382747
51
284.646547
0
ARC
8
DEFAULT_255_1_234
10
19.9034464
20
78.8024893
40
0.7563528
50
269.9708387
51
272.8178037
0
ARC
8
DEFAULT_255_1_234
10
19.8991504
20
78.5986716
40
0.5525489
50
248.2707594
51
270.4055579
0
ARC
8
DEFAULT_255_1_234
10
19.8937245
20
78.5796192
40
0.5328452
50
246.1383403
51
248.0542782
0
ARC
8
DEFAULT_255_1_234
10
19.8518624
20
78.4916843
40
0.4355005
50
233.1670131
51
246.4950969
0
ARC
8
DEFAULT_255_1_234
10
19.7964529
20
78.4168812
40
0.3424126
50
215.3403242
51
233.0843104
0
ARC
8
DEFAULT_255_1_234
10
19.769196
20
78.3970549
40
0.3087104
50
179.2419209
51
215.2648451
0
ARC
8
DEFAULT_255_1_234
10
19.8459554
20
78.3984666
40
0.2304457
50
179.335461
51
199.1045811
0
ARC
8
DEFAULT_255_1_234
10
19.8127231
20
78.3897766
40
0.1962176
50
199.8828939
51
232.7063202
0
ARC
8
DEFAULT_255_1_234
10
19.8599499
20
78.4491788
40
0.2720938
50
232.3738199
51
255.5136649
0
ARC
8
DEFAULT_255_1_234
10
19.8940366
20
78.5735835
40
0.4010747
50
255.2446292
51
267.5320849
0
ARC
8
DEFAULT_255_1_234
10
19.9027989
20
78.6968702
40
0.5246356
50
267.1557994
51
270.0286766
0
ARC
8
DEFAULT_255_1_234
10
19.9055761
20
78.652495
40
0.4802668
50
269.7000017
51
278.1660162
0
ARC
8
DEFAULT_255_1_234
10
19.9311766
20
78.4794515
40
0.3053425
50
278.0231263
51
290.625471
0
ARC
8
DEFAULT_255_1_234
10
19.9659453
20
78.3867025
40
0.206291
50
290.6619762
51
307.0370976
0
ARC
8
DEFAULT_255_1_234
10
19.9959842
20
78.3498504
40
0.1587906
50
306.3943566
51
355.3030547
0
ARC
8
DEFAULT_255_1_234
10
19.9447774
20
78.3575113
40
0.2104809
50
354.3660432
51
0.0698737
0
ARC
8
DEFAULT_255_1_234
10
19.9590119
20
78.3597617
40
0.1962563
50
359.417946
51
16.1971788
0
ARC
8
DEFAULT_255_1_234
10
20.0045429
20
78.3722418
40
0.149053
50
16.4723299
51
52.6262157
0
ARC
8
DEFAULT_255_1_234
10
19.9224483
20
78.2638433
40
0.2850296
50
52.7386432
51
62.4979148
0
ARC
8
DEFAULT_255_1_234
10
19.783956
20
78.0032283
40
0.5801521
50
62.2515216
51
68.1220564
0
ARC
8
DEFAULT_255_1_234
10
19.6119471
20
77.5804872
40
1.0365451
50
68.0062803
51
71.8053402
0
ARC
8
DEFAULT_255_1_234
10
19.4323843
20
77.0419758
40
1.6042013
50
71.7183119
51
73.9258742
0
LINE
8
DEFAULT_255_2_778
10
19.9760417
20
60.721908
11
18.6531417
21
60.721908
0
LINE
8
DEFAULT_255_2_778
10
18.6531417
20
60.721908
11
18.6531417
21
35.586508
0
LINE
8
DEFAULT_255_2_778
10
17.3301834
20
35.5864333
11
19.9759834
21
35.5864333
0
LINE
8
DEFAULT_255_2_778
10
19.9759834
20
35.5864333
11
19.9759834
21
30.2947333
0
LINE
8
DEFAULT_255_2_778
10
19.9759834
20
30.2947333
11
17.3301834
21
30.2947333
0
LINE
8
DEFAULT_255_2_778
10
17.3301834
20
30.2947333
11
17.3301834
21
35.5864333
0
LINE
8
DEFAULT_255_2_778
10
18.124
20
30.8239666
11
18.124
21
35.0572666
0
LINE
8
DEFAULT_255_2_778
10
17.8594167
20
34.263575
11
18.1240167
21
35.057275
0
LINE
8
DEFAULT_255_2_778
10
18.1240167
20
35.057275
11
18.3886167
21
34.263575
0
LINE
8
DEFAULT_255_2_778
10
18.3886167
20
34.263575
11
17.8594167
21
34.263575
0
LINE
8
DEFAULT_255_2_778
10
19.1823
20
35.0572666
11
19.1823
21
30.8239666
0
LINE
8
DEFAULT_255_2_778
10
18.9177167
20
31.617675
11
19.1823167
21
30.823975
0
LINE
8
DEFAULT_255_2_778
10
19.1823167
20
30.823975
11
19.4469167
21
31.617675
0
LINE
8
DEFAULT_255_2_778
10
19.4469167
20
31.617675
11
18.9177167
21
31.617675
0
LINE
8
DEFAULT_255_2_778
10
18.6531417
20
30.294808
11
18.6531417
21
5.159408
0
LINE
8
DEFAULT_255_2_778
10
18.6531417
20
5.159408
11
19.9760417
21
5.159408
0
LINE
8
DEFAULT_255_1_234
10
4.2454489
20
77.2473211
11
4.2454489
21
76.2039983
0
LINE
8
DEFAULT_255_1_234
10
4.2454489
20
76.2039983
11
4.7996389
21
76.2039983
0
LINE
8
DEFAULT_255_1_234
10
4.7996389
20
76.2039983
11
4.7996389
21
76.0779
0
LINE
8
DEFAULT_255_1_234
10
4.7996389
20
76.0779
11
4.0904364
21
76.0779
0
LINE
8
DEFAULT_255_1_234
10
4.0904364
20
76.0779
11
4.0904364
21
77.2473211
0
LINE
8
DEFAULT_255_1_234
10
4.0904364
20
77.2473211
11
4.2454489
21
77.2473211
0
LINE
8
DEFAULT_255_1_234
10
5.377924
20
77.0465276
11
5.377924
21
76.7051788
0
LINE
8
DEFAULT_255_1_234
10
5.377924
20
76.7051788
11
5.7040126
21
76.7051788
0
LINE
8
DEFAULT_255_1_234
10
5.7040126
20
76.7051788
11
5.7040126
21
76.5646233
0
LINE
8
DEFAULT_255_1_234
10
5.7040126
20
76.5646233
11
5.377924
21
76.5646233
0
LINE
8
DEFAULT_255_1_234
10
5.377924
20
76.5646233
11
5.377924
21
76.1951634
0
LINE
8
DEFAULT_255_1_234
10
5.377924
20
76.1951634
11
5.2285337
21
76.1951634
0
LINE
8
DEFAULT_255_1_234
10
5.2285337
20
76.1951634
11
5.2285337
21
76.5646233
0
LINE
8
DEFAULT_255_1_234
10
5.2285337
20
76.5646233
11
4.9024451
21
76.5646233
0
LINE
8
DEFAULT_255_1_234
10
4.9024451
20
76.5646233
11
4.9024451
21
76.7051788
0
LINE
8
DEFAULT_255_1_234
10
4.9024451
20
76.7051788
11
5.2285337
21
76.7051788
0
LINE
8
DEFAULT_255_1_234
10
5.2285337
20
76.7051788
11
5.2285337
21
77.0465276
0
LINE
8
DEFAULT_255_1_234
10
5.2285337
20
77.0465276
11
5.377924
21
77.0465276
0
LINE
8
DEFAULT_255_1_234
10
5.0947293
20
36.3904
11
4.9830881
21
36.6956061
0
LINE
8
DEFAULT_255_1_234
10
4.9830881
20
36.6956061
11
4.4931521
21
36.6956061
0
LINE
8
DEFAULT_255_1_234
10
4.4931521
20
36.6956061
11
4.3831173
21
36.3904
0
LINE
8
DEFAULT_255_1_234
10
4.3831173
20
36.3904
11
4.2240889
21
36.3904
0
LINE
8
DEFAULT_255_1_234
10
4.2240889
20
36.3904
11
4.6706535
21
37.5598211
0
LINE
8
DEFAULT_255_1_234
10
4.6706535
20
37.5598211
11
4.8055867
21
37.5598211
0
LINE
8
DEFAULT_255_1_234
10
4.8055867
20
37.5598211
11
5.2529545
21
36.3904
0
LINE
8
DEFAULT_255_1_234
10
5.2529545
20
36.3904
11
5.0947293
21
36.3904
0
LINE
8
DEFAULT_255_1_234
10
4.7381201
20
37.3694689
11
4.5397362
21
36.8225075
0
LINE
8
DEFAULT_255_1_234
10
4.5397362
20
36.8225075
11
4.9373072
21
36.8225075
0
LINE
8
DEFAULT_255_1_234
10
4.9373072
20
36.8225075
11
4.7381201
21
37.3694689
0
LINE
8
DEFAULT_255_1_234
10
6.0649633
20
37.5598211
11
6.2199758
21
37.5598211
0
LINE
8
DEFAULT_255_1_234
10
6.2199758
20
37.5598211
11
6.2199758
21
36.764679
0
LINE
8
DEFAULT_255_1_234
10
5.8360587
20
36.3759429
11
5.7950969
21
36.3743365
0
LINE
8
DEFAULT_255_1_234
10
5.3734306
20
36.7630727
11
5.3734306
21
37.5598211
0
LINE
8
DEFAULT_255_1_234
10
5.3734306
20
37.5598211
11
5.5260336
21
37.5598211
0
LINE
8
DEFAULT_255_1_234
10
5.5260336
20
37.5598211
11
5.5260336
21
36.7678917
0
LINE
8
DEFAULT_255_1_234
10
6.0649633
20
36.7670885
11
6.0649633
21
37.5598211
0
ARC
8
DEFAULT_255_1_234
10
5.7846657
20
36.7626928
40
0.4353147
50
343.0898354
51
0.2614217
0
ARC
8
DEFAULT_255_1_234
10
5.8675058
20
36.7395837
40
0.3493402
50
315.3345598
51
342.7641223
0
ARC
8
DEFAULT_255_1_234
10
5.8451507
20
36.7627682
40
0.3815385
50
284.6606969
51
315.2182466
0
ARC
8
DEFAULT_255_1_234
10
5.799622
20
36.9173755
40
0.5426573
50
273.8500273
51
285.1797701
0
ARC
8
DEFAULT_255_1_234
10
5.790827
20
36.9515475
40
0.5772268
50
257.6317484
51
270.4238298
0
ARC
8
DEFAULT_255_1_234
10
5.7483468
20
36.7694198
40
0.3902347
50
230.6087562
51
257.9964012
0
ARC
8
DEFAULT_255_1_234
10
5.7351471
20
36.7487802
40
0.3659186
50
227.7440991
51
230.1551448
0
ARC
8
DEFAULT_255_1_234
10
5.7217302
20
36.7326471
40
0.3449568
50
189.2524587
51
227.5916061
0
ARC
8
DEFAULT_255_1_234
10
5.8738989
20
36.7654013
40
0.5004737
50
180.2665968
51
190.1525252
0
ARC
8
DEFAULT_255_1_234
10
5.8961008
20
36.7650918
40
0.3700778
50
179.5665184
51
191.9952995
0
ARC
8
DEFAULT_255_1_234
10
5.7733115
20
36.7377043
40
0.2442808
50
191.6974072
51
215.1404042
0
ARC
8
DEFAULT_255_1_234
10
5.749503
20
36.7235108
40
0.2166522
50
215.6950207
51
224.8513522
0
ARC
8
DEFAULT_255_1_234
10
5.7550773
20
36.7314697
40
0.2262237
50
225.2846858
51
255.0111758
0
ARC
8
DEFAULT_255_1_234
10
5.7874733
20
36.8428455
40
0.3421979
50
254.5944985
51
267.9129803
0
ARC
8
DEFAULT_255_1_234
10
5.7949214
20
36.9512903
40
0.4508556
50
267.4689655
51
270.0223026
0
ARC
8
DEFAULT_255_1_234
10
5.7979359
20
36.8923849
40
0.3919604
50
269.5849941
51
281.1843768
0
ARC
8
DEFAULT_255_1_234
10
5.8258124
20
36.7571059
40
0.2538457
50
280.9344262
51
300.9743589
0
ARC
8
DEFAULT_255_1_234
10
5.8470729
20
36.7179688
40
0.2093566
50
301.4980046
51
315.1466847
0
ARC
8
DEFAULT_255_1_234
10
5.8326268
20
36.7298236
40
0.2279656
50
315.5952539
51
345.6678731
0
ARC
8
DEFAULT_255_1_234
10
5.7206784
20
36.7610009
40
0.3441564
50
345.2524969
51
358.6304371
0
ARC
8
DEFAULT_255_1_234
10
5.6189138
20
36.7669916
40
0.4460494
50
358.1735671
51
0.0124524
0
LINE
8
DEFAULT_255_1_234
10
6.5629311
20
37.5598211
11
6.8448451
21
37.1116501
0
LINE
8
DEFAULT_255_1_234
10
6.8448451
20
37.1116501
11
7.1251527
21
37.5598211
0
LINE
8
DEFAULT_255_1_234
10
7.1251527
20
37.5598211
11
7.30667
21
37.5598211
0
LINE
8
DEFAULT_255_1_234
10
7.30667
20
37.5598211
11
6.9372101
21
36.9799296
0
LINE
8
DEFAULT_255_1_234
10
6.9372101
20
36.9799296
11
7.3155049
21
36.3904
0
LINE
8
DEFAULT_255_1_234
10
7.3155049
20
36.3904
11
7.1323813
21
36.3904
0
LINE
8
DEFAULT_255_1_234
10
7.1323813
20
36.3904
11
6.8448451
21
36.8466027
0
LINE
8
DEFAULT_255_1_234
10
6.8448451
20
36.8466027
11
6.5557025
21
36.3904
0
LINE
8
DEFAULT_255_1_234
10
6.5557025
20
36.3904
11
6.373382
21
36.3904
0
LINE
8
DEFAULT_255_1_234
10
6.373382
20
36.3904
11
6.7524801
21
36.9799296
0
LINE
8
DEFAULT_255_1_234
10
6.7524801
20
36.9799296
11
6.3822169
21
37.5598211
0
LINE
8
DEFAULT_255_1_234
10
6.3822169
20
37.5598211
11
6.5629311
21
37.5598211
0
LINE
8
DEFAULT_255_1_234
10
7.94439
20
37.5654433
11
7.94439
21
36.3904
0
LINE
8
DEFAULT_255_1_234
10
7.94439
20
36.3904
11
7.7949997
21
36.3904
0
LINE
8
DEFAULT_255_1_234
10
7.7949997
20
36.3904
11
7.7949997
21
37.3807133
0
LINE
8
DEFAULT_255_1_234
10
7.7949997
20
37.3807133
11
7.4954159
21
37.2706785
0
LINE
8
DEFAULT_255_1_234
10
7.4954159
20
37.2706785
11
7.4954159
21
37.4056117
0
LINE
8
DEFAULT_255_1_234
10
7.4954159
20
37.4056117
11
7.921098
21
37.5654433
0
LINE
8
DEFAULT_255_1_234
10
7.921098
20
37.5654433
11
7.94439
21
37.5654433
0
LINE
8
DEFAULT_255_1_234
10
5.0947293
20
44.3279
11
4.9830881
21
44.6331061
0
LINE
8
DEFAULT_255_1_234
10
4.9830881
20
44.6331061
11
4.4931521
21
44.6331061
0
LINE
8
DEFAULT_255_1_234
10
4.4931521
20
44.6331061
11
4.3831173
21
44.3279
0
LINE
8
DEFAULT_255_1_234
10
4.3831173
20
44.3279
11
4.2240889
21
44.3279
0
LINE
8
DEFAULT_255_1_234
10
4.2240889
20
44.3279
11
4.6706535
21
45.4973211
0
LINE
8
DEFAULT_255_1_234
10
4.6706535
20
45.4973211
11
4.8055867
21
45.4973211
0
LINE
8
DEFAULT_255_1_234
10
4.8055867
20
45.4973211
11
5.2529545
21
44.3279
0
LINE
8
DEFAULT_255_1_234
10
5.2529545
20
44.3279
11
5.0947293
21
44.3279
0
LINE
8
DEFAULT_255_1_234
10
4.7381201
20
45.3069689
11
4.5397362
21
44.7600075
0
LINE
8
DEFAULT_255_1_234
10
4.5397362
20
44.7600075
11
4.9373072
21
44.7600075
0
LINE
8
DEFAULT_255_1_234
10
4.9373072
20
44.7600075
11
4.7381201
21
45.3069689
0
LINE
8
DEFAULT_255_1_234
10
6.0649633
20
45.4973211
11
6.2199758
21
45.4973211
0
LINE
8
DEFAULT_255_1_234
10
6.2199758
20
45.4973211
11
6.2199758
21
44.702179
0
LINE
8
DEFAULT_255_1_234
10
5.8360587
20
44.3134429
11
5.7950969
21
44.3118365
0
LINE
8
DEFAULT_255_1_234
10
5.3734306
20
44.7005727
11
5.3734306
21
45.4973211
0
LINE
8
DEFAULT_255_1_234
10
5.3734306
20
45.4973211
11
5.5260336
21
45.4973211
0
LINE
8
DEFAULT_255_1_234
10
5.5260336
20
45.4973211
11
5.5260336
21
44.7053917
0
LINE
8
DEFAULT_255_1_234
10
6.0649633
20
44.7045885
11
6.0649633
21
45.4973211
0
ARC
8
DEFAULT_255_1_234
10
5.7846657
20
44.7001928
40
0.4353147
50
343.0898354
51
0.2614217
0
ARC
8
DEFAULT_255_1_234
10
5.8675058
20
44.6770837
40
0.3493402
50
315.3345598
51
342.7641223
0
ARC
8
DEFAULT_255_1_234
10
5.8451507
20
44.7002682
40
0.3815385
50
284.6606969
51
315.2182466
0
ARC
8
DEFAULT_255_1_234
10
5.799622
20
44.8548755
40
0.5426573
50
273.8500273
51
285.1797701
0
ARC
8
DEFAULT_255_1_234
10
5.790827
20
44.8890475
40
0.5772268
50
257.6317484
51
270.4238298
0
ARC
8
DEFAULT_255_1_234
10
5.7483468
20
44.7069198
40
0.3902347
50
230.6087562
51
257.9964012
0
ARC
8
DEFAULT_255_1_234
10
5.7351471
20
44.6862802
40
0.3659186
50
227.7440991
51
230.1551448
0
ARC
8
DEFAULT_255_1_234
10
5.7217302
20
44.6701471
40
0.3449568
50
189.2524587
51
227.5916061
0
ARC
8
DEFAULT_255_1_234
10
5.8738989
20
44.7029013
40
0.5004737
50
180.2665968
51
190.1525252
0
ARC
8
DEFAULT_255_1_234
10
5.8961008
20
44.7025918
40
0.3700778
50
179.5665184
51
191.9952995
0
ARC
8
DEFAULT_255_1_234
10
5.7733115
20
44.6752043
40
0.2442808
50
191.6974072
51
215.1404042
0
ARC
8
DEFAULT_255_1_234
10
5.749503
20
44.6610108
40
0.2166522
50
215.6950207
51
224.8513522
0
ARC
8
DEFAULT_255_1_234
10
5.7550773
20
44.6689697
40
0.2262237
50
225.2846858
51
255.0111758
0
ARC
8
DEFAULT_255_1_234
10
5.7874733
20
44.7803455
40
0.3421979
50
254.5944985
51
267.9129803
0
ARC
8
DEFAULT_255_1_234
10
5.7949214
20
44.8887903
40
0.4508556
50
267.4689655
51
270.0223026
0
ARC
8
DEFAULT_255_1_234
10
5.7979359
20
44.8298849
40
0.3919604
50
269.5849941
51
281.1843768
0
ARC
8
DEFAULT_255_1_234
10
5.8258124
20
44.6946059
40
0.2538457
50
280.9344262
51
300.9743589
0
ARC
8
DEFAULT_255_1_234
10
5.8470729
20
44.6554688
40
0.2093566
50
301.4980046
51
315.1466847
0
ARC
8
DEFAULT_255_1_234
10
5.8326268
20
44.6673236
40
0.2279656
50
315.5952539
51
345.6678731
0
ARC
8
DEFAULT_255_1_234
10
5.7206784
20
44.6985009
40
0.3441564
50
345.2524969
51
358.6304371
0
ARC
8
DEFAULT_255_1_234
10
5.6189138
20
44.7044916
40
0.4460494
50
358.1735671
51
0.0124524
0
LINE
8
DEFAULT_255_1_234
10
6.5629311
20
45.4973211
11
6.8448451
21
45.0491501
0
LINE
8
DEFAULT_255_1_234
10
6.8448451
20
45.0491501
11
7.1251527
21
45.4973211
0
LINE
8
DEFAULT_255_1_234
10
7.1251527
20
45.4973211
11
7.30667
21
45.4973211
0
LINE
8
DEFAULT_255_1_234
10
7.30667
20
45.4973211
11
6.9372101
21
44.9174296
0
LINE
8
DEFAULT_255_1_234
10
6.9372101
20
44.9174296
11
7.3155049
21
44.3279
0
LINE
8
DEFAULT_255_1_234
10
7.3155049
20
44.3279
11
7.1323813
21
44.3279
0
LINE
8
DEFAULT_255_1_234
10
7.1323813
20
44.3279
11
6.8448451
21
44.7841027
0
LINE
8
DEFAULT_255_1_234
10
6.8448451
20
44.7841027
11
6.5557025
21
44.3279
0
LINE
8
DEFAULT_255_1_234
10
6.5557025
20
44.3279
11
6.373382
21
44.3279
0
LINE
8
DEFAULT_255_1_234
10
6.373382
20
44.3279
11
6.7524801
21
44.9174296
0
LINE
8
DEFAULT_255_1_234
10
6.7524801
20
44.9174296
11
6.3822169
21
45.4973211
0
LINE
8
DEFAULT_255_1_234
10
6.3822169
20
45.4973211
11
6.5629311
21
45.4973211
0
LINE
8
DEFAULT_255_1_234
10
7.94439
20
45.5029433
11
7.94439
21
44.3279
0
LINE
8
DEFAULT_255_1_234
10
7.94439
20
44.3279
11
7.7949997
21
44.3279
0
LINE
8
DEFAULT_255_1_234
10
7.7949997
20
44.3279
11
7.7949997
21
45.3182133
0
LINE
8
DEFAULT_255_1_234
10
7.7949997
20
45.3182133
11
7.4954159
21
45.2081785
0
LINE
8
DEFAULT_255_1_234
10
7.4954159
20
45.2081785
11
7.4954159
21
45.3431117
0
LINE
8
DEFAULT_255_1_234
10
7.4954159
20
45.3431117
11
7.921098
21
45.5029433
0
LINE
8
DEFAULT_255_1_234
10
7.921098
20
45.5029433
11
7.94439
21
45.5029433
0
LINE
8
DEFAULT_255_1_234
10
5.0947293
20
52.2654
11
4.9830881
21
52.5706061
0
LINE
8
DEFAULT_255_1_234
10
4.9830881
20
52.5706061
11
4.4931521
21
52.5706061
0
LINE
8
DEFAULT_255_1_234
10
4.4931521
20
52.5706061
11
4.3831173
21
52.2654
0
LINE
8
DEFAULT_255_1_234
10
4.3831173
20
52.2654
11
4.2240889
21
52.2654
0
LINE
8
DEFAULT_255_1_234
10
4.2240889
20
52.2654
11
4.6706535
21
53.4348211
0
LINE
8
DEFAULT_255_1_234
10
4.6706535
20
53.4348211
11
4.8055867
21
53.4348211
0
LINE
8
DEFAULT_255_1_234
10
4.8055867
20
53.4348211
11
5.2529545
21
52.2654
0
LINE
8
DEFAULT_255_1_234
10
5.2529545
20
52.2654
11
5.0947293
21
52.2654
0
LINE
8
DEFAULT_255_1_234
10
4.7381201
20
53.2444689
11
4.5397362
21
52.6975075
0
LINE
8
DEFAULT_255_1_234
10
4.5397362
20
52.6975075
11
4.9373072
21
52.6975075
0
LINE
8
DEFAULT_255_1_234
10
4.9373072
20
52.6975075
11
4.7381201
21
53.2444689
0
LINE
8
DEFAULT_255_1_234
10
6.0649633
20
53.4348211
11
6.2199758
21
53.4348211
0
LINE
8
DEFAULT_255_1_234
10
6.2199758
20
53.4348211
11
6.2199758
21
52.639679
0
LINE
8
DEFAULT_255_1_234
10
5.8360587
20
52.2509429
11
5.7950969
21
52.2493365
0
LINE
8
DEFAULT_255_1_234
10
5.3734306
20
52.6380727
11
5.3734306
21
53.4348211
0
LINE
8
DEFAULT_255_1_234
10
5.3734306
20
53.4348211
11
5.5260336
21
53.4348211
0
LINE
8
DEFAULT_255_1_234
10
5.5260336
20
53.4348211
11
5.5260336
21
52.6428917
0
LINE
8
DEFAULT_255_1_234
10
6.0649633
20
52.6420885
11
6.0649633
21
53.4348211
0
ARC
8
DEFAULT_255_1_234
10
5.7846657
20
52.6376928
40
0.4353147
50
343.0898354
51
0.2614217
0
ARC
8
DEFAULT_255_1_234
10
5.8675058
20
52.6145837
40
0.3493402
50
315.3345598
51
342.7641223
0
ARC
8
DEFAULT_255_1_234
10
5.8451507
20
52.6377682
40
0.3815385
50
284.6606969
51
315.2182466
0
ARC
8
DEFAULT_255_1_234
10
5.799622
20
52.7923755
40
0.5426573
50
273.8500273
51
285.1797701
0
ARC
8
DEFAULT_255_1_234
10
5.790827
20
52.8265475
40
0.5772268
50
257.6317484
51
270.4238298
0
ARC
8
DEFAULT_255_1_234
10
5.7483468
20
52.6444198
40
0.3902347
50
230.6087562
51
257.9964012
0
ARC
8
DEFAULT_255_1_234
10
5.7351471
20
52.6237802
40
0.3659186
50
227.7440991
51
230.1551448
0
ARC
8
DEFAULT_255_1_234
10
5.7217302
20
52.6076471
40
0.3449568
50
189.2524587
51
227.5916061
0
ARC
8
DEFAULT_255_1_234
10
5.8738989
20
52.6404013
40
0.5004737
50
180.2665968
51
190.1525252
0
ARC
8
DEFAULT_255_1_234
10
5.8961008
20
52.6400918
40
0.3700778
50
179.5665184
51
191.9952995
0
ARC
8
DEFAULT_255_1_234
10
5.7733115
20
52.6127043
40
0.2442808
50
191.6974072
51
215.1404042
0
ARC
8
DEFAULT_255_1_234
10
5.749503
20
52.5985108
40
0.2166522
50
215.6950207
51
224.8513522
0
ARC
8
DEFAULT_255_1_234
10
5.7550773
20
52.6064697
40
0.2262237
50
225.2846858
51
255.0111758
0
ARC
8
DEFAULT_255_1_234
10
5.7874733
20
52.7178455
40
0.3421979
50
254.5944985
51
267.9129803
0
ARC
8
DEFAULT_255_1_234
10
5.7949214
20
52.8262903
40
0.4508556
50
267.4689655
51
270.0223026
0
ARC
8
DEFAULT_255_1_234
10
5.7979359
20
52.7673849
40
0.3919604
50
269.5849941
51
281.1843768
0
ARC
8
DEFAULT_255_1_234
10
5.8258124
20
52.6321059
40
0.2538457
50
280.9344262
51
300.9743589
0
ARC
8
DEFAULT_255_1_234
10
5.8470729
20
52.5929688
40
0.2093566
50
301.4980046
51
315.1466847
0
ARC
8
DEFAULT_255_1_234
10
5.8326268
20
52.6048236
40
0.2279656
50
315.5952539
51
345.6678731
0
ARC
8
DEFAULT_255_1_234
10
5.7206784
20
52.6360009
40
0.3441564
50
345.2524969
51
358.6304371
0
ARC
8
DEFAULT_255_1_234
10
5.6189138
20
52.6419916
40
0.4460494
50
358.1735671
51
0.0124524
0
LINE
8
DEFAULT_255_1_234
10
6.5629311
20
53.4348211
11
6.8448451
21
52.9866501
0
LINE
8
DEFAULT_255_1_234
10
6.8448451
20
52.9866501
11
7.1251527
21
53.4348211
0
LINE
8
DEFAULT_255_1_234
10
7.1251527
20
53.4348211
11
7.30667
21
53.4348211
0
LINE
8
DEFAULT_255_1_234
10
7.30667
20
53.4348211
11
6.9372101
21
52.8549296
0
LINE
8
DEFAULT_255_1_234
10
6.9372101
20
52.8549296
11
7.3155049
21
52.2654
0
LINE
8
DEFAULT_255_1_234
10
7.3155049
20
52.2654
11
7.1323813
21
52.2654
0
LINE
8
DEFAULT_255_1_234
10
7.1323813
20
52.2654
11
6.8448451
21
52.7216027
0
LINE
8
DEFAULT_255_1_234
10
6.8448451
20
52.7216027
11
6.5557025
21
52.2654
0
LINE
8
DEFAULT_255_1_234
10
6.5557025
20
52.2654
11
6.373382
21
52.2654
0
LINE
8
DEFAULT_255_1_234
10
6.373382
20
52.2654
11
6.7524801
21
52.8549296
0
LINE
8
DEFAULT_255_1_234
10
6.7524801
20
52.8549296
11
6.3822169
21
53.4348211
0
LINE
8
DEFAULT_255_1_234
10
6.3822169
20
53.4348211
11
6.5629311
21
53.4348211
0
LINE
8
DEFAULT_255_1_234
10
7.94439
20
53.4404433
11
7.94439
21
52.2654
0
LINE
8
DEFAULT_255_1_234
10
7.94439
20
52.2654
11
7.7949997
21
52.2654
0
LINE
8
DEFAULT_255_1_234
10
7.7949997
20
52.2654
11
7.7949997
21
53.2557133
0
LINE
8
DEFAULT_255_1_234
10
7.7949997
20
53.2557133
11
7.4954159
21
53.1456785
0
LINE
8
DEFAULT_255_1_234
10
7.4954159
20
53.1456785
11
7.4954159
21
53.2806117
0
LINE
8
DEFAULT_255_1_234
10
7.4954159
20
53.2806117
11
7.921098
21
53.4404433
0
LINE
8
DEFAULT_255_1_234
10
7.921098
20
53.4404433
11
7.94439
21
53.4404433
0
LINE
8
DEFAULT_255_1_234
10
5.0947293
20
60.2029
11
4.9830881
21
60.5081061
0
LINE
8
DEFAULT_255_1_234
10
4.9830881
20
60.5081061
11
4.4931521
21
60.5081061
0
LINE
8
DEFAULT_255_1_234
10
4.4931521
20
60.5081061
11
4.3831173
21
60.2029
0
LINE
8
DEFAULT_255_1_234
10
4.3831173
20
60.2029
11
4.2240889
21
60.2029
0
LINE
8
DEFAULT_255_1_234
10
4.2240889
20
60.2029
11
4.6706535
21
61.3723211
0
LINE
8
DEFAULT_255_1_234
10
4.6706535
20
61.3723211
11
4.8055867
21
61.3723211
0
LINE
8
DEFAULT_255_1_234
10
4.8055867
20
61.3723211
11
5.2529545
21
60.2029
0
LINE
8
DEFAULT_255_1_234
10
5.2529545
20
60.2029
11
5.0947293
21
60.2029
0
LINE
8
DEFAULT_255_1_234
10
4.7381201
20
61.1819689
11
4.5397362
21
60.6350075
0
LINE
8
DEFAULT_255_1_234
10
4.5397362
20
60.6350075
11
4.9373072
21
60.6350075
0
LINE
8
DEFAULT_255_1_234
10
4.9373072
20
60.6350075
11
4.7381201
21
61.1819689
0
LINE
8
DEFAULT_255_1_234
10
6.0649633
20
61.3723211
11
6.2199758
21
61.3723211
0
LINE
8
DEFAULT_255_1_234
10
6.2199758
20
61.3723211
11
6.2199758
21
60.577179
0
LINE
8
DEFAULT_255_1_234
10
5.8360587
20
60.1884429
11
5.7950969
21
60.1868365
0
LINE
8
DEFAULT_255_1_234
10
5.3734306
20
60.5755727
11
5.3734306
21
61.3723211
0
LINE
8
DEFAULT_255_1_234
10
5.3734306
20
61.3723211
11
5.5260336
21
61.3723211
0
LINE
8
DEFAULT_255_1_234
10
5.5260336
20
61.3723211
11
5.5260336
21
60.5803917
0
LINE
8
DEFAULT_255_1_234
10
6.0649633
20
60.5795885
11
6.0649633
21
61.3723211
0
ARC
8
DEFAULT_255_1_234
10
5.7846657
20
60.5751928
40
0.4353147
50
343.0898354
51
0.2614217
0
ARC
8
DEFAULT_255_1_234
10
5.8675058
20
60.5520837
40
0.3493402
50
315.3345598
51
342.7641223
0
ARC
8
DEFAULT_255_1_234
10
5.8451507
20
60.5752682
40
0.3815385
50
284.6606969
51
315.2182466
0
ARC
8
DEFAULT_255_1_234
10
5.799622
20
60.7298755
40
0.5426573
50
273.8500273
51
285.1797701
0
ARC
8
DEFAULT_255_1_234
10
5.790827
20
60.7640475
40
0.5772268
50
257.6317484
51
270.4238298
0
ARC
8
DEFAULT_255_1_234
10
5.7483468
20
60.5819198
40
0.3902347
50
230.6087562
51
257.9964012
0
ARC
8
DEFAULT_255_1_234
10
5.7351471
20
60.5612802
40
0.3659186
50
227.7440991
51
230.1551448
0
ARC
8
DEFAULT_255_1_234
10
5.7217302
20
60.5451471
40
0.3449568
50
189.2524587
51
227.5916061
0
ARC
8
DEFAULT_255_1_234
10
5.8738989
20
60.5779013
40
0.5004737
50
180.2665968
51
190.1525252
0
ARC
8
DEFAULT_255_1_234
10
5.8961008
20
60.5775918
40
0.3700778
50
179.5665184
51
191.9952995
0
ARC
8
DEFAULT_255_1_234
10
5.7733115
20
60.5502043
40
0.2442808
50
191.6974072
51
215.1404042
0
ARC
8
DEFAULT_255_1_234
10
5.749503
20
60.5360108
40
0.2166522
50
215.6950207
51
224.8513522
0
ARC
8
DEFAULT_255_1_234
10
5.7550773
20
60.5439697
40
0.2262237
50
225.2846858
51
255.0111758
0
ARC
8
DEFAULT_255_1_234
10
5.7874733
20
60.6553455
40
0.3421979
50
254.5944985
51
267.9129803
0
ARC
8
DEFAULT_255_1_234
10
5.7949214
20
60.7637903
40
0.4508556
50
267.4689655
51
270.0223026
0
ARC
8
DEFAULT_255_1_234
10
5.7979359
20
60.7048849
40
0.3919604
50
269.5849941
51
281.1843768
0
ARC
8
DEFAULT_255_1_234
10
5.8258124
20
60.5696059
40
0.2538457
50
280.9344262
51
300.9743589
0
ARC
8
DEFAULT_255_1_234
10
5.8470729
20
60.5304688
40
0.2093566
50
301.4980046
51
315.1466847
0
ARC
8
DEFAULT_255_1_234
10
5.8326268
20
60.5423236
40
0.2279656
50
315.5952539
51
345.6678731
0
ARC
8
DEFAULT_255_1_234
10
5.7206784
20
60.5735009
40
0.3441564
50
345.2524969
51
358.6304371
0
ARC
8
DEFAULT_255_1_234
10
5.6189138
20
60.5794916
40
0.4460494
50
358.1735671
51
0.0124524
0
LINE
8
DEFAULT_255_1_234
10
6.5629311
20
61.3723211
11
6.8448451
21
60.9241501
0
LINE
8
DEFAULT_255_1_234
10
6.8448451
20
60.9241501
11
7.1251527
21
61.3723211
0
LINE
8
DEFAULT_255_1_234
10
7.1251527
20
61.3723211
11
7.30667
21
61.3723211
0
LINE
8
DEFAULT_255_1_234
10
7.30667
20
61.3723211
11
6.9372101
21
60.7924296
0
LINE
8
DEFAULT_255_1_234
10
6.9372101
20
60.7924296
11
7.3155049
21
60.2029
0
LINE
8
DEFAULT_255_1_234
10
7.3155049
20
60.2029
11
7.1323813
21
60.2029
0
LINE
8
DEFAULT_255_1_234
10
7.1323813
20
60.2029
11
6.8448451
21
60.6591027
0
LINE
8
DEFAULT_255_1_234
10
6.8448451
20
60.6591027
11
6.5557025
21
60.2029
0
LINE
8
DEFAULT_255_1_234
10
6.5557025
20
60.2029
11
6.373382
21
60.2029
0
LINE
8
DEFAULT_255_1_234
10
6.373382
20
60.2029
11
6.7524801
21
60.7924296
0
LINE
8
DEFAULT_255_1_234
10
6.7524801
20
60.7924296
11
6.3822169
21
61.3723211
0
LINE
8
DEFAULT_255_1_234
10
6.3822169
20
61.3723211
11
6.5629311
21
61.3723211
0
LINE
8
DEFAULT_255_1_234
10
7.94439
20
61.3779433
11
7.94439
21
60.2029
0
LINE
8
DEFAULT_255_1_234
10
7.94439
20
60.2029
11
7.7949997
21
60.2029
0
LINE
8
DEFAULT_255_1_234
10
7.7949997
20
60.2029
11
7.7949997
21
61.1932133
0
LINE
8
DEFAULT_255_1_234
10
7.7949997
20
61.1932133
11
7.4954159
21
61.0831785
0
LINE
8
DEFAULT_255_1_234
10
7.4954159
20
61.0831785
11
7.4954159
21
61.2181117
0
LINE
8
DEFAULT_255_1_234
10
7.4954159
20
61.2181117
11
7.921098
21
61.3779433
0
LINE
8
DEFAULT_255_1_234
10
7.921098
20
61.3779433
11
7.94439
21
61.3779433
0
LINE
8
DEFAULT_255_1_234
10
4.2454489
20
69.3098211
11
4.2454489
21
68.2664983
0
LINE
8
DEFAULT_255_1_234
10
4.2454489
20
68.2664983
11
4.7996389
21
68.2664983
0
LINE
8
DEFAULT_255_1_234
10
4.7996389
20
68.2664983
11
4.7996389
21
68.1404
0
LINE
8
DEFAULT_255_1_234
10
4.7996389
20
68.1404
11
4.0904364
21
68.1404
0
LINE
8
DEFAULT_255_1_234
10
4.0904364
20
68.1404
11
4.0904364
21
69.3098211
0
LINE
8
DEFAULT_255_1_234
10
4.0904364
20
69.3098211
11
4.2454489
21
69.3098211
0
LINE
8
DEFAULT_255_1_234
10
5.377924
20
69.1090276
11
5.377924
21
68.7676788
0
LINE
8
DEFAULT_255_1_234
10
5.377924
20
68.7676788
11
5.7040126
21
68.7676788
0
LINE
8
DEFAULT_255_1_234
10
5.7040126
20
68.7676788
11
5.7040126
21
68.6271233
0
LINE
8
DEFAULT_255_1_234
10
5.7040126
20
68.6271233
11
5.377924
21
68.6271233
0
LINE
8
DEFAULT_255_1_234
10
5.377924
20
68.6271233
11
5.377924
21
68.2576634
0
LINE
8
DEFAULT_255_1_234
10
5.377924
20
68.2576634
11
5.2285337
21
68.2576634
0
LINE
8
DEFAULT_255_1_234
10
5.2285337
20
68.2576634
11
5.2285337
21
68.6271233
0
LINE
8
DEFAULT_255_1_234
10
5.2285337
20
68.6271233
11
4.9024451
21
68.6271233
0
LINE
8
DEFAULT_255_1_234
10
4.9024451
20
68.6271233
11
4.9024451
21
68.7676788
0
LINE
8
DEFAULT_255_1_234
10
4.9024451
20
68.7676788
11
5.2285337
21
68.7676788
0
LINE
8
DEFAULT_255_1_234
10
5.2285337
20
68.7676788
11
5.2285337
21
69.1090276
0
LINE
8
DEFAULT_255_1_234
10
5.2285337
20
69.1090276
11
5.377924
21
69.1090276
0
LINE
8
DEFAULT_255_1_234
10
23.0448364
20
77.2473211
11
23.2440235
21
77.2473211
0
LINE
8
DEFAULT_255_1_234
10
23.2440235
20
77.2473211
11
23.6263342
21
76.2931506
0
LINE
8
DEFAULT_255_1_234
10
23.6263342
20
76.2931506
11
24.008645
21
77.2473211
0
LINE
8
DEFAULT_255_1_234
10
24.008645
20
77.2473211
11
24.2086353
21
77.2473211
0
LINE
8
DEFAULT_255_1_234
10
24.2086353
20
77.2473211
11
24.2086353
21
76.0779
0
LINE
8
DEFAULT_255_1_234
10
24.2086353
20
76.0779
11
24.0544259
21
76.0779
0
LINE
8
DEFAULT_255_1_234
10
24.0544259
20
76.0779
11
24.0544259
21
76.5332996
0
LINE
8
DEFAULT_255_1_234
10
24.0544259
20
76.5332996
11
24.068883
21
77.0248419
0
LINE
8
DEFAULT_255_1_234
10
24.068883
20
77.0248419
11
23.6849659
21
76.0779
0
LINE
8
DEFAULT_255_1_234
10
23.6849659
20
76.0779
11
23.5668994
21
76.0779
0
LINE
8
DEFAULT_255_1_234
10
23.5668994
20
76.0779
11
23.1837854
21
77.0224324
0
LINE
8
DEFAULT_255_1_234
10
23.1837854
20
77.0224324
11
23.1990458
21
76.5332996
0
LINE
8
DEFAULT_255_1_234
10
23.1990458
20
76.5332996
11
23.1990458
21
76.0779
0
LINE
8
DEFAULT_255_1_234
10
23.1990458
20
76.0779
11
23.0448364
21
76.0779
0
LINE
8
DEFAULT_255_1_234
10
23.0448364
20
76.0779
11
23.0448364
21
77.2473211
0
LINE
8
DEFAULT_255_1_234
10
21.8132154
20
4.6404
11
21.4895364
21
4.6404
0
LINE
8
DEFAULT_255_1_234
10
21.4895364
20
4.6404
11
21.4895364
21
5.8098211
0
LINE
8
DEFAULT_255_1_234
10
21.4895364
20
5.8098211
11
21.8196408
21
5.8098211
0
LINE
8
DEFAULT_255_1_234
10
22.3352784
20
5.2644661
11
22.3352784
21
5.1897709
0
LINE
8
DEFAULT_255_1_234
10
21.8236567
20
5.6829196
11
21.6437458
21
5.6829196
0
LINE
8
DEFAULT_255_1_234
10
21.6437458
20
5.6829196
11
21.6437458
21
4.7664983
0
LINE
8
DEFAULT_255_1_234
10
21.6437458
20
4.7664983
11
21.8059869
21
4.7664983
0
LINE
8
DEFAULT_255_1_234
10
22.1826754
20
5.1929836
11
22.1826754
21
5.2612534
0
ARC
8
DEFAULT_255_1_234
10
21.8235351
20
5.2232894
40
0.5865446
50
75.4101064
51
90.3804066
0
ARC
8
DEFAULT_255_1_234
10
21.8464864
20
5.3189492
40
0.4881916
50
60.145586
51
75.1888407
0
ARC
8
DEFAULT_255_1_234
10
21.862364
20
5.3466199
40
0.4562893
50
26.5253612
51
60.1450928
0
ARC
8
DEFAULT_255_1_234
10
21.7503389
20
5.2872158
40
0.5830602
50
7.4030428
51
26.8320788
0
ARC
8
DEFAULT_255_1_234
10
21.5909146
20
5.2623804
40
0.7443669
50
0.1605367
51
7.7176192
0
ARC
8
DEFAULT_255_1_234
10
21.607305
20
5.1859434
40
0.7279835
50
348.7289388
51
0.3012466
0
ARC
8
DEFAULT_255_1_234
10
21.7729481
20
5.1530386
40
0.559104
50
333.0706509
51
348.7181832
0
ARC
8
DEFAULT_255_1_234
10
21.8696238
20
5.1005319
40
0.4491417
50
299.2531685
51
333.4571258
0
ARC
8
DEFAULT_255_1_234
10
21.8335378
20
5.1690828
40
0.5265881
50
278.107187
51
299.0339503
0
ARC
8
DEFAULT_255_1_234
10
21.8079457
20
5.3198216
40
0.679442
50
270.4443897
51
278.4511052
0
ARC
8
DEFAULT_255_1_234
10
21.8100287
20
5.2269213
40
0.4604407
50
269.4970433
51
284.0205042
0
ARC
8
DEFAULT_255_1_234
10
21.8455588
20
5.0903978
40
0.3193797
50
283.7700273
51
318.1555492
0
ARC
8
DEFAULT_255_1_234
10
21.8118346
20
5.1156367
40
0.3613588
50
318.7415601
51
343.6873628
0
ARC
8
DEFAULT_255_1_234
10
21.6314369
20
5.1719832
40
0.5503313
50
343.3325091
51
355.8548958
0
ARC
8
DEFAULT_255_1_234
10
21.4216054
20
5.1919319
40
0.7610708
50
355.4988528
51
0.0791727
0
ARC
8
DEFAULT_255_1_234
10
21.4998676
20
5.265478
40
0.6828208
50
359.6455037
51
9.8607896
0
ARC
8
DEFAULT_255_1_234
10
21.7359374
20
5.3081099
40
0.4429406
50
9.6571907
51
26.1932807
0
ARC
8
DEFAULT_255_1_234
10
21.8287363
20
5.3512118
40
0.3406537
50
26.5777228
51
40.1532208
0
ARC
8
DEFAULT_255_1_234
10
21.8543089
20
5.3711619
40
0.308246
50
40.3840491
51
80.1431104
0
ARC
8
DEFAULT_255_1_234
10
21.8216207
20
5.2262333
40
0.4566909
50
79.2152159
51
89.7445637
0
LINE
8
DEFAULT_255_1_234
10
23.2629442
20
5.3319327
11
23.2629442
21
5.1391709
0
LINE
8
DEFAULT_255_1_234
10
22.5248274
20
5.1190916
11
22.5248274
21
5.3174755
0
LINE
8
DEFAULT_255_1_234
10
23.114357
20
5.0990123
11
23.114357
21
5.3423739
0
LINE
8
DEFAULT_255_1_234
10
22.6734146
20
5.3536184
11
22.6734146
21
5.1158789
0
ARC
8
DEFAULT_255_1_234
10
22.0382331
20
5.1342805
40
1.2247208
50
353.8441951
51
0.2287902
0
ARC
8
DEFAULT_255_1_234
10
22.5021835
20
5.0824806
40
0.7578929
50
344.4934747
51
353.9765454
0
ARC
8
DEFAULT_255_1_234
10
22.8014425
20
4.9973981
40
0.4467846
50
329.2803592
51
344.7472793
0
ARC
8
DEFAULT_255_1_234
10
22.900725
20
4.9429018
40
0.3336173
50
324.9352394
51
328.6160465
0
ARC
8
DEFAULT_255_1_234
10
22.9384359
20
4.9165427
40
0.2876076
50
280.580143
51
324.9173126
0
ARC
8
DEFAULT_255_1_234
10
22.8983151
20
5.0836099
40
0.4592847
50
269.5977311
51
281.6734359
0
ARC
8
DEFAULT_255_1_234
10
22.8911057
20
5.0716173
40
0.4472986
50
256.6228859
51
270.51044
0
ARC
8
DEFAULT_255_1_234
10
22.8509035
20
4.9167877
40
0.2873874
50
215.8618325
51
257.2788573
0
ARC
8
DEFAULT_255_1_234
10
22.9530067
20
4.9852977
40
0.4102928
50
197.9693508
51
215.2623606
0
ARC
8
DEFAULT_255_1_234
10
23.2015182
20
5.0691709
40
0.6725652
50
187.8816417
51
198.2346507
0
ARC
8
DEFAULT_255_1_234
10
23.597339
20
5.1263079
40
1.0724845
50
180.8976217
51
188.0055519
0
ARC
8
DEFAULT_255_1_234
10
23.8773579
20
5.1366777
40
1.3526448
50
180.7449369
51
181.1510016
0
ARC
8
DEFAULT_255_1_234
10
23.7196308
20
5.3223042
40
1.1948131
50
173.7675579
51
180.231553
0
ARC
8
DEFAULT_255_1_234
10
23.2678454
20
5.3733666
40
0.7401564
50
164.3058563
51
173.9002247
0
ARC
8
DEFAULT_255_1_234
10
22.9766523
20
5.4572656
40
0.4371288
50
148.7922025
51
164.568378
0
ARC
8
DEFAULT_255_1_234
10
22.8814975
20
5.5103929
40
0.3282386
50
144.5883898
51
148.1176286
0
ARC
8
DEFAULT_255_1_234
10
22.8471873
20
5.5343315
40
0.2864044
50
101.6440918
51
144.514236
0
ARC
8
DEFAULT_255_1_234
10
22.889694
20
5.3654069
40
0.4604934
50
89.5284041
51
102.5819763
0
ARC
8
DEFAULT_255_1_234
10
22.8976028
20
5.3615018
40
0.464401
50
77.0437873
51
90.5081339
0
ARC
8
DEFAULT_255_1_234
10
22.9378029
20
5.5257615
40
0.2953195
50
48.2778575
51
77.4994676
0
ARC
8
DEFAULT_255_1_234
10
22.9450661
20
5.5386746
40
0.2808655
50
36.3142134
51
47.6305865
0
ARC
8
DEFAULT_255_1_234
10
22.8581968
20
5.4801515
40
0.3855453
50
18.2931786
51
35.6769206
0
ARC
8
DEFAULT_255_1_234
10
22.6038726
20
5.3928593
40
0.654423
50
8.024666
51
18.5605216
0
ARC
8
DEFAULT_255_1_234
10
22.1875647
20
5.3313792
40
1.0752407
50
1.1274072
51
8.1718305
0
ARC
8
DEFAULT_255_1_234
10
21.8639837
20
5.3186885
40
1.3990231
50
0.5424119
51
1.3863029
0
ARC
8
DEFAULT_255_1_234
10
22.0461215
20
5.3459342
40
1.0682415
50
359.8090433
51
4.9407866
0
ARC
8
DEFAULT_255_1_234
10
22.4671229
20
5.3835113
40
0.6455691
50
4.8362157
51
12.2904523
0
ARC
8
DEFAULT_255_1_234
10
22.7426344
20
5.4448965
40
0.3633074
50
12.0805627
51
23.8173984
0
ARC
8
DEFAULT_255_1_234
10
22.8600049
20
5.4945919
40
0.2358723
50
24.2871213
51
31.3935614
0
ARC
8
DEFAULT_255_1_234
10
22.9124746
20
5.5289233
40
0.1732111
50
30.7407893
51
82.4657128
0
ARC
8
DEFAULT_255_1_234
10
22.8944881
20
5.4405691
40
0.263235
50
81.1060089
51
90.2184952
0
ARC
8
DEFAULT_255_1_234
10
22.8909179
20
5.4663924
40
0.2374236
50
89.3806855
51
105.6762551
0
ARC
8
DEFAULT_255_1_234
10
22.872581
20
5.5330567
40
0.1682847
50
105.7981136
51
149.7388061
0
ARC
8
DEFAULT_255_1_234
10
22.9789888
20
5.469095
40
0.2924306
50
149.4208916
51
163.6286378
0
ARC
8
DEFAULT_255_1_234
10
23.1880776
20
5.405325
40
0.5110213
50
163.3763315
51
172.1410975
0
ARC
8
DEFAULT_255_1_234
10
23.5181495
20
5.3580518
40
0.8444586
50
172.0259487
51
178.0703232
0
ARC
8
DEFAULT_255_1_234
10
23.8211585
20
5.3436906
40
1.1477868
50
177.8631668
51
179.5044149
0
ARC
8
DEFAULT_255_1_234
10
23.7138989
20
5.1122389
40
1.0404907
50
179.7995573
51
185.2460446
0
ARC
8
DEFAULT_255_1_234
10
23.3096029
20
5.0739513
40
0.6343885
50
185.1411642
51
193.0079639
0
ARC
8
DEFAULT_255_1_234
10
23.0452501
20
5.0114641
40
0.3627568
50
192.7897626
51
205.2507664
0
ARC
8
DEFAULT_255_1_234
10
22.9406048
20
4.9647415
40
0.2481908
50
205.8005384
51
211.2537509
0
ARC
8
DEFAULT_255_1_234
10
22.8882489
20
4.929658
40
0.1852521
50
210.3789793
51
238.4008143
0
ARC
8
DEFAULT_255_1_234
10
22.8863011
20
4.9343376
40
0.1882621
50
239.6520629
51
265.9793761
0
ARC
8
DEFAULT_255_1_234
10
22.8948211
20
5.0015427
40
0.2559272
50
265.1315437
51
270.060332
0
ARC
8
DEFAULT_255_1_234
10
22.897699
20
4.9691534
40
0.2235528
50
269.3314664
51
287.2178029
0
ARC
8
DEFAULT_255_1_234
10
22.9114842
20
4.9188279
40
0.1714108
50
287.7958004
51
329.080874
0
ARC
8
DEFAULT_255_1_234
10
22.8157298
20
4.978593
40
0.2842745
50
328.6634704
51
343.3325132
0
ARC
8
DEFAULT_255_1_234
10
22.5984318
20
5.0462863
40
0.5118644
50
343.0499468
51
351.9393422
0
ARC
8
DEFAULT_255_1_234
10
22.2517618
20
5.0973949
40
0.8622784
50
351.8069023
51
357.7959224
0
ARC
8
DEFAULT_255_1_234
10
21.9282174
20
5.1141721
40
1.1862365
50
357.5871873
51
359.2677531
0
LINE
8
DEFAULT_255_1_234
10
24.2082798
20
5.8098211
11
24.2082798
21
5.726291
0
LINE
8
DEFAULT_255_1_234
10
24.2082798
20
5.726291
11
23.723966
21
4.6404
0
LINE
8
DEFAULT_255_1_234
10
23.723966
20
4.6404
11
23.5681502
21
4.6404
0
LINE
8
DEFAULT_255_1_234
10
23.5681502
20
4.6404
11
24.0508577
21
5.6877387
0
LINE
8
DEFAULT_255_1_234
10
24.0508577
20
5.6877387
11
23.4179567
21
5.6877387
0
LINE
8
DEFAULT_255_1_234
10
23.4179567
20
5.6877387
11
23.4179567
21
5.8098211
0
LINE
8
DEFAULT_255_1_234
10
23.4179567
20
5.8098211
11
24.2082798
21
5.8098211
0
LINE
8
DEFAULT_255_1_234
10
21.8132154
20
12.5779
11
21.4895364
21
12.5779
0
LINE
8
DEFAULT_255_1_234
10
21.4895364
20
12.5779
11
21.4895364
21
13.7473211
0
LINE
8
DEFAULT_255_1_234
10
21.4895364
20
13.7473211
11
21.8196408
21
13.7473211
0
LINE
8
DEFAULT_255_1_234
10
22.3352784
20
13.2019661
11
22.3352784
21
13.1272709
0
LINE
8
DEFAULT_255_1_234
10
21.8236567
20
13.6204196
11
21.6437458
21
13.6204196
0
LINE
8
DEFAULT_255_1_234
10
21.6437458
20
13.6204196
11
21.6437458
21
12.7039983
0
LINE
8
DEFAULT_255_1_234
10
21.6437458
20
12.7039983
11
21.8059869
21
12.7039983
0
LINE
8
DEFAULT_255_1_234
10
22.1826754
20
13.1304836
11
22.1826754
21
13.1987534
0
ARC
8
DEFAULT_255_1_234
10
21.8235351
20
13.1607894
40
0.5865446
50
75.4101064
51
90.3804066
0
ARC
8
DEFAULT_255_1_234
10
21.8464864
20
13.2564492
40
0.4881916
50
60.145586
51
75.1888407
0
ARC
8
DEFAULT_255_1_234
10
21.862364
20
13.2841199
40
0.4562893
50
26.5253612
51
60.1450928
0
ARC
8
DEFAULT_255_1_234
10
21.7503389
20
13.2247158
40
0.5830602
50
7.4030428
51
26.8320788
0
ARC
8
DEFAULT_255_1_234
10
21.5909146
20
13.1998804
40
0.7443669
50
0.1605367
51
7.7176192
0
ARC
8
DEFAULT_255_1_234
10
21.607305
20
13.1234434
40
0.7279835
50
348.7289388
51
0.3012466
0
ARC
8
DEFAULT_255_1_234
10
21.7729481
20
13.0905386
40
0.559104
50
333.0706509
51
348.7181832
0
ARC
8
DEFAULT_255_1_234
10
21.8696238
20
13.0380319
40
0.4491417
50
299.2531685
51
333.4571258
0
ARC
8
DEFAULT_255_1_234
10
21.8335378
20
13.1065828
40
0.5265881
50
278.107187
51
299.0339503
0
ARC
8
DEFAULT_255_1_234
10
21.8079457
20
13.2573216
40
0.679442
50
270.4443897
51
278.4511052
0
ARC
8
DEFAULT_255_1_234
10
21.8100287
20
13.1644213
40
0.4604407
50
269.4970433
51
284.0205042
0
ARC
8
DEFAULT_255_1_234
10
21.8455588
20
13.0278978
40
0.3193797
50
283.7700273
51
318.1555492
0
ARC
8
DEFAULT_255_1_234
10
21.8118346
20
13.0531367
40
0.3613588
50
318.7415601
51
343.6873628
0
ARC
8
DEFAULT_255_1_234
10
21.6314369
20
13.1094832
40
0.5503313
50
343.3325091
51
355.8548958
0
ARC
8
DEFAULT_255_1_234
10
21.4216054
20
13.1294319
40
0.7610708
50
355.4988528
51
0.0791727
0
ARC
8
DEFAULT_255_1_234
10
21.4998676
20
13.202978
40
0.6828208
50
359.6455037
51
9.8607896
0
ARC
8
DEFAULT_255_1_234
10
21.7359374
20
13.2456099
40
0.4429406
50
9.6571907
51
26.1932807
0
ARC
8
DEFAULT_255_1_234
10
21.8287363
20
13.2887118
40
0.3406537
50
26.5777228
51
40.1532208
0
ARC
8
DEFAULT_255_1_234
10
21.8543089
20
13.3086619
40
0.308246
50
40.3840491
51
80.1431104
0
ARC
8
DEFAULT_255_1_234
10
21.8216207
20
13.1637333
40
0.4566909
50
79.2152159
51
89.7445637
0
LINE
8
DEFAULT_255_1_234
10
23.2629442
20
13.2694327
11
23.2629442
21
13.0766709
0
LINE
8
DEFAULT_255_1_234
10
22.5248274
20
13.0565916
11
22.5248274
21
13.2549755
0
LINE
8
DEFAULT_255_1_234
10
23.114357
20
13.0365123
11
23.114357
21
13.2798739
0
LINE
8
DEFAULT_255_1_234
10
22.6734146
20
13.2911184
11
22.6734146
21
13.0533789
0
ARC
8
DEFAULT_255_1_234
10
22.0382331
20
13.0717805
40
1.2247208
50
353.8441951
51
0.2287902
0
ARC
8
DEFAULT_255_1_234
10
22.5021835
20
13.0199806
40
0.7578929
50
344.4934747
51
353.9765454
0
ARC
8
DEFAULT_255_1_234
10
22.8014425
20
12.9348981
40
0.4467846
50
329.2803592
51
344.7472793
0
ARC
8
DEFAULT_255_1_234
10
22.900725
20
12.8804018
40
0.3336173
50
324.9352394
51
328.6160465
0
ARC
8
DEFAULT_255_1_234
10
22.9384359
20
12.8540427
40
0.2876076
50
280.580143
51
324.9173126
0
ARC
8
DEFAULT_255_1_234
10
22.8983151
20
13.0211099
40
0.4592847
50
269.5977311
51
281.6734359
0
ARC
8
DEFAULT_255_1_234
10
22.8911057
20
13.0091173
40
0.4472986
50
256.6228859
51
270.51044
0
ARC
8
DEFAULT_255_1_234
10
22.8509035
20
12.8542877
40
0.2873874
50
215.8618325
51
257.2788573
0
ARC
8
DEFAULT_255_1_234
10
22.9530067
20
12.9227977
40
0.4102928
50
197.9693508
51
215.2623606
0
ARC
8
DEFAULT_255_1_234
10
23.2015182
20
13.0066709
40
0.6725652
50
187.8816417
51
198.2346507
0
ARC
8
DEFAULT_255_1_234
10
23.597339
20
13.0638079
40
1.0724845
50
180.8976217
51
188.0055519
0
ARC
8
DEFAULT_255_1_234
10
23.8773579
20
13.0741777
40
1.3526448
50
180.7449369
51
181.1510016
0
ARC
8
DEFAULT_255_1_234
10
23.7196308
20
13.2598042
40
1.1948131
50
173.7675579
51
180.231553
0
ARC
8
DEFAULT_255_1_234
10
23.2678454
20
13.3108666
40
0.7401564
50
164.3058563
51
173.9002247
0
ARC
8
DEFAULT_255_1_234
10
22.9766523
20
13.3947656
40
0.4371288
50
148.7922025
51
164.568378
0
ARC
8
DEFAULT_255_1_234
10
22.8814975
20
13.4478929
40
0.3282386
50
144.5883898
51
148.1176286
0
ARC
8
DEFAULT_255_1_234
10
22.8471873
20
13.4718315
40
0.2864044
50
101.6440918
51
144.514236
0
ARC
8
DEFAULT_255_1_234
10
22.889694
20
13.3029069
40
0.4604934
50
89.5284041
51
102.5819763
0
ARC
8
DEFAULT_255_1_234
10
22.8976028
20
13.2990018
40
0.464401
50
77.0437873
51
90.5081339
0
ARC
8
DEFAULT_255_1_234
10
22.9378029
20
13.4632615
40
0.2953195
50
48.2778575
51
77.4994676
0
ARC
8
DEFAULT_255_1_234
10
22.9450661
20
13.4761746
40
0.2808655
50
36.3142134
51
47.6305865
0
ARC
8
DEFAULT_255_1_234
10
22.8581968
20
13.4176515
40
0.3855453
50
18.2931786
51
35.6769206
0
ARC
8
DEFAULT_255_1_234
10
22.6038726
20
13.3303593
40
0.654423
50
8.024666
51
18.5605216
0
ARC
8
DEFAULT_255_1_234
10
22.1875647
20
13.2688792
40
1.0752407
50
1.1274072
51
8.1718305
0
ARC
8
DEFAULT_255_1_234
10
21.8639837
20
13.2561885
40
1.3990231
50
0.5424119
51
1.3863029
0
ARC
8
DEFAULT_255_1_234
10
22.0461215
20
13.2834342
40
1.0682415
50
359.8090433
51
4.9407866
0
ARC
8
DEFAULT_255_1_234
10
22.4671229
20
13.3210113
40
0.6455691
50
4.8362157
51
12.2904523
0
ARC
8
DEFAULT_255_1_234
10
22.7426344
20
13.3823965
40
0.3633074
50
12.0805627
51
23.8173984
0
ARC
8
DEFAULT_255_1_234
10
22.8600049
20
13.4320919
40
0.2358723
50
24.2871213
51
31.3935614
0
ARC
8
DEFAULT_255_1_234
10
22.9124746
20
13.4664233
40
0.1732111
50
30.7407893
51
82.4657128
0
ARC
8
DEFAULT_255_1_234
10
22.8944881
20
13.3780691
40
0.263235
50
81.1060089
51
90.2184952
0
ARC
8
DEFAULT_255_1_234
10
22.8909179
20
13.4038924
40
0.2374236
50
89.3806855
51
105.6762551
0
ARC
8
DEFAULT_255_1_234
10
22.872581
20
13.4705567
40
0.1682847
50
105.7981136
51
149.7388061
0
ARC
8
DEFAULT_255_1_234
10
22.9789888
20
13.406595
40
0.2924306
50
149.4208916
51
163.6286378
0
ARC
8
DEFAULT_255_1_234
10
23.1880776
20
13.342825
40
0.5110213
50
163.3763315
51
172.1410975
0
ARC
8
DEFAULT_255_1_234
10
23.5181495
20
13.2955518
40
0.8444586
50
172.0259487
51
178.0703232
0
ARC
8
DEFAULT_255_1_234
10
23.8211585
20
13.2811906
40
1.1477868
50
177.8631668
51
179.5044149
0
ARC
8
DEFAULT_255_1_234
10
23.7138989
20
13.0497389
40
1.0404907
50
179.7995573
51
185.2460446
0
ARC
8
DEFAULT_255_1_234
10
23.3096029
20
13.0114513
40
0.6343885
50
185.1411642
51
193.0079639
0
ARC
8
DEFAULT_255_1_234
10
23.0452501
20
12.9489641
40
0.3627568
50
192.7897626
51
205.2507664
0
ARC
8
DEFAULT_255_1_234
10
22.9406048
20
12.9022415
40
0.2481908
50
205.8005384
51
211.2537509
0
ARC
8
DEFAULT_255_1_234
10
22.8882489
20
12.867158
40
0.1852521
50
210.3789793
51
238.4008143
0
ARC
8
DEFAULT_255_1_234
10
22.8863011
20
12.8718376
40
0.1882621
50
239.6520629
51
265.9793761
0
ARC
8
DEFAULT_255_1_234
10
22.8948211
20
12.9390427
40
0.2559272
50
265.1315437
51
270.060332
0
ARC
8
DEFAULT_255_1_234
10
22.897699
20
12.9066534
40
0.2235528
50
269.3314664
51
287.2178029
0
ARC
8
DEFAULT_255_1_234
10
22.9114842
20
12.8563279
40
0.1714108
50
287.7958004
51
329.080874
0
ARC
8
DEFAULT_255_1_234
10
22.8157298
20
12.916093
40
0.2842745
50
328.6634704
51
343.3325132
0
ARC
8
DEFAULT_255_1_234
10
22.5984318
20
12.9837863
40
0.5118644
50
343.0499468
51
351.9393422
0
ARC
8
DEFAULT_255_1_234
10
22.2517618
20
13.0348949
40
0.8622784
50
351.8069023
51
357.7959224
0
ARC
8
DEFAULT_255_1_234
10
21.9282174
20
13.0516721
40
1.1862365
50
357.5871873
51
359.2677531
0
LINE
8
DEFAULT_255_1_234
10
24.0098958
20
13.7481243
11
24.0364006
21
13.7481243
0
LINE
8
DEFAULT_255_1_234
10
24.0364006
20
13.7481243
11
24.0364006
21
13.622026
0
LINE
8
DEFAULT_255_1_234
10
24.0364006
20
13.622026
11
24.0090927
21
13.622026
0
LINE
8
DEFAULT_255_1_234
10
23.4621313
20
13.0228583
11
23.4621313
21
13.0798836
0
LINE
8
DEFAULT_255_1_234
10
23.6115216
20
13.0606075
11
23.6115216
21
13.0059917
0
ARC
8
DEFAULT_255_1_234
10
24.0143275
20
13.1222455
40
0.4998079
50
90.6001036
51
104.514704
0
ARC
8
DEFAULT_255_1_234
10
23.975479
20
13.2667131
40
0.3502176
50
104.2855254
51
133.862935
0
ARC
8
DEFAULT_255_1_234
10
23.9918548
20
13.255883
40
0.3693984
50
134.5302688
51
161.6210873
0
ARC
8
DEFAULT_255_1_234
10
24.1571736
20
13.1975895
40
0.5446739
50
161.2849839
51
174.2076652
0
ARC
8
DEFAULT_255_1_234
10
24.2978673
20
13.1781787
40
0.6866274
50
173.7810589
51
174.9254635
0
ARC
8
DEFAULT_255_1_234
10
23.8428505
20
13.0398839
40
0.3033419
50
95.8330959
51
138.9954921
0
ARC
8
DEFAULT_255_1_234
10
23.8651861
20
12.9120375
40
0.4328947
50
89.8753725
51
97.0544009
0
ARC
8
DEFAULT_255_1_234
10
23.8699327
20
12.9955748
40
0.3493769
50
71.6407809
51
90.6240094
0
ARC
8
DEFAULT_255_1_234
10
23.8849901
20
13.0510082
40
0.2920396
50
39.6367836
51
71.019018
0
ARC
8
DEFAULT_255_1_234
10
23.8213374
20
12.9959998
40
0.3761538
50
10.658731
51
39.9043955
0
ARC
8
DEFAULT_255_1_234
10
23.6665457
20
12.9623686
40
0.5345136
50
359.682601
51
11.132623
0
ARC
8
DEFAULT_255_1_234
10
23.6625588
20
12.955301
40
0.5385081
50
347.2486944
51
0.4369317
0
ARC
8
DEFAULT_255_1_234
10
23.8293064
20
12.9151807
40
0.3670249
50
318.1409698
51
347.6118597
0
ARC
8
DEFAULT_255_1_234
10
23.8618057
20
12.8884702
40
0.3250007
50
275.6342139
51
317.8248465
0
ARC
8
DEFAULT_255_1_234
10
23.8397169
20
13.0184219
40
0.4565864
50
269.8874292
51
276.7917694
0
ARC
8
DEFAULT_255_1_234
10
23.8342239
20
12.9158743
40
0.3540676
50
246.9140195
51
270.7437342
0
ARC
8
DEFAULT_255_1_234
10
23.834863
20
12.9016384
40
0.3412781
50
218.1665114
51
245.878116
0
ARC
8
DEFAULT_255_1_234
10
23.922809
20
12.9752279
40
0.455911
50
191.4115814
51
218.6077802
0
ARC
8
DEFAULT_255_1_234
10
24.116618
20
13.0186833
40
0.6545001
50
179.6345085
51
191.7836486
0
ARC
8
DEFAULT_255_1_234
10
24.6748516
20
13.0865697
40
1.2127388
50
171.4525249
51
180.3158839
0
ARC
8
DEFAULT_255_1_234
10
24.2353392
20
13.1549608
40
0.7679464
50
157.9802646
51
171.6246686
0
ARC
8
DEFAULT_255_1_234
10
24.0139413
20
13.2432421
40
0.5296008
50
141.4298019
51
157.854097
0
ARC
8
DEFAULT_255_1_234
10
23.9497734
20
13.2886381
40
0.4511509
50
102.8715806
51
140.8564722
0
ARC
8
DEFAULT_255_1_234
10
24.0145349
20
13.0446552
40
0.7034845
50
90.3778349
51
103.5869322
0
ARC
8
DEFAULT_255_1_234
10
23.8407126
20
12.984173
40
0.2370698
50
89.8751008
51
126.2071704
0
ARC
8
DEFAULT_255_1_234
10
23.8452915
20
12.9687303
40
0.2522934
50
124.9745049
51
144.895901
0
ARC
8
DEFAULT_255_1_234
10
23.8277106
20
12.983056
40
0.2296779
50
145.2974905
51
160.2660252
0
ARC
8
DEFAULT_255_1_234
10
24.1349645
20
13.0028071
40
0.5234525
50
179.6514266
51
190.2855912
0
ARC
8
DEFAULT_255_1_234
10
23.9655782
20
12.9708786
40
0.3510893
50
190.0945431
51
207.5098196
0
ARC
8
DEFAULT_255_1_234
10
23.9090052
20
12.9439623
40
0.288489
50
207.9583163
51
216.3251085
0
ARC
8
DEFAULT_255_1_234
10
23.875016
20
12.9160105
40
0.2445587
50
215.7661442
51
232.5456785
0
ARC
8
DEFAULT_255_1_234
10
23.8367142
20
12.8673482
40
0.1826382
50
232.8005391
51
270.6605633
0
ARC
8
DEFAULT_255_1_234
10
23.8412843
20
12.9037612
40
0.2190529
50
269.35537
51
288.4744281
0
ARC
8
DEFAULT_255_1_234
10
23.850574
20
12.8688118
40
0.1829749
50
289.1833337
51
322.9683818
0
ARC
8
DEFAULT_255_1_234
10
23.7894263
20
12.9170391
40
0.2608399
50
322.6007884
51
346.5182367
0
ARC
8
DEFAULT_255_1_234
10
23.6736859
20
12.9465616
40
0.3802777
50
346.2582162
51
358.7741648
0
ARC
8
DEFAULT_255_1_234
10
23.5718528
20
12.9520965
40
0.4822176
50
358.3755224
51
0.0098023
0
ARC
8
DEFAULT_255_1_234
10
23.6474715
20
12.9548657
40
0.4066078
50
359.6214041
51
11.2839074
0
ARC
8
DEFAULT_255_1_234
10
23.7751862
20
12.9815066
40
0.2761514
50
11.0482309
51
31.8146458
0
ARC
8
DEFAULT_255_1_234
10
23.8060904
20
12.9982584
40
0.2410679
50
32.3035391
51
38.082671
0
ARC
8
DEFAULT_255_1_234
10
23.8481564
20
13.0363662
40
0.1844966
50
36.825067
51
85.7415724
0
ARC
8
DEFAULT_255_1_234
10
23.8414398
20
12.9863301
40
0.2349122
50
85.0140713
51
90.0513278
0
LINE
8
DEFAULT_255_1_234
10
21.8132154
20
20.5154
11
21.4895364
21
20.5154
0
LINE
8
DEFAULT_255_1_234
10
21.4895364
20
20.5154
11
21.4895364
21
21.6848211
0
LINE
8
DEFAULT_255_1_234
10
21.4895364
20
21.6848211
11
21.8196408
21
21.6848211
0
LINE
8
DEFAULT_255_1_234
10
22.3352784
20
21.1394661
11
22.3352784
21
21.0647709
0
LINE
8
DEFAULT_255_1_234
10
21.8236567
20
21.5579196
11
21.6437458
21
21.5579196
0
LINE
8
DEFAULT_255_1_234
10
21.6437458
20
21.5579196
11
21.6437458
21
20.6414983
0
LINE
8
DEFAULT_255_1_234
10
21.6437458
20
20.6414983
11
21.8059869
21
20.6414983
0
LINE
8
DEFAULT_255_1_234
10
22.1826754
20
21.0679836
11
22.1826754
21
21.1362534
0
ARC
8
DEFAULT_255_1_234
10
21.8235351
20
21.0982894
40
0.5865446
50
75.4101064
51
90.3804066
0
ARC
8
DEFAULT_255_1_234
10
21.8464864
20
21.1939492
40
0.4881916
50
60.145586
51
75.1888407
0
ARC
8
DEFAULT_255_1_234
10
21.862364
20
21.2216199
40
0.4562893
50
26.5253612
51
60.1450928
0
ARC
8
DEFAULT_255_1_234
10
21.7503389
20
21.1622158
40
0.5830602
50
7.4030428
51
26.8320788
0
ARC
8
DEFAULT_255_1_234
10
21.5909146
20
21.1373804
40
0.7443669
50
0.1605367
51
7.7176192
0
ARC
8
DEFAULT_255_1_234
10
21.607305
20
21.0609434
40
0.7279835
50
348.7289388
51
0.3012466
0
ARC
8
DEFAULT_255_1_234
10
21.7729481
20
21.0280386
40
0.559104
50
333.0706509
51
348.7181832
0
ARC
8
DEFAULT_255_1_234
10
21.8696238
20
20.9755319
40
0.4491417
50
299.2531685
51
333.4571258
0
ARC
8
DEFAULT_255_1_234
10
21.8335378
20
21.0440828
40
0.5265881
50
278.107187
51
299.0339503
0
ARC
8
DEFAULT_255_1_234
10
21.8079457
20
21.1948216
40
0.679442
50
270.4443897
51
278.4511052
0
ARC
8
DEFAULT_255_1_234
10
21.8100287
20
21.1019213
40
0.4604407
50
269.4970433
51
284.0205042
0
ARC
8
DEFAULT_255_1_234
10
21.8455588
20
20.9653978
40
0.3193797
50
283.7700273
51
318.1555492
0
ARC
8
DEFAULT_255_1_234
10
21.8118346
20
20.9906367
40
0.3613588
50
318.7415601
51
343.6873628
0
ARC
8
DEFAULT_255_1_234
10
21.6314369
20
21.0469832
40
0.5503313
50
343.3325091
51
355.8548958
0
ARC
8
DEFAULT_255_1_234
10
21.4216054
20
21.0669319
40
0.7610708
50
355.4988528
51
0.0791727
0
ARC
8
DEFAULT_255_1_234
10
21.4998676
20
21.140478
40
0.6828208
50
359.6455037
51
9.8607896
0
ARC
8
DEFAULT_255_1_234
10
21.7359374
20
21.1831099
40
0.4429406
50
9.6571907
51
26.1932807
0
ARC
8
DEFAULT_255_1_234
10
21.8287363
20
21.2262118
40
0.3406537
50
26.5777228
51
40.1532208
0
ARC
8
DEFAULT_255_1_234
10
21.8543089
20
21.2461619
40
0.308246
50
40.3840491
51
80.1431104
0
ARC
8
DEFAULT_255_1_234
10
21.8216207
20
21.1012333
40
0.4566909
50
79.2152159
51
89.7445637
0
LINE
8
DEFAULT_255_1_234
10
23.2629442
20
21.2069327
11
23.2629442
21
21.0141709
0
LINE
8
DEFAULT_255_1_234
10
22.5248274
20
20.9940916
11
22.5248274
21
21.1924755
0
LINE
8
DEFAULT_255_1_234
10
23.114357
20
20.9740123
11
23.114357
21
21.2173739
0
LINE
8
DEFAULT_255_1_234
10
22.6734146
20
21.2286184
11
22.6734146
21
20.9908789
0
ARC
8
DEFAULT_255_1_234
10
22.0382331
20
21.0092805
40
1.2247208
50
353.8441951
51
0.2287902
0
ARC
8
DEFAULT_255_1_234
10
22.5021835
20
20.9574806
40
0.7578929
50
344.4934747
51
353.9765454
0
ARC
8
DEFAULT_255_1_234
10
22.8014425
20
20.8723981
40
0.4467846
50
329.2803592
51
344.7472793
0
ARC
8
DEFAULT_255_1_234
10
22.900725
20
20.8179018
40
0.3336173
50
324.9352394
51
328.6160465
0
ARC
8
DEFAULT_255_1_234
10
22.9384359
20
20.7915427
40
0.2876076
50
280.580143
51
324.9173126
0
ARC
8
DEFAULT_255_1_234
10
22.8983151
20
20.9586099
40
0.4592847
50
269.5977311
51
281.6734359
0
ARC
8
DEFAULT_255_1_234
10
22.8911057
20
20.9466173
40
0.4472986
50
256.6228859
51
270.51044
0
ARC
8
DEFAULT_255_1_234
10
22.8509035
20
20.7917877
40
0.2873874
50
215.8618325
51
257.2788573
0
ARC
8
DEFAULT_255_1_234
10
22.9530067
20
20.8602977
40
0.4102928
50
197.9693508
51
215.2623606
0
ARC
8
DEFAULT_255_1_234
10
23.2015182
20
20.9441709
40
0.6725652
50
187.8816417
51
198.2346507
0
ARC
8
DEFAULT_255_1_234
10
23.597339
20
21.0013079
40
1.0724845
50
180.8976217
51
188.0055519
0
ARC
8
DEFAULT_255_1_234
10
23.8773579
20
21.0116777
40
1.3526448
50
180.7449369
51
181.1510016
0
ARC
8
DEFAULT_255_1_234
10
23.7196308
20
21.1973042
40
1.1948131
50
173.7675579
51
180.231553
0
ARC
8
DEFAULT_255_1_234
10
23.2678454
20
21.2483666
40
0.7401564
50
164.3058563
51
173.9002247
0
ARC
8
DEFAULT_255_1_234
10
22.9766523
20
21.3322656
40
0.4371288
50
148.7922025
51
164.568378
0
ARC
8
DEFAULT_255_1_234
10
22.8814975
20
21.3853929
40
0.3282386
50
144.5883898
51
148.1176286
0
ARC
8
DEFAULT_255_1_234
10
22.8471873
20
21.4093315
40
0.2864044
50
101.6440918
51
144.514236
0
ARC
8
DEFAULT_255_1_234
10
22.889694
20
21.2404069
40
0.4604934
50
89.5284041
51
102.5819763
0
ARC
8
DEFAULT_255_1_234
10
22.8976028
20
21.2365018
40
0.464401
50
77.0437873
51
90.5081339
0
ARC
8
DEFAULT_255_1_234
10
22.9378029
20
21.4007615
40
0.2953195
50
48.2778575
51
77.4994676
0
ARC
8
DEFAULT_255_1_234
10
22.9450661
20
21.4136746
40
0.2808655
50
36.3142134
51
47.6305865
0
ARC
8
DEFAULT_255_1_234
10
22.8581968
20
21.3551515
40
0.3855453
50
18.2931786
51
35.6769206
0
ARC
8
DEFAULT_255_1_234
10
22.6038726
20
21.2678593
40
0.654423
50
8.024666
51
18.5605216
0
ARC
8
DEFAULT_255_1_234
10
22.1875647
20
21.2063792
40
1.0752407
50
1.1274072
51
8.1718305
0
ARC
8
DEFAULT_255_1_234
10
21.8639837
20
21.1936885
40
1.3990231
50
0.5424119
51
1.3863029
0
ARC
8
DEFAULT_255_1_234
10
22.0461215
20
21.2209342
40
1.0682415
50
359.8090433
51
4.9407866
0
ARC
8
DEFAULT_255_1_234
10
22.4671229
20
21.2585113
40
0.6455691
50
4.8362157
51
12.2904523
0
ARC
8
DEFAULT_255_1_234
10
22.7426344
20
21.3198965
40
0.3633074
50
12.0805627
51
23.8173984
0
ARC
8
DEFAULT_255_1_234
10
22.8600049
20
21.3695919
40
0.2358723
50
24.2871213
51
31.3935614
0
ARC
8
DEFAULT_255_1_234
10
22.9124746
20
21.4039233
40
0.1732111
50
30.7407893
51
82.4657128
0
ARC
8
DEFAULT_255_1_234
10
22.8944881
20
21.3155691
40
0.263235
50
81.1060089
51
90.2184952
0
ARC
8
DEFAULT_255_1_234
10
22.8909179
20
21.3413924
40
0.2374236
50
89.3806855
51
105.6762551
0
ARC
8
DEFAULT_255_1_234
10
22.872581
20
21.4080567
40
0.1682847
50
105.7981136
51
149.7388061
0
ARC
8
DEFAULT_255_1_234
10
22.9789888
20
21.344095
40
0.2924306
50
149.4208916
51
163.6286378
0
ARC
8
DEFAULT_255_1_234
10
23.1880776
20
21.280325
40
0.5110213
50
163.3763315
51
172.1410975
0
ARC
8
DEFAULT_255_1_234
10
23.5181495
20
21.2330518
40
0.8444586
50
172.0259487
51
178.0703232
0
ARC
8
DEFAULT_255_1_234
10
23.8211585
20
21.2186906
40
1.1477868
50
177.8631668
51
179.5044149
0
ARC
8
DEFAULT_255_1_234
10
23.7138989
20
20.9872389
40
1.0404907
50
179.7995573
51
185.2460446
0
ARC
8
DEFAULT_255_1_234
10
23.3096029
20
20.9489513
40
0.6343885
50
185.1411642
51
193.0079639
0
ARC
8
DEFAULT_255_1_234
10
23.0452501
20
20.8864641
40
0.3627568
50
192.7897626
51
205.2507664
0
ARC
8
DEFAULT_255_1_234
10
22.9406048
20
20.8397415
40
0.2481908
50
205.8005384
51
211.2537509
0
ARC
8
DEFAULT_255_1_234
10
22.8882489
20
20.804658
40
0.1852521
50
210.3789793
51
238.4008143
0
ARC
8
DEFAULT_255_1_234
10
22.8863011
20
20.8093376
40
0.1882621
50
239.6520629
51
265.9793761
0
ARC
8
DEFAULT_255_1_234
10
22.8948211
20
20.8765427
40
0.2559272
50
265.1315437
51
270.060332
0
ARC
8
DEFAULT_255_1_234
10
22.897699
20
20.8441534
40
0.2235528
50
269.3314664
51
287.2178029
0
ARC
8
DEFAULT_255_1_234
10
22.9114842
20
20.7938279
40
0.1714108
50
287.7958004
51
329.080874
0
ARC
8
DEFAULT_255_1_234
10
22.8157298
20
20.853593
40
0.2842745
50
328.6634704
51
343.3325132
0
ARC
8
DEFAULT_255_1_234
10
22.5984318
20
20.9212863
40
0.5118644
50
343.0499468
51
351.9393422
0
ARC
8
DEFAULT_255_1_234
10
22.2517618
20
20.9723949
40
0.8622784
50
351.8069023
51
357.7959224
0
ARC
8
DEFAULT_255_1_234
10
21.9282174
20
20.9891721
40
1.1862365
50
357.5871873
51
359.2677531
0
LINE
8
DEFAULT_255_1_234
10
23.6404359
20
21.0711963
11
23.5215662
21
21.1017169
0
LINE
8
DEFAULT_255_1_234
10
23.5215662
20
21.1017169
11
23.581001
21
21.6848211
0
LINE
8
DEFAULT_255_1_234
10
23.581001
20
21.6848211
11
24.1801687
21
21.6848211
0
LINE
8
DEFAULT_255_1_234
10
24.1801687
20
21.6848211
11
24.1801687
21
21.5474784
0
LINE
8
DEFAULT_255_1_234
10
24.1801687
20
21.5474784
11
23.7070993
21
21.5474784
0
LINE
8
DEFAULT_255_1_234
10
23.7070993
20
21.5474784
11
23.6717597
21
21.2286184
0
LINE
8
DEFAULT_255_1_234
10
23.4798011
20
20.8230156
11
23.6203565
21
20.8230156
0
LINE
8
DEFAULT_255_1_234
10
23.6797914
20
21.1033232
11
23.6404359
21
21.0711963
0
ARC
8
DEFAULT_255_1_234
10
23.8572381
20
20.910623
40
0.3681349
50
93.7182161
51
120.2538958
0
ARC
8
DEFAULT_255_1_234
10
23.8666644
20
20.8298394
40
0.449379
50
89.9660152
51
94.2496022
0
ARC
8
DEFAULT_255_1_234
10
23.8707377
20
20.8887549
40
0.390482
50
73.8043271
51
90.5585896
0
ARC
8
DEFAULT_255_1_234
10
23.8942274
20
20.9745602
40
0.3015334
50
41.3071453
51
73.5430202
0
ARC
8
DEFAULT_255_1_234
10
23.8526102
20
20.9387324
40
0.3564457
50
13.5075983
51
41.2174222
0
ARC
8
DEFAULT_255_1_234
10
23.6884306
20
20.8957486
40
0.5261351
50
1.1331335
51
13.8829381
0
ARC
8
DEFAULT_255_1_234
10
23.5472675
20
20.8881665
40
0.6674378
50
359.9919444
51
1.544251
0
ARC
8
DEFAULT_255_1_234
10
23.6749501
20
20.884028
40
0.5397702
50
347.8572367
51
0.4293338
0
ARC
8
DEFAULT_255_1_234
10
23.8499819
20
20.8443736
40
0.3603188
50
323.673004
51
348.1672506
0
ARC
8
DEFAULT_255_1_234
10
23.8794327
20
20.8264168
40
0.3259678
50
316.8171152
51
323.1492751
0
ARC
8
DEFAULT_255_1_234
10
23.8855516
20
20.822746
40
0.3189975
50
281.8396411
51
316.5457803
0
ARC
8
DEFAULT_255_1_234
10
23.8479779
20
20.9782762
40
0.4789527
50
269.5770101
51
282.4214771
0
ARC
8
DEFAULT_255_1_234
10
23.8408591
20
20.9569125
40
0.45759
50
256.2427136
51
270.4486331
0
ARC
8
DEFAULT_255_1_234
10
23.8109493
20
20.8369229
40
0.3339303
50
228.9023911
51
256.3314342
0
ARC
8
DEFAULT_255_1_234
10
23.8035726
20
20.8252746
40
0.32031
50
193.753695
51
228.5271154
0
ARC
8
DEFAULT_255_1_234
10
23.927368
20
20.86158
40
0.4492253
50
184.924711
51
194.497588
0
ARC
8
DEFAULT_255_1_234
10
23.9466247
20
20.8651591
40
0.3289787
50
187.3600538
51
198.6732863
0
ARC
8
DEFAULT_255_1_234
10
23.8416541
20
20.8287674
40
0.217884
50
198.4451669
51
217.794479
0
ARC
8
DEFAULT_255_1_234
10
23.8120716
20
20.8078085
40
0.1816698
50
218.2887171
51
228.5612368
0
ARC
8
DEFAULT_255_1_234
10
23.8218503
20
20.8209963
40
0.1980329
50
228.9654866
51
258.1234728
0
ARC
8
DEFAULT_255_1_234
10
23.8424213
20
20.9090833
40
0.2884748
50
257.7258293
51
270.401361
0
ARC
8
DEFAULT_255_1_234
10
23.8469099
20
20.8645821
40
0.2439788
50
269.4204404
51
286.4209037
0
ARC
8
DEFAULT_255_1_234
10
23.8617587
20
20.8106657
40
0.1880666
50
286.7251356
51
320.600362
0
ARC
8
DEFAULT_255_1_234
10
23.8234412
20
20.8417595
40
0.2374121
50
320.6712579
51
344.5441685
0
ARC
8
DEFAULT_255_1_234
10
23.7077738
20
20.8757045
40
0.3579479
50
344.2412205
51
356.7357071
0
ARC
8
DEFAULT_255_1_234
10
23.5828886
20
20.8860444
40
0.4832297
50
356.3548756
51
0.0500261
0
ARC
8
DEFAULT_255_1_234
10
23.7165396
20
20.889165
40
0.3495889
50
359.5576869
51
12.953486
0
ARC
8
DEFAULT_255_1_234
10
23.8220293
20
20.9147434
40
0.2410532
50
12.6490276
51
41.6081334
0
ARC
8
DEFAULT_255_1_234
10
23.8450664
20
20.9343321
40
0.2108218
50
41.7850273
51
85.9892764
0
ARC
8
DEFAULT_255_1_234
10
23.83274
20
20.8530462
40
0.2928454
50
84.6957577
51
90.0676183
0
ARC
8
DEFAULT_255_1_234
10
23.8303885
20
20.7861716
40
0.3597255
50
89.6804936
51
99.1614436
0
ARC
8
DEFAULT_255_1_234
10
23.8098516
20
20.9089131
40
0.235281
50
98.9830931
51
113.8908934
0
ARC
8
DEFAULT_255_1_234
10
23.7868926
20
20.9630587
40
0.176479
50
114.1950727
51
127.3641004
0
LINE
8
DEFAULT_255_1_234
10
21.7074154
20
28.4529
11
21.3837364
21
28.4529
0
LINE
8
DEFAULT_255_1_234
10
21.3837364
20
28.4529
11
21.3837364
21
29.6223211
0
LINE
8
DEFAULT_255_1_234
10
21.3837364
20
29.6223211
11
21.7138408
21
29.6223211
0
LINE
8
DEFAULT_255_1_234
10
22.2294784
20
29.0769661
11
22.2294784
21
29.0022709
0
LINE
8
DEFAULT_255_1_234
10
21.7178567
20
29.4954196
11
21.5379458
21
29.4954196
0
LINE
8
DEFAULT_255_1_234
10
21.5379458
20
29.4954196
11
21.5379458
21
28.5789983
0
LINE
8
DEFAULT_255_1_234
10
21.5379458
20
28.5789983
11
21.7001869
21
28.5789983
0
LINE
8
DEFAULT_255_1_234
10
22.0768754
20
29.0054836
11
22.0768754
21
29.0737534
0
ARC
8
DEFAULT_255_1_234
10
21.7177351
20
29.0357894
40
0.5865446
50
75.4101064
51
90.3804066
0
ARC
8
DEFAULT_255_1_234
10
21.7406864
20
29.1314492
40
0.4881916
50
60.145586
51
75.1888407
0
ARC
8
DEFAULT_255_1_234
10
21.756564
20
29.1591199
40
0.4562893
50
26.5253612
51
60.1450928
0
ARC
8
DEFAULT_255_1_234
10
21.6445389
20
29.0997158
40
0.5830602
50
7.4030428
51
26.8320788
0
ARC
8
DEFAULT_255_1_234
10
21.4851146
20
29.0748804
40
0.7443669
50
0.1605367
51
7.7176192
0
ARC
8
DEFAULT_255_1_234
10
21.501505
20
28.9984434
40
0.7279835
50
348.7289388
51
0.3012466
0
ARC
8
DEFAULT_255_1_234
10
21.6671481
20
28.9655386
40
0.559104
50
333.0706509
51
348.7181832
0
ARC
8
DEFAULT_255_1_234
10
21.7638238
20
28.9130319
40
0.4491417
50
299.2531685
51
333.4571258
0
ARC
8
DEFAULT_255_1_234
10
21.7277378
20
28.9815828
40
0.5265881
50
278.107187
51
299.0339503
0
ARC
8
DEFAULT_255_1_234
10
21.7021457
20
29.1323216
40
0.679442
50
270.4443897
51
278.4511052
0
ARC
8
DEFAULT_255_1_234
10
21.7042287
20
29.0394213
40
0.4604407
50
269.4970433
51
284.0205042
0
ARC
8
DEFAULT_255_1_234
10
21.7397588
20
28.9028978
40
0.3193797
50
283.7700273
51
318.1555492
0
ARC
8
DEFAULT_255_1_234
10
21.7060346
20
28.9281367
40
0.3613588
50
318.7415601
51
343.6873628
0
ARC
8
DEFAULT_255_1_234
10
21.5256369
20
28.9844832
40
0.5503313
50
343.3325091
51
355.8548958
0
ARC
8
DEFAULT_255_1_234
10
21.3158054
20
29.0044319
40
0.7610708
50
355.4988528
51
0.0791727
0
ARC
8
DEFAULT_255_1_234
10
21.3940676
20
29.077978
40
0.6828208
50
359.6455037
51
9.8607896
0
ARC
8
DEFAULT_255_1_234
10
21.6301374
20
29.1206099
40
0.4429406
50
9.6571907
51
26.1932807
0
ARC
8
DEFAULT_255_1_234
10
21.7229363
20
29.1637118
40
0.3406537
50
26.5777228
51
40.1532208
0
ARC
8
DEFAULT_255_1_234
10
21.7485089
20
29.1836619
40
0.308246
50
40.3840491
51
80.1431104
0
ARC
8
DEFAULT_255_1_234
10
21.7158207
20
29.0387333
40
0.4566909
50
79.2152159
51
89.7445637
0
LINE
8
DEFAULT_255_1_234
10
23.1571442
20
29.1444327
11
23.1571442
21
28.9516709
0
LINE
8
DEFAULT_255_1_234
10
22.4190274
20
28.9315916
11
22.4190274
21
29.1299755
0
LINE
8
DEFAULT_255_1_234
10
23.008557
20
28.9115123
11
23.008557
21
29.1548739
0
LINE
8
DEFAULT_255_1_234
10
22.5676146
20
29.1661184
11
22.5676146
21
28.9283789
0
ARC
8
DEFAULT_255_1_234
10
21.9324331
20
28.9467805
40
1.2247208
50
353.8441951
51
0.2287902
0
ARC
8
DEFAULT_255_1_234
10
22.3963835
20
28.8949806
40
0.7578929
50
344.4934747
51
353.9765454
0
ARC
8
DEFAULT_255_1_234
10
22.6956425
20
28.8098981
40
0.4467846
50
329.2803592
51
344.7472793
0
ARC
8
DEFAULT_255_1_234
10
22.794925
20
28.7554018
40
0.3336173
50
324.9352394
51
328.6160465
0
ARC
8
DEFAULT_255_1_234
10
22.8326359
20
28.7290427
40
0.2876076
50
280.580143
51
324.9173126
0
ARC
8
DEFAULT_255_1_234
10
22.7925151
20
28.8961099
40
0.4592847
50
269.5977311
51
281.6734359
0
ARC
8
DEFAULT_255_1_234
10
22.7853057
20
28.8841173
40
0.4472986
50
256.6228859
51
270.51044
0
ARC
8
DEFAULT_255_1_234
10
22.7451035
20
28.7292877
40
0.2873874
50
215.8618325
51
257.2788573
0
ARC
8
DEFAULT_255_1_234
10
22.8472067
20
28.7977977
40
0.4102928
50
197.9693508
51
215.2623606
0
ARC
8
DEFAULT_255_1_234
10
23.0957182
20
28.8816709
40
0.6725652
50
187.8816417
51
198.2346507
0
ARC
8
DEFAULT_255_1_234
10
23.491539
20
28.9388079
40
1.0724845
50
180.8976217
51
188.0055519
0
ARC
8
DEFAULT_255_1_234
10
23.7715579
20
28.9491777
40
1.3526448
50
180.7449369
51
181.1510016
0
ARC
8
DEFAULT_255_1_234
10
23.6138308
20
29.1348042
40
1.1948131
50
173.7675579
51
180.231553
0
ARC
8
DEFAULT_255_1_234
10
23.1620454
20
29.1858666
40
0.7401564
50
164.3058563
51
173.9002247
0
ARC
8
DEFAULT_255_1_234
10
22.8708523
20
29.2697656
40
0.4371288
50
148.7922025
51
164.568378
0
ARC
8
DEFAULT_255_1_234
10
22.7756975
20
29.3228929
40
0.3282386
50
144.5883898
51
148.1176286
0
ARC
8
DEFAULT_255_1_234
10
22.7413873
20
29.3468315
40
0.2864044
50
101.6440918
51
144.514236
0
ARC
8
DEFAULT_255_1_234
10
22.783894
20
29.1779069
40
0.4604934
50
89.5284041
51
102.5819763
0
ARC
8
DEFAULT_255_1_234
10
22.7918028
20
29.1740018
40
0.464401
50
77.0437873
51
90.5081339
0
ARC
8
DEFAULT_255_1_234
10
22.8320029
20
29.3382615
40
0.2953195
50
48.2778575
51
77.4994676
0
ARC
8
DEFAULT_255_1_234
10
22.8392661
20
29.3511746
40
0.2808655
50
36.3142134
51
47.6305865
0
ARC
8
DEFAULT_255_1_234
10
22.7523968
20
29.2926515
40
0.3855453
50
18.2931786
51
35.6769206
0
ARC
8
DEFAULT_255_1_234
10
22.4980726
20
29.2053593
40
0.654423
50
8.024666
51
18.5605216
0
ARC
8
DEFAULT_255_1_234
10
22.0817647
20
29.1438792
40
1.0752407
50
1.1274072
51
8.1718305
0
ARC
8
DEFAULT_255_1_234
10
21.7581837
20
29.1311885
40
1.3990231
50
0.5424119
51
1.3863029
0
ARC
8
DEFAULT_255_1_234
10
21.9403215
20
29.1584342
40
1.0682415
50
359.8090433
51
4.9407866
0
ARC
8
DEFAULT_255_1_234
10
22.3613229
20
29.1960113
40
0.6455691
50
4.8362157
51
12.2904523
0
ARC
8
DEFAULT_255_1_234
10
22.6368344
20
29.2573965
40
0.3633074
50
12.0805627
51
23.8173984
0
ARC
8
DEFAULT_255_1_234
10
22.7542049
20
29.3070919
40
0.2358723
50
24.2871213
51
31.3935614
0
ARC
8
DEFAULT_255_1_234
10
22.8066746
20
29.3414233
40
0.1732111
50
30.7407893
51
82.4657128
0
ARC
8
DEFAULT_255_1_234
10
22.7886881
20
29.2530691
40
0.263235
50
81.1060089
51
90.2184952
0
ARC
8
DEFAULT_255_1_234
10
22.7851179
20
29.2788924
40
0.2374236
50
89.3806855
51
105.6762551
0
ARC
8
DEFAULT_255_1_234
10
22.766781
20
29.3455567
40
0.1682847
50
105.7981136
51
149.7388061
0
ARC
8
DEFAULT_255_1_234
10
22.8731888
20
29.281595
40
0.2924306
50
149.4208916
51
163.6286378
0
ARC
8
DEFAULT_255_1_234
10
23.0822776
20
29.217825
40
0.5110213
50
163.3763315
51
172.1410975
0
ARC
8
DEFAULT_255_1_234
10
23.4123495
20
29.1705518
40
0.8444586
50
172.0259487
51
178.0703232
0
ARC
8
DEFAULT_255_1_234
10
23.7153585
20
29.1561906
40
1.1477868
50
177.8631668
51
179.5044149
0
ARC
8
DEFAULT_255_1_234
10
23.6080989
20
28.9247389
40
1.0404907
50
179.7995573
51
185.2460446
0
ARC
8
DEFAULT_255_1_234
10
23.2038029
20
28.8864513
40
0.6343885
50
185.1411642
51
193.0079639
0
ARC
8
DEFAULT_255_1_234
10
22.9394501
20
28.8239641
40
0.3627568
50
192.7897626
51
205.2507664
0
ARC
8
DEFAULT_255_1_234
10
22.8348048
20
28.7772415
40
0.2481908
50
205.8005384
51
211.2537509
0
ARC
8
DEFAULT_255_1_234
10
22.7824489
20
28.742158
40
0.1852521
50
210.3789793
51
238.4008143
0
ARC
8
DEFAULT_255_1_234
10
22.7805011
20
28.7468376
40
0.1882621
50
239.6520629
51
265.9793761
0
ARC
8
DEFAULT_255_1_234
10
22.7890211
20
28.8140427
40
0.2559272
50
265.1315437
51
270.060332
0
ARC
8
DEFAULT_255_1_234
10
22.791899
20
28.7816534
40
0.2235528
50
269.3314664
51
287.2178029
0
ARC
8
DEFAULT_255_1_234
10
22.8056842
20
28.7313279
40
0.1714108
50
287.7958004
51
329.080874
0
ARC
8
DEFAULT_255_1_234
10
22.7099298
20
28.791093
40
0.2842745
50
328.6634704
51
343.3325132
0
ARC
8
DEFAULT_255_1_234
10
22.4926318
20
28.8587863
40
0.5118644
50
343.0499468
51
351.9393422
0
ARC
8
DEFAULT_255_1_234
10
22.1459618
20
28.9098949
40
0.8622784
50
351.8069023
51
357.7959224
0
ARC
8
DEFAULT_255_1_234
10
21.8224174
20
28.9266721
40
1.1862365
50
357.5871873
51
359.2677531
0
LINE
8
DEFAULT_255_1_234
10
23.9747751
20
29.6223211
11
23.9747751
21
28.845652
0
LINE
8
DEFAULT_255_1_234
10
23.9747751
20
28.845652
11
24.1370163
21
28.845652
0
LINE
8
DEFAULT_255_1_234
10
24.1370163
20
28.845652
11
24.1370163
21
28.7243728
0
LINE
8
DEFAULT_255_1_234
10
24.1370163
20
28.7243728
11
23.9747751
21
28.7243728
0
LINE
8
DEFAULT_255_1_234
10
23.9747751
20
28.7243728
11
23.9747751
21
28.4529
0
LINE
8
DEFAULT_255_1_234
10
23.9747751
20
28.4529
11
23.8253848
21
28.4529
0
LINE
8
DEFAULT_255_1_234
10
23.8253848
20
28.4529
11
23.8253848
21
28.7243728
0
LINE
8
DEFAULT_255_1_234
10
23.8253848
20
28.7243728
11
23.2928806
21
28.7243728
0
LINE
8
DEFAULT_255_1_234
10
23.2928806
20
28.7243728
11
23.2928806
21
28.8119187
0
LINE
8
DEFAULT_255_1_234
10
23.2928806
20
28.8119187
11
23.8165499
21
29.6223211
0
LINE
8
DEFAULT_255_1_234
10
23.8165499
20
29.6223211
11
23.9747751
21
29.6223211
0
LINE
8
DEFAULT_255_1_234
10
23.807715
20
29.3869912
11
23.4615471
21
28.845652
0
LINE
8
DEFAULT_255_1_234
10
23.4615471
20
28.845652
11
23.8253848
21
28.845652
0
LINE
8
DEFAULT_255_1_234
10
23.8253848
20
28.845652
11
23.8253848
21
29.4191181
0
LINE
8
DEFAULT_255_1_234
10
23.8253848
20
29.4191181
11
23.807715
21
29.3869912
0
LINE
8
DEFAULT_255_1_234
10
21.5932154
20
36.3904
11
21.2695364
21
36.3904
0
LINE
8
DEFAULT_255_1_234
10
21.2695364
20
36.3904
11
21.2695364
21
37.5598211
0
LINE
8
DEFAULT_255_1_234
10
21.2695364
20
37.5598211
11
21.5996408
21
37.5598211
0
LINE
8
DEFAULT_255_1_234
10
22.1152784
20
37.0144661
11
22.1152784
21
36.9397709
0
LINE
8
DEFAULT_255_1_234
10
21.6036567
20
37.4329196
11
21.4237458
21
37.4329196
0
LINE
8
DEFAULT_255_1_234
10
21.4237458
20
37.4329196
11
21.4237458
21
36.5164983
0
LINE
8
DEFAULT_255_1_234
10
21.4237458
20
36.5164983
11
21.5859869
21
36.5164983
0
LINE
8
DEFAULT_255_1_234
10
21.9626754
20
36.9429836
11
21.9626754
21
37.0112534
0
ARC
8
DEFAULT_255_1_234
10
21.6035351
20
36.9732894
40
0.5865446
50
75.4101064
51
90.3804066
0
ARC
8
DEFAULT_255_1_234
10
21.6264864
20
37.0689492
40
0.4881916
50
60.145586
51
75.1888407
0
ARC
8
DEFAULT_255_1_234
10
21.642364
20
37.0966199
40
0.4562893
50
26.5253612
51
60.1450928
0
ARC
8
DEFAULT_255_1_234
10
21.5303389
20
37.0372158
40
0.5830602
50
7.4030428
51
26.8320788
0
ARC
8
DEFAULT_255_1_234
10
21.3709146
20
37.0123804
40
0.7443669
50
0.1605367
51
7.7176192
0
ARC
8
DEFAULT_255_1_234
10
21.387305
20
36.9359434
40
0.7279835
50
348.7289388
51
0.3012466
0
ARC
8
DEFAULT_255_1_234
10
21.5529481
20
36.9030386
40
0.559104
50
333.0706509
51
348.7181832
0
ARC
8
DEFAULT_255_1_234
10
21.6496238
20
36.8505319
40
0.4491417
50
299.2531685
51
333.4571258
0
ARC
8
DEFAULT_255_1_234
10
21.6135378
20
36.9190828
40
0.5265881
50
278.107187
51
299.0339503
0
ARC
8
DEFAULT_255_1_234
10
21.5879457
20
37.0698216
40
0.679442
50
270.4443897
51
278.4511052
0
ARC
8
DEFAULT_255_1_234
10
21.5900287
20
36.9769213
40
0.4604407
50
269.4970433
51
284.0205042
0
ARC
8
DEFAULT_255_1_234
10
21.6255588
20
36.8403978
40
0.3193797
50
283.7700273
51
318.1555492
0
ARC
8
DEFAULT_255_1_234
10
21.5918346
20
36.8656367
40
0.3613588
50
318.7415601
51
343.6873628
0
ARC
8
DEFAULT_255_1_234
10
21.4114369
20
36.9219832
40
0.5503313
50
343.3325091
51
355.8548958
0
ARC
8
DEFAULT_255_1_234
10
21.2016054
20
36.9419319
40
0.7610708
50
355.4988528
51
0.0791727
0
ARC
8
DEFAULT_255_1_234
10
21.2798676
20
37.015478
40
0.6828208
50
359.6455037
51
9.8607896
0
ARC
8
DEFAULT_255_1_234
10
21.5159374
20
37.0581099
40
0.4429406
50
9.6571907
51
26.1932807
0
ARC
8
DEFAULT_255_1_234
10
21.6087363
20
37.1012118
40
0.3406537
50
26.5777228
51
40.1532208
0
ARC
8
DEFAULT_255_1_234
10
21.6343089
20
37.1211619
40
0.308246
50
40.3840491
51
80.1431104
0
ARC
8
DEFAULT_255_1_234
10
21.6016207
20
36.9762333
40
0.4566909
50
79.2152159
51
89.7445637
0
LINE
8
DEFAULT_255_1_234
10
23.2477535
20
37.0112534
11
23.2477535
21
36.9373614
0
LINE
8
DEFAULT_255_1_234
10
22.307237
20
36.9269201
11
22.307237
21
37.0112534
0
LINE
8
DEFAULT_255_1_234
10
23.0943473
20
36.9261169
11
23.0943473
21
37.0128597
0
LINE
8
DEFAULT_255_1_234
10
22.4606432
20
37.023301
11
22.4606432
21
36.9373614
0
ARC
8
DEFAULT_255_1_234
10
22.3835562
20
36.9334015
40
0.8642064
50
350.487711
51
0.2625388
0
ARC
8
DEFAULT_255_1_234
10
22.6128803
20
36.8939578
40
0.631518
50
336.0277639
51
350.5787438
0
ARC
8
DEFAULT_255_1_234
10
22.7473626
20
36.8331892
40
0.4839466
50
319.8877444
51
336.1328423
0
ARC
8
DEFAULT_255_1_234
10
22.8076267
20
36.784958
40
0.4067874
50
302.4806467
51
319.6143626
0
ARC
8
DEFAULT_255_1_234
10
22.7961278
20
36.8071202
40
0.4316636
50
275.8195682
51
302.1884709
0
ARC
8
DEFAULT_255_1_234
10
22.7794911
20
36.9213665
40
0.5470306
50
269.9171439
51
276.3397983
0
ARC
8
DEFAULT_255_1_234
10
22.7750121
20
36.8527681
40
0.4784458
50
252.5219675
51
270.4416499
0
ARC
8
DEFAULT_255_1_234
10
22.760638
20
36.7988592
40
0.422716
50
237.5352116
51
252.1857531
0
ARC
8
DEFAULT_255_1_234
10
22.7695575
20
36.8102363
40
0.4371052
50
209.063312
51
237.3492538
0
ARC
8
DEFAULT_255_1_234
10
22.8565423
20
36.8648685
40
0.5397041
50
205.1183774
51
209.6470015
0
ARC
8
DEFAULT_255_1_234
10
22.936246
20
36.898683
40
0.6262326
50
188.7215458
51
204.8240747
0
ARC
8
DEFAULT_255_1_234
10
23.1359988
20
36.9323067
40
0.8287794
50
180.3723947
51
188.9252049
0
ARC
8
DEFAULT_255_1_234
10
23.133274
20
37.0152402
40
0.8260467
50
169.5253763
51
180.2765336
0
ARC
8
DEFAULT_255_1_234
10
22.9430189
20
37.0502309
40
0.6326007
50
155.8315255
51
169.5089989
0
ARC
8
DEFAULT_255_1_234
10
22.814969
20
37.1096348
40
0.4914567
50
139.6258461
51
156.0379525
0
ARC
8
DEFAULT_255_1_234
10
22.7560023
20
37.1570799
40
0.4158054
50
122.6416387
51
139.3430715
0
ARC
8
DEFAULT_255_1_234
10
22.7660643
20
37.1387451
40
0.4366739
50
93.0223692
51
122.455762
0
ARC
8
DEFAULT_255_1_234
10
22.776864
20
37.0422709
40
0.5336137
50
89.975342
51
93.6341897
0
ARC
8
DEFAULT_255_1_234
10
22.780742
20
37.0821242
40
0.4937738
50
73.746375
51
90.4233405
0
ARC
8
DEFAULT_255_1_234
10
22.7982998
20
37.1501287
40
0.4235786
50
57.662753
51
73.4518111
0
ARC
8
DEFAULT_255_1_234
10
22.7975004
20
37.1522832
40
0.4221899
50
29.1440151
51
57.414694
0
ARC
8
DEFAULT_255_1_234
10
22.7040199
20
37.0939005
40
0.5322966
50
24.0982783
51
29.7323517
0
ARC
8
DEFAULT_255_1_234
10
22.6006474
20
37.0510399
40
0.6441673
50
8.6655297
51
23.8241346
0
ARC
8
DEFAULT_255_1_234
10
22.3772212
20
37.0145854
40
0.8705386
50
359.7806941
51
8.8218784
0
ARC
8
DEFAULT_255_1_234
10
22.262521
20
37.0171345
40
0.8318373
50
359.7055579
51
8.036044
0
ARC
8
DEFAULT_255_1_234
10
22.5625216
20
37.0608239
40
0.5286768
50
7.8928306
51
20.2962107
0
ARC
8
DEFAULT_255_1_234
10
22.7252787
20
37.1208395
40
0.3552073
50
20.3231126
51
36.4992797
0
ARC
8
DEFAULT_255_1_234
10
22.7938333
20
37.1736402
40
0.2686974
50
36.1437156
51
85.6627023
0
ARC
8
DEFAULT_255_1_234
10
22.7775879
20
37.0696221
40
0.373739
50
84.3852322
51
90.0757696
0
ARC
8
DEFAULT_255_1_234
10
22.7733551
20
37.1356839
40
0.3076997
50
89.3038458
51
109.9045693
0
ARC
8
DEFAULT_255_1_234
10
22.7640942
20
37.1739062
40
0.2686424
50
110.8228367
51
143.9179474
0
ARC
8
DEFAULT_255_1_234
10
22.8574603
20
37.1026236
40
0.3860887
50
143.5289163
51
163.2980757
0
ARC
8
DEFAULT_255_1_234
10
23.0482423
20
37.0426433
40
0.5860659
50
163.0418846
51
174.3140048
0
ARC
8
DEFAULT_255_1_234
10
23.2886535
20
37.0148854
40
0.8280531
50
174.0509143
51
179.4176892
0
ARC
8
DEFAULT_255_1_234
10
23.2382274
20
36.9331954
40
0.7775954
50
179.6930361
51
188.7906598
0
ARC
8
DEFAULT_255_1_234
10
22.9718753
20
36.8905935
40
0.5078633
50
188.6331305
51
202.5629587
0
ARC
8
DEFAULT_255_1_234
10
22.8464345
20
36.8401996
40
0.3726913
50
202.8081362
51
216.1193925
0
ARC
8
DEFAULT_255_1_234
10
22.7654915
20
36.7750676
40
0.2689577
50
215.0755913
51
264.6379694
0
ARC
8
DEFAULT_255_1_234
10
22.7781865
20
36.8581513
40
0.3528978
50
263.846392
51
270.0833719
0
ARC
8
DEFAULT_255_1_234
10
22.7823255
20
36.8323374
40
0.3271036
50
269.3649385
51
287.5152008
0
ARC
8
DEFAULT_255_1_234
10
22.8001413
20
36.7676238
40
0.2600406
50
288.0630309
51
323.8113348
0
ARC
8
DEFAULT_255_1_234
10
22.7130255
20
36.8326049
40
0.3687189
50
323.6547608
51
342.6590488
0
ARC
8
DEFAULT_255_1_234
10
22.509887
20
36.8986952
40
0.5823286
50
342.4091907
51
353.6451149
0
ARC
8
DEFAULT_255_1_234
10
22.2267381
20
36.933919
40
0.8676442
50
353.4029884
51
359.4847795
0
LINE
8
DEFAULT_255_1_234
10
23.656569
20
36.9261169
11
23.656569
21
37.0473962
0
LINE
8
DEFAULT_255_1_234
10
23.656569
20
37.0473962
11
23.7682102
21
37.0473962
0
LINE
8
DEFAULT_255_1_234
10
23.577858
20
37.2530087
11
23.4292708
21
37.2530087
0
LINE
8
DEFAULT_255_1_234
10
23.4188295
20
36.6988188
11
23.5682199
21
36.6988188
0
LINE
8
DEFAULT_255_1_234
10
23.7682102
20
36.9261169
11
23.656569
21
36.9261169
0
ARC
8
DEFAULT_255_1_234
10
23.7652968
20
37.3866713
40
0.3392876
50
270.4919872
51
281.8951556
0
ARC
8
DEFAULT_255_1_234
10
23.789423
20
37.2764702
40
0.2264817
50
281.6691735
51
301.2943132
0
ARC
8
DEFAULT_255_1_234
10
23.806444
20
37.2453304
40
0.1910381
50
301.7833094
51
311.7545298
0
ARC
8
DEFAULT_255_1_234
10
23.8156016
20
37.2351748
40
0.1773635
50
311.7323931
51
354.2802411
0
ARC
8
DEFAULT_255_1_234
10
23.7429641
20
37.2476722
40
0.2509385
50
353.0937916
51
0.1181479
0
ARC
8
DEFAULT_255_1_234
10
23.6968426
20
37.2524386
40
0.2970898
50
359.1805295
51
15.0453146
0
ARC
8
DEFAULT_255_1_234
10
23.8314263
20
37.2916992
40
0.1569564
50
13.9577229
51
77.6713066
0
ARC
8
DEFAULT_255_1_234
10
23.7927792
20
37.1531949
40
0.3006298
50
76.1116566
51
90.7026153
0
ARC
8
DEFAULT_255_1_234
10
23.786863
20
37.1805545
40
0.2732568
50
89.5324876
51
103.531937
0
ARC
8
DEFAULT_255_1_234
10
23.7668074
20
37.2604884
40
0.1908508
50
103.2931773
51
133.5619022
0
ARC
8
DEFAULT_255_1_234
10
23.7623563
20
37.2664375
40
0.1834746
50
133.8349307
51
173.5344437
0
ARC
8
DEFAULT_255_1_234
10
23.8346606
20
37.2536213
40
0.2568033
50
172.5096846
51
180.1366907
0
ARC
8
DEFAULT_255_1_234
10
23.73955
20
37.2570622
40
0.3103056
50
155.3484492
51
180.7484736
0
ARC
8
DEFAULT_255_1_234
10
23.7346589
20
37.2541846
40
0.3070957
50
131.5744599
51
154.4798489
0
ARC
8
DEFAULT_255_1_234
10
23.7659736
20
37.222531
40
0.3515643
50
96.9875458
51
131.9690667
0
ARC
8
DEFAULT_255_1_234
10
23.7879216
20
37.0979636
40
0.4779224
50
89.8596053
51
97.7825159
0
ARC
8
DEFAULT_255_1_234
10
23.7927279
20
37.0717616
40
0.5041361
50
78.3655447
51
90.4131539
0
ARC
8
DEFAULT_255_1_234
10
23.8285197
20
37.2376887
40
0.3344039
50
56.6229102
51
78.638727
0
ARC
8
DEFAULT_255_1_234
10
23.8500141
20
37.2752805
40
0.2912001
50
47.0253525
51
56.0854072
0
ARC
8
DEFAULT_255_1_234
10
23.8519921
20
37.2792223
40
0.2869704
50
10.9208013
51
46.7778124
0
ARC
8
DEFAULT_255_1_234
10
23.7155987
20
37.2476857
40
0.426899
50
359.6364486
51
11.6087304
0
ARC
8
DEFAULT_255_1_234
10
23.8990831
20
37.2461752
40
0.243409
50
332.3549906
51
359.7179418
0
ARC
8
DEFAULT_255_1_234
10
23.8340433
20
37.2770142
40
0.3153459
50
325.2333722
51
332.8745602
0
ARC
8
DEFAULT_255_1_234
10
23.8493056
20
37.2663828
40
0.2967456
50
292.9802137
51
325.2392345
0
ARC
8
DEFAULT_255_1_234
10
23.821843
20
37.3197863
40
0.3566604
50
292.5402179
51
293.6924929
0
ARC
8
DEFAULT_255_1_234
10
23.8611026
20
36.6743091
40
0.3307468
50
57.6435486
51
72.8625112
0
ARC
8
DEFAULT_255_1_234
10
23.8965526
20
36.7317549
40
0.2632492
50
36.7248896
51
57.4697979
0
ARC
8
DEFAULT_255_1_234
10
23.8954159
20
36.733022
40
0.2634081
50
8.0545065
51
36.356114
0
ARC
8
DEFAULT_255_1_234
10
23.8091344
20
36.7175174
40
0.3510261
50
359.8320645
51
8.5869982
0
ARC
8
DEFAULT_255_1_234
10
23.771612
20
36.7127101
40
0.3885653
50
343.9829931
51
0.5571613
0
ARC
8
DEFAULT_255_1_234
10
23.8602317
20
36.6884438
40
0.2966924
50
311.6359546
51
343.7651759
0
ARC
8
DEFAULT_255_1_234
10
23.8223886
20
36.7311102
40
0.3537231
50
279.7829875
51
311.6255694
0
ARC
8
DEFAULT_255_1_234
10
23.7922663
20
36.874828
40
0.5004971
50
269.7286406
51
280.3856417
0
ARC
8
DEFAULT_255_1_234
10
23.7860735
20
36.8706996
40
0.4963778
50
256.6828919
51
270.4412052
0
ARC
8
DEFAULT_255_1_234
10
23.7522031
20
36.7322394
40
0.3538406
50
229.4223008
51
256.8556159
0
ARC
8
DEFAULT_255_1_234
10
23.7107424
20
36.6855736
40
0.2914296
50
181.818294
51
229.6455059
0
ARC
8
DEFAULT_255_1_234
10
23.814738
20
36.6986496
40
0.3959084
50
179.9755256
51
183.2323064
0
ARC
8
DEFAULT_255_1_234
10
23.7975126
20
36.6966037
40
0.2293034
50
179.4465117
51
196.2869258
0
ARC
8
DEFAULT_255_1_234
10
23.7487534
20
36.6832651
40
0.1787621
50
196.5661473
51
227.705904
0
ARC
8
DEFAULT_255_1_234
10
23.7651629
20
36.7016155
40
0.2033784
50
227.7652068
51
257.8762805
0
ARC
8
DEFAULT_255_1_234
10
23.7876599
20
36.7959156
40
0.3003081
50
257.4584385
51
270.426602
0
ARC
8
DEFAULT_255_1_234
10
23.7922165
20
36.8248996
40
0.329292
50
269.5962073
51
280.8789248
0
ARC
8
DEFAULT_255_1_234
10
23.8151694
20
36.7102685
40
0.2123908
50
280.6346389
51
299.8595945
0
ARC
8
DEFAULT_255_1_234
10
23.8342601
20
36.6740212
40
0.171457
50
300.3576302
51
314.5517981
0
ARC
8
DEFAULT_255_1_234
10
23.8259661
20
36.6800919
40
0.1816095
50
315.0728369
51
345.0431014
0
ARC
8
DEFAULT_255_1_234
10
23.7336475
20
36.7069841
40
0.2777492
50
344.5986631
51
357.9269593
0
ARC
8
DEFAULT_255_1_234
10
23.6440802
20
36.7131276
40
0.3674917
50
357.4748886
51
0.0231117
0
ARC
8
DEFAULT_255_1_234
10
23.7463911
20
36.7155679
40
0.2651907
50
359.5047933
51
13.4239635
0
ARC
8
DEFAULT_255_1_234
10
23.8330554
20
36.7377478
40
0.1757509
50
12.9498199
51
48.7551375
0
ARC
8
DEFAULT_255_1_234
10
23.8148288
20
36.71284
40
0.2065134
50
49.5088623
51
72.1836453
0
ARC
8
DEFAULT_255_1_234
10
23.7790441
20
36.6066291
40
0.3185836
50
71.9010081
51
84.3554254
0
ARC
8
DEFAULT_255_1_234
10
23.7629073
20
36.4705326
40
0.4556151
50
84.0193428
51
89.333121
0
LINE
8
DEFAULT_255_1_234
10
21.5932154
20
44.3279
11
21.2695364
21
44.3279
0
LINE
8
DEFAULT_255_1_234
10
21.2695364
20
44.3279
11
21.2695364
21
45.4973211
0
LINE
8
DEFAULT_255_1_234
10
21.2695364
20
45.4973211
11
21.5996408
21
45.4973211
0
LINE
8
DEFAULT_255_1_234
10
22.1152784
20
44.9519661
11
22.1152784
21
44.8772709
0
LINE
8
DEFAULT_255_1_234
10
21.6036567
20
45.3704196
11
21.4237458
21
45.3704196
0
LINE
8
DEFAULT_255_1_234
10
21.4237458
20
45.3704196
11
21.4237458
21
44.4539983
0
LINE
8
DEFAULT_255_1_234
10
21.4237458
20
44.4539983
11
21.5859869
21
44.4539983
0
LINE
8
DEFAULT_255_1_234
10
21.9626754
20
44.8804836
11
21.9626754
21
44.9487534
0
ARC
8
DEFAULT_255_1_234
10
21.6035351
20
44.9107894
40
0.5865446
50
75.4101064
51
90.3804066
0
ARC
8
DEFAULT_255_1_234
10
21.6264864
20
45.0064492
40
0.4881916
50
60.145586
51
75.1888407
0
ARC
8
DEFAULT_255_1_234
10
21.642364
20
45.0341199
40
0.4562893
50
26.5253612
51
60.1450928
0
ARC
8
DEFAULT_255_1_234
10
21.5303389
20
44.9747158
40
0.5830602
50
7.4030428
51
26.8320788
0
ARC
8
DEFAULT_255_1_234
10
21.3709146
20
44.9498804
40
0.7443669
50
0.1605367
51
7.7176192
0
ARC
8
DEFAULT_255_1_234
10
21.387305
20
44.8734434
40
0.7279835
50
348.7289388
51
0.3012466
0
ARC
8
DEFAULT_255_1_234
10
21.5529481
20
44.8405386
40
0.559104
50
333.0706509
51
348.7181832
0
ARC
8
DEFAULT_255_1_234
10
21.6496238
20
44.7880319
40
0.4491417
50
299.2531685
51
333.4571258
0
ARC
8
DEFAULT_255_1_234
10
21.6135378
20
44.8565828
40
0.5265881
50
278.107187
51
299.0339503
0
ARC
8
DEFAULT_255_1_234
10
21.5879457
20
45.0073216
40
0.679442
50
270.4443897
51
278.4511052
0
ARC
8
DEFAULT_255_1_234
10
21.5900287
20
44.9144213
40
0.4604407
50
269.4970433
51
284.0205042
0
ARC
8
DEFAULT_255_1_234
10
21.6255588
20
44.7778978
40
0.3193797
50
283.7700273
51
318.1555492
0
ARC
8
DEFAULT_255_1_234
10
21.5918346
20
44.8031367
40
0.3613588
50
318.7415601
51
343.6873628
0
ARC
8
DEFAULT_255_1_234
10
21.4114369
20
44.8594832
40
0.5503313
50
343.3325091
51
355.8548958
0
ARC
8
DEFAULT_255_1_234
10
21.2016054
20
44.8794319
40
0.7610708
50
355.4988528
51
0.0791727
0
ARC
8
DEFAULT_255_1_234
10
21.2798676
20
44.952978
40
0.6828208
50
359.6455037
51
9.8607896
0
ARC
8
DEFAULT_255_1_234
10
21.5159374
20
44.9956099
40
0.4429406
50
9.6571907
51
26.1932807
0
ARC
8
DEFAULT_255_1_234
10
21.6087363
20
45.0387118
40
0.3406537
50
26.5777228
51
40.1532208
0
ARC
8
DEFAULT_255_1_234
10
21.6343089
20
45.0586619
40
0.308246
50
40.3840491
51
80.1431104
0
ARC
8
DEFAULT_255_1_234
10
21.6016207
20
44.9137333
40
0.4566909
50
79.2152159
51
89.7445637
0
LINE
8
DEFAULT_255_1_234
10
23.2477535
20
44.9487534
11
23.2477535
21
44.8748614
0
LINE
8
DEFAULT_255_1_234
10
22.307237
20
44.8644201
11
22.307237
21
44.9487534
0
LINE
8
DEFAULT_255_1_234
10
23.0943473
20
44.8636169
11
23.0943473
21
44.9503597
0
LINE
8
DEFAULT_255_1_234
10
22.4606432
20
44.960801
11
22.4606432
21
44.8748614
0
ARC
8
DEFAULT_255_1_234
10
22.3835562
20
44.8709015
40
0.8642064
50
350.487711
51
0.2625388
0
ARC
8
DEFAULT_255_1_234
10
22.6128803
20
44.8314578
40
0.631518
50
336.0277639
51
350.5787438
0
ARC
8
DEFAULT_255_1_234
10
22.7473626
20
44.7706892
40
0.4839466
50
319.8877444
51
336.1328423
0
ARC
8
DEFAULT_255_1_234
10
22.8076267
20
44.722458
40
0.4067874
50
302.4806467
51
319.6143626
0
ARC
8
DEFAULT_255_1_234
10
22.7961278
20
44.7446202
40
0.4316636
50
275.8195682
51
302.1884709
0
ARC
8
DEFAULT_255_1_234
10
22.7794911
20
44.8588665
40
0.5470306
50
269.9171439
51
276.3397983
0
ARC
8
DEFAULT_255_1_234
10
22.7750121
20
44.7902681
40
0.4784458
50
252.5219675
51
270.4416499
0
ARC
8
DEFAULT_255_1_234
10
22.760638
20
44.7363592
40
0.422716
50
237.5352116
51
252.1857531
0
ARC
8
DEFAULT_255_1_234
10
22.7695575
20
44.7477363
40
0.4371052
50
209.063312
51
237.3492538
0
ARC
8
DEFAULT_255_1_234
10
22.8565423
20
44.8023685
40
0.5397041
50
205.1183774
51
209.6470015
0
ARC
8
DEFAULT_255_1_234
10
22.936246
20
44.836183
40
0.6262326
50
188.7215458
51
204.8240747
0
ARC
8
DEFAULT_255_1_234
10
23.1359988
20
44.8698067
40
0.8287794
50
180.3723947
51
188.9252049
0
ARC
8
DEFAULT_255_1_234
10
23.133274
20
44.9527402
40
0.8260467
50
169.5253763
51
180.2765336
0
ARC
8
DEFAULT_255_1_234
10
22.9430189
20
44.9877309
40
0.6326007
50
155.8315255
51
169.5089989
0
ARC
8
DEFAULT_255_1_234
10
22.814969
20
45.0471348
40
0.4914567
50
139.6258461
51
156.0379525
0
ARC
8
DEFAULT_255_1_234
10
22.7560023
20
45.0945799
40
0.4158054
50
122.6416387
51
139.3430715
0
ARC
8
DEFAULT_255_1_234
10
22.7660643
20
45.0762451
40
0.4366739
50
93.0223692
51
122.455762
0
ARC
8
DEFAULT_255_1_234
10
22.776864
20
44.9797709
40
0.5336137
50
89.975342
51
93.6341897
0
ARC
8
DEFAULT_255_1_234
10
22.780742
20
45.0196242
40
0.4937738
50
73.746375
51
90.4233405
0
ARC
8
DEFAULT_255_1_234
10
22.7982998
20
45.0876287
40
0.4235786
50
57.662753
51
73.4518111
0
ARC
8
DEFAULT_255_1_234
10
22.7975004
20
45.0897832
40
0.4221899
50
29.1440151
51
57.414694
0
ARC
8
DEFAULT_255_1_234
10
22.7040199
20
45.0314005
40
0.5322966
50
24.0982783
51
29.7323517
0
ARC
8
DEFAULT_255_1_234
10
22.6006474
20
44.9885399
40
0.6441673
50
8.6655297
51
23.8241346
0
ARC
8
DEFAULT_255_1_234
10
22.3772212
20
44.9520854
40
0.8705386
50
359.7806941
51
8.8218784
0
ARC
8
DEFAULT_255_1_234
10
22.262521
20
44.9546345
40
0.8318373
50
359.7055579
51
8.036044
0
ARC
8
DEFAULT_255_1_234
10
22.5625216
20
44.9983239
40
0.5286768
50
7.8928306
51
20.2962107
0
ARC
8
DEFAULT_255_1_234
10
22.7252787
20
45.0583395
40
0.3552073
50
20.3231126
51
36.4992797
0
ARC
8
DEFAULT_255_1_234
10
22.7938333
20
45.1111402
40
0.2686974
50
36.1437156
51
85.6627023
0
ARC
8
DEFAULT_255_1_234
10
22.7775879
20
45.0071221
40
0.373739
50
84.3852322
51
90.0757696
0
ARC
8
DEFAULT_255_1_234
10
22.7733551
20
45.0731839
40
0.3076997
50
89.3038458
51
109.9045693
0
ARC
8
DEFAULT_255_1_234
10
22.7640942
20
45.1114062
40
0.2686424
50
110.8228367
51
143.9179474
0
ARC
8
DEFAULT_255_1_234
10
22.8574603
20
45.0401236
40
0.3860887
50
143.5289163
51
163.2980757
0
ARC
8
DEFAULT_255_1_234
10
23.0482423
20
44.9801433
40
0.5860659
50
163.0418846
51
174.3140048
0
ARC
8
DEFAULT_255_1_234
10
23.2886535
20
44.9523854
40
0.8280531
50
174.0509143
51
179.4176892
0
ARC
8
DEFAULT_255_1_234
10
23.2382274
20
44.8706954
40
0.7775954
50
179.6930361
51
188.7906598
0
ARC
8
DEFAULT_255_1_234
10
22.9718753
20
44.8280935
40
0.5078633
50
188.6331305
51
202.5629587
0
ARC
8
DEFAULT_255_1_234
10
22.8464345
20
44.7776996
40
0.3726913
50
202.8081362
51
216.1193925
0
ARC
8
DEFAULT_255_1_234
10
22.7654915
20
44.7125676
40
0.2689577
50
215.0755913
51
264.6379694
0
ARC
8
DEFAULT_255_1_234
10
22.7781865
20
44.7956513
40
0.3528978
50
263.846392
51
270.0833719
0
ARC
8
DEFAULT_255_1_234
10
22.7823255
20
44.7698374
40
0.3271036
50
269.3649385
51
287.5152008
0
ARC
8
DEFAULT_255_1_234
10
22.8001413
20
44.7051238
40
0.2600406
50
288.0630309
51
323.8113348
0
ARC
8
DEFAULT_255_1_234
10
22.7130255
20
44.7701049
40
0.3687189
50
323.6547608
51
342.6590488
0
ARC
8
DEFAULT_255_1_234
10
22.509887
20
44.8361952
40
0.5823286
50
342.4091907
51
353.6451149
0
ARC
8
DEFAULT_255_1_234
10
22.2267381
20
44.871419
40
0.8676442
50
353.4029884
51
359.4847795
0
LINE
8
DEFAULT_255_1_234
10
24.2067431
20
44.4491792
11
24.2067431
21
44.3279
0
LINE
8
DEFAULT_255_1_234
10
24.2067431
20
44.3279
11
23.4405152
21
44.3279
0
LINE
8
DEFAULT_255_1_234
10
23.4405152
20
44.3279
11
23.4405152
21
44.4347221
0
LINE
8
DEFAULT_255_1_234
10
23.4405152
20
44.4347221
11
23.8453148
21
44.8844995
0
LINE
8
DEFAULT_255_1_234
10
23.5666135
20
45.1527595
11
23.4180264
21
45.1527595
0
LINE
8
DEFAULT_255_1_234
10
23.9328608
20
44.7889218
11
23.619623
21
44.4491792
0
LINE
8
DEFAULT_255_1_234
10
23.619623
20
44.4491792
11
24.2067431
21
44.4491792
0
ARC
8
DEFAULT_255_1_234
10
22.4962982
20
46.0774527
40
1.8008286
50
318.5132453
51
320.7828378
0
ARC
8
DEFAULT_255_1_234
10
23.0249956
20
45.6471426
40
1.1191493
50
320.7372736
51
323.9737074
0
ARC
8
DEFAULT_255_1_234
10
23.4169813
20
45.3631361
40
0.6350923
50
323.8961724
51
328.6421089
0
ARC
8
DEFAULT_255_1_234
10
23.6216408
20
45.2369031
40
0.3946393
50
328.8299013
51
331.789948
0
ARC
8
DEFAULT_255_1_234
10
23.7213586
20
45.1854509
40
0.2824501
50
331.4255242
51
352.9364833
0
ARC
8
DEFAULT_255_1_234
10
23.7350087
20
45.1823976
40
0.2685315
50
353.2248685
51
0.0169286
0
ARC
8
DEFAULT_255_1_234
10
23.7559964
20
45.184695
40
0.2475536
50
359.4866256
51
15.9339782
0
ARC
8
DEFAULT_255_1_234
10
23.8066949
20
45.1983286
40
0.1950618
50
16.1714718
51
43.5284424
0
ARC
8
DEFAULT_255_1_234
10
23.8144258
20
45.2060573
40
0.184134
50
43.4415429
51
83.1661404
0
ARC
8
DEFAULT_255_1_234
10
23.8010176
20
45.1323771
40
0.258926
50
82.160215
51
90.1505798
0
ARC
8
DEFAULT_255_1_234
10
23.7978603
20
45.0786865
40
0.3126255
50
89.5460705
51
102.5418777
0
ARC
8
DEFAULT_255_1_234
10
23.7735689
20
45.1817665
40
0.2067346
50
102.1739365
51
129.2061916
0
ARC
8
DEFAULT_255_1_234
10
23.7656761
20
45.1942094
40
0.1921118
50
129.7279328
51
135.7542026
0
ARC
8
DEFAULT_255_1_234
10
23.7778289
20
45.1845045
40
0.2075944
50
136.175737
51
166.3674722
0
ARC
8
DEFAULT_255_1_234
10
23.8785208
20
45.1575182
40
0.3118201
50
165.9092917
51
178.8683903
0
ARC
8
DEFAULT_255_1_234
10
23.9650069
20
45.1528179
40
0.3983935
50
178.438168
51
180.0083905
0
ARC
8
DEFAULT_255_1_234
10
23.8248671
20
45.1567231
40
0.4068601
50
163.2878735
51
180.5581814
0
ARC
8
DEFAULT_255_1_234
10
23.7446933
20
45.178784
40
0.3237344
50
133.454115
51
162.9470031
0
ARC
8
DEFAULT_255_1_234
10
23.7625474
20
45.1598
40
0.349795
50
100.7869394
51
133.4384016
0
ARC
8
DEFAULT_255_1_234
10
23.7973246
20
45.0049319
40
0.5084616
50
89.6605301
51
101.3704185
0
ARC
8
DEFAULT_255_1_234
10
23.8039585
20
45.0110496
40
0.502348
50
78.2171172
51
90.4130393
0
ARC
8
DEFAULT_255_1_234
10
23.8394663
20
45.1734637
40
0.3361092
50
55.9268222
51
78.4888551
0
ARC
8
DEFAULT_255_1_234
10
23.8591103
20
45.2073324
40
0.2970617
50
47.9292255
51
55.4054003
0
ARC
8
DEFAULT_255_1_234
10
23.8692664
20
45.2176502
40
0.2825983
50
4.3347696
51
48.0560701
0
ARC
8
DEFAULT_255_1_234
10
23.7597057
20
45.2006601
40
0.393225
50
359.925209
51
5.5967654
0
ARC
8
DEFAULT_255_1_234
10
23.8025949
20
45.2062816
40
0.3503892
50
337.8914096
51
358.9967724
0
ARC
8
DEFAULT_255_1_234
10
23.5312361
20
45.3109706
40
0.6412172
50
326.9135351
51
338.3505194
0
ARC
8
DEFAULT_255_1_234
10
23.1326665
20
45.5664284
40
1.1146189
50
319.6472867
51
327.095818
0
ARC
8
DEFAULT_255_1_234
10
22.7493668
20
45.8826
40
1.6114559
50
317.2586784
51
319.9046139
0
LINE
8
DEFAULT_255_1_234
10
21.6018154
20
52.2654
11
21.2781364
21
52.2654
0
LINE
8
DEFAULT_255_1_234
10
21.2781364
20
52.2654
11
21.2781364
21
53.4348211
0
LINE
8
DEFAULT_255_1_234
10
21.2781364
20
53.4348211
11
21.6082408
21
53.4348211
0
LINE
8
DEFAULT_255_1_234
10
22.1238784
20
52.8894661
11
22.1238784
21
52.8147709
0
LINE
8
DEFAULT_255_1_234
10
21.6122567
20
53.3079196
11
21.4323458
21
53.3079196
0
LINE
8
DEFAULT_255_1_234
10
21.4323458
20
53.3079196
11
21.4323458
21
52.3914983
0
LINE
8
DEFAULT_255_1_234
10
21.4323458
20
52.3914983
11
21.5945869
21
52.3914983
0
LINE
8
DEFAULT_255_1_234
10
21.9712754
20
52.8179836
11
21.9712754
21
52.8862534
0
ARC
8
DEFAULT_255_1_234
10
21.6121351
20
52.8482894
40
0.5865446
50
75.4101064
51
90.3804066
0
ARC
8
DEFAULT_255_1_234
10
21.6350864
20
52.9439492
40
0.4881916
50
60.145586
51
75.1888407
0
ARC
8
DEFAULT_255_1_234
10
21.650964
20
52.9716199
40
0.4562893
50
26.5253612
51
60.1450928
0
ARC
8
DEFAULT_255_1_234
10
21.5389389
20
52.9122158
40
0.5830602
50
7.4030428
51
26.8320788
0
ARC
8
DEFAULT_255_1_234
10
21.3795146
20
52.8873804
40
0.7443669
50
0.1605367
51
7.7176192
0
ARC
8
DEFAULT_255_1_234
10
21.395905
20
52.8109434
40
0.7279835
50
348.7289388
51
0.3012466
0
ARC
8
DEFAULT_255_1_234
10
21.5615481
20
52.7780386
40
0.559104
50
333.0706509
51
348.7181832
0
ARC
8
DEFAULT_255_1_234
10
21.6582238
20
52.7255319
40
0.4491417
50
299.2531685
51
333.4571258
0
ARC
8
DEFAULT_255_1_234
10
21.6221378
20
52.7940828
40
0.5265881
50
278.107187
51
299.0339503
0
ARC
8
DEFAULT_255_1_234
10
21.5965457
20
52.9448216
40
0.679442
50
270.4443897
51
278.4511052
0
ARC
8
DEFAULT_255_1_234
10
21.5986287
20
52.8519213
40
0.4604407
50
269.4970433
51
284.0205042
0
ARC
8
DEFAULT_255_1_234
10
21.6341588
20
52.7153978
40
0.3193797
50
283.7700273
51
318.1555492
0
ARC
8
DEFAULT_255_1_234
10
21.6004346
20
52.7406367
40
0.3613588
50
318.7415601
51
343.6873628
0
ARC
8
DEFAULT_255_1_234
10
21.4200369
20
52.7969832
40
0.5503313
50
343.3325091
51
355.8548958
0
ARC
8
DEFAULT_255_1_234
10
21.2102054
20
52.8169319
40
0.7610708
50
355.4988528
51
0.0791727
0
ARC
8
DEFAULT_255_1_234
10
21.2884676
20
52.890478
40
0.6828208
50
359.6455037
51
9.8607896
0
ARC
8
DEFAULT_255_1_234
10
21.5245374
20
52.9331099
40
0.4429406
50
9.6571907
51
26.1932807
0
ARC
8
DEFAULT_255_1_234
10
21.6173363
20
52.9762118
40
0.3406537
50
26.5777228
51
40.1532208
0
ARC
8
DEFAULT_255_1_234
10
21.6429089
20
52.9961619
40
0.308246
50
40.3840491
51
80.1431104
0
ARC
8
DEFAULT_255_1_234
10
21.6102207
20
52.8512333
40
0.4566909
50
79.2152159
51
89.7445637
0
LINE
8
DEFAULT_255_1_234
10
23.2563535
20
52.8862534
11
23.2563535
21
52.8123614
0
LINE
8
DEFAULT_255_1_234
10
22.315837
20
52.8019201
11
22.315837
21
52.8862534
0
LINE
8
DEFAULT_255_1_234
10
23.1029473
20
52.8011169
11
23.1029473
21
52.8878597
0
LINE
8
DEFAULT_255_1_234
10
22.4692432
20
52.898301
11
22.4692432
21
52.8123614
0
ARC
8
DEFAULT_255_1_234
10
22.3921562
20
52.8084015
40
0.8642064
50
350.487711
51
0.2625388
0
ARC
8
DEFAULT_255_1_234
10
22.6214803
20
52.7689578
40
0.631518
50
336.0277639
51
350.5787438
0
ARC
8
DEFAULT_255_1_234
10
22.7559626
20
52.7081892
40
0.4839466
50
319.8877444
51
336.1328423
0
ARC
8
DEFAULT_255_1_234
10
22.8162267
20
52.659958
40
0.4067874
50
302.4806467
51
319.6143626
0
ARC
8
DEFAULT_255_1_234
10
22.8047278
20
52.6821202
40
0.4316636
50
275.8195682
51
302.1884709
0
ARC
8
DEFAULT_255_1_234
10
22.7880911
20
52.7963665
40
0.5470306
50
269.9171439
51
276.3397983
0
ARC
8
DEFAULT_255_1_234
10
22.7836121
20
52.7277681
40
0.4784458
50
252.5219675
51
270.4416499
0
ARC
8
DEFAULT_255_1_234
10
22.769238
20
52.6738592
40
0.422716
50
237.5352116
51
252.1857531
0
ARC
8
DEFAULT_255_1_234
10
22.7781575
20
52.6852363
40
0.4371052
50
209.063312
51
237.3492538
0
ARC
8
DEFAULT_255_1_234
10
22.8651423
20
52.7398685
40
0.5397041
50
205.1183774
51
209.6470015
0
ARC
8
DEFAULT_255_1_234
10
22.944846
20
52.773683
40
0.6262326
50
188.7215458
51
204.8240747
0
ARC
8
DEFAULT_255_1_234
10
23.1445988
20
52.8073067
40
0.8287794
50
180.3723947
51
188.9252049
0
ARC
8
DEFAULT_255_1_234
10
23.141874
20
52.8902402
40
0.8260467
50
169.5253763
51
180.2765336
0
ARC
8
DEFAULT_255_1_234
10
22.9516189
20
52.9252309
40
0.6326007
50
155.8315255
51
169.5089989
0
ARC
8
DEFAULT_255_1_234
10
22.823569
20
52.9846348
40
0.4914567
50
139.6258461
51
156.0379525
0
ARC
8
DEFAULT_255_1_234
10
22.7646023
20
53.0320799
40
0.4158054
50
122.6416387
51
139.3430715
0
ARC
8
DEFAULT_255_1_234
10
22.7746643
20
53.0137451
40
0.4366739
50
93.0223692
51
122.455762
0
ARC
8
DEFAULT_255_1_234
10
22.785464
20
52.9172709
40
0.5336137
50
89.975342
51
93.6341897
0
ARC
8
DEFAULT_255_1_234
10
22.789342
20
52.9571242
40
0.4937738
50
73.746375
51
90.4233405
0
ARC
8
DEFAULT_255_1_234
10
22.8068998
20
53.0251287
40
0.4235786
50
57.662753
51
73.4518111
0
ARC
8
DEFAULT_255_1_234
10
22.8061004
20
53.0272832
40
0.4221899
50
29.1440151
51
57.414694
0
ARC
8
DEFAULT_255_1_234
10
22.7126199
20
52.9689005
40
0.5322966
50
24.0982783
51
29.7323517
0
ARC
8
DEFAULT_255_1_234
10
22.6092474
20
52.9260399
40
0.6441673
50
8.6655297
51
23.8241346
0
ARC
8
DEFAULT_255_1_234
10
22.3858212
20
52.8895854
40
0.8705386
50
359.7806941
51
8.8218784
0
ARC
8
DEFAULT_255_1_234
10
22.271121
20
52.8921345
40
0.8318373
50
359.7055579
51
8.036044
0
ARC
8
DEFAULT_255_1_234
10
22.5711216
20
52.9358239
40
0.5286768
50
7.8928306
51
20.2962107
0
ARC
8
DEFAULT_255_1_234
10
22.7338787
20
52.9958395
40
0.3552073
50
20.3231126
51
36.4992797
0
ARC
8
DEFAULT_255_1_234
10
22.8024333
20
53.0486402
40
0.2686974
50
36.1437156
51
85.6627023
0
ARC
8
DEFAULT_255_1_234
10
22.7861879
20
52.9446221
40
0.373739
50
84.3852322
51
90.0757696
0
ARC
8
DEFAULT_255_1_234
10
22.7819551
20
53.0106839
40
0.3076997
50
89.3038458
51
109.9045693
0
ARC
8
DEFAULT_255_1_234
10
22.7726942
20
53.0489062
40
0.2686424
50
110.8228367
51
143.9179474
0
ARC
8
DEFAULT_255_1_234
10
22.8660603
20
52.9776236
40
0.3860887
50
143.5289163
51
163.2980757
0
ARC
8
DEFAULT_255_1_234
10
23.0568423
20
52.9176433
40
0.5860659
50
163.0418846
51
174.3140048
0
ARC
8
DEFAULT_255_1_234
10
23.2972535
20
52.8898854
40
0.8280531
50
174.0509143
51
179.4176892
0
ARC
8
DEFAULT_255_1_234
10
23.2468274
20
52.8081954
40
0.7775954
50
179.6930361
51
188.7906598
0
ARC
8
DEFAULT_255_1_234
10
22.9804753
20
52.7655935
40
0.5078633
50
188.6331305
51
202.5629587
0
ARC
8
DEFAULT_255_1_234
10
22.8550345
20
52.7151996
40
0.3726913
50
202.8081362
51
216.1193925
0
ARC
8
DEFAULT_255_1_234
10
22.7740915
20
52.6500676
40
0.2689577
50
215.0755913
51
264.6379694
0
ARC
8
DEFAULT_255_1_234
10
22.7867865
20
52.7331513
40
0.3528978
50
263.846392
51
270.0833719
0
ARC
8
DEFAULT_255_1_234
10
22.7909255
20
52.7073374
40
0.3271036
50
269.3649385
51
287.5152008
0
ARC
8
DEFAULT_255_1_234
10
22.8087413
20
52.6426238
40
0.2600406
50
288.0630309
51
323.8113348
0
ARC
8
DEFAULT_255_1_234
10
22.7216255
20
52.7076049
40
0.3687189
50
323.6547608
51
342.6590488
0
ARC
8
DEFAULT_255_1_234
10
22.518487
20
52.7736952
40
0.5823286
50
342.4091907
51
353.6451149
0
ARC
8
DEFAULT_255_1_234
10
22.2353381
20
52.808919
40
0.8676442
50
353.4029884
51
359.4847795
0
LINE
8
DEFAULT_255_1_234
10
23.9374449
20
53.4404433
11
23.9374449
21
52.2654
0
LINE
8
DEFAULT_255_1_234
10
23.9374449
20
52.2654
11
23.7880546
21
52.2654
0
LINE
8
DEFAULT_255_1_234
10
23.7880546
20
52.2654
11
23.7880546
21
53.2557133
0
LINE
8
DEFAULT_255_1_234
10
23.7880546
20
53.2557133
11
23.4884708
21
53.1456785
0
LINE
8
DEFAULT_255_1_234
10
23.4884708
20
53.1456785
11
23.4884708
21
53.2806117
0
LINE
8
DEFAULT_255_1_234
10
23.4884708
20
53.2806117
11
23.9141529
21
53.4404433
0
LINE
8
DEFAULT_255_1_234
10
23.9141529
20
53.4404433
11
23.9374449
21
53.4404433
0
LINE
8
DEFAULT_255_1_234
10
21.5932154
20
60.2029
11
21.2695364
21
60.2029
0
LINE
8
DEFAULT_255_1_234
10
21.2695364
20
60.2029
11
21.2695364
21
61.3723211
0
LINE
8
DEFAULT_255_1_234
10
21.2695364
20
61.3723211
11
21.5996408
21
61.3723211
0
LINE
8
DEFAULT_255_1_234
10
22.1152784
20
60.8269661
11
22.1152784
21
60.7522709
0
LINE
8
DEFAULT_255_1_234
10
21.6036567
20
61.2454196
11
21.4237458
21
61.2454196
0
LINE
8
DEFAULT_255_1_234
10
21.4237458
20
61.2454196
11
21.4237458
21
60.3289983
0
LINE
8
DEFAULT_255_1_234
10
21.4237458
20
60.3289983
11
21.5859869
21
60.3289983
0
LINE
8
DEFAULT_255_1_234
10
21.9626754
20
60.7554836
11
21.9626754
21
60.8237534
0
ARC
8
DEFAULT_255_1_234
10
21.6035351
20
60.7857894
40
0.5865446
50
75.4101064
51
90.3804066
0
ARC
8
DEFAULT_255_1_234
10
21.6264864
20
60.8814492
40
0.4881916
50
60.145586
51
75.1888407
0
ARC
8
DEFAULT_255_1_234
10
21.642364
20
60.9091199
40
0.4562893
50
26.5253612
51
60.1450928
0
ARC
8
DEFAULT_255_1_234
10
21.5303389
20
60.8497158
40
0.5830602
50
7.4030428
51
26.8320788
0
ARC
8
DEFAULT_255_1_234
10
21.3709146
20
60.8248804
40
0.7443669
50
0.1605367
51
7.7176192
0
ARC
8
DEFAULT_255_1_234
10
21.387305
20
60.7484434
40
0.7279835
50
348.7289388
51
0.3012466
0
ARC
8
DEFAULT_255_1_234
10
21.5529481
20
60.7155386
40
0.559104
50
333.0706509
51
348.7181832
0
ARC
8
DEFAULT_255_1_234
10
21.6496238
20
60.6630319
40
0.4491417
50
299.2531685
51
333.4571258
0
ARC
8
DEFAULT_255_1_234
10
21.6135378
20
60.7315828
40
0.5265881
50
278.107187
51
299.0339503
0
ARC
8
DEFAULT_255_1_234
10
21.5879457
20
60.8823216
40
0.679442
50
270.4443897
51
278.4511052
0
ARC
8
DEFAULT_255_1_234
10
21.5900287
20
60.7894213
40
0.4604407
50
269.4970433
51
284.0205042
0
ARC
8
DEFAULT_255_1_234
10
21.6255588
20
60.6528978
40
0.3193797
50
283.7700273
51
318.1555492
0
ARC
8
DEFAULT_255_1_234
10
21.5918346
20
60.6781367
40
0.3613588
50
318.7415601
51
343.6873628
0
ARC
8
DEFAULT_255_1_234
10
21.4114369
20
60.7344832
40
0.5503313
50
343.3325091
51
355.8548958
0
ARC
8
DEFAULT_255_1_234
10
21.2016054
20
60.7544319
40
0.7610708
50
355.4988528
51
0.0791727
0
ARC
8
DEFAULT_255_1_234
10
21.2798676
20
60.827978
40
0.6828208
50
359.6455037
51
9.8607896
0
ARC
8
DEFAULT_255_1_234
10
21.5159374
20
60.8706099
40
0.4429406
50
9.6571907
51
26.1932807
0
ARC
8
DEFAULT_255_1_234
10
21.6087363
20
60.9137118
40
0.3406537
50
26.5777228
51
40.1532208
0
ARC
8
DEFAULT_255_1_234
10
21.6343089
20
60.9336619
40
0.308246
50
40.3840491
51
80.1431104
0
ARC
8
DEFAULT_255_1_234
10
21.6016207
20
60.7887333
40
0.4566909
50
79.2152159
51
89.7445637
0
LINE
8
DEFAULT_255_1_234
10
23.2477535
20
60.8237534
11
23.2477535
21
60.7498614
0
LINE
8
DEFAULT_255_1_234
10
22.307237
20
60.7394201
11
22.307237
21
60.8237534
0
LINE
8
DEFAULT_255_1_234
10
23.0943473
20
60.7386169
11
23.0943473
21
60.8253597
0
LINE
8
DEFAULT_255_1_234
10
22.4606432
20
60.835801
11
22.4606432
21
60.7498614
0
ARC
8
DEFAULT_255_1_234
10
22.3835562
20
60.7459015
40
0.8642064
50
350.487711
51
0.2625388
0
ARC
8
DEFAULT_255_1_234
10
22.6128803
20
60.7064578
40
0.631518
50
336.0277639
51
350.5787438
0
ARC
8
DEFAULT_255_1_234
10
22.7473626
20
60.6456892
40
0.4839466
50
319.8877444
51
336.1328423
0
ARC
8
DEFAULT_255_1_234
10
22.8076267
20
60.597458
40
0.4067874
50
302.4806467
51
319.6143626
0
ARC
8
DEFAULT_255_1_234
10
22.7961278
20
60.6196202
40
0.4316636
50
275.8195682
51
302.1884709
0
ARC
8
DEFAULT_255_1_234
10
22.7794911
20
60.7338665
40
0.5470306
50
269.9171439
51
276.3397983
0
ARC
8
DEFAULT_255_1_234
10
22.7750121
20
60.6652681
40
0.4784458
50
252.5219675
51
270.4416499
0
ARC
8
DEFAULT_255_1_234
10
22.760638
20
60.6113592
40
0.422716
50
237.5352116
51
252.1857531
0
ARC
8
DEFAULT_255_1_234
10
22.7695575
20
60.6227363
40
0.4371052
50
209.063312
51
237.3492538
0
ARC
8
DEFAULT_255_1_234
10
22.8565423
20
60.6773685
40
0.5397041
50
205.1183774
51
209.6470015
0
ARC
8
DEFAULT_255_1_234
10
22.936246
20
60.711183
40
0.6262326
50
188.7215458
51
204.8240747
0
ARC
8
DEFAULT_255_1_234
10
23.1359988
20
60.7448067
40
0.8287794
50
180.3723947
51
188.9252049
0
ARC
8
DEFAULT_255_1_234
10
23.133274
20
60.8277402
40
0.8260467
50
169.5253763
51
180.2765336
0
ARC
8
DEFAULT_255_1_234
10
22.9430189
20
60.8627309
40
0.6326007
50
155.8315255
51
169.5089989
0
ARC
8
DEFAULT_255_1_234
10
22.814969
20
60.9221348
40
0.4914567
50
139.6258461
51
156.0379525
0
ARC
8
DEFAULT_255_1_234
10
22.7560023
20
60.9695799
40
0.4158054
50
122.6416387
51
139.3430715
0
ARC
8
DEFAULT_255_1_234
10
22.7660643
20
60.9512451
40
0.4366739
50
93.0223692
51
122.455762
0
ARC
8
DEFAULT_255_1_234
10
22.776864
20
60.8547709
40
0.5336137
50
89.975342
51
93.6341897
0
ARC
8
DEFAULT_255_1_234
10
22.780742
20
60.8946242
40
0.4937738
50
73.746375
51
90.4233405
0
ARC
8
DEFAULT_255_1_234
10
22.7982998
20
60.9626287
40
0.4235786
50
57.662753
51
73.4518111
0
ARC
8
DEFAULT_255_1_234
10
22.7975004
20
60.9647832
40
0.4221899
50
29.1440151
51
57.414694
0
ARC
8
DEFAULT_255_1_234
10
22.7040199
20
60.9064005
40
0.5322966
50
24.0982783
51
29.7323517
0
ARC
8
DEFAULT_255_1_234
10
22.6006474
20
60.8635399
40
0.6441673
50
8.6655297
51
23.8241346
0
ARC
8
DEFAULT_255_1_234
10
22.3772212
20
60.8270854
40
0.8705386
50
359.7806941
51
8.8218784
0
ARC
8
DEFAULT_255_1_234
10
22.262521
20
60.8296345
40
0.8318373
50
359.7055579
51
8.036044
0
ARC
8
DEFAULT_255_1_234
10
22.5625216
20
60.8733239
40
0.5286768
50
7.8928306
51
20.2962107
0
ARC
8
DEFAULT_255_1_234
10
22.7252787
20
60.9333395
40
0.3552073
50
20.3231126
51
36.4992797
0
ARC
8
DEFAULT_255_1_234
10
22.7938333
20
60.9861402
40
0.2686974
50
36.1437156
51
85.6627023
0
ARC
8
DEFAULT_255_1_234
10
22.7775879
20
60.8821221
40
0.373739
50
84.3852322
51
90.0757696
0
ARC
8
DEFAULT_255_1_234
10
22.7733551
20
60.9481839
40
0.3076997
50
89.3038458
51
109.9045693
0
ARC
8
DEFAULT_255_1_234
10
22.7640942
20
60.9864062
40
0.2686424
50
110.8228367
51
143.9179474
0
ARC
8
DEFAULT_255_1_234
10
22.8574603
20
60.9151236
40
0.3860887
50
143.5289163
51
163.2980757
0
ARC
8
DEFAULT_255_1_234
10
23.0482423
20
60.8551433
40
0.5860659
50
163.0418846
51
174.3140048
0
ARC
8
DEFAULT_255_1_234
10
23.2886535
20
60.8273854
40
0.8280531
50
174.0509143
51
179.4176892
0
ARC
8
DEFAULT_255_1_234
10
23.2382274
20
60.7456954
40
0.7775954
50
179.6930361
51
188.7906598
0
ARC
8
DEFAULT_255_1_234
10
22.9718753
20
60.7030935
40
0.5078633
50
188.6331305
51
202.5629587
0
ARC
8
DEFAULT_255_1_234
10
22.8464345
20
60.6526996
40
0.3726913
50
202.8081362
51
216.1193925
0
ARC
8
DEFAULT_255_1_234
10
22.7654915
20
60.5875676
40
0.2689577
50
215.0755913
51
264.6379694
0
ARC
8
DEFAULT_255_1_234
10
22.7781865
20
60.6706513
40
0.3528978
50
263.846392
51
270.0833719
0
ARC
8
DEFAULT_255_1_234
10
22.7823255
20
60.6448374
40
0.3271036
50
269.3649385
51
287.5152008
0
ARC
8
DEFAULT_255_1_234
10
22.8001413
20
60.5801238
40
0.2600406
50
288.0630309
51
323.8113348
0
ARC
8
DEFAULT_255_1_234
10
22.7130255
20
60.6451049
40
0.3687189
50
323.6547608
51
342.6590488
0
ARC
8
DEFAULT_255_1_234
10
22.509887
20
60.7111952
40
0.5823286
50
342.4091907
51
353.6451149
0
ARC
8
DEFAULT_255_1_234
10
22.2267381
20
60.746419
40
0.8676442
50
353.4029884
51
359.4847795
0
LINE
8
DEFAULT_255_1_234
10
24.1738129
20
60.8944327
11
24.1738129
21
60.7016709
0
LINE
8
DEFAULT_255_1_234
10
23.4356962
20
60.6815916
11
23.4356962
21
60.8799755
0
LINE
8
DEFAULT_255_1_234
10
24.0252258
20
60.6615123
11
24.0252258
21
60.9048739
0
LINE
8
DEFAULT_255_1_234
10
23.5842833
20
60.9161184
11
23.5842833
21
60.6783789
0
ARC
8
DEFAULT_255_1_234
10
22.9491019
20
60.6967805
40
1.2247208
50
353.8441951
51
0.2287902
0
ARC
8
DEFAULT_255_1_234
10
23.4130523
20
60.6449806
40
0.7578929
50
344.4934747
51
353.9765454
0
ARC
8
DEFAULT_255_1_234
10
23.7123113
20
60.5598981
40
0.4467846
50
329.2803592
51
344.7472793
0
ARC
8
DEFAULT_255_1_234
10
23.8115938
20
60.5054018
40
0.3336173
50
324.9352394
51
328.6160465
0
ARC
8
DEFAULT_255_1_234
10
23.8493046
20
60.4790427
40
0.2876076
50
280.580143
51
324.9173126
0
ARC
8
DEFAULT_255_1_234
10
23.8091839
20
60.6461099
40
0.4592847
50
269.5977311
51
281.6734359
0
ARC
8
DEFAULT_255_1_234
10
23.8019745
20
60.6341173
40
0.4472986
50
256.6228859
51
270.51044
0
ARC
8
DEFAULT_255_1_234
10
23.7617722
20
60.4792877
40
0.2873874
50
215.8618325
51
257.2788573
0
ARC
8
DEFAULT_255_1_234
10
23.8638754
20
60.5477977
40
0.4102928
50
197.9693508
51
215.2623606
0
ARC
8
DEFAULT_255_1_234
10
24.112387
20
60.6316709
40
0.6725652
50
187.8816417
51
198.2346507
0
ARC
8
DEFAULT_255_1_234
10
24.5082078
20
60.6888079
40
1.0724845
50
180.8976217
51
188.0055519
0
ARC
8
DEFAULT_255_1_234
10
24.7882266
20
60.6991777
40
1.3526448
50
180.7449369
51
181.1510016
0
ARC
8
DEFAULT_255_1_234
10
24.6304995
20
60.8848042
40
1.1948131
50
173.7675579
51
180.231553
0
ARC
8
DEFAULT_255_1_234
10
24.1787142
20
60.9358666
40
0.7401564
50
164.3058563
51
173.9002247
0
ARC
8
DEFAULT_255_1_234
10
23.8875211
20
61.0197656
40
0.4371288
50
148.7922025
51
164.568378
0
ARC
8
DEFAULT_255_1_234
10
23.7923663
20
61.0728929
40
0.3282386
50
144.5883898
51
148.1176286
0
ARC
8
DEFAULT_255_1_234
10
23.7580561
20
61.0968315
40
0.2864044
50
101.6440918
51
144.514236
0
ARC
8
DEFAULT_255_1_234
10
23.8005627
20
60.9279069
40
0.4604934
50
89.5284041
51
102.5819763
0
ARC
8
DEFAULT_255_1_234
10
23.8084715
20
60.9240018
40
0.464401
50
77.0437873
51
90.5081339
0
ARC
8
DEFAULT_255_1_234
10
23.8486717
20
61.0882615
40
0.2953195
50
48.2778575
51
77.4994676
0
ARC
8
DEFAULT_255_1_234
10
23.8559348
20
61.1011746
40
0.2808655
50
36.3142134
51
47.6305865
0
ARC
8
DEFAULT_255_1_234
10
23.7690655
20
61.0426515
40
0.3855453
50
18.2931786
51
35.6769206
0
ARC
8
DEFAULT_255_1_234
10
23.5147414
20
60.9553593
40
0.654423
50
8.024666
51
18.5605216
0
ARC
8
DEFAULT_255_1_234
10
23.0984334
20
60.8938792
40
1.0752407
50
1.1274072
51
8.1718305
0
ARC
8
DEFAULT_255_1_234
10
22.7748525
20
60.8811885
40
1.3990231
50
0.5424119
51
1.3863029
0
ARC
8
DEFAULT_255_1_234
10
22.9569902
20
60.9084342
40
1.0682415
50
359.8090433
51
4.9407866
0
ARC
8
DEFAULT_255_1_234
10
23.3779916
20
60.9460113
40
0.6455691
50
4.8362157
51
12.2904523
0
ARC
8
DEFAULT_255_1_234
10
23.6535031
20
61.0073965
40
0.3633074
50
12.0805627
51
23.8173984
0
ARC
8
DEFAULT_255_1_234
10
23.7708737
20
61.0570919
40
0.2358723
50
24.2871213
51
31.3935614
0
ARC
8
DEFAULT_255_1_234
10
23.8233434
20
61.0914233
40
0.1732111
50
30.7407893
51
82.4657128
0
ARC
8
DEFAULT_255_1_234
10
23.8053568
20
61.0030691
40
0.263235
50
81.1060089
51
90.2184952
0
ARC
8
DEFAULT_255_1_234
10
23.8017867
20
61.0288924
40
0.2374236
50
89.3806855
51
105.6762551
0
ARC
8
DEFAULT_255_1_234
10
23.7834498
20
61.0955567
40
0.1682847
50
105.7981136
51
149.7388061
0
ARC
8
DEFAULT_255_1_234
10
23.8898576
20
61.031595
40
0.2924306
50
149.4208916
51
163.6286378
0
ARC
8
DEFAULT_255_1_234
10
24.0989464
20
60.967825
40
0.5110213
50
163.3763315
51
172.1410975
0
ARC
8
DEFAULT_255_1_234
10
24.4290183
20
60.9205518
40
0.8444586
50
172.0259487
51
178.0703232
0
ARC
8
DEFAULT_255_1_234
10
24.7320272
20
60.9061906
40
1.1477868
50
177.8631668
51
179.5044149
0
ARC
8
DEFAULT_255_1_234
10
24.6247677
20
60.6747389
40
1.0404907
50
179.7995573
51
185.2460446
0
ARC
8
DEFAULT_255_1_234
10
24.2204716
20
60.6364513
40
0.6343885
50
185.1411642
51
193.0079639
0
ARC
8
DEFAULT_255_1_234
10
23.9561189
20
60.5739641
40
0.3627568
50
192.7897626
51
205.2507664
0
ARC
8
DEFAULT_255_1_234
10
23.8514736
20
60.5272415
40
0.2481908
50
205.8005384
51
211.2537509
0
ARC
8
DEFAULT_255_1_234
10
23.7991176
20
60.492158
40
0.1852521
50
210.3789793
51
238.4008143
0
ARC
8
DEFAULT_255_1_234
10
23.7971698
20
60.4968376
40
0.1882621
50
239.6520629
51
265.9793761
0
ARC
8
DEFAULT_255_1_234
10
23.8056898
20
60.5640427
40
0.2559272
50
265.1315437
51
270.060332
0
ARC
8
DEFAULT_255_1_234
10
23.8085677
20
60.5316534
40
0.2235528
50
269.3314664
51
287.2178029
0
ARC
8
DEFAULT_255_1_234
10
23.8223529
20
60.4813279
40
0.1714108
50
287.7958004
51
329.080874
0
ARC
8
DEFAULT_255_1_234
10
23.7265986
20
60.541093
40
0.2842745
50
328.6634704
51
343.3325132
0
ARC
8
DEFAULT_255_1_234
10
23.5093006
20
60.6087863
40
0.5118644
50
343.0499468
51
351.9393422
0
ARC
8
DEFAULT_255_1_234
10
23.1626306
20
60.6598949
40
0.8622784
50
351.8069023
51
357.7959224
0
ARC
8
DEFAULT_255_1_234
10
22.8390862
20
60.6766721
40
1.1862365
50
357.5871873
51
359.2677531
0
LINE
8
DEFAULT_255_1_234
10
23.0448364
20
69.3098211
11
23.2440235
21
69.3098211
0
LINE
8
DEFAULT_255_1_234
10
23.2440235
20
69.3098211
11
23.6263342
21
68.3556506
0
LINE
8
DEFAULT_255_1_234
10
23.6263342
20
68.3556506
11
24.008645
21
69.3098211
0
LINE
8
DEFAULT_255_1_234
10
24.008645
20
69.3098211
11
24.2086353
21
69.3098211
0
LINE
8
DEFAULT_255_1_234
10
24.2086353
20
69.3098211
11
24.2086353
21
68.1404
0
LINE
8
DEFAULT_255_1_234
10
24.2086353
20
68.1404
11
24.0544259
21
68.1404
0
LINE
8
DEFAULT_255_1_234
10
24.0544259
20
68.1404
11
24.0544259
21
68.5957996
0
LINE
8
DEFAULT_255_1_234
10
24.0544259
20
68.5957996
11
24.068883
21
69.0873419
0
LINE
8
DEFAULT_255_1_234
10
24.068883
20
69.0873419
11
23.6849659
21
68.1404
0
LINE
8
DEFAULT_255_1_234
10
23.6849659
20
68.1404
11
23.5668994
21
68.1404
0
LINE
8
DEFAULT_255_1_234
10
23.5668994
20
68.1404
11
23.1837854
21
69.0849324
0
LINE
8
DEFAULT_255_1_234
10
23.1837854
20
69.0849324
11
23.1990458
21
68.5957996
0
LINE
8
DEFAULT_255_1_234
10
23.1990458
20
68.5957996
11
23.1990458
21
68.1404
0
LINE
8
DEFAULT_255_1_234
10
23.1990458
20
68.1404
11
23.0448364
21
68.1404
0
LINE
8
DEFAULT_255_1_234
10
23.0448364
20
68.1404
11
23.0448364
21
69.3098211
0
ENDSEC
0
EOF