0
SECTION
2
HEADER
9
$MEASUREMENT
70
1
0
ENDSEC
0
SECTION
2
TABLES
0
TABLE
2
LTYPE
0
LTYPE
72
65
70
64
2
CONTINUOUS
3
______
73
0
40
0
0
ENDTAB
0
TABLE
2
LAYER
0
LAYER
2
DEFAULT_255_2_778
70
0
62
255
6
CONTINUOUS
0
LAYER
2
DEFAULT_255_1_234
70
0
62
255
6
CONTINUOUS
0
ENDTAB
0
ENDSEC
0
SECTION
2
ENTITIES
0
ARC
8
DEFAULT_255_2_778
10
3.5695693
20
83.7426529
40
0.7914215
50
129.1312896
51
180.1450914
0
ARC
8
DEFAULT_255_2_778
10
3.5698345
20
83.74314
40
0.7912112
50
89.854026
51
129.1684493
0
ARC
8
DEFAULT_255_2_778
10
25.7988937
20
83.7428266
40
0.7915249
50
39.4792447
51
90.147911
0
ARC
8
DEFAULT_255_2_778
10
25.7994935
20
83.7426732
40
0.7911595
50
359.8533901
51
39.5154338
0
ARC
8
DEFAULT_255_2_778
10
25.7991693
20
-1.9863993
40
0.7914836
50
309.4761667
51
0.1482649
0
ARC
8
DEFAULT_255_2_778
10
25.798898
20
-1.9868304
40
0.7913235
50
269.8517415
51
309.511178
0
ARC
8
DEFAULT_255_2_778
10
3.569842
20
-1.9867723
40
0.7913815
50
219.1282118
51
270.1454017
0
ARC
8
DEFAULT_255_2_778
10
3.5695247
20
-1.9863898
40
0.7913769
50
179.8524075
51
219.1641908
0
LINE
8
DEFAULT_255_2_778
10
3.5718503
20
84.5343488
11
25.7968503
21
84.5343488
0
LINE
8
DEFAULT_255_2_778
10
26.5906503
20
83.7406488
11
26.5906503
21
-1.9843512
0
LINE
8
DEFAULT_255_2_778
10
25.7968503
20
-2.7781512
11
3.5718503
21
-2.7781512
0
LINE
8
DEFAULT_255_2_778
10
2.7781503
20
-1.9843512
11
2.7781503
21
83.7406488
0
LINE
8
DEFAULT_255_1_234
10
6.6619835
20
0.5189243
11
6.6884882
21
0.5189243
0
LINE
8
DEFAULT_255_1_234
10
6.6884882
20
0.5189243
11
6.6884882
21
0.392826
0
LINE
8
DEFAULT_255_1_234
10
6.6884882
20
0.392826
11
6.6611803
21
0.392826
0
LINE
8
DEFAULT_255_1_234
10
6.1142189
20
-0.2063417
11
6.1142189
21
-0.1493164
0
LINE
8
DEFAULT_255_1_234
10
6.2636093
20
-0.1685925
11
6.2636093
21
-0.2232083
0
ARC
8
DEFAULT_255_1_234
10
6.6664151
20
-0.1069545
40
0.4998079
50
90.6001036
51
104.514704
0
ARC
8
DEFAULT_255_1_234
10
6.6275667
20
0.0375131
40
0.3502176
50
104.2855254
51
133.862935
0
ARC
8
DEFAULT_255_1_234
10
6.6439424
20
0.026683
40
0.3693984
50
134.5302688
51
161.6210873
0
ARC
8
DEFAULT_255_1_234
10
6.8092613
20
-0.0316105
40
0.5446739
50
161.2849839
51
174.2076652
0
ARC
8
DEFAULT_255_1_234
10
6.949955
20
-0.0510213
40
0.6866274
50
173.7810589
51
174.9254635
0
ARC
8
DEFAULT_255_1_234
10
6.4949382
20
-0.1893161
40
0.3033419
50
95.8330959
51
138.9954921
0
ARC
8
DEFAULT_255_1_234
10
6.5172738
20
-0.3171625
40
0.4328947
50
89.8753725
51
97.0544009
0
ARC
8
DEFAULT_255_1_234
10
6.5220204
20
-0.2336252
40
0.3493769
50
71.6407809
51
90.6240094
0
ARC
8
DEFAULT_255_1_234
10
6.5370777
20
-0.1781918
40
0.2920396
50
39.6367836
51
71.019018
0
ARC
8
DEFAULT_255_1_234
10
6.473425
20
-0.2332002
40
0.3761538
50
10.658731
51
39.9043955
0
ARC
8
DEFAULT_255_1_234
10
6.3186333
20
-0.2668314
40
0.5345136
50
359.682601
51
11.132623
0
ARC
8
DEFAULT_255_1_234
10
6.3146464
20
-0.273899
40
0.5385081
50
347.2486944
51
0.4369317
0
ARC
8
DEFAULT_255_1_234
10
6.4813941
20
-0.3140193
40
0.3670249
50
318.1409698
51
347.6118597
0
ARC
8
DEFAULT_255_1_234
10
6.5138934
20
-0.3407298
40
0.3250007
50
275.6342139
51
317.8248465
0
ARC
8
DEFAULT_255_1_234
10
6.4918045
20
-0.2107781
40
0.4565864
50
269.8874292
51
276.7917694
0
ARC
8
DEFAULT_255_1_234
10
6.4863116
20
-0.3133257
40
0.3540676
50
246.9140195
51
270.7437342
0
ARC
8
DEFAULT_255_1_234
10
6.4869506
20
-0.3275616
40
0.3412781
50
218.1665114
51
245.878116
0
ARC
8
DEFAULT_255_1_234
10
6.5748967
20
-0.2539721
40
0.455911
50
191.4115814
51
218.6077802
0
ARC
8
DEFAULT_255_1_234
10
6.7687056
20
-0.2105167
40
0.6545001
50
179.6345085
51
191.7836486
0
ARC
8
DEFAULT_255_1_234
10
7.3269393
20
-0.1426303
40
1.2127388
50
171.4525249
51
180.3158839
0
ARC
8
DEFAULT_255_1_234
10
6.8874269
20
-0.0742392
40
0.7679464
50
157.9802646
51
171.6246686
0
ARC
8
DEFAULT_255_1_234
10
6.666029
20
0.0140421
40
0.5296008
50
141.4298019
51
157.854097
0
ARC
8
DEFAULT_255_1_234
10
6.601861
20
0.0594381
40
0.4511509
50
102.8715806
51
140.8564722
0
ARC
8
DEFAULT_255_1_234
10
6.6666226
20
-0.1845448
40
0.7034845
50
90.3778349
51
103.5869322
0
ARC
8
DEFAULT_255_1_234
10
6.4928002
20
-0.245027
40
0.2370698
50
89.8751008
51
126.2071704
0
ARC
8
DEFAULT_255_1_234
10
6.4973792
20
-0.2604697
40
0.2522934
50
124.9745049
51
144.895901
0
ARC
8
DEFAULT_255_1_234
10
6.4797982
20
-0.246144
40
0.2296779
50
145.2974905
51
160.2660252
0
ARC
8
DEFAULT_255_1_234
10
6.7870521
20
-0.2263929
40
0.5234525
50
179.6514266
51
190.2855912
0
ARC
8
DEFAULT_255_1_234
10
6.6176658
20
-0.2583214
40
0.3510893
50
190.0945431
51
207.5098196
0
ARC
8
DEFAULT_255_1_234
10
6.5610928
20
-0.2852377
40
0.288489
50
207.9583163
51
216.3251085
0
ARC
8
DEFAULT_255_1_234
10
6.5271036
20
-0.3131895
40
0.2445587
50
215.7661442
51
232.5456785
0
ARC
8
DEFAULT_255_1_234
10
6.4888019
20
-0.3618518
40
0.1826382
50
232.8005391
51
270.6605633
0
ARC
8
DEFAULT_255_1_234
10
6.493372
20
-0.3254388
40
0.2190529
50
269.35537
51
288.4744281
0
ARC
8
DEFAULT_255_1_234
10
6.5026617
20
-0.3603882
40
0.1829749
50
289.1833337
51
322.9683818
0
ARC
8
DEFAULT_255_1_234
10
6.4415139
20
-0.3121609
40
0.2608399
50
322.6007884
51
346.5182367
0
ARC
8
DEFAULT_255_1_234
10
6.3257735
20
-0.2826384
40
0.3802777
50
346.2582162
51
358.7741648
0
ARC
8
DEFAULT_255_1_234
10
6.2239404
20
-0.2771035
40
0.4822176
50
358.3755224
51
0.0098023
0
ARC
8
DEFAULT_255_1_234
10
6.2995591
20
-0.2743343
40
0.4066078
50
359.6214041
51
11.2839074
0
ARC
8
DEFAULT_255_1_234
10
6.4272738
20
-0.2476934
40
0.2761514
50
11.0482309
51
31.8146458
0
ARC
8
DEFAULT_255_1_234
10
6.4581781
20
-0.2309416
40
0.2410679
50
32.3035391
51
38.082671
0
ARC
8
DEFAULT_255_1_234
10
6.5002441
20
-0.1928338
40
0.1844966
50
36.825067
51
85.7415724
0
ARC
8
DEFAULT_255_1_234
10
6.4935274
20
-0.2428699
40
0.2349122
50
85.0140713
51
90.0513278
0
LINE
8
DEFAULT_255_1_234
10
7.7285983
20
0.0153343
11
7.7285983
21
-0.110764
0
LINE
8
DEFAULT_255_1_234
10
7.7285983
20
-0.110764
11
7.2217957
21
-0.110764
0
LINE
8
DEFAULT_255_1_234
10
7.2217957
20
-0.110764
11
7.2217957
21
-0.5252017
0
LINE
8
DEFAULT_255_1_234
10
7.2217957
20
-0.5252017
11
7.8105221
21
-0.5252017
0
LINE
8
DEFAULT_255_1_234
10
7.8105221
20
-0.5252017
11
7.8105221
21
-0.6513
0
LINE
8
DEFAULT_255_1_234
10
7.8105221
20
-0.6513
11
7.0675863
21
-0.6513
0
LINE
8
DEFAULT_255_1_234
10
7.0675863
20
-0.6513
11
7.0675863
21
0.5181211
0
LINE
8
DEFAULT_255_1_234
10
7.0675863
20
0.5181211
11
7.8024903
21
0.5181211
0
LINE
8
DEFAULT_255_1_234
10
7.8024903
20
0.5181211
11
7.8024903
21
0.3912196
0
LINE
8
DEFAULT_255_1_234
10
7.8024903
20
0.3912196
11
7.2217957
21
0.3912196
0
LINE
8
DEFAULT_255_1_234
10
7.2217957
20
0.3912196
11
7.2217957
21
0.0153343
0
LINE
8
DEFAULT_255_1_234
10
7.2217957
20
0.0153343
11
7.7285983
21
0.0153343
0
LINE
8
DEFAULT_255_1_234
10
8.7783465
20
0.1799849
11
8.623334
21
0.1799849
0
LINE
8
DEFAULT_255_1_234
10
7.9309981
20
-0.3123606
11
8.0860107
21
-0.3123606
0
ARC
8
DEFAULT_255_1_234
10
8.6892153
20
1.0746768
40
1.252368
50
248.9199003
51
254.1439814
0
ARC
8
DEFAULT_255_1_234
10
8.5211648
20
0.6420234
40
0.788226
50
241.633709
51
249.0064503
0
ARC
8
DEFAULT_255_1_234
10
8.3683042
20
0.3619317
40
0.4691427
50
230.498225
51
241.8087113
0
ARC
8
DEFAULT_255_1_234
10
8.2898616
20
0.2619906
40
0.3421437
50
227.4064532
51
229.9881192
0
ARC
8
DEFAULT_255_1_234
10
8.2411137
20
0.2144088
40
0.2741476
50
200.6781896
51
228.1763934
0
ARC
8
DEFAULT_255_1_234
10
8.2483447
20
0.2129077
40
0.2804109
50
179.5061581
51
199.8694617
0
ARC
8
DEFAULT_255_1_234
10
8.2474199
20
0.220321
40
0.2795204
50
132.4834203
51
181.0242172
0
ARC
8
DEFAULT_255_1_234
10
8.3069782
20
0.1640704
40
0.3612768
50
129.2532479
51
133.4242687
0
ARC
8
DEFAULT_255_1_234
10
8.3216231
20
0.1420965
40
0.3875675
50
101.98776
51
128.8742646
0
ARC
8
DEFAULT_255_1_234
10
8.3614842
20
-0.0300259
40
0.5642249
50
89.5906553
51
102.3169264
0
ARC
8
DEFAULT_255_1_234
10
8.3685334
20
0.0018148
40
0.5323783
50
77.2360837
51
90.3248275
0
ARC
8
DEFAULT_255_1_234
10
8.3892413
20
0.09854
40
0.4334697
50
63.837784
51
77.0809408
0
ARC
8
DEFAULT_255_1_234
10
8.4170175
20
0.1502911
40
0.3747796
50
45.9864267
51
64.1607727
0
ARC
8
DEFAULT_255_1_234
10
8.4431056
20
0.1800866
40
0.3352302
50
32.2747395
51
45.6547121
0
ARC
8
DEFAULT_255_1_234
10
8.4497497
20
0.181988
40
0.328603
50
359.6507365
51
32.6130309
0
ARC
8
DEFAULT_255_1_234
10
8.3554592
20
0.182466
40
0.2678863
50
359.469343
51
14.9832209
0
ARC
8
DEFAULT_255_1_234
10
8.4259654
20
0.2013539
40
0.1948938
50
14.9781179
51
48.2004265
0
ARC
8
DEFAULT_255_1_234
10
8.4095299
20
0.1806983
40
0.2212521
50
48.5927837
51
74.1241538
0
ARC
8
DEFAULT_255_1_234
10
8.3761788
20
0.0706248
40
0.3362561
50
73.7888341
51
86.6652678
0
ARC
8
DEFAULT_255_1_234
10
8.3659354
20
-0.0501119
40
0.4573953
50
86.2640471
51
90.0526343
0
ARC
8
DEFAULT_255_1_234
10
8.3631066
20
-0.0105808
40
0.4178709
50
89.6697524
51
99.2309573
0
ARC
8
DEFAULT_255_1_234
10
8.3388517
20
0.1338964
40
0.2713749
50
99.069534
51
113.7658566
0
ARC
8
DEFAULT_255_1_234
10
8.3114708
20
0.1984677
40
0.2012469
50
114.0401004
51
127.9850673
0
ARC
8
DEFAULT_255_1_234
10
8.2874272
20
0.228073
40
0.1631167
50
127.7287463
51
176.7105154
0
ARC
8
DEFAULT_255_1_234
10
8.355299
20
0.2179693
40
0.2315392
50
175.1779447
51
180.0581938
0
ARC
8
DEFAULT_255_1_234
10
8.2709836
20
0.2167428
40
0.1472271
50
179.6142195
51
228.1246017
0
ARC
8
DEFAULT_255_1_234
10
8.3151505
20
0.2576308
40
0.2072299
50
226.5779593
51
230.8800004
0
ARC
8
DEFAULT_255_1_234
10
8.3622584
20
0.3201636
40
0.2854818
50
231.4635071
51
241.9260842
0
ARC
8
DEFAULT_255_1_234
10
8.4819762
20
0.54048
40
0.53622
50
241.7178533
51
248.3259551
0
ARC
8
DEFAULT_255_1_234
10
8.6205134
20
0.8837064
40
0.9063478
50
248.2007737
51
252.4528373
0
ARC
8
DEFAULT_255_1_234
10
8.7408858
20
1.2558441
40
1.2974635
50
252.3391078
51
254.3469452
0
ARC
8
DEFAULT_255_1_234
10
7.9866561
20
-1.4418852
40
1.5037162
50
71.0197183
51
74.4087047
0
ARC
8
DEFAULT_255_1_234
10
8.1561246
20
-0.9526889
40
0.9859993
50
66.1847285
51
71.086374
0
ARC
8
DEFAULT_255_1_234
10
8.3117559
20
-0.60228
40
0.6025855
50
59.3536294
51
66.2691831
0
ARC
8
DEFAULT_255_1_234
10
8.4006211
20
-0.4519391
40
0.4279449
50
49.1020879
51
59.3293958
0
ARC
8
DEFAULT_255_1_234
10
8.4824951
20
-0.3586166
40
0.3038015
50
32.7919921
51
49.2505539
0
ARC
8
DEFAULT_255_1_234
10
8.5146041
20
-0.3357809
40
0.264448
50
31.1181161
51
32.4005348
0
ARC
8
DEFAULT_255_1_234
10
8.5057579
20
-0.3393221
40
0.2738556
50
8.1116974
51
30.7958831
0
ARC
8
DEFAULT_255_1_234
10
8.4247247
20
-0.3531247
40
0.3560327
50
359.8389159
51
8.4706516
0
ARC
8
DEFAULT_255_1_234
10
8.4873038
20
-0.3579863
40
0.2934776
50
337.4731098
51
0.7537279
0
ARC
8
DEFAULT_255_1_234
10
8.5051733
20
-0.3599613
40
0.2762607
50
307.5917067
51
336.4315538
0
ARC
8
DEFAULT_255_1_234
10
8.4591561
20
-0.3086898
40
0.3449979
50
307.6551545
51
308.4529766
0
ARC
8
DEFAULT_255_1_234
10
8.436128
20
-0.273175
40
0.3871988
50
284.3734338
51
307.1424381
0
ARC
8
DEFAULT_255_1_234
10
8.386611
20
-0.0910068
40
0.5759636
50
272.4382747
51
284.646547
0
ARC
8
DEFAULT_255_1_234
10
8.3739319
20
0.0889893
40
0.7563528
50
269.9708387
51
272.8178037
0
ARC
8
DEFAULT_255_1_234
10
8.3696358
20
-0.1148284
40
0.5525489
50
248.2707594
51
270.4055579
0
ARC
8
DEFAULT_255_1_234
10
8.36421
20
-0.1338808
40
0.5328452
50
246.1383403
51
248.0542782
0
ARC
8
DEFAULT_255_1_234
10
8.3223478
20
-0.2218157
40
0.4355005
50
233.1670131
51
246.4950969
0
ARC
8
DEFAULT_255_1_234
10
8.2669383
20
-0.2966188
40
0.3424126
50
215.3403242
51
233.0843104
0
ARC
8
DEFAULT_255_1_234
10
8.2396815
20
-0.3164451
40
0.3087104
50
179.2419209
51
215.2648451
0
ARC
8
DEFAULT_255_1_234
10
8.3164409
20
-0.3150334
40
0.2304457
50
179.335461
51
199.1045811
0
ARC
8
DEFAULT_255_1_234
10
8.2832085
20
-0.3237234
40
0.1962176
50
199.8828939
51
232.7063202
0
ARC
8
DEFAULT_255_1_234
10
8.3304353
20
-0.2643212
40
0.2720938
50
232.3738199
51
255.5136649
0
ARC
8
DEFAULT_255_1_234
10
8.364522
20
-0.1399165
40
0.4010747
50
255.2446292
51
267.5320849
0
ARC
8
DEFAULT_255_1_234
10
8.3732843
20
-0.0166298
40
0.5246356
50
267.1557994
51
270.0286766
0
ARC
8
DEFAULT_255_1_234
10
8.3760616
20
-0.061005
40
0.4802668
50
269.7000017
51
278.1660162
0
ARC
8
DEFAULT_255_1_234
10
8.401662
20
-0.2340485
40
0.3053425
50
278.0231263
51
290.625471
0
ARC
8
DEFAULT_255_1_234
10
8.4364308
20
-0.3267975
40
0.206291
50
290.6619762
51
307.0370976
0
ARC
8
DEFAULT_255_1_234
10
8.4664697
20
-0.3636496
40
0.1587906
50
306.3943566
51
355.3030547
0
ARC
8
DEFAULT_255_1_234
10
8.4152628
20
-0.3559887
40
0.2104809
50
354.3660432
51
0.0698737
0
ARC
8
DEFAULT_255_1_234
10
8.4294973
20
-0.3537383
40
0.1962563
50
359.417946
51
16.1971788
0
ARC
8
DEFAULT_255_1_234
10
8.4750284
20
-0.3412582
40
0.149053
50
16.4723299
51
52.6262157
0
ARC
8
DEFAULT_255_1_234
10
8.3929338
20
-0.4496567
40
0.2850296
50
52.7386432
51
62.4979148
0
ARC
8
DEFAULT_255_1_234
10
8.2544415
20
-0.7102717
40
0.5801521
50
62.2515216
51
68.1220564
0
ARC
8
DEFAULT_255_1_234
10
8.0824325
20
-1.1330128
40
1.0365451
50
68.0062803
51
71.8053402
0
ARC
8
DEFAULT_255_1_234
10
7.9028697
20
-1.6715242
40
1.6042013
50
71.7183119
51
73.9258742
0
LINE
8
DEFAULT_255_1_234
10
9.6947679
20
0.5181211
11
9.6947679
21
0.434591
0
LINE
8
DEFAULT_255_1_234
10
9.6947679
20
0.434591
11
9.2104541
21
-0.6513
0
LINE
8
DEFAULT_255_1_234
10
9.2104541
20
-0.6513
11
9.0546383
21
-0.6513
0
LINE
8
DEFAULT_255_1_234
10
9.0546383
20
-0.6513
11
9.5373458
21
0.3960387
0
LINE
8
DEFAULT_255_1_234
10
9.5373458
20
0.3960387
11
8.9044448
21
0.3960387
0
LINE
8
DEFAULT_255_1_234
10
8.9044448
20
0.3960387
11
8.9044448
21
0.5181211
0
LINE
8
DEFAULT_255_1_234
10
8.9044448
20
0.5181211
11
9.6947679
21
0.5181211
0
LINE
8
DEFAULT_255_1_234
10
10.3517641
20
0.5237433
11
10.3517641
21
-0.6513
0
LINE
8
DEFAULT_255_1_234
10
10.3517641
20
-0.6513
11
10.2023737
21
-0.6513
0
LINE
8
DEFAULT_255_1_234
10
10.2023737
20
-0.6513
11
10.2023737
21
0.3390133
0
LINE
8
DEFAULT_255_1_234
10
10.2023737
20
0.3390133
11
9.9027899
21
0.2289785
0
LINE
8
DEFAULT_255_1_234
10
9.9027899
20
0.2289785
11
9.9027899
21
0.3639117
0
LINE
8
DEFAULT_255_1_234
10
9.9027899
20
0.3639117
11
10.328472
21
0.5237433
0
LINE
8
DEFAULT_255_1_234
10
10.328472
20
0.5237433
11
10.3517641
21
0.5237433
0
LINE
8
DEFAULT_255_1_234
10
11.003138
20
-0.1155831
11
11.003138
21
0.0056962
0
LINE
8
DEFAULT_255_1_234
10
11.003138
20
0.0056962
11
11.1147792
21
0.0056962
0
LINE
8
DEFAULT_255_1_234
10
10.924427
20
0.2113087
11
10.7758398
21
0.2113087
0
LINE
8
DEFAULT_255_1_234
10
10.7653986
20
-0.3428813
11
10.9147889
21
-0.3428813
0
LINE
8
DEFAULT_255_1_234
10
11.1147792
20
-0.1155831
11
11.003138
21
-0.1155831
0
ARC
8
DEFAULT_255_1_234
10
11.1118658
20
0.3449713
40
0.3392876
50
270.4919872
51
281.8951556
0
ARC
8
DEFAULT_255_1_234
10
11.135992
20
0.2347702
40
0.2264817
50
281.6691735
51
301.2943132
0
ARC
8
DEFAULT_255_1_234
10
11.153013
20
0.2036304
40
0.1910381
50
301.7833094
51
311.7545298
0
ARC
8
DEFAULT_255_1_234
10
11.1621706
20
0.1934748
40
0.1773635
50
311.7323931
51
354.2802411
0
ARC
8
DEFAULT_255_1_234
10
11.0895331
20
0.2059722
40
0.2509385
50
353.0937916
51
0.1181479
0
ARC
8
DEFAULT_255_1_234
10
11.0434116
20
0.2107386
40
0.2970898
50
359.1805295
51
15.0453146
0
ARC
8
DEFAULT_255_1_234
10
11.1779953
20
0.2499992
40
0.1569564
50
13.9577229
51
77.6713066
0
ARC
8
DEFAULT_255_1_234
10
11.1393482
20
0.1114949
40
0.3006298
50
76.1116566
51
90.7026153
0
ARC
8
DEFAULT_255_1_234
10
11.1334321
20
0.1388545
40
0.2732568
50
89.5324876
51
103.531937
0
ARC
8
DEFAULT_255_1_234
10
11.1133765
20
0.2187884
40
0.1908508
50
103.2931773
51
133.5619022
0
ARC
8
DEFAULT_255_1_234
10
11.1089253
20
0.2247375
40
0.1834746
50
133.8349307
51
173.5344437
0
ARC
8
DEFAULT_255_1_234
10
11.1812296
20
0.2119213
40
0.2568033
50
172.5096846
51
180.1366907
0
ARC
8
DEFAULT_255_1_234
10
11.086119
20
0.2153622
40
0.3103056
50
155.3484492
51
180.7484736
0
ARC
8
DEFAULT_255_1_234
10
11.0812279
20
0.2124846
40
0.3070957
50
131.5744599
51
154.4798489
0
ARC
8
DEFAULT_255_1_234
10
11.1125427
20
0.180831
40
0.3515643
50
96.9875458
51
131.9690667
0
ARC
8
DEFAULT_255_1_234
10
11.1344906
20
0.0562636
40
0.4779224
50
89.8596053
51
97.7825159
0
ARC
8
DEFAULT_255_1_234
10
11.139297
20
0.0300616
40
0.5041361
50
78.3655447
51
90.4131539
0
ARC
8
DEFAULT_255_1_234
10
11.1750887
20
0.1959887
40
0.3344039
50
56.6229102
51
78.638727
0
ARC
8
DEFAULT_255_1_234
10
11.1965831
20
0.2335805
40
0.2912001
50
47.0253525
51
56.0854072
0
ARC
8
DEFAULT_255_1_234
10
11.1985611
20
0.2375223
40
0.2869704
50
10.9208013
51
46.7778124
0
ARC
8
DEFAULT_255_1_234
10
11.0621678
20
0.2059857
40
0.426899
50
359.6364486
51
11.6087304
0
ARC
8
DEFAULT_255_1_234
10
11.2456522
20
0.2044752
40
0.243409
50
332.3549906
51
359.7179418
0
ARC
8
DEFAULT_255_1_234
10
11.1806123
20
0.2353142
40
0.3153459
50
325.2333722
51
332.8745602
0
ARC
8
DEFAULT_255_1_234
10
11.1958747
20
0.2246828
40
0.2967456
50
292.9802137
51
325.2392345
0
ARC
8
DEFAULT_255_1_234
10
11.1684121
20
0.2780863
40
0.3566604
50
292.5402179
51
293.6924929
0
ARC
8
DEFAULT_255_1_234
10
11.2076717
20
-0.3673909
40
0.3307468
50
57.6435486
51
72.8625112
0
ARC
8
DEFAULT_255_1_234
10
11.2431216
20
-0.3099451
40
0.2632492
50
36.7248896
51
57.4697979
0
ARC
8
DEFAULT_255_1_234
10
11.2419849
20
-0.308678
40
0.2634081
50
8.0545065
51
36.356114
0
ARC
8
DEFAULT_255_1_234
10
11.1557034
20
-0.3241826
40
0.3510261
50
359.8320645
51
8.5869982
0
ARC
8
DEFAULT_255_1_234
10
11.1181811
20
-0.3289899
40
0.3885653
50
343.9829931
51
0.5571613
0
ARC
8
DEFAULT_255_1_234
10
11.2068008
20
-0.3532562
40
0.2966924
50
311.6359546
51
343.7651759
0
ARC
8
DEFAULT_255_1_234
10
11.1689577
20
-0.3105898
40
0.3537231
50
279.7829875
51
311.6255694
0
ARC
8
DEFAULT_255_1_234
10
11.1388353
20
-0.166872
40
0.5004971
50
269.7286406
51
280.3856417
0
ARC
8
DEFAULT_255_1_234
10
11.1326426
20
-0.1710004
40
0.4963778
50
256.6828919
51
270.4412052
0
ARC
8
DEFAULT_255_1_234
10
11.0987722
20
-0.3094606
40
0.3538406
50
229.4223008
51
256.8556159
0
ARC
8
DEFAULT_255_1_234
10
11.0573114
20
-0.3561264
40
0.2914296
50
181.818294
51
229.6455059
0
ARC
8
DEFAULT_255_1_234
10
11.1613071
20
-0.3430504
40
0.3959084
50
179.9755256
51
183.2323064
0
ARC
8
DEFAULT_255_1_234
10
11.1440816
20
-0.3450963
40
0.2293034
50
179.4465117
51
196.2869258
0
ARC
8
DEFAULT_255_1_234
10
11.0953224
20
-0.3584349
40
0.1787621
50
196.5661473
51
227.705904
0
ARC
8
DEFAULT_255_1_234
10
11.1117319
20
-0.3400845
40
0.2033784
50
227.7652068
51
257.8762805
0
ARC
8
DEFAULT_255_1_234
10
11.1342289
20
-0.2457844
40
0.3003081
50
257.4584385
51
270.426602
0
ARC
8
DEFAULT_255_1_234
10
11.1387856
20
-0.2168004
40
0.329292
50
269.5962073
51
280.8789248
0
ARC
8
DEFAULT_255_1_234
10
11.1617384
20
-0.3314315
40
0.2123908
50
280.6346389
51
299.8595945
0
ARC
8
DEFAULT_255_1_234
10
11.1808291
20
-0.3676788
40
0.171457
50
300.3576302
51
314.5517981
0
ARC
8
DEFAULT_255_1_234
10
11.1725351
20
-0.3616081
40
0.1816095
50
315.0728369
51
345.0431014
0
ARC
8
DEFAULT_255_1_234
10
11.0802166
20
-0.3347159
40
0.2777492
50
344.5986631
51
357.9269593
0
ARC
8
DEFAULT_255_1_234
10
10.9906492
20
-0.3285724
40
0.3674917
50
357.4748886
51
0.0231117
0
ARC
8
DEFAULT_255_1_234
10
11.0929601
20
-0.3261321
40
0.2651907
50
359.5047933
51
13.4239635
0
ARC
8
DEFAULT_255_1_234
10
11.1796245
20
-0.3039522
40
0.1757509
50
12.9498199
51
48.7551375
0
ARC
8
DEFAULT_255_1_234
10
11.1613979
20
-0.32886
40
0.2065134
50
49.5088623
51
72.1836453
0
ARC
8
DEFAULT_255_1_234
10
11.1256131
20
-0.4350709
40
0.3185836
50
71.9010081
51
84.3554254
0
ARC
8
DEFAULT_255_1_234
10
11.1094763
20
-0.5711674
40
0.4556151
50
84.0193428
51
89.333121
0
LINE
8
DEFAULT_255_1_234
10
12.1990639
20
0.5237433
11
12.1990639
21
-0.6513
0
LINE
8
DEFAULT_255_1_234
10
12.1990639
20
-0.6513
11
12.0496735
21
-0.6513
0
LINE
8
DEFAULT_255_1_234
10
12.0496735
20
-0.6513
11
12.0496735
21
0.3390133
0
LINE
8
DEFAULT_255_1_234
10
12.0496735
20
0.3390133
11
11.7500897
21
0.2289785
0
LINE
8
DEFAULT_255_1_234
10
11.7500897
20
0.2289785
11
11.7500897
21
0.3639117
0
LINE
8
DEFAULT_255_1_234
10
11.7500897
20
0.3639117
11
12.1757718
21
0.5237433
0
LINE
8
DEFAULT_255_1_234
10
12.1757718
20
0.5237433
11
12.1990639
21
0.5237433
0
LINE
8
DEFAULT_255_1_234
10
12.9588663
20
-0.0938974
11
12.9588663
21
-0.2151766
0
LINE
8
DEFAULT_255_1_234
10
12.9588663
20
-0.2151766
11
12.5669175
21
-0.2151766
0
LINE
8
DEFAULT_255_1_234
10
12.5669175
20
-0.2151766
11
12.5669175
21
-0.0938974
0
LINE
8
DEFAULT_255_1_234
10
12.5669175
20
-0.0938974
11
12.9588663
21
-0.0938974
0
LINE
8
DEFAULT_255_1_234
10
13.7154561
20
0.5181211
11
13.7154561
21
-0.258548
0
LINE
8
DEFAULT_255_1_234
10
13.7154561
20
-0.258548
11
13.8776972
21
-0.258548
0
LINE
8
DEFAULT_255_1_234
10
13.8776972
20
-0.258548
11
13.8776972
21
-0.3798272
0
LINE
8
DEFAULT_255_1_234
10
13.8776972
20
-0.3798272
11
13.7154561
21
-0.3798272
0
LINE
8
DEFAULT_255_1_234
10
13.7154561
20
-0.3798272
11
13.7154561
21
-0.6513
0
LINE
8
DEFAULT_255_1_234
10
13.7154561
20
-0.6513
11
13.5660657
21
-0.6513
0
LINE
8
DEFAULT_255_1_234
10
13.5660657
20
-0.6513
11
13.5660657
21
-0.3798272
0
LINE
8
DEFAULT_255_1_234
10
13.5660657
20
-0.3798272
11
13.0335615
21
-0.3798272
0
LINE
8
DEFAULT_255_1_234
10
13.0335615
20
-0.3798272
11
13.0335615
21
-0.2922813
0
LINE
8
DEFAULT_255_1_234
10
13.0335615
20
-0.2922813
11
13.5572308
21
0.5181211
0
LINE
8
DEFAULT_255_1_234
10
13.5572308
20
0.5181211
11
13.7154561
21
0.5181211
0
LINE
8
DEFAULT_255_1_234
10
13.5483959
20
0.2827912
11
13.202228
21
-0.258548
0
LINE
8
DEFAULT_255_1_234
10
13.202228
20
-0.258548
11
13.5660657
21
-0.258548
0
LINE
8
DEFAULT_255_1_234
10
13.5660657
20
-0.258548
11
13.5660657
21
0.3149181
0
LINE
8
DEFAULT_255_1_234
10
13.5660657
20
0.3149181
11
13.5483959
21
0.2827912
0
LINE
8
DEFAULT_255_1_234
10
14.7555662
20
-0.2802337
11
14.9105787
21
-0.2802337
0
LINE
8
DEFAULT_255_1_234
10
14.0102208
20
-0.1212053
11
14.0102208
21
-0.0087609
0
LINE
8
DEFAULT_255_1_234
10
14.9105787
20
0.1422357
11
14.7555662
21
0.1422357
0
LINE
8
DEFAULT_255_1_234
10
14.1652334
20
-0.0127768
11
14.1652334
21
-0.1260243
0
ARC
8
DEFAULT_255_1_234
10
14.3625174
20
-0.2205154
40
0.5513052
50
340.1774281
51
353.7814284
0
ARC
8
DEFAULT_255_1_234
10
14.5196526
20
-0.2790418
40
0.3836379
50
311.4558989
51
340.4421614
0
ARC
8
DEFAULT_255_1_234
10
14.5163195
20
-0.2679472
40
0.3941894
50
282.4333181
51
310.7513653
0
ARC
8
DEFAULT_255_1_234
10
14.4723934
20
-0.0864321
40
0.5809175
50
269.9358511
51
282.809604
0
ARC
8
DEFAULT_255_1_234
10
14.4672
20
0.0593212
40
0.7266847
50
270.0021091
51
270.3581957
0
ARC
8
DEFAULT_255_1_234
10
14.4619417
20
-0.2007415
40
0.4666519
50
250.7884749
51
270.6489167
0
ARC
8
DEFAULT_255_1_234
10
14.4451251
20
-0.2644681
40
0.4009729
50
219.3627325
51
250.0611886
0
ARC
8
DEFAULT_255_1_234
10
14.5280463
20
-0.1939958
40
0.5097822
50
193.5479632
51
219.5756669
0
ARC
8
DEFAULT_255_1_234
10
14.7652083
20
-0.1324081
40
0.7547848
50
181.1218675
51
193.87563
0
ARC
8
DEFAULT_255_1_234
10
14.9722264
20
-0.121342
40
0.9620055
50
179.9918545
51
181.5394234
0
ARC
8
DEFAULT_255_1_234
10
14.7871366
20
-0.0050212
40
0.7769248
50
169.5837241
51
180.2757934
0
ARC
8
DEFAULT_255_1_234
10
14.6034305
20
0.0289229
40
0.590109
50
155.0365899
51
169.6003176
0
ARC
8
DEFAULT_255_1_234
10
14.4898769
20
0.0836677
40
0.4640625
50
136.783148
51
155.2472683
0
ARC
8
DEFAULT_255_1_234
10
14.4509245
20
0.1167562
40
0.4130255
50
121.7633186
51
136.428115
0
ARC
8
DEFAULT_255_1_234
10
14.4644208
20
0.0918227
40
0.4413323
50
95.6459699
51
121.5490577
0
ARC
8
DEFAULT_255_1_234
10
14.4801489
20
-0.0190051
40
0.55319
50
89.924208
51
96.1377933
0
ARC
8
DEFAULT_255_1_234
10
14.4851922
20
-0.0071458
40
0.5413475
50
76.6779277
51
90.4563316
0
ARC
8
DEFAULT_255_1_234
10
14.5245546
20
0.1519114
40
0.3775041
50
47.485847
51
76.9287264
0
ARC
8
DEFAULT_255_1_234
10
14.5098518
20
0.1419159
40
0.3948286
50
16.5424086
51
46.8933463
0
ARC
8
DEFAULT_255_1_234
10
14.3490675
20
0.0890861
40
0.564021
50
5.4072051
51
17.0365086
0
ARC
8
DEFAULT_255_1_234
10
14.2051693
20
0.0659679
40
0.5556559
50
7.8891745
51
15.9239216
0
ARC
8
DEFAULT_255_1_234
10
14.4038706
20
0.1236631
40
0.3487515
50
15.7653144
51
27.9410532
0
ARC
8
DEFAULT_255_1_234
10
14.5142924
20
0.182779
40
0.2235026
50
27.8166557
51
46.4008329
0
ARC
8
DEFAULT_255_1_234
10
14.5192567
20
0.1822082
40
0.2205286
50
47.4371857
51
75.0698205
0
ARC
8
DEFAULT_255_1_234
10
14.4883961
20
0.0747765
40
0.3322915
50
74.7008593
51
87.8124495
0
ARC
8
DEFAULT_255_1_234
10
14.4810649
20
-0.0308156
40
0.4380987
50
87.3814673
51
90.0240855
0
ARC
8
DEFAULT_255_1_234
10
14.4772192
20
0.0869291
40
0.3203749
50
89.3451631
51
108.5745436
0
ARC
8
DEFAULT_255_1_234
10
14.4635297
20
0.1382908
40
0.2673494
50
109.2998449
51
143.3037509
0
ARC
8
DEFAULT_255_1_234
10
14.539737
20
0.0796881
40
0.3634757
50
143.0753173
51
163.1916937
0
ARC
8
DEFAULT_255_1_234
10
14.7349097
20
0.0180967
40
0.5681262
50
162.9373603
51
174.6208611
0
ARC
8
DEFAULT_255_1_234
10
14.997514
20
-0.010699
40
0.8322832
50
174.3419979
51
180.1430411
0
ARC
8
DEFAULT_255_1_234
10
14.9044296
20
-0.1301302
40
0.7392076
50
179.6817502
51
189.150529
0
ARC
8
DEFAULT_255_1_234
10
14.6543544
20
-0.171781
40
0.4856932
50
188.9910863
51
203.5773039
0
ARC
8
DEFAULT_255_1_234
10
14.5463877
20
-0.2165789
40
0.3688271
50
203.9077269
51
215.1312379
0
ARC
8
DEFAULT_255_1_234
10
14.454097
20
-0.2881059
40
0.2522457
50
213.9071664
51
263.8849284
0
ARC
8
DEFAULT_255_1_234
10
14.46663
20
-0.2096482
40
0.3316174
50
263.1758525
51
270.1031083
0
ARC
8
DEFAULT_255_1_234
10
14.4698391
20
-0.0849635
40
0.4563091
50
269.6719807
51
279.0609165
0
ARC
8
DEFAULT_255_1_234
10
14.4965159
20
-0.2462093
40
0.2928759
50
278.8750225
51
293.6346586
0
ARC
8
DEFAULT_255_1_234
10
14.5285368
20
-0.32141
40
0.2111472
50
293.8553404
51
310.0518804
0
ARC
8
DEFAULT_255_1_234
10
14.5290221
20
-0.3276484
40
0.2060917
50
311.0646779
51
332.0108348
0
ARC
8
DEFAULT_255_1_234
10
14.4097948
20
-0.2619022
40
0.3422352
50
331.6588543
51
343.2878891
0
ARC
8
DEFAULT_255_1_234
10
14.2035463
20
-0.1985202
40
0.5580003
50
343.1446044
51
351.010618
0
ARC
8
DEFAULT_255_1_234
10
14.049411
20
-0.1704129
40
0.7146438
50
350.7157277
51
351.1602153
0
LINE
8
DEFAULT_255_1_234
10
15.4446893
20
-0.6513
11
15.1210103
21
-0.6513
0
LINE
8
DEFAULT_255_1_234
10
15.1210103
20
-0.6513
11
15.1210103
21
0.5181211
0
LINE
8
DEFAULT_255_1_234
10
15.1210103
20
0.5181211
11
15.4511147
21
0.5181211
0
LINE
8
DEFAULT_255_1_234
10
15.9667523
20
-0.0272339
11
15.9667523
21
-0.1019291
0
LINE
8
DEFAULT_255_1_234
10
15.4551306
20
0.3912196
11
15.2752196
21
0.3912196
0
LINE
8
DEFAULT_255_1_234
10
15.2752196
20
0.3912196
11
15.2752196
21
-0.5252017
0
LINE
8
DEFAULT_255_1_234
10
15.2752196
20
-0.5252017
11
15.4374607
21
-0.5252017
0
LINE
8
DEFAULT_255_1_234
10
15.8141493
20
-0.0987164
11
15.8141493
21
-0.0304466
0
ARC
8
DEFAULT_255_1_234
10
15.4550089
20
-0.0684106
40
0.5865446
50
75.4101064
51
90.3804066
0
ARC
8
DEFAULT_255_1_234
10
15.4779603
20
0.0272492
40
0.4881916
50
60.145586
51
75.1888407
0
ARC
8
DEFAULT_255_1_234
10
15.4938378
20
0.0549199
40
0.4562893
50
26.5253612
51
60.1450928
0
ARC
8
DEFAULT_255_1_234
10
15.3818128
20
-0.0044842
40
0.5830602
50
7.4030428
51
26.8320788
0
ARC
8
DEFAULT_255_1_234
10
15.2223884
20
-0.0293196
40
0.7443669
50
0.1605367
51
7.7176192
0
ARC
8
DEFAULT_255_1_234
10
15.2387789
20
-0.1057566
40
0.7279835
50
348.7289388
51
0.3012466
0
ARC
8
DEFAULT_255_1_234
10
15.4044219
20
-0.1386614
40
0.559104
50
333.0706509
51
348.7181832
0
ARC
8
DEFAULT_255_1_234
10
15.5010977
20
-0.1911681
40
0.4491417
50
299.2531685
51
333.4571258
0
ARC
8
DEFAULT_255_1_234
10
15.4650117
20
-0.1226172
40
0.5265881
50
278.107187
51
299.0339503
0
ARC
8
DEFAULT_255_1_234
10
15.4394196
20
0.0281216
40
0.679442
50
270.4443897
51
278.4511052
0
ARC
8
DEFAULT_255_1_234
10
15.4415026
20
-0.0647787
40
0.4604407
50
269.4970433
51
284.0205042
0
ARC
8
DEFAULT_255_1_234
10
15.4770327
20
-0.2013022
40
0.3193797
50
283.7700273
51
318.1555492
0
ARC
8
DEFAULT_255_1_234
10
15.4433085
20
-0.1760633
40
0.3613588
50
318.7415601
51
343.6873628
0
ARC
8
DEFAULT_255_1_234
10
15.2629108
20
-0.1197168
40
0.5503313
50
343.3325091
51
355.8548958
0
ARC
8
DEFAULT_255_1_234
10
15.0530792
20
-0.0997681
40
0.7610708
50
355.4988528
51
0.0791727
0
ARC
8
DEFAULT_255_1_234
10
15.1313415
20
-0.026222
40
0.6828208
50
359.6455037
51
9.8607896
0
ARC
8
DEFAULT_255_1_234
10
15.3674113
20
0.0164099
40
0.4429406
50
9.6571907
51
26.1932807
0
ARC
8
DEFAULT_255_1_234
10
15.4602101
20
0.0595118
40
0.3406537
50
26.5777228
51
40.1532208
0
ARC
8
DEFAULT_255_1_234
10
15.4857828
20
0.0794619
40
0.308246
50
40.3840491
51
80.1431104
0
ARC
8
DEFAULT_255_1_234
10
15.4530946
20
-0.0654667
40
0.4566909
50
79.2152159
51
89.7445637
0
LINE
8
DEFAULT_255_1_234
10
16.8944181
20
0.0402327
11
16.8944181
21
-0.1525291
0
LINE
8
DEFAULT_255_1_234
10
16.1563013
20
-0.1726084
11
16.1563013
21
0.0257755
0
LINE
8
DEFAULT_255_1_234
10
16.7458309
20
-0.1926877
11
16.7458309
21
0.0506739
0
LINE
8
DEFAULT_255_1_234
10
16.3048885
20
0.0619184
11
16.3048885
21
-0.1758211
0
ARC
8
DEFAULT_255_1_234
10
15.669707
20
-0.1574195
40
1.2247208
50
353.8441951
51
0.2287902
0
ARC
8
DEFAULT_255_1_234
10
16.1336574
20
-0.2092194
40
0.7578929
50
344.4934747
51
353.9765454
0
ARC
8
DEFAULT_255_1_234
10
16.4329164
20
-0.2943019
40
0.4467846
50
329.2803592
51
344.7472793
0
ARC
8
DEFAULT_255_1_234
10
16.5321989
20
-0.3487982
40
0.3336173
50
324.9352394
51
328.6160465
0
ARC
8
DEFAULT_255_1_234
10
16.5699098
20
-0.3751573
40
0.2876076
50
280.580143
51
324.9173126
0
ARC
8
DEFAULT_255_1_234
10
16.529789
20
-0.2080901
40
0.4592847
50
269.5977311
51
281.6734359
0
ARC
8
DEFAULT_255_1_234
10
16.5225796
20
-0.2200827
40
0.4472986
50
256.6228859
51
270.51044
0
ARC
8
DEFAULT_255_1_234
10
16.4823774
20
-0.3749123
40
0.2873874
50
215.8618325
51
257.2788573
0
ARC
8
DEFAULT_255_1_234
10
16.5844805
20
-0.3064023
40
0.4102928
50
197.9693508
51
215.2623606
0
ARC
8
DEFAULT_255_1_234
10
16.8329921
20
-0.2225291
40
0.6725652
50
187.8816417
51
198.2346507
0
ARC
8
DEFAULT_255_1_234
10
17.2288129
20
-0.1653921
40
1.0724845
50
180.8976217
51
188.0055519
0
ARC
8
DEFAULT_255_1_234
10
17.5088317
20
-0.1550223
40
1.3526448
50
180.7449369
51
181.1510016
0
ARC
8
DEFAULT_255_1_234
10
17.3511046
20
0.0306042
40
1.1948131
50
173.7675579
51
180.231553
0
ARC
8
DEFAULT_255_1_234
10
16.8993193
20
0.0816666
40
0.7401564
50
164.3058563
51
173.9002247
0
ARC
8
DEFAULT_255_1_234
10
16.6081262
20
0.1655656
40
0.4371288
50
148.7922025
51
164.568378
0
ARC
8
DEFAULT_255_1_234
10
16.5129714
20
0.2186929
40
0.3282386
50
144.5883898
51
148.1176286
0
ARC
8
DEFAULT_255_1_234
10
16.4786612
20
0.2426315
40
0.2864044
50
101.6440918
51
144.514236
0
ARC
8
DEFAULT_255_1_234
10
16.5211679
20
0.0737069
40
0.4604934
50
89.5284041
51
102.5819763
0
ARC
8
DEFAULT_255_1_234
10
16.5290766
20
0.0698018
40
0.464401
50
77.0437873
51
90.5081339
0
ARC
8
DEFAULT_255_1_234
10
16.5692768
20
0.2340615
40
0.2953195
50
48.2778575
51
77.4994676
0
ARC
8
DEFAULT_255_1_234
10
16.57654
20
0.2469746
40
0.2808655
50
36.3142134
51
47.6305865
0
ARC
8
DEFAULT_255_1_234
10
16.4896706
20
0.1884515
40
0.3855453
50
18.2931786
51
35.6769206
0
ARC
8
DEFAULT_255_1_234
10
16.2353465
20
0.1011593
40
0.654423
50
8.024666
51
18.5605216
0
ARC
8
DEFAULT_255_1_234
10
15.8190385
20
0.0396792
40
1.0752407
50
1.1274072
51
8.1718305
0
ARC
8
DEFAULT_255_1_234
10
15.4954576
20
0.0269885
40
1.3990231
50
0.5424119
51
1.3863029
0
ARC
8
DEFAULT_255_1_234
10
15.6775954
20
0.0542342
40
1.0682415
50
359.8090433
51
4.9407866
0
ARC
8
DEFAULT_255_1_234
10
16.0985968
20
0.0918113
40
0.6455691
50
4.8362157
51
12.2904523
0
ARC
8
DEFAULT_255_1_234
10
16.3741083
20
0.1531965
40
0.3633074
50
12.0805627
51
23.8173984
0
ARC
8
DEFAULT_255_1_234
10
16.4914788
20
0.2028919
40
0.2358723
50
24.2871213
51
31.3935614
0
ARC
8
DEFAULT_255_1_234
10
16.5439485
20
0.2372233
40
0.1732111
50
30.7407893
51
82.4657128
0
ARC
8
DEFAULT_255_1_234
10
16.5259619
20
0.1488691
40
0.263235
50
81.1060089
51
90.2184952
0
ARC
8
DEFAULT_255_1_234
10
16.5223918
20
0.1746924
40
0.2374236
50
89.3806855
51
105.6762551
0
ARC
8
DEFAULT_255_1_234
10
16.5040549
20
0.2413567
40
0.1682847
50
105.7981136
51
149.7388061
0
ARC
8
DEFAULT_255_1_234
10
16.6104627
20
0.177395
40
0.2924306
50
149.4208916
51
163.6286378
0
ARC
8
DEFAULT_255_1_234
10
16.8195515
20
0.113625
40
0.5110213
50
163.3763315
51
172.1410975
0
ARC
8
DEFAULT_255_1_234
10
17.1496234
20
0.0663518
40
0.8444586
50
172.0259487
51
178.0703232
0
ARC
8
DEFAULT_255_1_234
10
17.4526324
20
0.0519906
40
1.1477868
50
177.8631668
51
179.5044149
0
ARC
8
DEFAULT_255_1_234
10
17.3453728
20
-0.1794611
40
1.0404907
50
179.7995573
51
185.2460446
0
ARC
8
DEFAULT_255_1_234
10
16.9410768
20
-0.2177487
40
0.6343885
50
185.1411642
51
193.0079639
0
ARC
8
DEFAULT_255_1_234
10
16.676724
20
-0.2802359
40
0.3627568
50
192.7897626
51
205.2507664
0
ARC
8
DEFAULT_255_1_234
10
16.5720787
20
-0.3269585
40
0.2481908
50
205.8005384
51
211.2537509
0
ARC
8
DEFAULT_255_1_234
10
16.5197228
20
-0.362042
40
0.1852521
50
210.3789793
51
238.4008143
0
ARC
8
DEFAULT_255_1_234
10
16.5177749
20
-0.3573624
40
0.1882621
50
239.6520629
51
265.9793761
0
ARC
8
DEFAULT_255_1_234
10
16.526295
20
-0.2901573
40
0.2559272
50
265.1315437
51
270.060332
0
ARC
8
DEFAULT_255_1_234
10
16.5291728
20
-0.3225466
40
0.2235528
50
269.3314664
51
287.2178029
0
ARC
8
DEFAULT_255_1_234
10
16.542958
20
-0.3728721
40
0.1714108
50
287.7958004
51
329.080874
0
ARC
8
DEFAULT_255_1_234
10
16.4472037
20
-0.313107
40
0.2842745
50
328.6634704
51
343.3325132
0
ARC
8
DEFAULT_255_1_234
10
16.2299057
20
-0.2454137
40
0.5118644
50
343.0499468
51
351.9393422
0
ARC
8
DEFAULT_255_1_234
10
15.8832357
20
-0.1943051
40
0.8622784
50
351.8069023
51
357.7959224
0
ARC
8
DEFAULT_255_1_234
10
15.5596913
20
-0.1775279
40
1.1862365
50
357.5871873
51
359.2677531
0
LINE
8
DEFAULT_255_1_234
10
17.8509981
20
-0.5300208
11
17.8509981
21
-0.6513
0
LINE
8
DEFAULT_255_1_234
10
17.8509981
20
-0.6513
11
17.0847703
21
-0.6513
0
LINE
8
DEFAULT_255_1_234
10
17.0847703
20
-0.6513
11
17.0847703
21
-0.5444779
0
LINE
8
DEFAULT_255_1_234
10
17.0847703
20
-0.5444779
11
17.4895699
21
-0.0947005
0
LINE
8
DEFAULT_255_1_234
10
17.2108686
20
0.1735595
11
17.0622814
21
0.1735595
0
LINE
8
DEFAULT_255_1_234
10
17.5771158
20
-0.1902782
11
17.263878
21
-0.5300208
0
LINE
8
DEFAULT_255_1_234
10
17.263878
20
-0.5300208
11
17.8509981
21
-0.5300208
0
ARC
8
DEFAULT_255_1_234
10
16.1405532
20
1.0982527
40
1.8008286
50
318.5132453
51
320.7828378
0
ARC
8
DEFAULT_255_1_234
10
16.6692506
20
0.6679426
40
1.1191493
50
320.7372736
51
323.9737074
0
ARC
8
DEFAULT_255_1_234
10
17.0612363
20
0.3839361
40
0.6350923
50
323.8961724
51
328.6421089
0
ARC
8
DEFAULT_255_1_234
10
17.2658958
20
0.2577031
40
0.3946393
50
328.8299013
51
331.789948
0
ARC
8
DEFAULT_255_1_234
10
17.3656137
20
0.2062509
40
0.2824501
50
331.4255242
51
352.9364833
0
ARC
8
DEFAULT_255_1_234
10
17.3792637
20
0.2031976
40
0.2685315
50
353.2248685
51
0.0169286
0
ARC
8
DEFAULT_255_1_234
10
17.4002514
20
0.205495
40
0.2475536
50
359.4866256
51
15.9339782
0
ARC
8
DEFAULT_255_1_234
10
17.45095
20
0.2191286
40
0.1950618
50
16.1714718
51
43.5284424
0
ARC
8
DEFAULT_255_1_234
10
17.4586808
20
0.2268573
40
0.184134
50
43.4415429
51
83.1661404
0
ARC
8
DEFAULT_255_1_234
10
17.4452726
20
0.1531771
40
0.258926
50
82.160215
51
90.1505798
0
ARC
8
DEFAULT_255_1_234
10
17.4421154
20
0.0994865
40
0.3126255
50
89.5460705
51
102.5418777
0
ARC
8
DEFAULT_255_1_234
10
17.417824
20
0.2025665
40
0.2067346
50
102.1739365
51
129.2061916
0
ARC
8
DEFAULT_255_1_234
10
17.4099312
20
0.2150094
40
0.1921118
50
129.7279328
51
135.7542026
0
ARC
8
DEFAULT_255_1_234
10
17.4220839
20
0.2053045
40
0.2075944
50
136.175737
51
166.3674722
0
ARC
8
DEFAULT_255_1_234
10
17.5227758
20
0.1783182
40
0.3118201
50
165.9092917
51
178.8683903
0
ARC
8
DEFAULT_255_1_234
10
17.609262
20
0.1736179
40
0.3983935
50
178.438168
51
180.0083905
0
ARC
8
DEFAULT_255_1_234
10
17.4691222
20
0.1775231
40
0.4068601
50
163.2878735
51
180.5581814
0
ARC
8
DEFAULT_255_1_234
10
17.3889483
20
0.199584
40
0.3237344
50
133.454115
51
162.9470031
0
ARC
8
DEFAULT_255_1_234
10
17.4068025
20
0.1806
40
0.349795
50
100.7869394
51
133.4384016
0
ARC
8
DEFAULT_255_1_234
10
17.4415796
20
0.0257319
40
0.5084616
50
89.6605301
51
101.3704185
0
ARC
8
DEFAULT_255_1_234
10
17.4482135
20
0.0318496
40
0.502348
50
78.2171172
51
90.4130393
0
ARC
8
DEFAULT_255_1_234
10
17.4837213
20
0.1942637
40
0.3361092
50
55.9268222
51
78.4888551
0
ARC
8
DEFAULT_255_1_234
10
17.5033653
20
0.2281324
40
0.2970617
50
47.9292255
51
55.4054003
0
ARC
8
DEFAULT_255_1_234
10
17.5135214
20
0.2384502
40
0.2825983
50
4.3347696
51
48.0560701
0
ARC
8
DEFAULT_255_1_234
10
17.4039608
20
0.2214601
40
0.393225
50
359.925209
51
5.5967654
0
ARC
8
DEFAULT_255_1_234
10
17.4468499
20
0.2270816
40
0.3503892
50
337.8914096
51
358.9967724
0
ARC
8
DEFAULT_255_1_234
10
17.1754911
20
0.3317706
40
0.6412172
50
326.9135351
51
338.3505194
0
ARC
8
DEFAULT_255_1_234
10
16.7769215
20
0.5872284
40
1.1146189
50
319.6472867
51
327.095818
0
ARC
8
DEFAULT_255_1_234
10
16.3936218
20
0.9034
40
1.6114559
50
317.2586784
51
319.9046139
0
LINE
8
DEFAULT_255_1_234
10
18.3329024
20
-0.0938974
11
18.3329024
21
-0.2151766
0
LINE
8
DEFAULT_255_1_234
10
18.3329024
20
-0.2151766
11
17.9409536
21
-0.2151766
0
LINE
8
DEFAULT_255_1_234
10
17.9409536
20
-0.2151766
11
17.9409536
21
-0.0938974
0
LINE
8
DEFAULT_255_1_234
10
17.9409536
20
-0.0938974
11
18.3329024
21
-0.0938974
0
LINE
8
DEFAULT_255_1_234
10
19.1955111
20
0.0402327
11
19.1955111
21
-0.1525291
0
LINE
8
DEFAULT_255_1_234
10
18.4573943
20
-0.1726084
11
18.4573943
21
0.0257755
0
LINE
8
DEFAULT_255_1_234
10
19.0469239
20
-0.1926877
11
19.0469239
21
0.0506739
0
LINE
8
DEFAULT_255_1_234
10
18.6059815
20
0.0619184
11
18.6059815
21
-0.1758211
0
ARC
8
DEFAULT_255_1_234
10
17.9708
20
-0.1574195
40
1.2247208
50
353.8441951
51
0.2287902
0
ARC
8
DEFAULT_255_1_234
10
18.4347504
20
-0.2092194
40
0.7578929
50
344.4934747
51
353.9765454
0
ARC
8
DEFAULT_255_1_234
10
18.7340094
20
-0.2943019
40
0.4467846
50
329.2803592
51
344.7472793
0
ARC
8
DEFAULT_255_1_234
10
18.8332919
20
-0.3487982
40
0.3336173
50
324.9352394
51
328.6160465
0
ARC
8
DEFAULT_255_1_234
10
18.8710028
20
-0.3751573
40
0.2876076
50
280.580143
51
324.9173126
0
ARC
8
DEFAULT_255_1_234
10
18.830882
20
-0.2080901
40
0.4592847
50
269.5977311
51
281.6734359
0
ARC
8
DEFAULT_255_1_234
10
18.8236726
20
-0.2200827
40
0.4472986
50
256.6228859
51
270.51044
0
ARC
8
DEFAULT_255_1_234
10
18.7834704
20
-0.3749123
40
0.2873874
50
215.8618325
51
257.2788573
0
ARC
8
DEFAULT_255_1_234
10
18.8855735
20
-0.3064023
40
0.4102928
50
197.9693508
51
215.2623606
0
ARC
8
DEFAULT_255_1_234
10
19.1340851
20
-0.2225291
40
0.6725652
50
187.8816417
51
198.2346507
0
ARC
8
DEFAULT_255_1_234
10
19.5299059
20
-0.1653921
40
1.0724845
50
180.8976217
51
188.0055519
0
ARC
8
DEFAULT_255_1_234
10
19.8099248
20
-0.1550223
40
1.3526448
50
180.7449369
51
181.1510016
0
ARC
8
DEFAULT_255_1_234
10
19.6521977
20
0.0306042
40
1.1948131
50
173.7675579
51
180.231553
0
ARC
8
DEFAULT_255_1_234
10
19.2004123
20
0.0816666
40
0.7401564
50
164.3058563
51
173.9002247
0
ARC
8
DEFAULT_255_1_234
10
18.9092192
20
0.1655656
40
0.4371288
50
148.7922025
51
164.568378
0
ARC
8
DEFAULT_255_1_234
10
18.8140644
20
0.2186929
40
0.3282386
50
144.5883898
51
148.1176286
0
ARC
8
DEFAULT_255_1_234
10
18.7797542
20
0.2426315
40
0.2864044
50
101.6440918
51
144.514236
0
ARC
8
DEFAULT_255_1_234
10
18.8222609
20
0.0737069
40
0.4604934
50
89.5284041
51
102.5819763
0
ARC
8
DEFAULT_255_1_234
10
18.8301697
20
0.0698018
40
0.464401
50
77.0437873
51
90.5081339
0
ARC
8
DEFAULT_255_1_234
10
18.8703698
20
0.2340615
40
0.2953195
50
48.2778575
51
77.4994676
0
ARC
8
DEFAULT_255_1_234
10
18.877633
20
0.2469746
40
0.2808655
50
36.3142134
51
47.6305865
0
ARC
8
DEFAULT_255_1_234
10
18.7907637
20
0.1884515
40
0.3855453
50
18.2931786
51
35.6769206
0
ARC
8
DEFAULT_255_1_234
10
18.5364395
20
0.1011593
40
0.654423
50
8.024666
51
18.5605216
0
ARC
8
DEFAULT_255_1_234
10
18.1201315
20
0.0396792
40
1.0752407
50
1.1274072
51
8.1718305
0
ARC
8
DEFAULT_255_1_234
10
17.7965506
20
0.0269885
40
1.3990231
50
0.5424119
51
1.3863029
0
ARC
8
DEFAULT_255_1_234
10
17.9786884
20
0.0542342
40
1.0682415
50
359.8090433
51
4.9407866
0
ARC
8
DEFAULT_255_1_234
10
18.3996898
20
0.0918113
40
0.6455691
50
4.8362157
51
12.2904523
0
ARC
8
DEFAULT_255_1_234
10
18.6752013
20
0.1531965
40
0.3633074
50
12.0805627
51
23.8173984
0
ARC
8
DEFAULT_255_1_234
10
18.7925718
20
0.2028919
40
0.2358723
50
24.2871213
51
31.3935614
0
ARC
8
DEFAULT_255_1_234
10
18.8450415
20
0.2372233
40
0.1732111
50
30.7407893
51
82.4657128
0
ARC
8
DEFAULT_255_1_234
10
18.827055
20
0.1488691
40
0.263235
50
81.1060089
51
90.2184952
0
ARC
8
DEFAULT_255_1_234
10
18.8234848
20
0.1746924
40
0.2374236
50
89.3806855
51
105.6762551
0
ARC
8
DEFAULT_255_1_234
10
18.8051479
20
0.2413567
40
0.1682847
50
105.7981136
51
149.7388061
0
ARC
8
DEFAULT_255_1_234
10
18.9115557
20
0.177395
40
0.2924306
50
149.4208916
51
163.6286378
0
ARC
8
DEFAULT_255_1_234
10
19.1206445
20
0.113625
40
0.5110213
50
163.3763315
51
172.1410975
0
ARC
8
DEFAULT_255_1_234
10
19.4507164
20
0.0663518
40
0.8444586
50
172.0259487
51
178.0703232
0
ARC
8
DEFAULT_255_1_234
10
19.7537254
20
0.0519906
40
1.1477868
50
177.8631668
51
179.5044149
0
ARC
8
DEFAULT_255_1_234
10
19.6464658
20
-0.1794611
40
1.0404907
50
179.7995573
51
185.2460446
0
ARC
8
DEFAULT_255_1_234
10
19.2421698
20
-0.2177487
40
0.6343885
50
185.1411642
51
193.0079639
0
ARC
8
DEFAULT_255_1_234
10
18.977817
20
-0.2802359
40
0.3627568
50
192.7897626
51
205.2507664
0
ARC
8
DEFAULT_255_1_234
10
18.8731717
20
-0.3269585
40
0.2481908
50
205.8005384
51
211.2537509
0
ARC
8
DEFAULT_255_1_234
10
18.8208158
20
-0.362042
40
0.1852521
50
210.3789793
51
238.4008143
0
ARC
8
DEFAULT_255_1_234
10
18.818868
20
-0.3573624
40
0.1882621
50
239.6520629
51
265.9793761
0
ARC
8
DEFAULT_255_1_234
10
18.827388
20
-0.2901573
40
0.2559272
50
265.1315437
51
270.060332
0
ARC
8
DEFAULT_255_1_234
10
18.8302659
20
-0.3225466
40
0.2235528
50
269.3314664
51
287.2178029
0
ARC
8
DEFAULT_255_1_234
10
18.844051
20
-0.3728721
40
0.1714108
50
287.7958004
51
329.080874
0
ARC
8
DEFAULT_255_1_234
10
18.7482967
20
-0.313107
40
0.2842745
50
328.6634704
51
343.3325132
0
ARC
8
DEFAULT_255_1_234
10
18.5309987
20
-0.2454137
40
0.5118644
50
343.0499468
51
351.9393422
0
ARC
8
DEFAULT_255_1_234
10
18.1843287
20
-0.1943051
40
0.8622784
50
351.8069023
51
357.7959224
0
ARC
8
DEFAULT_255_1_234
10
17.8607843
20
-0.1775279
40
1.1862365
50
357.5871873
51
359.2677531
0
LINE
8
DEFAULT_255_1_234
10
20.1818085
20
-0.6513
11
20.0701674
21
-0.3460939
0
LINE
8
DEFAULT_255_1_234
10
20.0701674
20
-0.3460939
11
19.5802313
21
-0.3460939
0
LINE
8
DEFAULT_255_1_234
10
19.5802313
20
-0.3460939
11
19.4701965
21
-0.6513
0
LINE
8
DEFAULT_255_1_234
10
19.4701965
20
-0.6513
11
19.3111681
21
-0.6513
0
LINE
8
DEFAULT_255_1_234
10
19.3111681
20
-0.6513
11
19.7577328
21
0.5181211
0
LINE
8
DEFAULT_255_1_234
10
19.7577328
20
0.5181211
11
19.892666
21
0.5181211
0
LINE
8
DEFAULT_255_1_234
10
19.892666
20
0.5181211
11
20.3400338
21
-0.6513
0
LINE
8
DEFAULT_255_1_234
10
20.3400338
20
-0.6513
11
20.1818085
21
-0.6513
0
LINE
8
DEFAULT_255_1_234
10
19.8251994
20
0.3277689
11
19.6268154
21
-0.2191925
0
LINE
8
DEFAULT_255_1_234
10
19.6268154
20
-0.2191925
11
20.0243865
21
-0.2191925
0
LINE
8
DEFAULT_255_1_234
10
20.0243865
20
-0.2191925
11
19.8251994
21
0.3277689
0
LINE
8
DEFAULT_255_1_234
10
20.9030586
20
-0.6513
11
20.4974559
21
-0.6513
0
LINE
8
DEFAULT_255_1_234
10
20.4974559
20
-0.6513
11
20.4974559
21
0.5181211
0
LINE
8
DEFAULT_255_1_234
10
20.4974559
20
0.5181211
11
20.8797666
21
0.5181211
0
LINE
8
DEFAULT_255_1_234
10
20.9086809
20
-0.1043386
11
20.6516652
21
-0.1043386
0
LINE
8
DEFAULT_255_1_234
10
20.6516652
20
-0.1043386
11
20.6516652
21
-0.5252017
0
LINE
8
DEFAULT_255_1_234
10
20.6516652
20
-0.5252017
11
20.9062713
21
-0.5252017
0
LINE
8
DEFAULT_255_1_234
10
20.6516652
20
0.3912196
11
20.6516652
21
0.0193501
0
LINE
8
DEFAULT_255_1_234
10
20.6516652
20
0.0193501
11
20.8845856
21
0.0193501
0
LINE
8
DEFAULT_255_1_234
10
20.8797666
20
0.3912196
11
20.6516652
21
0.3912196
0
ARC
8
DEFAULT_255_1_234
10
20.8835375
20
-0.2186099
40
0.7367406
50
82.1257326
51
90.2932599
0
ARC
8
DEFAULT_255_1_234
10
20.9224329
20
0.0532013
40
0.4621653
50
69.9044149
51
82.2857423
0
ARC
8
DEFAULT_255_1_234
10
20.9795007
20
0.2074637
40
0.2976871
50
51.1838526
51
70.0181538
0
ARC
8
DEFAULT_255_1_234
10
21.0049973
20
0.244524
40
0.2528517
50
12.1017251
51
50.4214761
0
ARC
8
DEFAULT_255_1_234
10
20.8665847
20
0.2097676
40
0.3955061
50
359.5251267
51
12.8211707
0
ARC
8
DEFAULT_255_1_234
10
21.0245774
20
0.2028344
40
0.2375281
50
323.4908128
51
0.8817314
0
ARC
8
DEFAULT_255_1_234
10
20.9827461
20
0.235155
40
0.2903817
50
298.6825083
51
323.2756573
0
ARC
8
DEFAULT_255_1_234
10
20.9465824
20
0.2952649
40
0.3604842
50
293.1999386
51
299.1396394
0
ARC
8
DEFAULT_255_1_234
10
21.0138797
20
-0.3132874
40
0.2871098
50
54.0011765
51
74.9167975
0
ARC
8
DEFAULT_255_1_234
10
21.0255156
20
-0.2935668
40
0.2643248
50
36.3580696
51
53.5291921
0
ARC
8
DEFAULT_255_1_234
10
21.0128398
20
-0.3026002
40
0.2798884
50
4.8189881
51
36.3089977
0
ARC
8
DEFAULT_255_1_234
10
20.9349233
20
-0.313573
40
0.358478
50
359.9370252
51
5.5204067
0
ARC
8
DEFAULT_255_1_234
10
20.9024755
20
-0.3176333
40
0.3909429
50
344.7478609
51
0.5373281
0
ARC
8
DEFAULT_255_1_234
10
21.0015726
20
-0.3443456
40
0.2883093
50
311.1786488
51
344.6886812
0
ARC
8
DEFAULT_255_1_234
10
20.9723773
20
-0.3080013
40
0.3348923
50
286.0418249
51
310.8441291
0
ARC
8
DEFAULT_255_1_234
10
20.9216605
20
-0.1433193
40
0.5071869
50
274.1042341
51
286.4071509
0
ARC
8
DEFAULT_255_1_234
10
20.9039861
20
0.0450229
40
0.6963234
50
269.9236873
51
274.445647
0
ARC
8
DEFAULT_255_1_234
10
20.9085862
20
-0.1889463
40
0.3362634
50
269.6055768
51
281.3740047
0
ARC
8
DEFAULT_255_1_234
10
20.93165
20
-0.2982647
40
0.224546
50
281.1055983
51
302.5132223
0
ARC
8
DEFAULT_255_1_234
10
20.9463399
20
-0.3246177
40
0.1944357
50
303.0368945
51
311.8811219
0
ARC
8
DEFAULT_255_1_234
10
20.9534806
20
-0.333111
40
0.1833454
50
311.9916004
51
351.7143462
0
ARC
8
DEFAULT_255_1_234
10
20.8718036
20
-0.316607
40
0.2665871
50
350.7339597
51
0.2221581
0
ARC
8
DEFAULT_255_1_234
10
20.8610482
20
-0.3109533
40
0.2773789
50
359.0456241
51
17.2296242
0
ARC
8
DEFAULT_255_1_234
10
20.9649599
20
-0.2800837
40
0.1689915
50
17.6685481
51
78.9940892
0
ARC
8
DEFAULT_255_1_234
10
20.9132763
20
-0.4655776
40
0.3612658
50
76.5635957
51
90.6980921
0
LINE
8
DEFAULT_255_1_234
10
20.9088747
20
-0.1043387
11
20.9086809
21
-0.1043386
0
ARC
8
DEFAULT_255_1_234
10
20.8868423
20
0.3479036
40
0.3285612
50
269.6064736
51
281.4533503
0
ARC
8
DEFAULT_255_1_234
10
20.9091243
20
0.2427688
40
0.2210975
50
281.2041486
51
302.5148063
0
ARC
8
DEFAULT_255_1_234
10
20.9228093
20
0.2181241
40
0.1929674
50
303.021671
51
309.8369575
0
ARC
8
DEFAULT_255_1_234
10
20.9411554
20
0.1975488
40
0.1654181
50
309.5228395
51
356.9509836
0
ARC
8
DEFAULT_255_1_234
10
20.8748136
20
0.2070932
40
0.2322512
50
355.4701227
51
0.0492546
0
ARC
8
DEFAULT_255_1_234
10
20.8469228
20
0.2093094
40
0.2601498
50
359.5558597
51
11.2096359
0
ARC
8
DEFAULT_255_1_234
10
20.9426518
20
0.229123
40
0.1623975
50
10.9182341
51
31.3230275
0
ARC
8
DEFAULT_255_1_234
10
20.9712251
20
0.2450214
40
0.1297302
50
31.8852677
51
52.1412565
0
ARC
8
DEFAULT_255_1_234
10
20.9437984
20
0.206275
40
0.1771663
50
52.8285564
51
71.9850297
0
ARC
8
DEFAULT_255_1_234
10
20.906216
20
0.0956664
40
0.2939794
50
71.6863486
51
82.8455995
0
ARC
8
DEFAULT_255_1_234
10
20.8822696
20
-0.0852851
40
0.476506
50
82.6984714
51
90.1729175
0
ARC
8
DEFAULT_255_1_234
10
20.8800331
20
0.0370623
40
0.3541573
50
89.8708275
51
90.0431131
0
LINE
8
DEFAULT_255_1_234
10
22.2162479
20
0.0402327
11
22.2162479
21
-0.1525291
0
LINE
8
DEFAULT_255_1_234
10
21.4781311
20
-0.1726084
11
21.4781311
21
0.0257755
0
LINE
8
DEFAULT_255_1_234
10
22.0676607
20
-0.1926877
11
22.0676607
21
0.0506739
0
LINE
8
DEFAULT_255_1_234
10
21.6267183
20
0.0619184
11
21.6267183
21
-0.1758211
0
ARC
8
DEFAULT_255_1_234
10
20.9915368
20
-0.1574195
40
1.2247208
50
353.8441951
51
0.2287902
0
ARC
8
DEFAULT_255_1_234
10
21.4554872
20
-0.2092194
40
0.7578929
50
344.4934747
51
353.9765454
0
ARC
8
DEFAULT_255_1_234
10
21.7547462
20
-0.2943019
40
0.4467846
50
329.2803592
51
344.7472793
0
ARC
8
DEFAULT_255_1_234
10
21.8540287
20
-0.3487982
40
0.3336173
50
324.9352394
51
328.6160465
0
ARC
8
DEFAULT_255_1_234
10
21.8917396
20
-0.3751573
40
0.2876076
50
280.580143
51
324.9173126
0
ARC
8
DEFAULT_255_1_234
10
21.8516188
20
-0.2080901
40
0.4592847
50
269.5977311
51
281.6734359
0
ARC
8
DEFAULT_255_1_234
10
21.8444094
20
-0.2200827
40
0.4472986
50
256.6228859
51
270.51044
0
ARC
8
DEFAULT_255_1_234
10
21.8042072
20
-0.3749123
40
0.2873874
50
215.8618325
51
257.2788573
0
ARC
8
DEFAULT_255_1_234
10
21.9063103
20
-0.3064023
40
0.4102928
50
197.9693508
51
215.2623606
0
ARC
8
DEFAULT_255_1_234
10
22.1548219
20
-0.2225291
40
0.6725652
50
187.8816417
51
198.2346507
0
ARC
8
DEFAULT_255_1_234
10
22.5506427
20
-0.1653921
40
1.0724845
50
180.8976217
51
188.0055519
0
ARC
8
DEFAULT_255_1_234
10
22.8306615
20
-0.1550223
40
1.3526448
50
180.7449369
51
181.1510016
0
ARC
8
DEFAULT_255_1_234
10
22.6729344
20
0.0306042
40
1.1948131
50
173.7675579
51
180.231553
0
ARC
8
DEFAULT_255_1_234
10
22.2211491
20
0.0816666
40
0.7401564
50
164.3058563
51
173.9002247
0
ARC
8
DEFAULT_255_1_234
10
21.929956
20
0.1655656
40
0.4371288
50
148.7922025
51
164.568378
0
ARC
8
DEFAULT_255_1_234
10
21.8348012
20
0.2186929
40
0.3282386
50
144.5883898
51
148.1176286
0
ARC
8
DEFAULT_255_1_234
10
21.800491
20
0.2426315
40
0.2864044
50
101.6440918
51
144.514236
0
ARC
8
DEFAULT_255_1_234
10
21.8429977
20
0.0737069
40
0.4604934
50
89.5284041
51
102.5819763
0
ARC
8
DEFAULT_255_1_234
10
21.8509064
20
0.0698018
40
0.464401
50
77.0437873
51
90.5081339
0
ARC
8
DEFAULT_255_1_234
10
21.8911066
20
0.2340615
40
0.2953195
50
48.2778575
51
77.4994676
0
ARC
8
DEFAULT_255_1_234
10
21.8983697
20
0.2469746
40
0.2808655
50
36.3142134
51
47.6305865
0
ARC
8
DEFAULT_255_1_234
10
21.8115004
20
0.1884515
40
0.3855453
50
18.2931786
51
35.6769206
0
ARC
8
DEFAULT_255_1_234
10
21.5571763
20
0.1011593
40
0.654423
50
8.024666
51
18.5605216
0
ARC
8
DEFAULT_255_1_234
10
21.1408683
20
0.0396792
40
1.0752407
50
1.1274072
51
8.1718305
0
ARC
8
DEFAULT_255_1_234
10
20.8172874
20
0.0269885
40
1.3990231
50
0.5424119
51
1.3863029
0
ARC
8
DEFAULT_255_1_234
10
20.9994252
20
0.0542342
40
1.0682415
50
359.8090433
51
4.9407866
0
ARC
8
DEFAULT_255_1_234
10
21.4204266
20
0.0918113
40
0.6455691
50
4.8362157
51
12.2904523
0
ARC
8
DEFAULT_255_1_234
10
21.695938
20
0.1531965
40
0.3633074
50
12.0805627
51
23.8173984
0
ARC
8
DEFAULT_255_1_234
10
21.8133086
20
0.2028919
40
0.2358723
50
24.2871213
51
31.3935614
0
ARC
8
DEFAULT_255_1_234
10
21.8657783
20
0.2372233
40
0.1732111
50
30.7407893
51
82.4657128
0
ARC
8
DEFAULT_255_1_234
10
21.8477917
20
0.1488691
40
0.263235
50
81.1060089
51
90.2184952
0
ARC
8
DEFAULT_255_1_234
10
21.8442216
20
0.1746924
40
0.2374236
50
89.3806855
51
105.6762551
0
ARC
8
DEFAULT_255_1_234
10
21.8258847
20
0.2413567
40
0.1682847
50
105.7981136
51
149.7388061
0
ARC
8
DEFAULT_255_1_234
10
21.9322925
20
0.177395
40
0.2924306
50
149.4208916
51
163.6286378
0
ARC
8
DEFAULT_255_1_234
10
22.1413813
20
0.113625
40
0.5110213
50
163.3763315
51
172.1410975
0
ARC
8
DEFAULT_255_1_234
10
22.4714532
20
0.0663518
40
0.8444586
50
172.0259487
51
178.0703232
0
ARC
8
DEFAULT_255_1_234
10
22.7744622
20
0.0519906
40
1.1477868
50
177.8631668
51
179.5044149
0
ARC
8
DEFAULT_255_1_234
10
22.6672026
20
-0.1794611
40
1.0404907
50
179.7995573
51
185.2460446
0
ARC
8
DEFAULT_255_1_234
10
22.2629065
20
-0.2177487
40
0.6343885
50
185.1411642
51
193.0079639
0
ARC
8
DEFAULT_255_1_234
10
21.9985538
20
-0.2802359
40
0.3627568
50
192.7897626
51
205.2507664
0
ARC
8
DEFAULT_255_1_234
10
21.8939085
20
-0.3269585
40
0.2481908
50
205.8005384
51
211.2537509
0
ARC
8
DEFAULT_255_1_234
10
21.8415525
20
-0.362042
40
0.1852521
50
210.3789793
51
238.4008143
0
ARC
8
DEFAULT_255_1_234
10
21.8396047
20
-0.3573624
40
0.1882621
50
239.6520629
51
265.9793761
0
ARC
8
DEFAULT_255_1_234
10
21.8481247
20
-0.2901573
40
0.2559272
50
265.1315437
51
270.060332
0
ARC
8
DEFAULT_255_1_234
10
21.8510026
20
-0.3225466
40
0.2235528
50
269.3314664
51
287.2178029
0
ARC
8
DEFAULT_255_1_234
10
21.8647878
20
-0.3728721
40
0.1714108
50
287.7958004
51
329.080874
0
ARC
8
DEFAULT_255_1_234
10
21.7690335
20
-0.313107
40
0.2842745
50
328.6634704
51
343.3325132
0
ARC
8
DEFAULT_255_1_234
10
21.5517355
20
-0.2454137
40
0.5118644
50
343.0499468
51
351.9393422
0
ARC
8
DEFAULT_255_1_234
10
21.2050655
20
-0.1943051
40
0.8622784
50
351.8069023
51
357.7959224
0
ARC
8
DEFAULT_255_1_234
10
20.8815211
20
-0.1775279
40
1.1862365
50
357.5871873
51
359.2677531
0
ARC
8
DEFAULT_255_2_778
10
7.7537338
20
84.0887992
40
3.0484709
50
251.6854144
51
258.6071955
0
ARC
8
DEFAULT_255_2_778
10
7.539521
20
83.0071738
40
1.9458471
50
258.4992492
51
268.3986479
0
ARC
8
DEFAULT_255_2_778
10
7.5172314
20
82.5769206
40
1.5151737
50
268.7865272
51
269.9950384
0
ARC
8
DEFAULT_255_2_778
10
7.5277432
20
82.1257355
40
1.0640417
50
269.426895
51
279.6711067
0
ARC
8
DEFAULT_255_2_778
10
7.6417753
20
81.4961746
40
0.4243233
50
278.7731084
51
300.3324923
0
ARC
8
DEFAULT_255_2_778
10
7.760746
20
81.2935552
40
0.1893587
50
300.2240287
51
1.9041213
0
ARC
8
DEFAULT_255_2_778
10
7.7452705
20
81.3027089
40
0.2047497
50
359.1991369
51
359.99965
0
ARC
8
DEFAULT_255_2_778
10
7.7523233
20
81.3035378
40
0.1976988
50
359.7594145
51
47.1793976
0
ARC
8
DEFAULT_255_2_778
10
7.6187277
20
81.154931
40
0.3975169
50
47.6144502
51
60.8366176
0
ARC
8
DEFAULT_255_2_778
10
7.0190958
20
80.1389865
40
1.5771337
50
59.799464
51
64.8885807
0
ARC
8
DEFAULT_255_2_778
10
6.0948833
20
78.2099682
40
3.7160912
50
64.6076081
51
66.8386974
0
ARC
8
DEFAULT_255_2_778
10
9.6419609
20
86.5730052
40
5.368109
50
244.3032309
51
247.1393781
0
ARC
8
DEFAULT_255_2_778
10
8.5507088
20
84.313018
40
2.8584574
50
240.2323579
51
244.3709759
0
ARC
8
DEFAULT_255_2_778
10
7.7800475
20
82.9761591
40
1.315392
50
233.2209971
51
240.4606284
0
ARC
8
DEFAULT_255_2_778
10
7.3561477
20
82.4050187
40
0.6041399
50
225.6990744
51
232.9899679
0
ARC
8
DEFAULT_255_2_778
10
7.3965073
20
82.4294214
40
0.6499005
50
178.2783416
51
224.6550883
0
ARC
8
DEFAULT_255_2_778
10
7.5059624
20
82.4627974
40
0.7591885
50
157.033673
51
181.0453383
0
ARC
8
DEFAULT_255_2_778
10
7.378439
20
82.5036396
40
0.6259551
50
124.9113017
51
155.9211516
0
ARC
8
DEFAULT_255_2_778
10
7.5960466
20
82.1950681
40
1.0035357
50
100.4079723
51
125.0168617
0
ARC
8
DEFAULT_255_2_778
10
7.6991199
20
81.7010046
40
1.5081396
50
89.6483922
51
100.8684975
0
ARC
8
DEFAULT_255_2_778
10
7.7083242
20
81.3487988
40
1.8603169
50
89.5079487
51
89.9984402
0
ARC
8
DEFAULT_255_2_778
10
7.7099573
20
81.2835694
40
1.9255311
50
83.9170631
51
89.5732113
0
ARC
8
DEFAULT_255_2_778
10
7.5071517
20
79.2759957
40
3.9433074
50
80.7325723
51
84.0779772
0
ARC
8
DEFAULT_255_2_778
10
7.0208457
20
76.253082
40
7.0050837
50
78.5086351
51
80.7886813
0
ARC
8
DEFAULT_255_2_778
10
7.6620177
20
80.8525544
40
1.9415426
50
67.135818
51
78.0934208
0
ARC
8
DEFAULT_255_2_778
10
7.7851814
20
81.4229809
40
1.3579807
50
78.2126325
51
89.7333975
0
ARC
8
DEFAULT_255_2_778
10
7.7793853
20
81.8381211
40
0.9429038
50
89.2638155
51
100.5666868
0
ARC
8
DEFAULT_255_2_778
10
7.6660949
20
82.4079419
40
0.362036
50
99.4784875
51
124.329414
0
ARC
8
DEFAULT_255_2_778
10
7.5705593
20
82.556051
40
0.1859067
50
125.7571195
51
182.2824883
0
ARC
8
DEFAULT_255_2_778
10
7.5493239
20
82.5493629
40
0.1645253
50
180.2492993
51
239.8144161
0
ARC
8
DEFAULT_255_2_778
10
7.932718
20
83.1494128
40
0.876484
50
237.8725734
51
242.8068846
0
ARC
8
DEFAULT_255_2_778
10
9.4175857
20
85.9659958
40
4.0604642
50
242.3328458
51
244.031083
0
ARC
8
DEFAULT_255_2_778
10
12.3804066
20
92.0144314
40
10.7955807
50
243.950624
51
244.8024316
0
ARC
8
DEFAULT_255_2_778
10
15.4009918
20
98.3984175
40
17.8580926
50
244.7535425
51
244.9563234
0
ARC
8
DEFAULT_255_2_778
10
5.8652927
20
77.8968264
40
4.7527588
50
62.2505456
51
65.4301556
0
ARC
8
DEFAULT_255_2_778
10
6.9275435
20
79.9049172
40
2.4810291
50
57.2951304
51
62.3684211
0
ARC
8
DEFAULT_255_2_778
10
7.6807233
20
81.0682235
40
1.0952081
50
48.7345704
51
57.5685367
0
ARC
8
DEFAULT_255_2_778
10
8.0117486
20
81.4557722
40
0.5856147
50
44.3236031
51
48.0704418
0
ARC
8
DEFAULT_255_2_778
10
7.9783002
20
81.4357468
40
0.6236013
50
1.3523843
51
43.4925744
0
ARC
8
DEFAULT_255_2_778
10
7.7103531
20
81.4028151
40
0.8926473
50
359.9763756
51
3.0599076
0
ARC
8
DEFAULT_255_2_778
10
7.8645343
20
81.3877407
40
0.7386124
50
333.0361889
51
1.1408766
0
ARC
8
DEFAULT_255_2_778
10
7.8947908
20
81.3946919
40
0.7150741
50
300.8430083
51
331.4403095
0
ARC
8
DEFAULT_255_2_778
10
7.694568
20
81.7082162
40
1.0869673
50
281.4258583
51
301.4316118
0
ARC
8
DEFAULT_255_2_778
10
7.5632666
20
82.3164414
40
1.7091691
50
270.2273513
51
281.7010805
0
ARC
8
DEFAULT_255_2_778
10
7.5453797
20
82.7931043
40
2.1859577
50
269.9983113
51
270.6466065
0
LINE
8
DEFAULT_255_2_778
10
7.5453153
20
80.6071465
11
7.5438002
21
80.607147
0
ARC
8
DEFAULT_255_2_778
10
7.5509161
20
83.7900969
40
3.1829579
50
256.2431122
51
269.871909
0
ARC
8
DEFAULT_255_2_778
10
21.7538511
20
84.0146629
40
2.9720345
50
251.5709223
51
258.7508181
0
ARC
8
DEFAULT_255_2_778
10
21.5538128
20
82.9914385
40
1.9294488
50
258.6495077
51
268.8281511
0
ARC
8
DEFAULT_255_2_778
10
21.5355488
20
82.5966193
40
1.5343723
50
269.2085037
51
269.9981866
0
ARC
8
DEFAULT_255_2_778
10
21.5473849
20
82.1282184
40
1.0660376
50
269.3612297
51
279.5899087
0
ARC
8
DEFAULT_255_2_778
10
21.6608439
20
81.4967324
40
0.424527
50
278.6895227
51
300.2363944
0
ARC
8
DEFAULT_255_2_778
10
21.7799083
20
81.2932793
40
0.188796
50
300.1108484
51
1.9024905
0
ARC
8
DEFAULT_255_2_778
10
21.7439577
20
81.3039221
40
0.2246851
50
358.8842611
51
0.0019649
0
ARC
8
DEFAULT_255_2_778
10
21.7769791
20
81.3078385
40
0.1917038
50
358.831716
51
47.0900458
0
ARC
8
DEFAULT_255_2_778
10
21.6364654
20
81.148484
40
0.4041259
50
47.8812665
51
61.174665
0
ARC
8
DEFAULT_255_2_778
10
21.0418848
20
80.1285117
40
1.5846568
50
60.1210877
51
65.1917015
0
ARC
8
DEFAULT_255_2_778
10
20.1415278
20
78.2229122
40
3.6922188
50
64.9168629
51
67.1565628
0
ARC
8
DEFAULT_255_2_778
10
23.6275467
20
86.4944888
40
5.2839333
50
244.2656926
51
247.1407051
0
ARC
8
DEFAULT_255_2_778
10
22.5594997
20
84.286265
40
2.8309849
50
240.1545061
51
244.3326325
0
ARC
8
DEFAULT_255_2_778
10
21.7856548
20
82.9502346
40
1.2870531
50
232.697515
51
240.4357497
0
ARC
8
DEFAULT_255_2_778
10
21.3705506
20
82.3992218
40
0.5972006
50
225.5850892
51
232.3393736
0
ARC
8
DEFAULT_255_2_778
10
21.4133941
20
82.4287933
40
0.6483829
50
178.7795739
51
224.7095916
0
ARC
8
DEFAULT_255_2_778
10
21.6669319
20
82.4528135
40
0.9018316
50
179.997867
51
180.6487041
0
ARC
8
DEFAULT_255_2_778
10
21.5167738
20
82.4666249
40
0.7517998
50
156.9195758
51
181.050088
0
ARC
8
DEFAULT_255_2_778
10
21.3928482
20
82.5060712
40
0.6224513
50
124.7111133
51
155.7879672
0
ARC
8
DEFAULT_255_2_778
10
21.6055459
20
82.2141942
40
0.9835402
50
101.7934503
51
125.2143527
0
ARC
8
DEFAULT_255_2_778
10
21.729848
20
81.6616326
40
1.5498677
50
89.5248728
51
102.1166783
0
ARC
8
DEFAULT_255_2_778
10
21.7283109
20
81.1080834
40
2.1034129
50
83.2889725
51
89.6080411
0
ARC
8
DEFAULT_255_2_778
10
21.529975
20
79.3402668
40
3.8823067
50
79.4764054
51
83.4308492
0
ARC
8
DEFAULT_255_2_778
10
21.2186357
20
77.5870673
40
5.6628977
50
78.2224868
51
79.6190915
0
ARC
8
DEFAULT_255_2_778
10
21.6838473
20
80.8645715
40
1.9311543
50
67.1323814
51
78.3148813
0
ARC
8
DEFAULT_255_2_778
10
21.801359
20
81.4160614
40
1.3672981
50
78.4565774
51
89.7552271
0
ARC
8
DEFAULT_255_2_778
10
21.7951366
20
81.846947
40
0.9364778
50
89.2619009
51
100.5950934
0
ARC
8
DEFAULT_255_2_778
10
21.6824182
20
82.4124169
40
0.3599879
50
99.5087086
51
124.406715
0
ARC
8
DEFAULT_255_2_778
10
21.5878565
20
82.558843
40
0.1858061
50
125.8630185
51
182.2986975
0
ARC
8
DEFAULT_255_2_778
10
21.5497296
20
82.5513047
40
0.1475296
50
179.9666559
51
180.100057
0
ARC
8
DEFAULT_255_2_778
10
21.566185
20
82.551293
40
0.163985
50
180.0859454
51
239.8819968
0
ARC
8
DEFAULT_255_2_778
10
21.9379018
20
83.1380619
40
0.8584853
50
238.072871
51
243.0442008
0
ARC
8
DEFAULT_255_2_778
10
23.4872034
20
86.1030845
40
4.2038426
50
242.5409111
51
244.1884903
0
ARC
8
DEFAULT_255_2_778
10
26.6463384
20
92.597696
40
11.4260319
50
244.1076525
51
244.9219574
0
ARC
8
DEFAULT_255_2_778
10
29.9038827
20
99.521355
40
19.0777309
50
244.8743531
51
245.066969
0
ARC
8
DEFAULT_255_2_778
10
19.8865272
20
77.9291274
40
4.7250654
50
62.0340028
51
65.293009
0
ARC
8
DEFAULT_255_2_778
10
20.9507744
20
79.9240758
40
2.464003
50
57.1127289
51
62.13736
0
ARC
8
DEFAULT_255_2_778
10
21.7037139
20
81.0777906
40
1.0863604
50
48.3695509
51
57.4197129
0
ARC
8
DEFAULT_255_2_778
10
22.0286268
20
81.4545419
40
0.5889589
50
44.472493
51
47.6467012
0
ARC
8
DEFAULT_255_2_778
10
21.9979457
20
81.4374032
40
0.6229283
50
1.2061613
51
43.6203607
0
ARC
8
DEFAULT_255_2_778
10
21.7312413
20
81.4049903
40
0.890659
50
359.9779196
51
2.9299178
0
ARC
8
DEFAULT_255_2_778
10
21.8802547
20
81.3898837
40
0.7417924
50
333.172934
51
1.140392
0
ARC
8
DEFAULT_255_2_778
10
21.9146167
20
81.3945736
40
0.7135172
50
300.9808035
51
331.5913995
0
ARC
8
DEFAULT_255_2_778
10
21.7182603
20
81.7044862
40
1.0803281
50
281.9040909
51
301.4483918
0
ARC
8
DEFAULT_255_2_778
10
21.5848425
20
82.3030518
40
1.6935565
50
270.5796874
51
282.1436175
0
ARC
8
DEFAULT_255_2_778
10
21.5636722
20
82.7979735
40
2.1887267
50
269.9959074
51
271.0027751
0
LINE
8
DEFAULT_255_2_778
10
21.5635158
20
80.6092468
11
21.5625002
21
80.609247
0
ARC
8
DEFAULT_255_2_778
10
21.5700221
20
83.7980174
40
3.1887792
50
256.2556596
51
269.8648469
0
LINE
8
DEFAULT_255_2_778
10
6.7958002
20
80.700047
11
6.7958002
21
81.194747
0
LINE
8
DEFAULT_255_2_778
10
8.4164002
20
83.117747
11
8.4164002
21
82.641547
0
LINE
8
DEFAULT_255_2_778
10
6.7940002
20
80.698447
11
6.7958002
21
80.700047
0
LINE
8
DEFAULT_255_2_778
10
8.9866002
20
83.167247
11
9.6629002
21
83.167247
0
LINE
8
DEFAULT_255_2_778
10
9.6629002
20
83.167247
11
9.6629002
21
80.659847
0
LINE
8
DEFAULT_255_2_778
10
9.6629002
20
80.659847
11
8.9866002
21
80.659847
0
LINE
8
DEFAULT_255_2_778
10
8.9866002
20
80.659847
11
8.9866002
21
83.167247
0
LINE
8
DEFAULT_255_2_778
10
10.2809002
20
80.659847
11
10.2809002
21
83.167247
0
LINE
8
DEFAULT_255_2_778
10
10.2809002
20
83.167247
11
12.0132002
21
83.167247
0
LINE
8
DEFAULT_255_2_778
10
12.0132002
20
83.167247
11
12.0132002
21
82.713547
0
LINE
8
DEFAULT_255_2_778
10
12.0132002
20
82.713547
11
10.9321002
21
82.713547
0
LINE
8
DEFAULT_255_2_778
10
10.9321002
20
82.713547
11
10.9321002
21
82.147247
0
LINE
8
DEFAULT_255_2_778
10
10.9321002
20
82.147247
11
11.8735002
21
82.147247
0
LINE
8
DEFAULT_255_2_778
10
11.8735002
20
82.147247
11
11.8735002
21
81.733747
0
LINE
8
DEFAULT_255_2_778
10
11.8735002
20
81.733747
11
10.9321002
21
81.733747
0
LINE
8
DEFAULT_255_2_778
10
10.9321002
20
81.733747
11
10.9321002
21
81.138447
0
LINE
8
DEFAULT_255_2_778
10
10.9321002
20
81.138447
11
12.0412002
21
81.138447
0
LINE
8
DEFAULT_255_2_778
10
12.0412002
20
81.138447
11
12.0412002
21
80.658247
0
LINE
8
DEFAULT_255_2_778
10
12.0412002
20
80.658247
11
10.2809002
21
80.659847
0
LINE
8
DEFAULT_255_2_778
10
12.4817002
20
80.659847
11
12.4817002
21
83.167247
0
LINE
8
DEFAULT_255_2_778
10
12.4817002
20
83.167247
11
13.3575002
21
83.167247
0
LINE
8
DEFAULT_255_2_778
10
13.3575002
20
83.167247
11
13.9671002
21
81.564947
0
LINE
8
DEFAULT_255_2_778
10
13.9671002
20
81.564947
11
14.5897002
21
83.167247
0
LINE
8
DEFAULT_255_2_778
10
14.5897002
20
83.167247
11
15.4215002
21
83.167247
0
LINE
8
DEFAULT_255_2_778
10
15.4215002
20
83.167247
11
15.4215002
21
80.659847
0
LINE
8
DEFAULT_255_2_778
10
15.4215002
20
80.659847
11
14.7812002
21
80.659847
0
LINE
8
DEFAULT_255_2_778
10
14.7812002
20
80.659847
11
14.7812002
21
82.435647
0
LINE
8
DEFAULT_255_2_778
10
14.7812002
20
82.435647
11
14.0724002
21
80.635447
0
LINE
8
DEFAULT_255_2_778
10
14.0724002
20
80.635447
11
13.6515002
21
80.635447
0
LINE
8
DEFAULT_255_2_778
10
13.6515002
20
80.635447
11
12.9559002
21
82.435647
0
LINE
8
DEFAULT_255_2_778
10
12.9559002
20
82.435647
11
12.9559002
21
80.659547
0
LINE
8
DEFAULT_255_2_778
10
12.9559002
20
80.659547
11
12.4817002
21
80.659847
0
LINE
8
DEFAULT_255_2_778
10
16.0409002
20
80.659847
11
16.0409002
21
83.167247
0
LINE
8
DEFAULT_255_2_778
10
16.0409002
20
83.167247
11
17.7731002
21
83.167247
0
LINE
8
DEFAULT_255_2_778
10
17.7731002
20
83.167247
11
17.7731002
21
82.713547
0
LINE
8
DEFAULT_255_2_778
10
17.7731002
20
82.713547
11
16.6921002
21
82.713547
0
LINE
8
DEFAULT_255_2_778
10
16.6921002
20
82.713547
11
16.6921002
21
82.147247
0
LINE
8
DEFAULT_255_2_778
10
16.6921002
20
82.147247
11
17.6334002
21
82.147247
0
LINE
8
DEFAULT_255_2_778
10
17.6334002
20
82.147247
11
17.6334002
21
81.733747
0
LINE
8
DEFAULT_255_2_778
10
17.6334002
20
81.733747
11
16.6921002
21
81.733747
0
LINE
8
DEFAULT_255_2_778
10
16.6921002
20
81.733747
11
16.6921002
21
81.138447
0
LINE
8
DEFAULT_255_2_778
10
16.6921002
20
81.138447
11
17.8030002
21
81.138447
0
LINE
8
DEFAULT_255_2_778
10
17.8030002
20
81.138447
11
17.8030002
21
80.658247
0
LINE
8
DEFAULT_255_2_778
10
17.8030002
20
80.658247
11
16.0409002
21
80.659847
0
LINE
8
DEFAULT_255_2_778
10
18.2454002
20
80.659847
11
18.2454002
21
83.167247
0
LINE
8
DEFAULT_255_2_778
10
18.2454002
20
83.167247
11
19.0283002
21
83.167247
0
LINE
8
DEFAULT_255_2_778
10
19.0283002
20
83.167247
11
19.8586002
21
81.488447
0
LINE
8
DEFAULT_255_2_778
10
19.8586002
20
81.488447
11
19.8586002
21
83.167247
0
LINE
8
DEFAULT_255_2_778
10
19.8586002
20
83.167247
11
20.3343002
21
83.167247
0
LINE
8
DEFAULT_255_2_778
10
20.3343002
20
83.167247
11
20.3343002
21
80.659847
0
LINE
8
DEFAULT_255_2_778
10
20.3343002
20
80.659847
11
19.5739002
21
80.659847
0
LINE
8
DEFAULT_255_2_778
10
19.5739002
20
80.659847
11
18.7214002
21
82.361047
0
LINE
8
DEFAULT_255_2_778
10
18.7214002
20
82.361047
11
18.7214002
21
80.659847
0
LINE
8
DEFAULT_255_2_778
10
18.7214002
20
80.659847
11
18.2454002
21
80.659847
0
LINE
8
DEFAULT_255_2_778
10
20.8143002
20
80.700247
11
20.8143002
21
81.195047
0
LINE
8
DEFAULT_255_2_778
10
22.3745002
20
83.130747
11
22.4343002
21
83.120147
0
LINE
8
DEFAULT_255_2_778
10
22.4343002
20
83.120147
11
22.4343002
21
82.643947
0
LINE
8
DEFAULT_255_2_778
10
20.8124002
20
80.700547
11
20.8143002
21
80.700247
0
LINE
8
DEFAULT_255_1_234
10
8.8546023
20
78.8934849
11
8.6995897
21
78.8934849
0
LINE
8
DEFAULT_255_1_234
10
8.0072539
20
78.4011394
11
8.1622665
21
78.4011394
0
ARC
8
DEFAULT_255_1_234
10
8.765471
20
79.7881768
40
1.252368
50
248.9199003
51
254.1439814
0
ARC
8
DEFAULT_255_1_234
10
8.5974205
20
79.3555234
40
0.788226
50
241.633709
51
249.0064503
0
ARC
8
DEFAULT_255_1_234
10
8.44456
20
79.0754317
40
0.4691427
50
230.498225
51
241.8087113
0
ARC
8
DEFAULT_255_1_234
10
8.3661174
20
78.9754906
40
0.3421437
50
227.4064532
51
229.9881192
0
ARC
8
DEFAULT_255_1_234
10
8.3173694
20
78.9279088
40
0.2741476
50
200.6781896
51
228.1763934
0
ARC
8
DEFAULT_255_1_234
10
8.3246005
20
78.9264077
40
0.2804109
50
179.5061581
51
199.8694617
0
ARC
8
DEFAULT_255_1_234
10
8.3236757
20
78.933821
40
0.2795204
50
132.4834203
51
181.0242172
0
ARC
8
DEFAULT_255_1_234
10
8.3832339
20
78.8775704
40
0.3612768
50
129.2532479
51
133.4242687
0
ARC
8
DEFAULT_255_1_234
10
8.3978789
20
78.8555965
40
0.3875675
50
101.98776
51
128.8742646
0
ARC
8
DEFAULT_255_1_234
10
8.4377399
20
78.6834741
40
0.5642249
50
89.5906553
51
102.3169264
0
ARC
8
DEFAULT_255_1_234
10
8.4447891
20
78.7153148
40
0.5323783
50
77.2360837
51
90.3248275
0
ARC
8
DEFAULT_255_1_234
10
8.4654971
20
78.81204
40
0.4334697
50
63.837784
51
77.0809408
0
ARC
8
DEFAULT_255_1_234
10
8.4932732
20
78.8637911
40
0.3747796
50
45.9864267
51
64.1607727
0
ARC
8
DEFAULT_255_1_234
10
8.5193614
20
78.8935866
40
0.3352302
50
32.2747395
51
45.6547121
0
ARC
8
DEFAULT_255_1_234
10
8.5260054
20
78.895488
40
0.328603
50
359.6507365
51
32.6130309
0
ARC
8
DEFAULT_255_1_234
10
8.431715
20
78.895966
40
0.2678863
50
359.469343
51
14.9832209
0
ARC
8
DEFAULT_255_1_234
10
8.5022212
20
78.9148539
40
0.1948938
50
14.9781179
51
48.2004265
0
ARC
8
DEFAULT_255_1_234
10
8.4857856
20
78.8941983
40
0.2212521
50
48.5927837
51
74.1241538
0
ARC
8
DEFAULT_255_1_234
10
8.4524346
20
78.7841248
40
0.3362561
50
73.7888341
51
86.6652678
0
ARC
8
DEFAULT_255_1_234
10
8.4421911
20
78.6633881
40
0.4573953
50
86.2640471
51
90.0526343
0
ARC
8
DEFAULT_255_1_234
10
8.4393624
20
78.7029192
40
0.4178709
50
89.6697524
51
99.2309573
0
ARC
8
DEFAULT_255_1_234
10
8.4151075
20
78.8473964
40
0.2713749
50
99.069534
51
113.7658566
0
ARC
8
DEFAULT_255_1_234
10
8.3877266
20
78.9119677
40
0.2012469
50
114.0401004
51
127.9850673
0
ARC
8
DEFAULT_255_1_234
10
8.363683
20
78.941573
40
0.1631167
50
127.7287463
51
176.7105154
0
ARC
8
DEFAULT_255_1_234
10
8.4315547
20
78.9314693
40
0.2315392
50
175.1779447
51
180.0581938
0
ARC
8
DEFAULT_255_1_234
10
8.3472394
20
78.9302428
40
0.1472271
50
179.6142195
51
228.1246017
0
ARC
8
DEFAULT_255_1_234
10
8.3914063
20
78.9711308
40
0.2072299
50
226.5779593
51
230.8800004
0
ARC
8
DEFAULT_255_1_234
10
8.4385141
20
79.0336636
40
0.2854818
50
231.4635071
51
241.9260842
0
ARC
8
DEFAULT_255_1_234
10
8.5582319
20
79.25398
40
0.53622
50
241.7178533
51
248.3259551
0
ARC
8
DEFAULT_255_1_234
10
8.6967691
20
79.5972064
40
0.9063478
50
248.2007737
51
252.4528373
0
ARC
8
DEFAULT_255_1_234
10
8.8171416
20
79.9693441
40
1.2974635
50
252.3391078
51
254.3469452
0
ARC
8
DEFAULT_255_1_234
10
8.0629119
20
77.2716148
40
1.5037162
50
71.0197183
51
74.4087047
0
ARC
8
DEFAULT_255_1_234
10
8.2323804
20
77.7608111
40
0.9859993
50
66.1847285
51
71.086374
0
ARC
8
DEFAULT_255_1_234
10
8.3880116
20
78.11122
40
0.6025855
50
59.3536294
51
66.2691831
0
ARC
8
DEFAULT_255_1_234
10
8.4768769
20
78.2615609
40
0.4279449
50
49.1020879
51
59.3293958
0
ARC
8
DEFAULT_255_1_234
10
8.5587509
20
78.3548834
40
0.3038015
50
32.7919921
51
49.2505539
0
ARC
8
DEFAULT_255_1_234
10
8.5908599
20
78.3777191
40
0.264448
50
31.1181161
51
32.4005348
0
ARC
8
DEFAULT_255_1_234
10
8.5820136
20
78.3741779
40
0.2738556
50
8.1116974
51
30.7958831
0
ARC
8
DEFAULT_255_1_234
10
8.5009804
20
78.3603753
40
0.3560327
50
359.8389159
51
8.4706516
0
ARC
8
DEFAULT_255_1_234
10
8.5635596
20
78.3555137
40
0.2934776
50
337.4731098
51
0.7537279
0
ARC
8
DEFAULT_255_1_234
10
8.5814291
20
78.3535387
40
0.2762607
50
307.5917067
51
336.4315538
0
ARC
8
DEFAULT_255_1_234
10
8.5354119
20
78.4048102
40
0.3449979
50
307.6551545
51
308.4529766
0
ARC
8
DEFAULT_255_1_234
10
8.5123838
20
78.440325
40
0.3871988
50
284.3734338
51
307.1424381
0
ARC
8
DEFAULT_255_1_234
10
8.4628668
20
78.6224932
40
0.5759636
50
272.4382747
51
284.646547
0
ARC
8
DEFAULT_255_1_234
10
8.4501876
20
78.8024893
40
0.7563528
50
269.9708387
51
272.8178037
0
ARC
8
DEFAULT_255_1_234
10
8.4458916
20
78.5986716
40
0.5525489
50
248.2707594
51
270.4055579
0
ARC
8
DEFAULT_255_1_234
10
8.4404657
20
78.5796192
40
0.5328452
50
246.1383403
51
248.0542782
0
ARC
8
DEFAULT_255_1_234
10
8.3986036
20
78.4916843
40
0.4355005
50
233.1670131
51
246.4950969
0
ARC
8
DEFAULT_255_1_234
10
8.3431941
20
78.4168812
40
0.3424126
50
215.3403242
51
233.0843104
0
ARC
8
DEFAULT_255_1_234
10
8.3159372
20
78.3970549
40
0.3087104
50
179.2419209
51
215.2648451
0
ARC
8
DEFAULT_255_1_234
10
8.3926966
20
78.3984666
40
0.2304457
50
179.335461
51
199.1045811
0
ARC
8
DEFAULT_255_1_234
10
8.3594643
20
78.3897766
40
0.1962176
50
199.8828939
51
232.7063202
0
ARC
8
DEFAULT_255_1_234
10
8.4066911
20
78.4491788
40
0.2720938
50
232.3738199
51
255.5136649
0
ARC
8
DEFAULT_255_1_234
10
8.4407778
20
78.5735835
40
0.4010747
50
255.2446292
51
267.5320849
0
ARC
8
DEFAULT_255_1_234
10
8.4495401
20
78.6968702
40
0.5246356
50
267.1557994
51
270.0286766
0
ARC
8
DEFAULT_255_1_234
10
8.4523173
20
78.652495
40
0.4802668
50
269.7000017
51
278.1660162
0
ARC
8
DEFAULT_255_1_234
10
8.4779178
20
78.4794515
40
0.3053425
50
278.0231263
51
290.625471
0
ARC
8
DEFAULT_255_1_234
10
8.5126865
20
78.3867025
40
0.206291
50
290.6619762
51
307.0370976
0
ARC
8
DEFAULT_255_1_234
10
8.5427254
20
78.3498504
40
0.1587906
50
306.3943566
51
355.3030547
0
ARC
8
DEFAULT_255_1_234
10
8.4915186
20
78.3575113
40
0.2104809
50
354.3660432
51
0.0698737
0
ARC
8
DEFAULT_255_1_234
10
8.5057531
20
78.3597617
40
0.1962563
50
359.417946
51
16.1971788
0
ARC
8
DEFAULT_255_1_234
10
8.5512841
20
78.3722418
40
0.149053
50
16.4723299
51
52.6262157
0
ARC
8
DEFAULT_255_1_234
10
8.4691895
20
78.2638433
40
0.2850296
50
52.7386432
51
62.4979148
0
ARC
8
DEFAULT_255_1_234
10
8.3306972
20
78.0032283
40
0.5801521
50
62.2515216
51
68.1220564
0
ARC
8
DEFAULT_255_1_234
10
8.1586883
20
77.5804872
40
1.0365451
50
68.0062803
51
71.8053402
0
ARC
8
DEFAULT_255_1_234
10
7.9791255
20
77.0419758
40
1.6042013
50
71.7183119
51
73.9258742
0
LINE
8
DEFAULT_255_1_234
10
9.2200464
20
79.2316211
11
9.2200464
21
78.0622
0
LINE
8
DEFAULT_255_1_234
10
9.2200464
20
78.0622
11
9.065837
21
78.0622
0
LINE
8
DEFAULT_255_1_234
10
9.065837
20
78.0622
11
9.065837
21
79.2316211
0
LINE
8
DEFAULT_255_1_234
10
9.065837
20
79.2316211
11
9.2200464
21
79.2316211
0
LINE
8
DEFAULT_255_1_234
10
9.5019604
20
79.2316211
11
9.7011475
21
79.2316211
0
LINE
8
DEFAULT_255_1_234
10
9.7011475
20
79.2316211
11
10.0834583
21
78.2774506
0
LINE
8
DEFAULT_255_1_234
10
10.0834583
20
78.2774506
11
10.465769
21
79.2316211
0
LINE
8
DEFAULT_255_1_234
10
10.465769
20
79.2316211
11
10.6657593
21
79.2316211
0
LINE
8
DEFAULT_255_1_234
10
10.6657593
20
79.2316211
11
10.6657593
21
78.0622
0
LINE
8
DEFAULT_255_1_234
10
10.6657593
20
78.0622
11
10.5115499
21
78.0622
0
LINE
8
DEFAULT_255_1_234
10
10.5115499
20
78.0622
11
10.5115499
21
78.5175996
0
LINE
8
DEFAULT_255_1_234
10
10.5115499
20
78.5175996
11
10.526007
21
79.0091419
0
LINE
8
DEFAULT_255_1_234
10
10.526007
20
79.0091419
11
10.1420899
21
78.0622
0
LINE
8
DEFAULT_255_1_234
10
10.1420899
20
78.0622
11
10.0240234
21
78.0622
0
LINE
8
DEFAULT_255_1_234
10
10.0240234
20
78.0622
11
9.6409095
21
79.0067324
0
LINE
8
DEFAULT_255_1_234
10
9.6409095
20
79.0067324
11
9.6561698
21
78.5175996
0
LINE
8
DEFAULT_255_1_234
10
9.6561698
20
78.5175996
11
9.6561698
21
78.0622
0
LINE
8
DEFAULT_255_1_234
10
9.6561698
20
78.0622
11
9.5019604
21
78.0622
0
LINE
8
DEFAULT_255_1_234
10
9.5019604
20
78.0622
11
9.5019604
21
79.2316211
0
LINE
8
DEFAULT_255_1_234
10
11.7098853
20
78.0622
11
11.5982441
21
78.3674061
0
LINE
8
DEFAULT_255_1_234
10
11.5982441
20
78.3674061
11
11.1083081
21
78.3674061
0
LINE
8
DEFAULT_255_1_234
10
11.1083081
20
78.3674061
11
10.9982732
21
78.0622
0
LINE
8
DEFAULT_255_1_234
10
10.9982732
20
78.0622
11
10.8392448
21
78.0622
0
LINE
8
DEFAULT_255_1_234
10
10.8392448
20
78.0622
11
11.2858095
21
79.2316211
0
LINE
8
DEFAULT_255_1_234
10
11.2858095
20
79.2316211
11
11.4207427
21
79.2316211
0
LINE
8
DEFAULT_255_1_234
10
11.4207427
20
79.2316211
11
11.8681105
21
78.0622
0
LINE
8
DEFAULT_255_1_234
10
11.8681105
20
78.0622
11
11.7098853
21
78.0622
0
LINE
8
DEFAULT_255_1_234
10
11.3532761
20
79.0412689
11
11.1548921
21
78.4943075
0
LINE
8
DEFAULT_255_1_234
10
11.1548921
20
78.4943075
11
11.5524632
21
78.4943075
0
LINE
8
DEFAULT_255_1_234
10
11.5524632
20
78.4943075
11
11.3532761
21
79.0412689
0
LINE
8
DEFAULT_255_1_234
10
12.729916
20
79.2316211
11
12.729916
21
79.1047196
0
LINE
8
DEFAULT_255_1_234
10
12.729916
20
79.1047196
11
12.3540307
21
79.1047196
0
LINE
8
DEFAULT_255_1_234
10
12.3540307
20
79.1047196
11
12.3540307
21
78.0622
0
LINE
8
DEFAULT_255_1_234
10
12.3540307
20
78.0622
11
12.2006245
21
78.0622
0
LINE
8
DEFAULT_255_1_234
10
12.2006245
20
78.0622
11
12.2006245
21
79.1047196
0
LINE
8
DEFAULT_255_1_234
10
12.2006245
20
79.1047196
11
11.8255423
21
79.1047196
0
LINE
8
DEFAULT_255_1_234
10
11.8255423
20
79.1047196
11
11.8255423
21
79.2316211
0
LINE
8
DEFAULT_255_1_234
10
11.8255423
20
79.2316211
11
12.729916
21
79.2316211
0
LINE
8
DEFAULT_255_1_234
10
13.0688554
20
79.2316211
11
13.0688554
21
78.0622
0
LINE
8
DEFAULT_255_1_234
10
13.0688554
20
78.0622
11
12.914646
21
78.0622
0
LINE
8
DEFAULT_255_1_234
10
12.914646
20
78.0622
11
12.914646
21
79.2316211
0
LINE
8
DEFAULT_255_1_234
10
12.914646
20
79.2316211
11
13.0688554
21
79.2316211
0
LINE
8
DEFAULT_255_1_234
10
14.055956
20
78.4332663
11
14.2109686
21
78.4332663
0
LINE
8
DEFAULT_255_1_234
10
13.3106107
20
78.5922947
11
13.3106107
21
78.7047391
0
LINE
8
DEFAULT_255_1_234
10
14.2109686
20
78.8557357
11
14.055956
21
78.8557357
0
LINE
8
DEFAULT_255_1_234
10
13.4656232
20
78.7007232
11
13.4656232
21
78.5874757
0
ARC
8
DEFAULT_255_1_234
10
13.6629072
20
78.4929846
40
0.5513052
50
340.1774281
51
353.7814284
0
ARC
8
DEFAULT_255_1_234
10
13.8200425
20
78.4344582
40
0.3836379
50
311.4558989
51
340.4421614
0
ARC
8
DEFAULT_255_1_234
10
13.8167093
20
78.4455528
40
0.3941894
50
282.4333181
51
310.7513653
0
ARC
8
DEFAULT_255_1_234
10
13.7727832
20
78.6270679
40
0.5809175
50
269.9358511
51
282.809604
0
ARC
8
DEFAULT_255_1_234
10
13.7675899
20
78.7728212
40
0.7266847
50
270.0021091
51
270.3581957
0
ARC
8
DEFAULT_255_1_234
10
13.7623315
20
78.5127585
40
0.4666519
50
250.7884749
51
270.6489167
0
ARC
8
DEFAULT_255_1_234
10
13.745515
20
78.4490319
40
0.4009729
50
219.3627325
51
250.0611886
0
ARC
8
DEFAULT_255_1_234
10
13.8284361
20
78.5195042
40
0.5097822
50
193.5479632
51
219.5756669
0
ARC
8
DEFAULT_255_1_234
10
14.0655982
20
78.5810919
40
0.7547848
50
181.1218675
51
193.87563
0
ARC
8
DEFAULT_255_1_234
10
14.2726163
20
78.592158
40
0.9620055
50
179.9918545
51
181.5394234
0
ARC
8
DEFAULT_255_1_234
10
14.0875265
20
78.7084788
40
0.7769248
50
169.5837241
51
180.2757934
0
ARC
8
DEFAULT_255_1_234
10
13.9038203
20
78.7424229
40
0.590109
50
155.0365899
51
169.6003176
0
ARC
8
DEFAULT_255_1_234
10
13.7902667
20
78.7971677
40
0.4640625
50
136.783148
51
155.2472683
0
ARC
8
DEFAULT_255_1_234
10
13.7513144
20
78.8302562
40
0.4130255
50
121.7633186
51
136.428115
0
ARC
8
DEFAULT_255_1_234
10
13.7648106
20
78.8053227
40
0.4413323
50
95.6459699
51
121.5490577
0
ARC
8
DEFAULT_255_1_234
10
13.7805388
20
78.6944949
40
0.55319
50
89.924208
51
96.1377933
0
ARC
8
DEFAULT_255_1_234
10
13.7855821
20
78.7063542
40
0.5413475
50
76.6779277
51
90.4563316
0
ARC
8
DEFAULT_255_1_234
10
13.8249444
20
78.8654114
40
0.3775041
50
47.485847
51
76.9287264
0
ARC
8
DEFAULT_255_1_234
10
13.8102417
20
78.8554159
40
0.3948286
50
16.5424086
51
46.8933463
0
ARC
8
DEFAULT_255_1_234
10
13.6494574
20
78.8025861
40
0.564021
50
5.4072051
51
17.0365086
0
ARC
8
DEFAULT_255_1_234
10
13.5055591
20
78.7794679
40
0.5556559
50
7.8891745
51
15.9239216
0
ARC
8
DEFAULT_255_1_234
10
13.7042605
20
78.8371631
40
0.3487515
50
15.7653144
51
27.9410532
0
ARC
8
DEFAULT_255_1_234
10
13.8146822
20
78.896279
40
0.2235026
50
27.8166557
51
46.4008329
0
ARC
8
DEFAULT_255_1_234
10
13.8196465
20
78.8957082
40
0.2205286
50
47.4371857
51
75.0698205
0
ARC
8
DEFAULT_255_1_234
10
13.788786
20
78.7882765
40
0.3322915
50
74.7008593
51
87.8124495
0
ARC
8
DEFAULT_255_1_234
10
13.7814547
20
78.6826844
40
0.4380987
50
87.3814673
51
90.0240855
0
ARC
8
DEFAULT_255_1_234
10
13.7776091
20
78.8004291
40
0.3203749
50
89.3451631
51
108.5745436
0
ARC
8
DEFAULT_255_1_234
10
13.7639196
20
78.8517908
40
0.2673494
50
109.2998449
51
143.3037509
0
ARC
8
DEFAULT_255_1_234
10
13.8401268
20
78.7931881
40
0.3634757
50
143.0753173
51
163.1916937
0
ARC
8
DEFAULT_255_1_234
10
14.0352996
20
78.7315967
40
0.5681262
50
162.9373603
51
174.6208611
0
ARC
8
DEFAULT_255_1_234
10
14.2979038
20
78.702801
40
0.8322832
50
174.3419979
51
180.1430411
0
ARC
8
DEFAULT_255_1_234
10
14.2048194
20
78.5833698
40
0.7392076
50
179.6817502
51
189.150529
0
ARC
8
DEFAULT_255_1_234
10
13.9547443
20
78.541719
40
0.4856932
50
188.9910863
51
203.5773039
0
ARC
8
DEFAULT_255_1_234
10
13.8467775
20
78.4969211
40
0.3688271
50
203.9077269
51
215.1312379
0
ARC
8
DEFAULT_255_1_234
10
13.7544869
20
78.4253941
40
0.2522457
50
213.9071664
51
263.8849284
0
ARC
8
DEFAULT_255_1_234
10
13.7670198
20
78.5038518
40
0.3316174
50
263.1758525
51
270.1031083
0
ARC
8
DEFAULT_255_1_234
10
13.770229
20
78.6285365
40
0.4563091
50
269.6719807
51
279.0609165
0
ARC
8
DEFAULT_255_1_234
10
13.7969058
20
78.4672907
40
0.2928759
50
278.8750225
51
293.6346586
0
ARC
8
DEFAULT_255_1_234
10
13.8289266
20
78.39209
40
0.2111472
50
293.8553404
51
310.0518804
0
ARC
8
DEFAULT_255_1_234
10
13.829412
20
78.3858516
40
0.2060917
50
311.0646779
51
332.0108348
0
ARC
8
DEFAULT_255_1_234
10
13.7101847
20
78.4515978
40
0.3422352
50
331.6588543
51
343.2878891
0
ARC
8
DEFAULT_255_1_234
10
13.5039362
20
78.5149798
40
0.5580003
50
343.1446044
51
351.010618
0
ARC
8
DEFAULT_255_1_234
10
13.3498008
20
78.5430871
40
0.7146438
50
350.7157277
51
351.1602153
0
LINE
8
DEFAULT_255_1_234
10
15.4896213
20
78.7288343
11
15.4896213
21
78.602736
0
LINE
8
DEFAULT_255_1_234
10
15.4896213
20
78.602736
11
14.9828186
21
78.602736
0
LINE
8
DEFAULT_255_1_234
10
14.9828186
20
78.602736
11
14.9828186
21
78.1882983
0
LINE
8
DEFAULT_255_1_234
10
14.9828186
20
78.1882983
11
15.571545
21
78.1882983
0
LINE
8
DEFAULT_255_1_234
10
15.571545
20
78.1882983
11
15.571545
21
78.0622
0
LINE
8
DEFAULT_255_1_234
10
15.571545
20
78.0622
11
14.8286092
21
78.0622
0
LINE
8
DEFAULT_255_1_234
10
14.8286092
20
78.0622
11
14.8286092
21
79.2316211
0
LINE
8
DEFAULT_255_1_234
10
14.8286092
20
79.2316211
11
15.5635133
21
79.2316211
0
LINE
8
DEFAULT_255_1_234
10
15.5635133
20
79.2316211
11
15.5635133
21
79.1047196
0
LINE
8
DEFAULT_255_1_234
10
15.5635133
20
79.1047196
11
14.9828186
21
79.1047196
0
LINE
8
DEFAULT_255_1_234
10
14.9828186
20
79.1047196
11
14.9828186
21
78.7288343
0
LINE
8
DEFAULT_255_1_234
10
14.9828186
20
78.7288343
11
15.4896213
21
78.7288343
0
LINE
8
DEFAULT_255_1_234
10
16.5875599
20
79.2316211
11
16.5875599
21
79.1047196
0
LINE
8
DEFAULT_255_1_234
10
16.5875599
20
79.1047196
11
16.2116746
21
79.1047196
0
LINE
8
DEFAULT_255_1_234
10
16.2116746
20
79.1047196
11
16.2116746
21
78.0622
0
LINE
8
DEFAULT_255_1_234
10
16.2116746
20
78.0622
11
16.0582684
21
78.0622
0
LINE
8
DEFAULT_255_1_234
10
16.0582684
20
78.0622
11
16.0582684
21
79.1047196
0
LINE
8
DEFAULT_255_1_234
10
16.0582684
20
79.1047196
11
15.6831862
21
79.1047196
0
LINE
8
DEFAULT_255_1_234
10
15.6831862
20
79.1047196
11
15.6831862
21
79.2316211
0
LINE
8
DEFAULT_255_1_234
10
15.6831862
20
79.2316211
11
16.5875599
21
79.2316211
0
LINE
8
DEFAULT_255_1_234
10
17.4887209
20
78.1834792
11
17.4887209
21
78.0622
0
LINE
8
DEFAULT_255_1_234
10
17.4887209
20
78.0622
11
16.7224931
21
78.0622
0
LINE
8
DEFAULT_255_1_234
10
16.7224931
20
78.0622
11
16.7224931
21
78.1690221
0
LINE
8
DEFAULT_255_1_234
10
16.7224931
20
78.1690221
11
17.1272927
21
78.6187995
0
LINE
8
DEFAULT_255_1_234
10
16.8485914
20
78.8870595
11
16.7000042
21
78.8870595
0
LINE
8
DEFAULT_255_1_234
10
17.2148387
20
78.5232218
11
16.9016009
21
78.1834792
0
LINE
8
DEFAULT_255_1_234
10
16.9016009
20
78.1834792
11
17.4887209
21
78.1834792
0
ARC
8
DEFAULT_255_1_234
10
15.7782761
20
79.8117527
40
1.8008286
50
318.5132453
51
320.7828378
0
ARC
8
DEFAULT_255_1_234
10
16.3069735
20
79.3814426
40
1.1191493
50
320.7372736
51
323.9737074
0
ARC
8
DEFAULT_255_1_234
10
16.6989591
20
79.0974361
40
0.6350923
50
323.8961724
51
328.6421089
0
ARC
8
DEFAULT_255_1_234
10
16.9036187
20
78.9712031
40
0.3946393
50
328.8299013
51
331.789948
0
ARC
8
DEFAULT_255_1_234
10
17.0033365
20
78.9197509
40
0.2824501
50
331.4255242
51
352.9364833
0
ARC
8
DEFAULT_255_1_234
10
17.0169866
20
78.9166976
40
0.2685315
50
353.2248685
51
0.0169286
0
ARC
8
DEFAULT_255_1_234
10
17.0379743
20
78.918995
40
0.2475536
50
359.4866256
51
15.9339782
0
ARC
8
DEFAULT_255_1_234
10
17.0886728
20
78.9326286
40
0.1950618
50
16.1714718
51
43.5284424
0
ARC
8
DEFAULT_255_1_234
10
17.0964037
20
78.9403573
40
0.184134
50
43.4415429
51
83.1661404
0
ARC
8
DEFAULT_255_1_234
10
17.0829955
20
78.8666771
40
0.258926
50
82.160215
51
90.1505798
0
ARC
8
DEFAULT_255_1_234
10
17.0798382
20
78.8129865
40
0.3126255
50
89.5460705
51
102.5418777
0
ARC
8
DEFAULT_255_1_234
10
17.0555468
20
78.9160665
40
0.2067346
50
102.1739365
51
129.2061916
0
ARC
8
DEFAULT_255_1_234
10
17.047654
20
78.9285094
40
0.1921118
50
129.7279328
51
135.7542026
0
ARC
8
DEFAULT_255_1_234
10
17.0598068
20
78.9188045
40
0.2075944
50
136.175737
51
166.3674722
0
ARC
8
DEFAULT_255_1_234
10
17.1604987
20
78.8918182
40
0.3118201
50
165.9092917
51
178.8683903
0
ARC
8
DEFAULT_255_1_234
10
17.2469848
20
78.8871179
40
0.3983935
50
178.438168
51
180.0083905
0
ARC
8
DEFAULT_255_1_234
10
17.106845
20
78.8910231
40
0.4068601
50
163.2878735
51
180.5581814
0
ARC
8
DEFAULT_255_1_234
10
17.0266712
20
78.913084
40
0.3237344
50
133.454115
51
162.9470031
0
ARC
8
DEFAULT_255_1_234
10
17.0445253
20
78.8941
40
0.349795
50
100.7869394
51
133.4384016
0
ARC
8
DEFAULT_255_1_234
10
17.0793024
20
78.7392319
40
0.5084616
50
89.6605301
51
101.3704185
0
ARC
8
DEFAULT_255_1_234
10
17.0859363
20
78.7453496
40
0.502348
50
78.2171172
51
90.4130393
0
ARC
8
DEFAULT_255_1_234
10
17.1214442
20
78.9077637
40
0.3361092
50
55.9268222
51
78.4888551
0
ARC
8
DEFAULT_255_1_234
10
17.1410882
20
78.9416324
40
0.2970617
50
47.9292255
51
55.4054003
0
ARC
8
DEFAULT_255_1_234
10
17.1512442
20
78.9519502
40
0.2825983
50
4.3347696
51
48.0560701
0
ARC
8
DEFAULT_255_1_234
10
17.0416836
20
78.9349601
40
0.393225
50
359.925209
51
5.5967654
0
ARC
8
DEFAULT_255_1_234
10
17.0845728
20
78.9405816
40
0.3503892
50
337.8914096
51
358.9967724
0
ARC
8
DEFAULT_255_1_234
10
16.813214
20
79.0452706
40
0.6412172
50
326.9135351
51
338.3505194
0
ARC
8
DEFAULT_255_1_234
10
16.4146444
20
79.3007284
40
1.1146189
50
319.6472867
51
327.095818
0
ARC
8
DEFAULT_255_1_234
10
16.0313447
20
79.6169
40
1.6114559
50
317.2586784
51
319.9046139
0
LINE
8
DEFAULT_255_1_234
10
18.3794407
20
78.7537327
11
18.3794407
21
78.5609709
0
LINE
8
DEFAULT_255_1_234
10
17.641324
20
78.5408916
11
17.641324
21
78.7392755
0
LINE
8
DEFAULT_255_1_234
10
18.2308536
20
78.5208123
11
18.2308536
21
78.7641739
0
LINE
8
DEFAULT_255_1_234
10
17.7899111
20
78.7754184
11
17.7899111
21
78.5376789
0
ARC
8
DEFAULT_255_1_234
10
17.1547297
20
78.5560805
40
1.2247208
50
353.8441951
51
0.2287902
0
ARC
8
DEFAULT_255_1_234
10
17.61868
20
78.5042806
40
0.7578929
50
344.4934747
51
353.9765454
0
ARC
8
DEFAULT_255_1_234
10
17.9179391
20
78.4191981
40
0.4467846
50
329.2803592
51
344.7472793
0
ARC
8
DEFAULT_255_1_234
10
18.0172216
20
78.3647018
40
0.3336173
50
324.9352394
51
328.6160465
0
ARC
8
DEFAULT_255_1_234
10
18.0549324
20
78.3383427
40
0.2876076
50
280.580143
51
324.9173126
0
ARC
8
DEFAULT_255_1_234
10
18.0148117
20
78.5054099
40
0.4592847
50
269.5977311
51
281.6734359
0
ARC
8
DEFAULT_255_1_234
10
18.0076022
20
78.4934173
40
0.4472986
50
256.6228859
51
270.51044
0
ARC
8
DEFAULT_255_1_234
10
17.9674
20
78.3385877
40
0.2873874
50
215.8618325
51
257.2788573
0
ARC
8
DEFAULT_255_1_234
10
18.0695032
20
78.4070977
40
0.4102928
50
197.9693508
51
215.2623606
0
ARC
8
DEFAULT_255_1_234
10
18.3180147
20
78.4909709
40
0.6725652
50
187.8816417
51
198.2346507
0
ARC
8
DEFAULT_255_1_234
10
18.7138356
20
78.5481079
40
1.0724845
50
180.8976217
51
188.0055519
0
ARC
8
DEFAULT_255_1_234
10
18.9938544
20
78.5584777
40
1.3526448
50
180.7449369
51
181.1510016
0
ARC
8
DEFAULT_255_1_234
10
18.8361273
20
78.7441042
40
1.1948131
50
173.7675579
51
180.231553
0
ARC
8
DEFAULT_255_1_234
10
18.384342
20
78.7951666
40
0.7401564
50
164.3058563
51
173.9002247
0
ARC
8
DEFAULT_255_1_234
10
18.0931488
20
78.8790656
40
0.4371288
50
148.7922025
51
164.568378
0
ARC
8
DEFAULT_255_1_234
10
17.9979941
20
78.9321929
40
0.3282386
50
144.5883898
51
148.1176286
0
ARC
8
DEFAULT_255_1_234
10
17.9636838
20
78.9561315
40
0.2864044
50
101.6440918
51
144.514236
0
ARC
8
DEFAULT_255_1_234
10
18.0061905
20
78.7872069
40
0.4604934
50
89.5284041
51
102.5819763
0
ARC
8
DEFAULT_255_1_234
10
18.0140993
20
78.7833018
40
0.464401
50
77.0437873
51
90.5081339
0
ARC
8
DEFAULT_255_1_234
10
18.0542995
20
78.9475615
40
0.2953195
50
48.2778575
51
77.4994676
0
ARC
8
DEFAULT_255_1_234
10
18.0615626
20
78.9604746
40
0.2808655
50
36.3142134
51
47.6305865
0
ARC
8
DEFAULT_255_1_234
10
17.9746933
20
78.9019515
40
0.3855453
50
18.2931786
51
35.6769206
0
ARC
8
DEFAULT_255_1_234
10
17.7203692
20
78.8146593
40
0.654423
50
8.024666
51
18.5605216
0
ARC
8
DEFAULT_255_1_234
10
17.3040612
20
78.7531792
40
1.0752407
50
1.1274072
51
8.1718305
0
ARC
8
DEFAULT_255_1_234
10
16.9804802
20
78.7404885
40
1.3990231
50
0.5424119
51
1.3863029
0
ARC
8
DEFAULT_255_1_234
10
17.162618
20
78.7677342
40
1.0682415
50
359.8090433
51
4.9407866
0
ARC
8
DEFAULT_255_1_234
10
17.5836194
20
78.8053113
40
0.6455691
50
4.8362157
51
12.2904523
0
ARC
8
DEFAULT_255_1_234
10
17.8591309
20
78.8666965
40
0.3633074
50
12.0805627
51
23.8173984
0
ARC
8
DEFAULT_255_1_234
10
17.9765014
20
78.9163919
40
0.2358723
50
24.2871213
51
31.3935614
0
ARC
8
DEFAULT_255_1_234
10
18.0289712
20
78.9507233
40
0.1732111
50
30.7407893
51
82.4657128
0
ARC
8
DEFAULT_255_1_234
10
18.0109846
20
78.8623691
40
0.263235
50
81.1060089
51
90.2184952
0
ARC
8
DEFAULT_255_1_234
10
18.0074145
20
78.8881924
40
0.2374236
50
89.3806855
51
105.6762551
0
ARC
8
DEFAULT_255_1_234
10
17.9890775
20
78.9548567
40
0.1682847
50
105.7981136
51
149.7388061
0
ARC
8
DEFAULT_255_1_234
10
18.0954854
20
78.890895
40
0.2924306
50
149.4208916
51
163.6286378
0
ARC
8
DEFAULT_255_1_234
10
18.3045742
20
78.827125
40
0.5110213
50
163.3763315
51
172.1410975
0
ARC
8
DEFAULT_255_1_234
10
18.6346461
20
78.7798518
40
0.8444586
50
172.0259487
51
178.0703232
0
ARC
8
DEFAULT_255_1_234
10
18.937655
20
78.7654906
40
1.1477868
50
177.8631668
51
179.5044149
0
ARC
8
DEFAULT_255_1_234
10
18.8303955
20
78.5340389
40
1.0404907
50
179.7995573
51
185.2460446
0
ARC
8
DEFAULT_255_1_234
10
18.4260994
20
78.4957513
40
0.6343885
50
185.1411642
51
193.0079639
0
ARC
8
DEFAULT_255_1_234
10
18.1617467
20
78.4332641
40
0.3627568
50
192.7897626
51
205.2507664
0
ARC
8
DEFAULT_255_1_234
10
18.0571014
20
78.3865415
40
0.2481908
50
205.8005384
51
211.2537509
0
ARC
8
DEFAULT_255_1_234
10
18.0047454
20
78.351458
40
0.1852521
50
210.3789793
51
238.4008143
0
ARC
8
DEFAULT_255_1_234
10
18.0027976
20
78.3561376
40
0.1882621
50
239.6520629
51
265.9793761
0
ARC
8
DEFAULT_255_1_234
10
18.0113176
20
78.4233427
40
0.2559272
50
265.1315437
51
270.060332
0
ARC
8
DEFAULT_255_1_234
10
18.0141955
20
78.3909534
40
0.2235528
50
269.3314664
51
287.2178029
0
ARC
8
DEFAULT_255_1_234
10
18.0279807
20
78.3406279
40
0.1714108
50
287.7958004
51
329.080874
0
ARC
8
DEFAULT_255_1_234
10
17.9322264
20
78.400393
40
0.2842745
50
328.6634704
51
343.3325132
0
ARC
8
DEFAULT_255_1_234
10
17.7149284
20
78.4680863
40
0.5118644
50
343.0499468
51
351.9393422
0
ARC
8
DEFAULT_255_1_234
10
17.3682584
20
78.5191949
40
0.8622784
50
351.8069023
51
357.7959224
0
ARC
8
DEFAULT_255_1_234
10
17.044714
20
78.5359721
40
1.1862365
50
357.5871873
51
359.2677531
0
LINE
8
DEFAULT_255_1_234
10
19.3030906
20
78.7537327
11
19.3030906
21
78.5609709
0
LINE
8
DEFAULT_255_1_234
10
18.5649739
20
78.5408916
11
18.5649739
21
78.7392755
0
LINE
8
DEFAULT_255_1_234
10
19.1545035
20
78.5208123
11
19.1545035
21
78.7641739
0
LINE
8
DEFAULT_255_1_234
10
18.713561
20
78.7754184
11
18.713561
21
78.5376789
0
ARC
8
DEFAULT_255_1_234
10
18.0783796
20
78.5560805
40
1.2247208
50
353.8441951
51
0.2287902
0
ARC
8
DEFAULT_255_1_234
10
18.5423299
20
78.5042806
40
0.7578929
50
344.4934747
51
353.9765454
0
ARC
8
DEFAULT_255_1_234
10
18.841589
20
78.4191981
40
0.4467846
50
329.2803592
51
344.7472793
0
ARC
8
DEFAULT_255_1_234
10
18.9408715
20
78.3647018
40
0.3336173
50
324.9352394
51
328.6160465
0
ARC
8
DEFAULT_255_1_234
10
18.9785823
20
78.3383427
40
0.2876076
50
280.580143
51
324.9173126
0
ARC
8
DEFAULT_255_1_234
10
18.9384616
20
78.5054099
40
0.4592847
50
269.5977311
51
281.6734359
0
ARC
8
DEFAULT_255_1_234
10
18.9312521
20
78.4934173
40
0.4472986
50
256.6228859
51
270.51044
0
ARC
8
DEFAULT_255_1_234
10
18.8910499
20
78.3385877
40
0.2873874
50
215.8618325
51
257.2788573
0
ARC
8
DEFAULT_255_1_234
10
18.9931531
20
78.4070977
40
0.4102928
50
197.9693508
51
215.2623606
0
ARC
8
DEFAULT_255_1_234
10
19.2416647
20
78.4909709
40
0.6725652
50
187.8816417
51
198.2346507
0
ARC
8
DEFAULT_255_1_234
10
19.6374855
20
78.5481079
40
1.0724845
50
180.8976217
51
188.0055519
0
ARC
8
DEFAULT_255_1_234
10
19.9175043
20
78.5584777
40
1.3526448
50
180.7449369
51
181.1510016
0
ARC
8
DEFAULT_255_1_234
10
19.7597772
20
78.7441042
40
1.1948131
50
173.7675579
51
180.231553
0
ARC
8
DEFAULT_255_1_234
10
19.3079919
20
78.7951666
40
0.7401564
50
164.3058563
51
173.9002247
0
ARC
8
DEFAULT_255_1_234
10
19.0167987
20
78.8790656
40
0.4371288
50
148.7922025
51
164.568378
0
ARC
8
DEFAULT_255_1_234
10
18.921644
20
78.9321929
40
0.3282386
50
144.5883898
51
148.1176286
0
ARC
8
DEFAULT_255_1_234
10
18.8873337
20
78.9561315
40
0.2864044
50
101.6440918
51
144.514236
0
ARC
8
DEFAULT_255_1_234
10
18.9298404
20
78.7872069
40
0.4604934
50
89.5284041
51
102.5819763
0
ARC
8
DEFAULT_255_1_234
10
18.9377492
20
78.7833018
40
0.464401
50
77.0437873
51
90.5081339
0
ARC
8
DEFAULT_255_1_234
10
18.9779494
20
78.9475615
40
0.2953195
50
48.2778575
51
77.4994676
0
ARC
8
DEFAULT_255_1_234
10
18.9852125
20
78.9604746
40
0.2808655
50
36.3142134
51
47.6305865
0
ARC
8
DEFAULT_255_1_234
10
18.8983432
20
78.9019515
40
0.3855453
50
18.2931786
51
35.6769206
0
ARC
8
DEFAULT_255_1_234
10
18.6440191
20
78.8146593
40
0.654423
50
8.024666
51
18.5605216
0
ARC
8
DEFAULT_255_1_234
10
18.2277111
20
78.7531792
40
1.0752407
50
1.1274072
51
8.1718305
0
ARC
8
DEFAULT_255_1_234
10
17.9041301
20
78.7404885
40
1.3990231
50
0.5424119
51
1.3863029
0
ARC
8
DEFAULT_255_1_234
10
18.0862679
20
78.7677342
40
1.0682415
50
359.8090433
51
4.9407866
0
ARC
8
DEFAULT_255_1_234
10
18.5072693
20
78.8053113
40
0.6455691
50
4.8362157
51
12.2904523
0
ARC
8
DEFAULT_255_1_234
10
18.7827808
20
78.8666965
40
0.3633074
50
12.0805627
51
23.8173984
0
ARC
8
DEFAULT_255_1_234
10
18.9001513
20
78.9163919
40
0.2358723
50
24.2871213
51
31.3935614
0
ARC
8
DEFAULT_255_1_234
10
18.9526211
20
78.9507233
40
0.1732111
50
30.7407893
51
82.4657128
0
ARC
8
DEFAULT_255_1_234
10
18.9346345
20
78.8623691
40
0.263235
50
81.1060089
51
90.2184952
0
ARC
8
DEFAULT_255_1_234
10
18.9310644
20
78.8881924
40
0.2374236
50
89.3806855
51
105.6762551
0
ARC
8
DEFAULT_255_1_234
10
18.9127274
20
78.9548567
40
0.1682847
50
105.7981136
51
149.7388061
0
ARC
8
DEFAULT_255_1_234
10
19.0191353
20
78.890895
40
0.2924306
50
149.4208916
51
163.6286378
0
ARC
8
DEFAULT_255_1_234
10
19.2282241
20
78.827125
40
0.5110213
50
163.3763315
51
172.1410975
0
ARC
8
DEFAULT_255_1_234
10
19.558296
20
78.7798518
40
0.8444586
50
172.0259487
51
178.0703232
0
ARC
8
DEFAULT_255_1_234
10
19.8613049
20
78.7654906
40
1.1477868
50
177.8631668
51
179.5044149
0
ARC
8
DEFAULT_255_1_234
10
19.7540454
20
78.5340389
40
1.0404907
50
179.7995573
51
185.2460446
0
ARC
8
DEFAULT_255_1_234
10
19.3497493
20
78.4957513
40
0.6343885
50
185.1411642
51
193.0079639
0
ARC
8
DEFAULT_255_1_234
10
19.0853966
20
78.4332641
40
0.3627568
50
192.7897626
51
205.2507664
0
ARC
8
DEFAULT_255_1_234
10
18.9807513
20
78.3865415
40
0.2481908
50
205.8005384
51
211.2537509
0
ARC
8
DEFAULT_255_1_234
10
18.9283953
20
78.351458
40
0.1852521
50
210.3789793
51
238.4008143
0
ARC
8
DEFAULT_255_1_234
10
18.9264475
20
78.3561376
40
0.1882621
50
239.6520629
51
265.9793761
0
ARC
8
DEFAULT_255_1_234
10
18.9349675
20
78.4233427
40
0.2559272
50
265.1315437
51
270.060332
0
ARC
8
DEFAULT_255_1_234
10
18.9378454
20
78.3909534
40
0.2235528
50
269.3314664
51
287.2178029
0
ARC
8
DEFAULT_255_1_234
10
18.9516306
20
78.3406279
40
0.1714108
50
287.7958004
51
329.080874
0
ARC
8
DEFAULT_255_1_234
10
18.8558763
20
78.400393
40
0.2842745
50
328.6634704
51
343.3325132
0
ARC
8
DEFAULT_255_1_234
10
18.6385783
20
78.4680863
40
0.5118644
50
343.0499468
51
351.9393422
0
ARC
8
DEFAULT_255_1_234
10
18.2919083
20
78.5191949
40
0.8622784
50
351.8069023
51
357.7959224
0
ARC
8
DEFAULT_255_1_234
10
17.9683639
20
78.5359721
40
1.1862365
50
357.5871873
51
359.2677531
0
LINE
8
DEFAULT_255_1_234
10
20.3078611
20
78.8934849
11
20.1528485
21
78.8934849
0
LINE
8
DEFAULT_255_1_234
10
19.4605127
20
78.4011394
11
19.6155252
21
78.4011394
0
ARC
8
DEFAULT_255_1_234
10
20.2187298
20
79.7881768
40
1.252368
50
248.9199003
51
254.1439814
0
ARC
8
DEFAULT_255_1_234
10
20.0506793
20
79.3555234
40
0.788226
50
241.633709
51
249.0064503
0
ARC
8
DEFAULT_255_1_234
10
19.8978187
20
79.0754317
40
0.4691427
50
230.498225
51
241.8087113
0
ARC
8
DEFAULT_255_1_234
10
19.8193762
20
78.9754906
40
0.3421437
50
227.4064532
51
229.9881192
0
ARC
8
DEFAULT_255_1_234
10
19.7706282
20
78.9279088
40
0.2741476
50
200.6781896
51
228.1763934
0
ARC
8
DEFAULT_255_1_234
10
19.7778593
20
78.9264077
40
0.2804109
50
179.5061581
51
199.8694617
0
ARC
8
DEFAULT_255_1_234
10
19.7769345
20
78.933821
40
0.2795204
50
132.4834203
51
181.0242172
0
ARC
8
DEFAULT_255_1_234
10
19.8364927
20
78.8775704
40
0.3612768
50
129.2532479
51
133.4242687
0
ARC
8
DEFAULT_255_1_234
10
19.8511377
20
78.8555965
40
0.3875675
50
101.98776
51
128.8742646
0
ARC
8
DEFAULT_255_1_234
10
19.8909987
20
78.6834741
40
0.5642249
50
89.5906553
51
102.3169264
0
ARC
8
DEFAULT_255_1_234
10
19.8980479
20
78.7153148
40
0.5323783
50
77.2360837
51
90.3248275
0
ARC
8
DEFAULT_255_1_234
10
19.9187558
20
78.81204
40
0.4334697
50
63.837784
51
77.0809408
0
ARC
8
DEFAULT_255_1_234
10
19.946532
20
78.8637911
40
0.3747796
50
45.9864267
51
64.1607727
0
ARC
8
DEFAULT_255_1_234
10
19.9726201
20
78.8935866
40
0.3352302
50
32.2747395
51
45.6547121
0
ARC
8
DEFAULT_255_1_234
10
19.9792642
20
78.895488
40
0.328603
50
359.6507365
51
32.6130309
0
ARC
8
DEFAULT_255_1_234
10
19.8849737
20
78.895966
40
0.2678863
50
359.469343
51
14.9832209
0
ARC
8
DEFAULT_255_1_234
10
19.95548
20
78.9148539
40
0.1948938
50
14.9781179
51
48.2004265
0
ARC
8
DEFAULT_255_1_234
10
19.9390444
20
78.8941983
40
0.2212521
50
48.5927837
51
74.1241538
0
ARC
8
DEFAULT_255_1_234
10
19.9056934
20
78.7841248
40
0.3362561
50
73.7888341
51
86.6652678
0
ARC
8
DEFAULT_255_1_234
10
19.8954499
20
78.6633881
40
0.4573953
50
86.2640471
51
90.0526343
0
ARC
8
DEFAULT_255_1_234
10
19.8926212
20
78.7029192
40
0.4178709
50
89.6697524
51
99.2309573
0
ARC
8
DEFAULT_255_1_234
10
19.8683663
20
78.8473964
40
0.2713749
50
99.069534
51
113.7658566
0
ARC
8
DEFAULT_255_1_234
10
19.8409854
20
78.9119677
40
0.2012469
50
114.0401004
51
127.9850673
0
ARC
8
DEFAULT_255_1_234
10
19.8169418
20
78.941573
40
0.1631167
50
127.7287463
51
176.7105154
0
ARC
8
DEFAULT_255_1_234
10
19.8848135
20
78.9314693
40
0.2315392
50
175.1779447
51
180.0581938
0
ARC
8
DEFAULT_255_1_234
10
19.8004982
20
78.9302428
40
0.1472271
50
179.6142195
51
228.1246017
0
ARC
8
DEFAULT_255_1_234
10
19.8446651
20
78.9711308
40
0.2072299
50
226.5779593
51
230.8800004
0
ARC
8
DEFAULT_255_1_234
10
19.8917729
20
79.0336636
40
0.2854818
50
231.4635071
51
241.9260842
0
ARC
8
DEFAULT_255_1_234
10
20.0114907
20
79.25398
40
0.53622
50
241.7178533
51
248.3259551
0
ARC
8
DEFAULT_255_1_234
10
20.1500279
20
79.5972064
40
0.9063478
50
248.2007737
51
252.4528373
0
ARC
8
DEFAULT_255_1_234
10
20.2704004
20
79.9693441
40
1.2974635
50
252.3391078
51
254.3469452
0
ARC
8
DEFAULT_255_1_234
10
19.5161707
20
77.2716148
40
1.5037162
50
71.0197183
51
74.4087047
0
ARC
8
DEFAULT_255_1_234
10
19.6856392
20
77.7608111
40
0.9859993
50
66.1847285
51
71.086374
0
ARC
8
DEFAULT_255_1_234
10
19.8412704
20
78.11122
40
0.6025855
50
59.3536294
51
66.2691831
0
ARC
8
DEFAULT_255_1_234
10
19.9301357
20
78.2615609
40
0.4279449
50
49.1020879
51
59.3293958
0
ARC
8
DEFAULT_255_1_234
10
20.0120097
20
78.3548834
40
0.3038015
50
32.7919921
51
49.2505539
0
ARC
8
DEFAULT_255_1_234
10
20.0441186
20
78.3777191
40
0.264448
50
31.1181161
51
32.4005348
0
ARC
8
DEFAULT_255_1_234
10
20.0352724
20
78.3741779
40
0.2738556
50
8.1116974
51
30.7958831
0
ARC
8
DEFAULT_255_1_234
10
19.9542392
20
78.3603753
40
0.3560327
50
359.8389159
51
8.4706516
0
ARC
8
DEFAULT_255_1_234
10
20.0168184
20
78.3555137
40
0.2934776
50
337.4731098
51
0.7537279
0
ARC
8
DEFAULT_255_1_234
10
20.0346879
20
78.3535387
40
0.2762607
50
307.5917067
51
336.4315538
0
ARC
8
DEFAULT_255_1_234
10
19.9886707
20
78.4048102
40
0.3449979
50
307.6551545
51
308.4529766
0
ARC
8
DEFAULT_255_1_234
10
19.9656425
20
78.440325
40
0.3871988
50
284.3734338
51
307.1424381
0
ARC
8
DEFAULT_255_1_234
10
19.9161256
20
78.6224932
40
0.5759636
50
272.4382747
51
284.646547
0
ARC
8
DEFAULT_255_1_234
10
19.9034464
20
78.8024893
40
0.7563528
50
269.9708387
51
272.8178037
0
ARC
8
DEFAULT_255_1_234
10
19.8991504
20
78.5986716
40
0.5525489
50
248.2707594
51
270.4055579
0
ARC
8
DEFAULT_255_1_234
10
19.8937245
20
78.5796192
40
0.5328452
50
246.1383403
51
248.0542782
0
ARC
8
DEFAULT_255_1_234
10
19.8518624
20
78.4916843
40
0.4355005
50
233.1670131
51
246.4950969
0
ARC
8
DEFAULT_255_1_234
10
19.7964529
20
78.4168812
40
0.3424126
50
215.3403242
51
233.0843104
0
ARC
8
DEFAULT_255_1_234
10
19.769196
20
78.3970549
40
0.3087104
50
179.2419209
51
215.2648451
0
ARC
8
DEFAULT_255_1_234
10
19.8459554
20
78.3984666
40
0.2304457
50
179.335461
51
199.1045811
0
ARC
8
DEFAULT_255_1_234
10
19.8127231
20
78.3897766
40
0.1962176
50
199.8828939
51
232.7063202
0
ARC
8
DEFAULT_255_1_234
10
19.8599499
20
78.4491788
40
0.2720938
50
232.3738199
51
255.5136649
0
ARC
8
DEFAULT_255_1_234
10
19.8940366
20
78.5735835
40
0.4010747
50
255.2446292
51
267.5320849
0
ARC
8
DEFAULT_255_1_234
10
19.9027989
20
78.6968702
40
0.5246356
50
267.1557994
51
270.0286766
0
ARC
8
DEFAULT_255_1_234
10
19.9055761
20
78.652495
40
0.4802668
50
269.7000017
51
278.1660162
0
ARC
8
DEFAULT_255_1_234
10
19.9311766
20
78.4794515
40
0.3053425
50
278.0231263
51
290.625471
0
ARC
8
DEFAULT_255_1_234
10
19.9659453
20
78.3867025
40
0.206291
50
290.6619762
51
307.0370976
0
ARC
8
DEFAULT_255_1_234
10
19.9959842
20
78.3498504
40
0.1587906
50
306.3943566
51
355.3030547
0
ARC
8
DEFAULT_255_1_234
10
19.9447774
20
78.3575113
40
0.2104809
50
354.3660432
51
0.0698737
0
ARC
8
DEFAULT_255_1_234
10
19.9590119
20
78.3597617
40
0.1962563
50
359.417946
51
16.1971788
0
ARC
8
DEFAULT_255_1_234
10
20.0045429
20
78.3722418
40
0.149053
50
16.4723299
51
52.6262157
0
ARC
8
DEFAULT_255_1_234
10
19.9224483
20
78.2638433
40
0.2850296
50
52.7386432
51
62.4979148
0
ARC
8
DEFAULT_255_1_234
10
19.783956
20
78.0032283
40
0.5801521
50
62.2515216
51
68.1220564
0
ARC
8
DEFAULT_255_1_234
10
19.6119471
20
77.5804872
40
1.0365451
50
68.0062803
51
71.8053402
0
ARC
8
DEFAULT_255_1_234
10
19.4323843
20
77.0419758
40
1.6042013
50
71.7183119
51
73.9258742
0
LINE
8
DEFAULT_255_2_778
10
9.3927417
20
60.7219082
11
10.7156417
21
60.7219082
0
LINE
8
DEFAULT_255_2_778
10
10.7156417
20
60.7219082
11
10.7156417
21
51.4615082
0
LINE
8
DEFAULT_255_2_778
10
9.3926834
20
51.4614333
11
12.0384834
21
51.4614333
0
LINE
8
DEFAULT_255_2_778
10
12.0384834
20
51.4614333
11
12.0384834
21
46.1697333
0
LINE
8
DEFAULT_255_2_778
10
12.0384834
20
46.1697333
11
9.3926834
21
46.1697333
0
LINE
8
DEFAULT_255_2_778
10
9.3926834
20
46.1697333
11
9.3926834
21
51.4614333
0
LINE
8
DEFAULT_255_2_778
10
10.1865
20
46.6989666
11
10.1865
21
50.9322666
0
LINE
8
DEFAULT_255_2_778
10
9.9219167
20
50.138575
11
10.1865167
21
50.932275
0
LINE
8
DEFAULT_255_2_778
10
10.1865167
20
50.932275
11
10.4511167
21
50.138575
0
LINE
8
DEFAULT_255_2_778
10
10.4511167
20
50.138575
11
9.9219167
21
50.138575
0
LINE
8
DEFAULT_255_2_778
10
11.2448
20
50.9322666
11
11.2448
21
46.6989666
0
LINE
8
DEFAULT_255_2_778
10
10.9802167
20
47.492675
11
11.2448167
21
46.698975
0
LINE
8
DEFAULT_255_2_778
10
11.2448167
20
46.698975
11
11.5094167
21
47.492675
0
LINE
8
DEFAULT_255_2_778
10
11.5094167
20
47.492675
11
10.9802167
21
47.492675
0
LINE
8
DEFAULT_255_2_778
10
10.7156417
20
46.1698082
11
10.7156417
21
36.9094082
0
LINE
8
DEFAULT_255_2_778
10
10.7156417
20
36.9094082
11
9.3927417
21
36.9094082
0
LINE
8
DEFAULT_255_1_234
10
4.2454489
20
77.2473211
11
4.2454489
21
76.2039983
0
LINE
8
DEFAULT_255_1_234
10
4.2454489
20
76.2039983
11
4.7996389
21
76.2039983
0
LINE
8
DEFAULT_255_1_234
10
4.7996389
20
76.2039983
11
4.7996389
21
76.0779
0
LINE
8
DEFAULT_255_1_234
10
4.7996389
20
76.0779
11
4.0904364
21
76.0779
0
LINE
8
DEFAULT_255_1_234
10
4.0904364
20
76.0779
11
4.0904364
21
77.2473211
0
LINE
8
DEFAULT_255_1_234
10
4.0904364
20
77.2473211
11
4.2454489
21
77.2473211
0
LINE
8
DEFAULT_255_1_234
10
5.377924
20
77.0465276
11
5.377924
21
76.7051788
0
LINE
8
DEFAULT_255_1_234
10
5.377924
20
76.7051788
11
5.7040126
21
76.7051788
0
LINE
8
DEFAULT_255_1_234
10
5.7040126
20
76.7051788
11
5.7040126
21
76.5646233
0
LINE
8
DEFAULT_255_1_234
10
5.7040126
20
76.5646233
11
5.377924
21
76.5646233
0
LINE
8
DEFAULT_255_1_234
10
5.377924
20
76.5646233
11
5.377924
21
76.1951634
0
LINE
8
DEFAULT_255_1_234
10
5.377924
20
76.1951634
11
5.2285337
21
76.1951634
0
LINE
8
DEFAULT_255_1_234
10
5.2285337
20
76.1951634
11
5.2285337
21
76.5646233
0
LINE
8
DEFAULT_255_1_234
10
5.2285337
20
76.5646233
11
4.9024451
21
76.5646233
0
LINE
8
DEFAULT_255_1_234
10
4.9024451
20
76.5646233
11
4.9024451
21
76.7051788
0
LINE
8
DEFAULT_255_1_234
10
4.9024451
20
76.7051788
11
5.2285337
21
76.7051788
0
LINE
8
DEFAULT_255_1_234
10
5.2285337
20
76.7051788
11
5.2285337
21
77.0465276
0
LINE
8
DEFAULT_255_1_234
10
5.2285337
20
77.0465276
11
5.377924
21
77.0465276
0
LINE
8
DEFAULT_255_1_234
10
5.0947293
20
4.6404
11
4.9830881
21
4.9456061
0
LINE
8
DEFAULT_255_1_234
10
4.9830881
20
4.9456061
11
4.4931521
21
4.9456061
0
LINE
8
DEFAULT_255_1_234
10
4.4931521
20
4.9456061
11
4.3831173
21
4.6404
0
LINE
8
DEFAULT_255_1_234
10
4.3831173
20
4.6404
11
4.2240889
21
4.6404
0
LINE
8
DEFAULT_255_1_234
10
4.2240889
20
4.6404
11
4.6706535
21
5.8098211
0
LINE
8
DEFAULT_255_1_234
10
4.6706535
20
5.8098211
11
4.8055867
21
5.8098211
0
LINE
8
DEFAULT_255_1_234
10
4.8055867
20
5.8098211
11
5.2529545
21
4.6404
0
LINE
8
DEFAULT_255_1_234
10
5.2529545
20
4.6404
11
5.0947293
21
4.6404
0
LINE
8
DEFAULT_255_1_234
10
4.7381201
20
5.6194689
11
4.5397362
21
5.0725075
0
LINE
8
DEFAULT_255_1_234
10
4.5397362
20
5.0725075
11
4.9373072
21
5.0725075
0
LINE
8
DEFAULT_255_1_234
10
4.9373072
20
5.0725075
11
4.7381201
21
5.6194689
0
LINE
8
DEFAULT_255_1_234
10
6.0649633
20
5.8098211
11
6.2199758
21
5.8098211
0
LINE
8
DEFAULT_255_1_234
10
6.2199758
20
5.8098211
11
6.2199758
21
5.014679
0
LINE
8
DEFAULT_255_1_234
10
5.8360587
20
4.6259429
11
5.7950969
21
4.6243365
0
LINE
8
DEFAULT_255_1_234
10
5.3734306
20
5.0130727
11
5.3734306
21
5.8098211
0
LINE
8
DEFAULT_255_1_234
10
5.3734306
20
5.8098211
11
5.5260336
21
5.8098211
0
LINE
8
DEFAULT_255_1_234
10
5.5260336
20
5.8098211
11
5.5260336
21
5.0178917
0
LINE
8
DEFAULT_255_1_234
10
6.0649633
20
5.0170885
11
6.0649633
21
5.8098211
0
ARC
8
DEFAULT_255_1_234
10
5.7846657
20
5.0126928
40
0.4353147
50
343.0898354
51
0.2614217
0
ARC
8
DEFAULT_255_1_234
10
5.8675058
20
4.9895837
40
0.3493402
50
315.3345598
51
342.7641223
0
ARC
8
DEFAULT_255_1_234
10
5.8451507
20
5.0127682
40
0.3815385
50
284.6606969
51
315.2182466
0
ARC
8
DEFAULT_255_1_234
10
5.799622
20
5.1673755
40
0.5426573
50
273.8500273
51
285.1797701
0
ARC
8
DEFAULT_255_1_234
10
5.790827
20
5.2015475
40
0.5772268
50
257.6317484
51
270.4238298
0
ARC
8
DEFAULT_255_1_234
10
5.7483468
20
5.0194198
40
0.3902347
50
230.6087562
51
257.9964012
0
ARC
8
DEFAULT_255_1_234
10
5.7351471
20
4.9987802
40
0.3659186
50
227.7440991
51
230.1551448
0
ARC
8
DEFAULT_255_1_234
10
5.7217302
20
4.9826471
40
0.3449568
50
189.2524587
51
227.5916061
0
ARC
8
DEFAULT_255_1_234
10
5.8738989
20
5.0154013
40
0.5004737
50
180.2665968
51
190.1525252
0
ARC
8
DEFAULT_255_1_234
10
5.8961008
20
5.0150918
40
0.3700778
50
179.5665184
51
191.9952995
0
ARC
8
DEFAULT_255_1_234
10
5.7733115
20
4.9877043
40
0.2442808
50
191.6974072
51
215.1404042
0
ARC
8
DEFAULT_255_1_234
10
5.749503
20
4.9735108
40
0.2166522
50
215.6950207
51
224.8513522
0
ARC
8
DEFAULT_255_1_234
10
5.7550773
20
4.9814697
40
0.2262237
50
225.2846858
51
255.0111758
0
ARC
8
DEFAULT_255_1_234
10
5.7874733
20
5.0928455
40
0.3421979
50
254.5944985
51
267.9129803
0
ARC
8
DEFAULT_255_1_234
10
5.7949214
20
5.2012903
40
0.4508556
50
267.4689655
51
270.0223026
0
ARC
8
DEFAULT_255_1_234
10
5.7979359
20
5.1423849
40
0.3919604
50
269.5849941
51
281.1843768
0
ARC
8
DEFAULT_255_1_234
10
5.8258124
20
5.0071059
40
0.2538457
50
280.9344262
51
300.9743589
0
ARC
8
DEFAULT_255_1_234
10
5.8470729
20
4.9679688
40
0.2093566
50
301.4980046
51
315.1466847
0
ARC
8
DEFAULT_255_1_234
10
5.8326268
20
4.9798236
40
0.2279656
50
315.5952539
51
345.6678731
0
ARC
8
DEFAULT_255_1_234
10
5.7206784
20
5.0110009
40
0.3441564
50
345.2524969
51
358.6304371
0
ARC
8
DEFAULT_255_1_234
10
5.6189138
20
5.0169916
40
0.4460494
50
358.1735671
51
0.0124524
0
LINE
8
DEFAULT_255_1_234
10
6.5629311
20
5.8098211
11
6.8448451
21
5.3616501
0
LINE
8
DEFAULT_255_1_234
10
6.8448451
20
5.3616501
11
7.1251527
21
5.8098211
0
LINE
8
DEFAULT_255_1_234
10
7.1251527
20
5.8098211
11
7.30667
21
5.8098211
0
LINE
8
DEFAULT_255_1_234
10
7.30667
20
5.8098211
11
6.9372101
21
5.2299296
0
LINE
8
DEFAULT_255_1_234
10
6.9372101
20
5.2299296
11
7.3155049
21
4.6404
0
LINE
8
DEFAULT_255_1_234
10
7.3155049
20
4.6404
11
7.1323813
21
4.6404
0
LINE
8
DEFAULT_255_1_234
10
7.1323813
20
4.6404
11
6.8448451
21
5.0966027
0
LINE
8
DEFAULT_255_1_234
10
6.8448451
20
5.0966027
11
6.5557025
21
4.6404
0
LINE
8
DEFAULT_255_1_234
10
6.5557025
20
4.6404
11
6.373382
21
4.6404
0
LINE
8
DEFAULT_255_1_234
10
6.373382
20
4.6404
11
6.7524801
21
5.2299296
0
LINE
8
DEFAULT_255_1_234
10
6.7524801
20
5.2299296
11
6.3822169
21
5.8098211
0
LINE
8
DEFAULT_255_1_234
10
6.3822169
20
5.8098211
11
6.5629311
21
5.8098211
0
LINE
8
DEFAULT_255_1_234
10
7.94439
20
5.8154433
11
7.94439
21
4.6404
0
LINE
8
DEFAULT_255_1_234
10
7.94439
20
4.6404
11
7.7949997
21
4.6404
0
LINE
8
DEFAULT_255_1_234
10
7.7949997
20
4.6404
11
7.7949997
21
5.6307133
0
LINE
8
DEFAULT_255_1_234
10
7.7949997
20
5.6307133
11
7.4954159
21
5.5206785
0
LINE
8
DEFAULT_255_1_234
10
7.4954159
20
5.5206785
11
7.4954159
21
5.6556117
0
LINE
8
DEFAULT_255_1_234
10
7.4954159
20
5.6556117
11
7.921098
21
5.8154433
0
LINE
8
DEFAULT_255_1_234
10
7.921098
20
5.8154433
11
7.94439
21
5.8154433
0
LINE
8
DEFAULT_255_1_234
10
5.0947293
20
12.5779
11
4.9830881
21
12.8831061
0
LINE
8
DEFAULT_255_1_234
10
4.9830881
20
12.8831061
11
4.4931521
21
12.8831061
0
LINE
8
DEFAULT_255_1_234
10
4.4931521
20
12.8831061
11
4.3831173
21
12.5779
0
LINE
8
DEFAULT_255_1_234
10
4.3831173
20
12.5779
11
4.2240889
21
12.5779
0
LINE
8
DEFAULT_255_1_234
10
4.2240889
20
12.5779
11
4.6706535
21
13.7473211
0
LINE
8
DEFAULT_255_1_234
10
4.6706535
20
13.7473211
11
4.8055867
21
13.7473211
0
LINE
8
DEFAULT_255_1_234
10
4.8055867
20
13.7473211
11
5.2529545
21
12.5779
0
LINE
8
DEFAULT_255_1_234
10
5.2529545
20
12.5779
11
5.0947293
21
12.5779
0
LINE
8
DEFAULT_255_1_234
10
4.7381201
20
13.5569689
11
4.5397362
21
13.0100075
0
LINE
8
DEFAULT_255_1_234
10
4.5397362
20
13.0100075
11
4.9373072
21
13.0100075
0
LINE
8
DEFAULT_255_1_234
10
4.9373072
20
13.0100075
11
4.7381201
21
13.5569689
0
LINE
8
DEFAULT_255_1_234
10
6.0649633
20
13.7473211
11
6.2199758
21
13.7473211
0
LINE
8
DEFAULT_255_1_234
10
6.2199758
20
13.7473211
11
6.2199758
21
12.952179
0
LINE
8
DEFAULT_255_1_234
10
5.8360587
20
12.5634429
11
5.7950969
21
12.5618365
0
LINE
8
DEFAULT_255_1_234
10
5.3734306
20
12.9505727
11
5.3734306
21
13.7473211
0
LINE
8
DEFAULT_255_1_234
10
5.3734306
20
13.7473211
11
5.5260336
21
13.7473211
0
LINE
8
DEFAULT_255_1_234
10
5.5260336
20
13.7473211
11
5.5260336
21
12.9553917
0
LINE
8
DEFAULT_255_1_234
10
6.0649633
20
12.9545885
11
6.0649633
21
13.7473211
0
ARC
8
DEFAULT_255_1_234
10
5.7846657
20
12.9501928
40
0.4353147
50
343.0898354
51
0.2614217
0
ARC
8
DEFAULT_255_1_234
10
5.8675058
20
12.9270837
40
0.3493402
50
315.3345598
51
342.7641223
0
ARC
8
DEFAULT_255_1_234
10
5.8451507
20
12.9502682
40
0.3815385
50
284.6606969
51
315.2182466
0
ARC
8
DEFAULT_255_1_234
10
5.799622
20
13.1048755
40
0.5426573
50
273.8500273
51
285.1797701
0
ARC
8
DEFAULT_255_1_234
10
5.790827
20
13.1390475
40
0.5772268
50
257.6317484
51
270.4238298
0
ARC
8
DEFAULT_255_1_234
10
5.7483468
20
12.9569198
40
0.3902347
50
230.6087562
51
257.9964012
0
ARC
8
DEFAULT_255_1_234
10
5.7351471
20
12.9362802
40
0.3659186
50
227.7440991
51
230.1551448
0
ARC
8
DEFAULT_255_1_234
10
5.7217302
20
12.9201471
40
0.3449568
50
189.2524587
51
227.5916061
0
ARC
8
DEFAULT_255_1_234
10
5.8738989
20
12.9529013
40
0.5004737
50
180.2665968
51
190.1525252
0
ARC
8
DEFAULT_255_1_234
10
5.8961008
20
12.9525918
40
0.3700778
50
179.5665184
51
191.9952995
0
ARC
8
DEFAULT_255_1_234
10
5.7733115
20
12.9252043
40
0.2442808
50
191.6974072
51
215.1404042
0
ARC
8
DEFAULT_255_1_234
10
5.749503
20
12.9110108
40
0.2166522
50
215.6950207
51
224.8513522
0
ARC
8
DEFAULT_255_1_234
10
5.7550773
20
12.9189697
40
0.2262237
50
225.2846858
51
255.0111758
0
ARC
8
DEFAULT_255_1_234
10
5.7874733
20
13.0303455
40
0.3421979
50
254.5944985
51
267.9129803
0
ARC
8
DEFAULT_255_1_234
10
5.7949214
20
13.1387903
40
0.4508556
50
267.4689655
51
270.0223026
0
ARC
8
DEFAULT_255_1_234
10
5.7979359
20
13.0798849
40
0.3919604
50
269.5849941
51
281.1843768
0
ARC
8
DEFAULT_255_1_234
10
5.8258124
20
12.9446059
40
0.2538457
50
280.9344262
51
300.9743589
0
ARC
8
DEFAULT_255_1_234
10
5.8470729
20
12.9054688
40
0.2093566
50
301.4980046
51
315.1466847
0
ARC
8
DEFAULT_255_1_234
10
5.8326268
20
12.9173236
40
0.2279656
50
315.5952539
51
345.6678731
0
ARC
8
DEFAULT_255_1_234
10
5.7206784
20
12.9485009
40
0.3441564
50
345.2524969
51
358.6304371
0
ARC
8
DEFAULT_255_1_234
10
5.6189138
20
12.9544916
40
0.4460494
50
358.1735671
51
0.0124524
0
LINE
8
DEFAULT_255_1_234
10
6.5629311
20
13.7473211
11
6.8448451
21
13.2991501
0
LINE
8
DEFAULT_255_1_234
10
6.8448451
20
13.2991501
11
7.1251527
21
13.7473211
0
LINE
8
DEFAULT_255_1_234
10
7.1251527
20
13.7473211
11
7.30667
21
13.7473211
0
LINE
8
DEFAULT_255_1_234
10
7.30667
20
13.7473211
11
6.9372101
21
13.1674296
0
LINE
8
DEFAULT_255_1_234
10
6.9372101
20
13.1674296
11
7.3155049
21
12.5779
0
LINE
8
DEFAULT_255_1_234
10
7.3155049
20
12.5779
11
7.1323813
21
12.5779
0
LINE
8
DEFAULT_255_1_234
10
7.1323813
20
12.5779
11
6.8448451
21
13.0341027
0
LINE
8
DEFAULT_255_1_234
10
6.8448451
20
13.0341027
11
6.5557025
21
12.5779
0
LINE
8
DEFAULT_255_1_234
10
6.5557025
20
12.5779
11
6.373382
21
12.5779
0
LINE
8
DEFAULT_255_1_234
10
6.373382
20
12.5779
11
6.7524801
21
13.1674296
0
LINE
8
DEFAULT_255_1_234
10
6.7524801
20
13.1674296
11
6.3822169
21
13.7473211
0
LINE
8
DEFAULT_255_1_234
10
6.3822169
20
13.7473211
11
6.5629311
21
13.7473211
0
LINE
8
DEFAULT_255_1_234
10
7.94439
20
13.7529433
11
7.94439
21
12.5779
0
LINE
8
DEFAULT_255_1_234
10
7.94439
20
12.5779
11
7.7949997
21
12.5779
0
LINE
8
DEFAULT_255_1_234
10
7.7949997
20
12.5779
11
7.7949997
21
13.5682133
0
LINE
8
DEFAULT_255_1_234
10
7.7949997
20
13.5682133
11
7.4954159
21
13.4581785
0
LINE
8
DEFAULT_255_1_234
10
7.4954159
20
13.4581785
11
7.4954159
21
13.5931117
0
LINE
8
DEFAULT_255_1_234
10
7.4954159
20
13.5931117
11
7.921098
21
13.7529433
0
LINE
8
DEFAULT_255_1_234
10
7.921098
20
13.7529433
11
7.94439
21
13.7529433
0
LINE
8
DEFAULT_255_1_234
10
5.0947293
20
20.5154
11
4.9830881
21
20.8206061
0
LINE
8
DEFAULT_255_1_234
10
4.9830881
20
20.8206061
11
4.4931521
21
20.8206061
0
LINE
8
DEFAULT_255_1_234
10
4.4931521
20
20.8206061
11
4.3831173
21
20.5154
0
LINE
8
DEFAULT_255_1_234
10
4.3831173
20
20.5154
11
4.2240889
21
20.5154
0
LINE
8
DEFAULT_255_1_234
10
4.2240889
20
20.5154
11
4.6706535
21
21.6848211
0
LINE
8
DEFAULT_255_1_234
10
4.6706535
20
21.6848211
11
4.8055867
21
21.6848211
0
LINE
8
DEFAULT_255_1_234
10
4.8055867
20
21.6848211
11
5.2529545
21
20.5154
0
LINE
8
DEFAULT_255_1_234
10
5.2529545
20
20.5154
11
5.0947293
21
20.5154
0
LINE
8
DEFAULT_255_1_234
10
4.7381201
20
21.4944689
11
4.5397362
21
20.9475075
0
LINE
8
DEFAULT_255_1_234
10
4.5397362
20
20.9475075
11
4.9373072
21
20.9475075
0
LINE
8
DEFAULT_255_1_234
10
4.9373072
20
20.9475075
11
4.7381201
21
21.4944689
0
LINE
8
DEFAULT_255_1_234
10
6.0649633
20
21.6848211
11
6.2199758
21
21.6848211
0
LINE
8
DEFAULT_255_1_234
10
6.2199758
20
21.6848211
11
6.2199758
21
20.889679
0
LINE
8
DEFAULT_255_1_234
10
5.8360587
20
20.5009429
11
5.7950969
21
20.4993365
0
LINE
8
DEFAULT_255_1_234
10
5.3734306
20
20.8880727
11
5.3734306
21
21.6848211
0
LINE
8
DEFAULT_255_1_234
10
5.3734306
20
21.6848211
11
5.5260336
21
21.6848211
0
LINE
8
DEFAULT_255_1_234
10
5.5260336
20
21.6848211
11
5.5260336
21
20.8928917
0
LINE
8
DEFAULT_255_1_234
10
6.0649633
20
20.8920885
11
6.0649633
21
21.6848211
0
ARC
8
DEFAULT_255_1_234
10
5.7846657
20
20.8876928
40
0.4353147
50
343.0898354
51
0.2614217
0
ARC
8
DEFAULT_255_1_234
10
5.8675058
20
20.8645837
40
0.3493402
50
315.3345598
51
342.7641223
0
ARC
8
DEFAULT_255_1_234
10
5.8451507
20
20.8877682
40
0.3815385
50
284.6606969
51
315.2182466
0
ARC
8
DEFAULT_255_1_234
10
5.799622
20
21.0423755
40
0.5426573
50
273.8500273
51
285.1797701
0
ARC
8
DEFAULT_255_1_234
10
5.790827
20
21.0765475
40
0.5772268
50
257.6317484
51
270.4238298
0
ARC
8
DEFAULT_255_1_234
10
5.7483468
20
20.8944198
40
0.3902347
50
230.6087562
51
257.9964012
0
ARC
8
DEFAULT_255_1_234
10
5.7351471
20
20.8737802
40
0.3659186
50
227.7440991
51
230.1551448
0
ARC
8
DEFAULT_255_1_234
10
5.7217302
20
20.8576471
40
0.3449568
50
189.2524587
51
227.5916061
0
ARC
8
DEFAULT_255_1_234
10
5.8738989
20
20.8904013
40
0.5004737
50
180.2665968
51
190.1525252
0
ARC
8
DEFAULT_255_1_234
10
5.8961008
20
20.8900918
40
0.3700778
50
179.5665184
51
191.9952995
0
ARC
8
DEFAULT_255_1_234
10
5.7733115
20
20.8627043
40
0.2442808
50
191.6974072
51
215.1404042
0
ARC
8
DEFAULT_255_1_234
10
5.749503
20
20.8485108
40
0.2166522
50
215.6950207
51
224.8513522
0
ARC
8
DEFAULT_255_1_234
10
5.7550773
20
20.8564697
40
0.2262237
50
225.2846858
51
255.0111758
0
ARC
8
DEFAULT_255_1_234
10
5.7874733
20
20.9678455
40
0.3421979
50
254.5944985
51
267.9129803
0
ARC
8
DEFAULT_255_1_234
10
5.7949214
20
21.0762903
40
0.4508556
50
267.4689655
51
270.0223026
0
ARC
8
DEFAULT_255_1_234
10
5.7979359
20
21.0173849
40
0.3919604
50
269.5849941
51
281.1843768
0
ARC
8
DEFAULT_255_1_234
10
5.8258124
20
20.8821059
40
0.2538457
50
280.9344262
51
300.9743589
0
ARC
8
DEFAULT_255_1_234
10
5.8470729
20
20.8429688
40
0.2093566
50
301.4980046
51
315.1466847
0
ARC
8
DEFAULT_255_1_234
10
5.8326268
20
20.8548236
40
0.2279656
50
315.5952539
51
345.6678731
0
ARC
8
DEFAULT_255_1_234
10
5.7206784
20
20.8860009
40
0.3441564
50
345.2524969
51
358.6304371
0
ARC
8
DEFAULT_255_1_234
10
5.6189138
20
20.8919916
40
0.4460494
50
358.1735671
51
0.0124524
0
LINE
8
DEFAULT_255_1_234
10
6.5629311
20
21.6848211
11
6.8448451
21
21.2366501
0
LINE
8
DEFAULT_255_1_234
10
6.8448451
20
21.2366501
11
7.1251527
21
21.6848211
0
LINE
8
DEFAULT_255_1_234
10
7.1251527
20
21.6848211
11
7.30667
21
21.6848211
0
LINE
8
DEFAULT_255_1_234
10
7.30667
20
21.6848211
11
6.9372101
21
21.1049296
0
LINE
8
DEFAULT_255_1_234
10
6.9372101
20
21.1049296
11
7.3155049
21
20.5154
0
LINE
8
DEFAULT_255_1_234
10
7.3155049
20
20.5154
11
7.1323813
21
20.5154
0
LINE
8
DEFAULT_255_1_234
10
7.1323813
20
20.5154
11
6.8448451
21
20.9716027
0
LINE
8
DEFAULT_255_1_234
10
6.8448451
20
20.9716027
11
6.5557025
21
20.5154
0
LINE
8
DEFAULT_255_1_234
10
6.5557025
20
20.5154
11
6.373382
21
20.5154
0
LINE
8
DEFAULT_255_1_234
10
6.373382
20
20.5154
11
6.7524801
21
21.1049296
0
LINE
8
DEFAULT_255_1_234
10
6.7524801
20
21.1049296
11
6.3822169
21
21.6848211
0
LINE
8
DEFAULT_255_1_234
10
6.3822169
20
21.6848211
11
6.5629311
21
21.6848211
0
LINE
8
DEFAULT_255_1_234
10
7.94439
20
21.6904433
11
7.94439
21
20.5154
0
LINE
8
DEFAULT_255_1_234
10
7.94439
20
20.5154
11
7.7949997
21
20.5154
0
LINE
8
DEFAULT_255_1_234
10
7.7949997
20
20.5154
11
7.7949997
21
21.5057133
0
LINE
8
DEFAULT_255_1_234
10
7.7949997
20
21.5057133
11
7.4954159
21
21.3956785
0
LINE
8
DEFAULT_255_1_234
10
7.4954159
20
21.3956785
11
7.4954159
21
21.5306117
0
LINE
8
DEFAULT_255_1_234
10
7.4954159
20
21.5306117
11
7.921098
21
21.6904433
0
LINE
8
DEFAULT_255_1_234
10
7.921098
20
21.6904433
11
7.94439
21
21.6904433
0
LINE
8
DEFAULT_255_1_234
10
5.0947293
20
28.4529
11
4.9830881
21
28.7581061
0
LINE
8
DEFAULT_255_1_234
10
4.9830881
20
28.7581061
11
4.4931521
21
28.7581061
0
LINE
8
DEFAULT_255_1_234
10
4.4931521
20
28.7581061
11
4.3831173
21
28.4529
0
LINE
8
DEFAULT_255_1_234
10
4.3831173
20
28.4529
11
4.2240889
21
28.4529
0
LINE
8
DEFAULT_255_1_234
10
4.2240889
20
28.4529
11
4.6706535
21
29.6223211
0
LINE
8
DEFAULT_255_1_234
10
4.6706535
20
29.6223211
11
4.8055867
21
29.6223211
0
LINE
8
DEFAULT_255_1_234
10
4.8055867
20
29.6223211
11
5.2529545
21
28.4529
0
LINE
8
DEFAULT_255_1_234
10
5.2529545
20
28.4529
11
5.0947293
21
28.4529
0
LINE
8
DEFAULT_255_1_234
10
4.7381201
20
29.4319689
11
4.5397362
21
28.8850075
0
LINE
8
DEFAULT_255_1_234
10
4.5397362
20
28.8850075
11
4.9373072
21
28.8850075
0
LINE
8
DEFAULT_255_1_234
10
4.9373072
20
28.8850075
11
4.7381201
21
29.4319689
0
LINE
8
DEFAULT_255_1_234
10
6.0649633
20
29.6223211
11
6.2199758
21
29.6223211
0
LINE
8
DEFAULT_255_1_234
10
6.2199758
20
29.6223211
11
6.2199758
21
28.827179
0
LINE
8
DEFAULT_255_1_234
10
5.8360587
20
28.4384429
11
5.7950969
21
28.4368365
0
LINE
8
DEFAULT_255_1_234
10
5.3734306
20
28.8255727
11
5.3734306
21
29.6223211
0
LINE
8
DEFAULT_255_1_234
10
5.3734306
20
29.6223211
11
5.5260336
21
29.6223211
0
LINE
8
DEFAULT_255_1_234
10
5.5260336
20
29.6223211
11
5.5260336
21
28.8303917
0
LINE
8
DEFAULT_255_1_234
10
6.0649633
20
28.8295885
11
6.0649633
21
29.6223211
0
ARC
8
DEFAULT_255_1_234
10
5.7846657
20
28.8251928
40
0.4353147
50
343.0898354
51
0.2614217
0
ARC
8
DEFAULT_255_1_234
10
5.8675058
20
28.8020837
40
0.3493402
50
315.3345598
51
342.7641223
0
ARC
8
DEFAULT_255_1_234
10
5.8451507
20
28.8252682
40
0.3815385
50
284.6606969
51
315.2182466
0
ARC
8
DEFAULT_255_1_234
10
5.799622
20
28.9798755
40
0.5426573
50
273.8500273
51
285.1797701
0
ARC
8
DEFAULT_255_1_234
10
5.790827
20
29.0140475
40
0.5772268
50
257.6317484
51
270.4238298
0
ARC
8
DEFAULT_255_1_234
10
5.7483468
20
28.8319198
40
0.3902347
50
230.6087562
51
257.9964012
0
ARC
8
DEFAULT_255_1_234
10
5.7351471
20
28.8112802
40
0.3659186
50
227.7440991
51
230.1551448
0
ARC
8
DEFAULT_255_1_234
10
5.7217302
20
28.7951471
40
0.3449568
50
189.2524587
51
227.5916061
0
ARC
8
DEFAULT_255_1_234
10
5.8738989
20
28.8279013
40
0.5004737
50
180.2665968
51
190.1525252
0
ARC
8
DEFAULT_255_1_234
10
5.8961008
20
28.8275918
40
0.3700778
50
179.5665184
51
191.9952995
0
ARC
8
DEFAULT_255_1_234
10
5.7733115
20
28.8002043
40
0.2442808
50
191.6974072
51
215.1404042
0
ARC
8
DEFAULT_255_1_234
10
5.749503
20
28.7860108
40
0.2166522
50
215.6950207
51
224.8513522
0
ARC
8
DEFAULT_255_1_234
10
5.7550773
20
28.7939697
40
0.2262237
50
225.2846858
51
255.0111758
0
ARC
8
DEFAULT_255_1_234
10
5.7874733
20
28.9053455
40
0.3421979
50
254.5944985
51
267.9129803
0
ARC
8
DEFAULT_255_1_234
10
5.7949214
20
29.0137903
40
0.4508556
50
267.4689655
51
270.0223026
0
ARC
8
DEFAULT_255_1_234
10
5.7979359
20
28.9548849
40
0.3919604
50
269.5849941
51
281.1843768
0
ARC
8
DEFAULT_255_1_234
10
5.8258124
20
28.8196059
40
0.2538457
50
280.9344262
51
300.9743589
0
ARC
8
DEFAULT_255_1_234
10
5.8470729
20
28.7804688
40
0.2093566
50
301.4980046
51
315.1466847
0
ARC
8
DEFAULT_255_1_234
10
5.8326268
20
28.7923236
40
0.2279656
50
315.5952539
51
345.6678731
0
ARC
8
DEFAULT_255_1_234
10
5.7206784
20
28.8235009
40
0.3441564
50
345.2524969
51
358.6304371
0
ARC
8
DEFAULT_255_1_234
10
5.6189138
20
28.8294916
40
0.4460494
50
358.1735671
51
0.0124524
0
LINE
8
DEFAULT_255_1_234
10
6.5629311
20
29.6223211
11
6.8448451
21
29.1741501
0
LINE
8
DEFAULT_255_1_234
10
6.8448451
20
29.1741501
11
7.1251527
21
29.6223211
0
LINE
8
DEFAULT_255_1_234
10
7.1251527
20
29.6223211
11
7.30667
21
29.6223211
0
LINE
8
DEFAULT_255_1_234
10
7.30667
20
29.6223211
11
6.9372101
21
29.0424296
0
LINE
8
DEFAULT_255_1_234
10
6.9372101
20
29.0424296
11
7.3155049
21
28.4529
0
LINE
8
DEFAULT_255_1_234
10
7.3155049
20
28.4529
11
7.1323813
21
28.4529
0
LINE
8
DEFAULT_255_1_234
10
7.1323813
20
28.4529
11
6.8448451
21
28.9091027
0
LINE
8
DEFAULT_255_1_234
10
6.8448451
20
28.9091027
11
6.5557025
21
28.4529
0
LINE
8
DEFAULT_255_1_234
10
6.5557025
20
28.4529
11
6.373382
21
28.4529
0
LINE
8
DEFAULT_255_1_234
10
6.373382
20
28.4529
11
6.7524801
21
29.0424296
0
LINE
8
DEFAULT_255_1_234
10
6.7524801
20
29.0424296
11
6.3822169
21
29.6223211
0
LINE
8
DEFAULT_255_1_234
10
6.3822169
20
29.6223211
11
6.5629311
21
29.6223211
0
LINE
8
DEFAULT_255_1_234
10
7.94439
20
29.6279433
11
7.94439
21
28.4529
0
LINE
8
DEFAULT_255_1_234
10
7.94439
20
28.4529
11
7.7949997
21
28.4529
0
LINE
8
DEFAULT_255_1_234
10
7.7949997
20
28.4529
11
7.7949997
21
29.4432133
0
LINE
8
DEFAULT_255_1_234
10
7.7949997
20
29.4432133
11
7.4954159
21
29.3331785
0
LINE
8
DEFAULT_255_1_234
10
7.4954159
20
29.3331785
11
7.4954159
21
29.4681117
0
LINE
8
DEFAULT_255_1_234
10
7.4954159
20
29.4681117
11
7.921098
21
29.6279433
0
LINE
8
DEFAULT_255_1_234
10
7.921098
20
29.6279433
11
7.94439
21
29.6279433
0
LINE
8
DEFAULT_255_1_234
10
4.4593154
20
36.3904
11
4.1356364
21
36.3904
0
LINE
8
DEFAULT_255_1_234
10
4.1356364
20
36.3904
11
4.1356364
21
37.5598211
0
LINE
8
DEFAULT_255_1_234
10
4.1356364
20
37.5598211
11
4.4657408
21
37.5598211
0
LINE
8
DEFAULT_255_1_234
10
4.9813784
20
37.0144661
11
4.9813784
21
36.9397709
0
LINE
8
DEFAULT_255_1_234
10
4.4697567
20
37.4329196
11
4.2898458
21
37.4329196
0
LINE
8
DEFAULT_255_1_234
10
4.2898458
20
37.4329196
11
4.2898458
21
36.5164983
0
LINE
8
DEFAULT_255_1_234
10
4.2898458
20
36.5164983
11
4.4520869
21
36.5164983
0
LINE
8
DEFAULT_255_1_234
10
4.8287754
20
36.9429836
11
4.8287754
21
37.0112534
0
ARC
8
DEFAULT_255_1_234
10
4.4696351
20
36.9732894
40
0.5865446
50
75.4101064
51
90.3804066
0
ARC
8
DEFAULT_255_1_234
10
4.4925864
20
37.0689492
40
0.4881916
50
60.145586
51
75.1888407
0
ARC
8
DEFAULT_255_1_234
10
4.508464
20
37.0966199
40
0.4562893
50
26.5253612
51
60.1450928
0
ARC
8
DEFAULT_255_1_234
10
4.3964389
20
37.0372158
40
0.5830602
50
7.4030428
51
26.8320788
0
ARC
8
DEFAULT_255_1_234
10
4.2370146
20
37.0123804
40
0.7443669
50
0.1605367
51
7.7176192
0
ARC
8
DEFAULT_255_1_234
10
4.253405
20
36.9359434
40
0.7279835
50
348.7289388
51
0.3012466
0
ARC
8
DEFAULT_255_1_234
10
4.4190481
20
36.9030386
40
0.559104
50
333.0706509
51
348.7181832
0
ARC
8
DEFAULT_255_1_234
10
4.5157238
20
36.8505319
40
0.4491417
50
299.2531685
51
333.4571258
0
ARC
8
DEFAULT_255_1_234
10
4.4796378
20
36.9190828
40
0.5265881
50
278.107187
51
299.0339503
0
ARC
8
DEFAULT_255_1_234
10
4.4540457
20
37.0698216
40
0.679442
50
270.4443897
51
278.4511052
0
ARC
8
DEFAULT_255_1_234
10
4.4561287
20
36.9769213
40
0.4604407
50
269.4970433
51
284.0205042
0
ARC
8
DEFAULT_255_1_234
10
4.4916588
20
36.8403978
40
0.3193797
50
283.7700273
51
318.1555492
0
ARC
8
DEFAULT_255_1_234
10
4.4579346
20
36.8656367
40
0.3613588
50
318.7415601
51
343.6873628
0
ARC
8
DEFAULT_255_1_234
10
4.2775369
20
36.9219832
40
0.5503313
50
343.3325091
51
355.8548958
0
ARC
8
DEFAULT_255_1_234
10
4.0677054
20
36.9419319
40
0.7610708
50
355.4988528
51
0.0791727
0
ARC
8
DEFAULT_255_1_234
10
4.1459676
20
37.015478
40
0.6828208
50
359.6455037
51
9.8607896
0
ARC
8
DEFAULT_255_1_234
10
4.3820374
20
37.0581099
40
0.4429406
50
9.6571907
51
26.1932807
0
ARC
8
DEFAULT_255_1_234
10
4.4748363
20
37.1012118
40
0.3406537
50
26.5777228
51
40.1532208
0
ARC
8
DEFAULT_255_1_234
10
4.5004089
20
37.1211619
40
0.308246
50
40.3840491
51
80.1431104
0
ARC
8
DEFAULT_255_1_234
10
4.4677207
20
36.9762333
40
0.4566909
50
79.2152159
51
89.7445637
0
LINE
8
DEFAULT_255_1_234
10
5.3797526
20
37.5598211
11
5.3797526
21
36.3904
0
LINE
8
DEFAULT_255_1_234
10
5.3797526
20
36.3904
11
5.2255433
21
36.3904
0
LINE
8
DEFAULT_255_1_234
10
5.2255433
20
36.3904
11
5.2255433
21
37.5598211
0
LINE
8
DEFAULT_255_1_234
10
5.2255433
20
37.5598211
11
5.3797526
21
37.5598211
0
LINE
8
DEFAULT_255_1_234
10
5.8391681
20
36.9261169
11
5.8391681
21
37.0473962
0
LINE
8
DEFAULT_255_1_234
10
5.8391681
20
37.0473962
11
5.9508092
21
37.0473962
0
LINE
8
DEFAULT_255_1_234
10
5.760457
20
37.2530087
11
5.6118699
21
37.2530087
0
LINE
8
DEFAULT_255_1_234
10
5.6014286
20
36.6988188
11
5.7508189
21
36.6988188
0
LINE
8
DEFAULT_255_1_234
10
5.9508092
20
36.9261169
11
5.8391681
21
36.9261169
0
ARC
8
DEFAULT_255_1_234
10
5.9478959
20
37.3866713
40
0.3392876
50
270.4919872
51
281.8951556
0
ARC
8
DEFAULT_255_1_234
10
5.972022
20
37.2764702
40
0.2264817
50
281.6691735
51
301.2943132
0
ARC
8
DEFAULT_255_1_234
10
5.9890431
20
37.2453304
40
0.1910381
50
301.7833094
51
311.7545298
0
ARC
8
DEFAULT_255_1_234
10
5.9982006
20
37.2351748
40
0.1773635
50
311.7323931
51
354.2802411
0
ARC
8
DEFAULT_255_1_234
10
5.9255632
20
37.2476722
40
0.2509385
50
353.0937916
51
0.1181479
0
ARC
8
DEFAULT_255_1_234
10
5.8794416
20
37.2524386
40
0.2970898
50
359.1805295
51
15.0453146
0
ARC
8
DEFAULT_255_1_234
10
6.0140253
20
37.2916992
40
0.1569564
50
13.9577229
51
77.6713066
0
ARC
8
DEFAULT_255_1_234
10
5.9753783
20
37.1531949
40
0.3006298
50
76.1116566
51
90.7026153
0
ARC
8
DEFAULT_255_1_234
10
5.9694621
20
37.1805545
40
0.2732568
50
89.5324876
51
103.531937
0
ARC
8
DEFAULT_255_1_234
10
5.9494065
20
37.2604884
40
0.1908508
50
103.2931773
51
133.5619022
0
ARC
8
DEFAULT_255_1_234
10
5.9449553
20
37.2664375
40
0.1834746
50
133.8349307
51
173.5344437
0
ARC
8
DEFAULT_255_1_234
10
6.0172597
20
37.2536213
40
0.2568033
50
172.5096846
51
180.1366907
0
ARC
8
DEFAULT_255_1_234
10
5.922149
20
37.2570622
40
0.3103056
50
155.3484492
51
180.7484736
0
ARC
8
DEFAULT_255_1_234
10
5.9172579
20
37.2541846
40
0.3070957
50
131.5744599
51
154.4798489
0
ARC
8
DEFAULT_255_1_234
10
5.9485727
20
37.222531
40
0.3515643
50
96.9875458
51
131.9690667
0
ARC
8
DEFAULT_255_1_234
10
5.9705207
20
37.0979636
40
0.4779224
50
89.8596053
51
97.7825159
0
ARC
8
DEFAULT_255_1_234
10
5.975327
20
37.0717616
40
0.5041361
50
78.3655447
51
90.4131539
0
ARC
8
DEFAULT_255_1_234
10
6.0111188
20
37.2376887
40
0.3344039
50
56.6229102
51
78.638727
0
ARC
8
DEFAULT_255_1_234
10
6.0326131
20
37.2752805
40
0.2912001
50
47.0253525
51
56.0854072
0
ARC
8
DEFAULT_255_1_234
10
6.0345911
20
37.2792223
40
0.2869704
50
10.9208013
51
46.7778124
0
ARC
8
DEFAULT_255_1_234
10
5.8981978
20
37.2476857
40
0.426899
50
359.6364486
51
11.6087304
0
ARC
8
DEFAULT_255_1_234
10
6.0816822
20
37.2461752
40
0.243409
50
332.3549906
51
359.7179418
0
ARC
8
DEFAULT_255_1_234
10
6.0166423
20
37.2770142
40
0.3153459
50
325.2333722
51
332.8745602
0
ARC
8
DEFAULT_255_1_234
10
6.0319047
20
37.2663828
40
0.2967456
50
292.9802137
51
325.2392345
0
ARC
8
DEFAULT_255_1_234
10
6.0044421
20
37.3197863
40
0.3566604
50
292.5402179
51
293.6924929
0
ARC
8
DEFAULT_255_1_234
10
6.0437017
20
36.6743091
40
0.3307468
50
57.6435486
51
72.8625112
0
ARC
8
DEFAULT_255_1_234
10
6.0791517
20
36.7317549
40
0.2632492
50
36.7248896
51
57.4697979
0
ARC
8
DEFAULT_255_1_234
10
6.0780149
20
36.733022
40
0.2634081
50
8.0545065
51
36.356114
0
ARC
8
DEFAULT_255_1_234
10
5.9917335
20
36.7175174
40
0.3510261
50
359.8320645
51
8.5869982
0
ARC
8
DEFAULT_255_1_234
10
5.9542111
20
36.7127101
40
0.3885653
50
343.9829931
51
0.5571613
0
ARC
8
DEFAULT_255_1_234
10
6.0428308
20
36.6884438
40
0.2966924
50
311.6359546
51
343.7651759
0
ARC
8
DEFAULT_255_1_234
10
6.0049877
20
36.7311102
40
0.3537231
50
279.7829875
51
311.6255694
0
ARC
8
DEFAULT_255_1_234
10
5.9748653
20
36.874828
40
0.5004971
50
269.7286406
51
280.3856417
0
ARC
8
DEFAULT_255_1_234
10
5.9686726
20
36.8706996
40
0.4963778
50
256.6828919
51
270.4412052
0
ARC
8
DEFAULT_255_1_234
10
5.9348022
20
36.7322394
40
0.3538406
50
229.4223008
51
256.8556159
0
ARC
8
DEFAULT_255_1_234
10
5.8933415
20
36.6855736
40
0.2914296
50
181.818294
51
229.6455059
0
ARC
8
DEFAULT_255_1_234
10
5.9973371
20
36.6986496
40
0.3959084
50
179.9755256
51
183.2323064
0
ARC
8
DEFAULT_255_1_234
10
5.9801117
20
36.6966037
40
0.2293034
50
179.4465117
51
196.2869258
0
ARC
8
DEFAULT_255_1_234
10
5.9313525
20
36.6832651
40
0.1787621
50
196.5661473
51
227.705904
0
ARC
8
DEFAULT_255_1_234
10
5.9477619
20
36.7016155
40
0.2033784
50
227.7652068
51
257.8762805
0
ARC
8
DEFAULT_255_1_234
10
5.970259
20
36.7959156
40
0.3003081
50
257.4584385
51
270.426602
0
ARC
8
DEFAULT_255_1_234
10
5.9748156
20
36.8248996
40
0.329292
50
269.5962073
51
280.8789248
0
ARC
8
DEFAULT_255_1_234
10
5.9977685
20
36.7102685
40
0.2123908
50
280.6346389
51
299.8595945
0
ARC
8
DEFAULT_255_1_234
10
6.0168591
20
36.6740212
40
0.171457
50
300.3576302
51
314.5517981
0
ARC
8
DEFAULT_255_1_234
10
6.0085651
20
36.6800919
40
0.1816095
50
315.0728369
51
345.0431014
0
ARC
8
DEFAULT_255_1_234
10
5.9162466
20
36.7069841
40
0.2777492
50
344.5986631
51
357.9269593
0
ARC
8
DEFAULT_255_1_234
10
5.8266792
20
36.7131276
40
0.3674917
50
357.4748886
51
0.0231117
0
ARC
8
DEFAULT_255_1_234
10
5.9289901
20
36.7155679
40
0.2651907
50
359.5047933
51
13.4239635
0
ARC
8
DEFAULT_255_1_234
10
6.0156545
20
36.7377478
40
0.1757509
50
12.9498199
51
48.7551375
0
ARC
8
DEFAULT_255_1_234
10
5.9974279
20
36.71284
40
0.2065134
50
49.5088623
51
72.1836453
0
ARC
8
DEFAULT_255_1_234
10
5.9616431
20
36.6066291
40
0.3185836
50
71.9010081
51
84.3554254
0
ARC
8
DEFAULT_255_1_234
10
5.9455063
20
36.4705326
40
0.4556151
50
84.0193428
51
89.333121
0
LINE
8
DEFAULT_255_1_234
10
4.4593154
20
44.3279
11
4.1356364
21
44.3279
0
LINE
8
DEFAULT_255_1_234
10
4.1356364
20
44.3279
11
4.1356364
21
45.4973211
0
LINE
8
DEFAULT_255_1_234
10
4.1356364
20
45.4973211
11
4.4657408
21
45.4973211
0
LINE
8
DEFAULT_255_1_234
10
4.9813784
20
44.9519661
11
4.9813784
21
44.8772709
0
LINE
8
DEFAULT_255_1_234
10
4.4697567
20
45.3704196
11
4.2898458
21
45.3704196
0
LINE
8
DEFAULT_255_1_234
10
4.2898458
20
45.3704196
11
4.2898458
21
44.4539983
0
LINE
8
DEFAULT_255_1_234
10
4.2898458
20
44.4539983
11
4.4520869
21
44.4539983
0
LINE
8
DEFAULT_255_1_234
10
4.8287754
20
44.8804836
11
4.8287754
21
44.9487534
0
ARC
8
DEFAULT_255_1_234
10
4.4696351
20
44.9107894
40
0.5865446
50
75.4101064
51
90.3804066
0
ARC
8
DEFAULT_255_1_234
10
4.4925864
20
45.0064492
40
0.4881916
50
60.145586
51
75.1888407
0
ARC
8
DEFAULT_255_1_234
10
4.508464
20
45.0341199
40
0.4562893
50
26.5253612
51
60.1450928
0
ARC
8
DEFAULT_255_1_234
10
4.3964389
20
44.9747158
40
0.5830602
50
7.4030428
51
26.8320788
0
ARC
8
DEFAULT_255_1_234
10
4.2370146
20
44.9498804
40
0.7443669
50
0.1605367
51
7.7176192
0
ARC
8
DEFAULT_255_1_234
10
4.253405
20
44.8734434
40
0.7279835
50
348.7289388
51
0.3012466
0
ARC
8
DEFAULT_255_1_234
10
4.4190481
20
44.8405386
40
0.559104
50
333.0706509
51
348.7181832
0
ARC
8
DEFAULT_255_1_234
10
4.5157238
20
44.7880319
40
0.4491417
50
299.2531685
51
333.4571258
0
ARC
8
DEFAULT_255_1_234
10
4.4796378
20
44.8565828
40
0.5265881
50
278.107187
51
299.0339503
0
ARC
8
DEFAULT_255_1_234
10
4.4540457
20
45.0073216
40
0.679442
50
270.4443897
51
278.4511052
0
ARC
8
DEFAULT_255_1_234
10
4.4561287
20
44.9144213
40
0.4604407
50
269.4970433
51
284.0205042
0
ARC
8
DEFAULT_255_1_234
10
4.4916588
20
44.7778978
40
0.3193797
50
283.7700273
51
318.1555492
0
ARC
8
DEFAULT_255_1_234
10
4.4579346
20
44.8031367
40
0.3613588
50
318.7415601
51
343.6873628
0
ARC
8
DEFAULT_255_1_234
10
4.2775369
20
44.8594832
40
0.5503313
50
343.3325091
51
355.8548958
0
ARC
8
DEFAULT_255_1_234
10
4.0677054
20
44.8794319
40
0.7610708
50
355.4988528
51
0.0791727
0
ARC
8
DEFAULT_255_1_234
10
4.1459676
20
44.952978
40
0.6828208
50
359.6455037
51
9.8607896
0
ARC
8
DEFAULT_255_1_234
10
4.3820374
20
44.9956099
40
0.4429406
50
9.6571907
51
26.1932807
0
ARC
8
DEFAULT_255_1_234
10
4.4748363
20
45.0387118
40
0.3406537
50
26.5777228
51
40.1532208
0
ARC
8
DEFAULT_255_1_234
10
4.5004089
20
45.0586619
40
0.308246
50
40.3840491
51
80.1431104
0
ARC
8
DEFAULT_255_1_234
10
4.4677207
20
44.9137333
40
0.4566909
50
79.2152159
51
89.7445637
0
LINE
8
DEFAULT_255_1_234
10
5.3797526
20
45.4973211
11
5.3797526
21
44.3279
0
LINE
8
DEFAULT_255_1_234
10
5.3797526
20
44.3279
11
5.2255433
21
44.3279
0
LINE
8
DEFAULT_255_1_234
10
5.2255433
20
44.3279
11
5.2255433
21
45.4973211
0
LINE
8
DEFAULT_255_1_234
10
5.2255433
20
45.4973211
11
5.3797526
21
45.4973211
0
LINE
8
DEFAULT_255_1_234
10
6.3893421
20
44.4491792
11
6.3893421
21
44.3279
0
LINE
8
DEFAULT_255_1_234
10
6.3893421
20
44.3279
11
5.6231143
21
44.3279
0
LINE
8
DEFAULT_255_1_234
10
5.6231143
20
44.3279
11
5.6231143
21
44.4347221
0
LINE
8
DEFAULT_255_1_234
10
5.6231143
20
44.4347221
11
6.0279139
21
44.8844995
0
LINE
8
DEFAULT_255_1_234
10
5.7492126
20
45.1527595
11
5.6006254
21
45.1527595
0
LINE
8
DEFAULT_255_1_234
10
6.1154599
20
44.7889218
11
5.8022221
21
44.4491792
0
LINE
8
DEFAULT_255_1_234
10
5.8022221
20
44.4491792
11
6.3893421
21
44.4491792
0
ARC
8
DEFAULT_255_1_234
10
4.6788972
20
46.0774527
40
1.8008286
50
318.5132453
51
320.7828378
0
ARC
8
DEFAULT_255_1_234
10
5.2075947
20
45.6471426
40
1.1191493
50
320.7372736
51
323.9737074
0
ARC
8
DEFAULT_255_1_234
10
5.5995803
20
45.3631361
40
0.6350923
50
323.8961724
51
328.6421089
0
ARC
8
DEFAULT_255_1_234
10
5.8042399
20
45.2369031
40
0.3946393
50
328.8299013
51
331.789948
0
ARC
8
DEFAULT_255_1_234
10
5.9039577
20
45.1854509
40
0.2824501
50
331.4255242
51
352.9364833
0
ARC
8
DEFAULT_255_1_234
10
5.9176078
20
45.1823976
40
0.2685315
50
353.2248685
51
0.0169286
0
ARC
8
DEFAULT_255_1_234
10
5.9385955
20
45.184695
40
0.2475536
50
359.4866256
51
15.9339782
0
ARC
8
DEFAULT_255_1_234
10
5.989294
20
45.1983286
40
0.1950618
50
16.1714718
51
43.5284424
0
ARC
8
DEFAULT_255_1_234
10
5.9970248
20
45.2060573
40
0.184134
50
43.4415429
51
83.1661404
0
ARC
8
DEFAULT_255_1_234
10
5.9836167
20
45.1323771
40
0.258926
50
82.160215
51
90.1505798
0
ARC
8
DEFAULT_255_1_234
10
5.9804594
20
45.0786865
40
0.3126255
50
89.5460705
51
102.5418777
0
ARC
8
DEFAULT_255_1_234
10
5.956168
20
45.1817665
40
0.2067346
50
102.1739365
51
129.2061916
0
ARC
8
DEFAULT_255_1_234
10
5.9482752
20
45.1942094
40
0.1921118
50
129.7279328
51
135.7542026
0
ARC
8
DEFAULT_255_1_234
10
5.9604279
20
45.1845045
40
0.2075944
50
136.175737
51
166.3674722
0
ARC
8
DEFAULT_255_1_234
10
6.0611199
20
45.1575182
40
0.3118201
50
165.9092917
51
178.8683903
0
ARC
8
DEFAULT_255_1_234
10
6.147606
20
45.1528179
40
0.3983935
50
178.438168
51
180.0083905
0
ARC
8
DEFAULT_255_1_234
10
6.0074662
20
45.1567231
40
0.4068601
50
163.2878735
51
180.5581814
0
ARC
8
DEFAULT_255_1_234
10
5.9272923
20
45.178784
40
0.3237344
50
133.454115
51
162.9470031
0
ARC
8
DEFAULT_255_1_234
10
5.9451465
20
45.1598
40
0.349795
50
100.7869394
51
133.4384016
0
ARC
8
DEFAULT_255_1_234
10
5.9799236
20
45.0049319
40
0.5084616
50
89.6605301
51
101.3704185
0
ARC
8
DEFAULT_255_1_234
10
5.9865575
20
45.0110496
40
0.502348
50
78.2171172
51
90.4130393
0
ARC
8
DEFAULT_255_1_234
10
6.0220653
20
45.1734637
40
0.3361092
50
55.9268222
51
78.4888551
0
ARC
8
DEFAULT_255_1_234
10
6.0417094
20
45.2073324
40
0.2970617
50
47.9292255
51
55.4054003
0
ARC
8
DEFAULT_255_1_234
10
6.0518654
20
45.2176502
40
0.2825983
50
4.3347696
51
48.0560701
0
ARC
8
DEFAULT_255_1_234
10
5.9423048
20
45.2006601
40
0.393225
50
359.925209
51
5.5967654
0
ARC
8
DEFAULT_255_1_234
10
5.985194
20
45.2062816
40
0.3503892
50
337.8914096
51
358.9967724
0
ARC
8
DEFAULT_255_1_234
10
5.7138352
20
45.3109706
40
0.6412172
50
326.9135351
51
338.3505194
0
ARC
8
DEFAULT_255_1_234
10
5.3152656
20
45.5664284
40
1.1146189
50
319.6472867
51
327.095818
0
ARC
8
DEFAULT_255_1_234
10
4.9319659
20
45.8826
40
1.6114559
50
317.2586784
51
319.9046139
0
LINE
8
DEFAULT_255_1_234
10
4.4502154
20
52.2654
11
4.1265364
21
52.2654
0
LINE
8
DEFAULT_255_1_234
10
4.1265364
20
52.2654
11
4.1265364
21
53.4348211
0
LINE
8
DEFAULT_255_1_234
10
4.1265364
20
53.4348211
11
4.4566408
21
53.4348211
0
LINE
8
DEFAULT_255_1_234
10
4.9722784
20
52.8894661
11
4.9722784
21
52.8147709
0
LINE
8
DEFAULT_255_1_234
10
4.4606567
20
53.3079196
11
4.2807458
21
53.3079196
0
LINE
8
DEFAULT_255_1_234
10
4.2807458
20
53.3079196
11
4.2807458
21
52.3914983
0
LINE
8
DEFAULT_255_1_234
10
4.2807458
20
52.3914983
11
4.4429869
21
52.3914983
0
LINE
8
DEFAULT_255_1_234
10
4.8196754
20
52.8179836
11
4.8196754
21
52.8862534
0
ARC
8
DEFAULT_255_1_234
10
4.4605351
20
52.8482894
40
0.5865446
50
75.4101064
51
90.3804066
0
ARC
8
DEFAULT_255_1_234
10
4.4834864
20
52.9439492
40
0.4881916
50
60.145586
51
75.1888407
0
ARC
8
DEFAULT_255_1_234
10
4.499364
20
52.9716199
40
0.4562893
50
26.5253612
51
60.1450928
0
ARC
8
DEFAULT_255_1_234
10
4.3873389
20
52.9122158
40
0.5830602
50
7.4030428
51
26.8320788
0
ARC
8
DEFAULT_255_1_234
10
4.2279146
20
52.8873804
40
0.7443669
50
0.1605367
51
7.7176192
0
ARC
8
DEFAULT_255_1_234
10
4.244305
20
52.8109434
40
0.7279835
50
348.7289388
51
0.3012466
0
ARC
8
DEFAULT_255_1_234
10
4.4099481
20
52.7780386
40
0.559104
50
333.0706509
51
348.7181832
0
ARC
8
DEFAULT_255_1_234
10
4.5066238
20
52.7255319
40
0.4491417
50
299.2531685
51
333.4571258
0
ARC
8
DEFAULT_255_1_234
10
4.4705378
20
52.7940828
40
0.5265881
50
278.107187
51
299.0339503
0
ARC
8
DEFAULT_255_1_234
10
4.4449457
20
52.9448216
40
0.679442
50
270.4443897
51
278.4511052
0
ARC
8
DEFAULT_255_1_234
10
4.4470287
20
52.8519213
40
0.4604407
50
269.4970433
51
284.0205042
0
ARC
8
DEFAULT_255_1_234
10
4.4825588
20
52.7153978
40
0.3193797
50
283.7700273
51
318.1555492
0
ARC
8
DEFAULT_255_1_234
10
4.4488346
20
52.7406367
40
0.3613588
50
318.7415601
51
343.6873628
0
ARC
8
DEFAULT_255_1_234
10
4.2684369
20
52.7969832
40
0.5503313
50
343.3325091
51
355.8548958
0
ARC
8
DEFAULT_255_1_234
10
4.0586054
20
52.8169319
40
0.7610708
50
355.4988528
51
0.0791727
0
ARC
8
DEFAULT_255_1_234
10
4.1368676
20
52.890478
40
0.6828208
50
359.6455037
51
9.8607896
0
ARC
8
DEFAULT_255_1_234
10
4.3729374
20
52.9331099
40
0.4429406
50
9.6571907
51
26.1932807
0
ARC
8
DEFAULT_255_1_234
10
4.4657363
20
52.9762118
40
0.3406537
50
26.5777228
51
40.1532208
0
ARC
8
DEFAULT_255_1_234
10
4.4913089
20
52.9961619
40
0.308246
50
40.3840491
51
80.1431104
0
ARC
8
DEFAULT_255_1_234
10
4.4586207
20
52.8512333
40
0.4566909
50
79.2152159
51
89.7445637
0
LINE
8
DEFAULT_255_1_234
10
5.3706526
20
53.4348211
11
5.3706526
21
52.2654
0
LINE
8
DEFAULT_255_1_234
10
5.3706526
20
52.2654
11
5.2164433
21
52.2654
0
LINE
8
DEFAULT_255_1_234
10
5.2164433
20
52.2654
11
5.2164433
21
53.4348211
0
LINE
8
DEFAULT_255_1_234
10
5.2164433
20
53.4348211
11
5.3706526
21
53.4348211
0
LINE
8
DEFAULT_255_1_234
10
6.102344
20
53.4404433
11
6.102344
21
52.2654
0
LINE
8
DEFAULT_255_1_234
10
6.102344
20
52.2654
11
5.9529537
21
52.2654
0
LINE
8
DEFAULT_255_1_234
10
5.9529537
20
52.2654
11
5.9529537
21
53.2557133
0
LINE
8
DEFAULT_255_1_234
10
5.9529537
20
53.2557133
11
5.6533698
21
53.1456785
0
LINE
8
DEFAULT_255_1_234
10
5.6533698
20
53.1456785
11
5.6533698
21
53.2806117
0
LINE
8
DEFAULT_255_1_234
10
5.6533698
20
53.2806117
11
6.079052
21
53.4404433
0
LINE
8
DEFAULT_255_1_234
10
6.079052
20
53.4404433
11
6.102344
21
53.4404433
0
LINE
8
DEFAULT_255_1_234
10
4.4593154
20
60.2029
11
4.1356364
21
60.2029
0
LINE
8
DEFAULT_255_1_234
10
4.1356364
20
60.2029
11
4.1356364
21
61.3723211
0
LINE
8
DEFAULT_255_1_234
10
4.1356364
20
61.3723211
11
4.4657408
21
61.3723211
0
LINE
8
DEFAULT_255_1_234
10
4.9813784
20
60.8269661
11
4.9813784
21
60.7522709
0
LINE
8
DEFAULT_255_1_234
10
4.4697567
20
61.2454196
11
4.2898458
21
61.2454196
0
LINE
8
DEFAULT_255_1_234
10
4.2898458
20
61.2454196
11
4.2898458
21
60.3289983
0
LINE
8
DEFAULT_255_1_234
10
4.2898458
20
60.3289983
11
4.4520869
21
60.3289983
0
LINE
8
DEFAULT_255_1_234
10
4.8287754
20
60.7554836
11
4.8287754
21
60.8237534
0
ARC
8
DEFAULT_255_1_234
10
4.4696351
20
60.7857894
40
0.5865446
50
75.4101064
51
90.3804066
0
ARC
8
DEFAULT_255_1_234
10
4.4925864
20
60.8814492
40
0.4881916
50
60.145586
51
75.1888407
0
ARC
8
DEFAULT_255_1_234
10
4.508464
20
60.9091199
40
0.4562893
50
26.5253612
51
60.1450928
0
ARC
8
DEFAULT_255_1_234
10
4.3964389
20
60.8497158
40
0.5830602
50
7.4030428
51
26.8320788
0
ARC
8
DEFAULT_255_1_234
10
4.2370146
20
60.8248804
40
0.7443669
50
0.1605367
51
7.7176192
0
ARC
8
DEFAULT_255_1_234
10
4.253405
20
60.7484434
40
0.7279835
50
348.7289388
51
0.3012466
0
ARC
8
DEFAULT_255_1_234
10
4.4190481
20
60.7155386
40
0.559104
50
333.0706509
51
348.7181832
0
ARC
8
DEFAULT_255_1_234
10
4.5157238
20
60.6630319
40
0.4491417
50
299.2531685
51
333.4571258
0
ARC
8
DEFAULT_255_1_234
10
4.4796378
20
60.7315828
40
0.5265881
50
278.107187
51
299.0339503
0
ARC
8
DEFAULT_255_1_234
10
4.4540457
20
60.8823216
40
0.679442
50
270.4443897
51
278.4511052
0
ARC
8
DEFAULT_255_1_234
10
4.4561287
20
60.7894213
40
0.4604407
50
269.4970433
51
284.0205042
0
ARC
8
DEFAULT_255_1_234
10
4.4916588
20
60.6528978
40
0.3193797
50
283.7700273
51
318.1555492
0
ARC
8
DEFAULT_255_1_234
10
4.4579346
20
60.6781367
40
0.3613588
50
318.7415601
51
343.6873628
0
ARC
8
DEFAULT_255_1_234
10
4.2775369
20
60.7344832
40
0.5503313
50
343.3325091
51
355.8548958
0
ARC
8
DEFAULT_255_1_234
10
4.0677054
20
60.7544319
40
0.7610708
50
355.4988528
51
0.0791727
0
ARC
8
DEFAULT_255_1_234
10
4.1459676
20
60.827978
40
0.6828208
50
359.6455037
51
9.8607896
0
ARC
8
DEFAULT_255_1_234
10
4.3820374
20
60.8706099
40
0.4429406
50
9.6571907
51
26.1932807
0
ARC
8
DEFAULT_255_1_234
10
4.4748363
20
60.9137118
40
0.3406537
50
26.5777228
51
40.1532208
0
ARC
8
DEFAULT_255_1_234
10
4.5004089
20
60.9336619
40
0.308246
50
40.3840491
51
80.1431104
0
ARC
8
DEFAULT_255_1_234
10
4.4677207
20
60.7887333
40
0.4566909
50
79.2152159
51
89.7445637
0
LINE
8
DEFAULT_255_1_234
10
5.3797526
20
61.3723211
11
5.3797526
21
60.2029
0
LINE
8
DEFAULT_255_1_234
10
5.3797526
20
60.2029
11
5.2255433
21
60.2029
0
LINE
8
DEFAULT_255_1_234
10
5.2255433
20
60.2029
11
5.2255433
21
61.3723211
0
LINE
8
DEFAULT_255_1_234
10
5.2255433
20
61.3723211
11
5.3797526
21
61.3723211
0
LINE
8
DEFAULT_255_1_234
10
6.356412
20
60.8944327
11
6.356412
21
60.7016709
0
LINE
8
DEFAULT_255_1_234
10
5.6182953
20
60.6815916
11
5.6182953
21
60.8799755
0
LINE
8
DEFAULT_255_1_234
10
6.2078249
20
60.6615123
11
6.2078249
21
60.9048739
0
LINE
8
DEFAULT_255_1_234
10
5.7668824
20
60.9161184
11
5.7668824
21
60.6783789
0
ARC
8
DEFAULT_255_1_234
10
5.131701
20
60.6967805
40
1.2247208
50
353.8441951
51
0.2287902
0
ARC
8
DEFAULT_255_1_234
10
5.5956513
20
60.6449806
40
0.7578929
50
344.4934747
51
353.9765454
0
ARC
8
DEFAULT_255_1_234
10
5.8949104
20
60.5598981
40
0.4467846
50
329.2803592
51
344.7472793
0
ARC
8
DEFAULT_255_1_234
10
5.9941928
20
60.5054018
40
0.3336173
50
324.9352394
51
328.6160465
0
ARC
8
DEFAULT_255_1_234
10
6.0319037
20
60.4790427
40
0.2876076
50
280.580143
51
324.9173126
0
ARC
8
DEFAULT_255_1_234
10
5.991783
20
60.6461099
40
0.4592847
50
269.5977311
51
281.6734359
0
ARC
8
DEFAULT_255_1_234
10
5.9845735
20
60.6341173
40
0.4472986
50
256.6228859
51
270.51044
0
ARC
8
DEFAULT_255_1_234
10
5.9443713
20
60.4792877
40
0.2873874
50
215.8618325
51
257.2788573
0
ARC
8
DEFAULT_255_1_234
10
6.0464745
20
60.5477977
40
0.4102928
50
197.9693508
51
215.2623606
0
ARC
8
DEFAULT_255_1_234
10
6.294986
20
60.6316709
40
0.6725652
50
187.8816417
51
198.2346507
0
ARC
8
DEFAULT_255_1_234
10
6.6908069
20
60.6888079
40
1.0724845
50
180.8976217
51
188.0055519
0
ARC
8
DEFAULT_255_1_234
10
6.9708257
20
60.6991777
40
1.3526448
50
180.7449369
51
181.1510016
0
ARC
8
DEFAULT_255_1_234
10
6.8130986
20
60.8848042
40
1.1948131
50
173.7675579
51
180.231553
0
ARC
8
DEFAULT_255_1_234
10
6.3613132
20
60.9358666
40
0.7401564
50
164.3058563
51
173.9002247
0
ARC
8
DEFAULT_255_1_234
10
6.0701201
20
61.0197656
40
0.4371288
50
148.7922025
51
164.568378
0
ARC
8
DEFAULT_255_1_234
10
5.9749653
20
61.0728929
40
0.3282386
50
144.5883898
51
148.1176286
0
ARC
8
DEFAULT_255_1_234
10
5.9406551
20
61.0968315
40
0.2864044
50
101.6440918
51
144.514236
0
ARC
8
DEFAULT_255_1_234
10
5.9831618
20
60.9279069
40
0.4604934
50
89.5284041
51
102.5819763
0
ARC
8
DEFAULT_255_1_234
10
5.9910706
20
60.9240018
40
0.464401
50
77.0437873
51
90.5081339
0
ARC
8
DEFAULT_255_1_234
10
6.0312708
20
61.0882615
40
0.2953195
50
48.2778575
51
77.4994676
0
ARC
8
DEFAULT_255_1_234
10
6.0385339
20
61.1011746
40
0.2808655
50
36.3142134
51
47.6305865
0
ARC
8
DEFAULT_255_1_234
10
5.9516646
20
61.0426515
40
0.3855453
50
18.2931786
51
35.6769206
0
ARC
8
DEFAULT_255_1_234
10
5.6973405
20
60.9553593
40
0.654423
50
8.024666
51
18.5605216
0
ARC
8
DEFAULT_255_1_234
10
5.2810325
20
60.8938792
40
1.0752407
50
1.1274072
51
8.1718305
0
ARC
8
DEFAULT_255_1_234
10
4.9574515
20
60.8811885
40
1.3990231
50
0.5424119
51
1.3863029
0
ARC
8
DEFAULT_255_1_234
10
5.1395893
20
60.9084342
40
1.0682415
50
359.8090433
51
4.9407866
0
ARC
8
DEFAULT_255_1_234
10
5.5605907
20
60.9460113
40
0.6455691
50
4.8362157
51
12.2904523
0
ARC
8
DEFAULT_255_1_234
10
5.8361022
20
61.0073965
40
0.3633074
50
12.0805627
51
23.8173984
0
ARC
8
DEFAULT_255_1_234
10
5.9534727
20
61.0570919
40
0.2358723
50
24.2871213
51
31.3935614
0
ARC
8
DEFAULT_255_1_234
10
6.0059424
20
61.0914233
40
0.1732111
50
30.7407893
51
82.4657128
0
ARC
8
DEFAULT_255_1_234
10
5.9879559
20
61.0030691
40
0.263235
50
81.1060089
51
90.2184952
0
ARC
8
DEFAULT_255_1_234
10
5.9843858
20
61.0288924
40
0.2374236
50
89.3806855
51
105.6762551
0
ARC
8
DEFAULT_255_1_234
10
5.9660488
20
61.0955567
40
0.1682847
50
105.7981136
51
149.7388061
0
ARC
8
DEFAULT_255_1_234
10
6.0724567
20
61.031595
40
0.2924306
50
149.4208916
51
163.6286378
0
ARC
8
DEFAULT_255_1_234
10
6.2815455
20
60.967825
40
0.5110213
50
163.3763315
51
172.1410975
0
ARC
8
DEFAULT_255_1_234
10
6.6116174
20
60.9205518
40
0.8444586
50
172.0259487
51
178.0703232
0
ARC
8
DEFAULT_255_1_234
10
6.9146263
20
60.9061906
40
1.1477868
50
177.8631668
51
179.5044149
0
ARC
8
DEFAULT_255_1_234
10
6.8073668
20
60.6747389
40
1.0404907
50
179.7995573
51
185.2460446
0
ARC
8
DEFAULT_255_1_234
10
6.4030707
20
60.6364513
40
0.6343885
50
185.1411642
51
193.0079639
0
ARC
8
DEFAULT_255_1_234
10
6.1387179
20
60.5739641
40
0.3627568
50
192.7897626
51
205.2507664
0
ARC
8
DEFAULT_255_1_234
10
6.0340726
20
60.5272415
40
0.2481908
50
205.8005384
51
211.2537509
0
ARC
8
DEFAULT_255_1_234
10
5.9817167
20
60.492158
40
0.1852521
50
210.3789793
51
238.4008143
0
ARC
8
DEFAULT_255_1_234
10
5.9797689
20
60.4968376
40
0.1882621
50
239.6520629
51
265.9793761
0
ARC
8
DEFAULT_255_1_234
10
5.9882889
20
60.5640427
40
0.2559272
50
265.1315437
51
270.060332
0
ARC
8
DEFAULT_255_1_234
10
5.9911668
20
60.5316534
40
0.2235528
50
269.3314664
51
287.2178029
0
ARC
8
DEFAULT_255_1_234
10
6.004952
20
60.4813279
40
0.1714108
50
287.7958004
51
329.080874
0
ARC
8
DEFAULT_255_1_234
10
5.9091977
20
60.541093
40
0.2842745
50
328.6634704
51
343.3325132
0
ARC
8
DEFAULT_255_1_234
10
5.6918997
20
60.6087863
40
0.5118644
50
343.0499468
51
351.9393422
0
ARC
8
DEFAULT_255_1_234
10
5.3452297
20
60.6598949
40
0.8622784
50
351.8069023
51
357.7959224
0
ARC
8
DEFAULT_255_1_234
10
5.0216853
20
60.6766721
40
1.1862365
50
357.5871873
51
359.2677531
0
LINE
8
DEFAULT_255_1_234
10
4.2454489
20
69.3098211
11
4.2454489
21
68.2664983
0
LINE
8
DEFAULT_255_1_234
10
4.2454489
20
68.2664983
11
4.7996389
21
68.2664983
0
LINE
8
DEFAULT_255_1_234
10
4.7996389
20
68.2664983
11
4.7996389
21
68.1404
0
LINE
8
DEFAULT_255_1_234
10
4.7996389
20
68.1404
11
4.0904364
21
68.1404
0
LINE
8
DEFAULT_255_1_234
10
4.0904364
20
68.1404
11
4.0904364
21
69.3098211
0
LINE
8
DEFAULT_255_1_234
10
4.0904364
20
69.3098211
11
4.2454489
21
69.3098211
0
LINE
8
DEFAULT_255_1_234
10
5.377924
20
69.1090276
11
5.377924
21
68.7676788
0
LINE
8
DEFAULT_255_1_234
10
5.377924
20
68.7676788
11
5.7040126
21
68.7676788
0
LINE
8
DEFAULT_255_1_234
10
5.7040126
20
68.7676788
11
5.7040126
21
68.6271233
0
LINE
8
DEFAULT_255_1_234
10
5.7040126
20
68.6271233
11
5.377924
21
68.6271233
0
LINE
8
DEFAULT_255_1_234
10
5.377924
20
68.6271233
11
5.377924
21
68.2576634
0
LINE
8
DEFAULT_255_1_234
10
5.377924
20
68.2576634
11
5.2285337
21
68.2576634
0
LINE
8
DEFAULT_255_1_234
10
5.2285337
20
68.2576634
11
5.2285337
21
68.6271233
0
LINE
8
DEFAULT_255_1_234
10
5.2285337
20
68.6271233
11
4.9024451
21
68.6271233
0
LINE
8
DEFAULT_255_1_234
10
4.9024451
20
68.6271233
11
4.9024451
21
68.7676788
0
LINE
8
DEFAULT_255_1_234
10
4.9024451
20
68.7676788
11
5.2285337
21
68.7676788
0
LINE
8
DEFAULT_255_1_234
10
5.2285337
20
68.7676788
11
5.2285337
21
69.1090276
0
LINE
8
DEFAULT_255_1_234
10
5.2285337
20
69.1090276
11
5.377924
21
69.1090276
0
LINE
8
DEFAULT_255_1_234
10
23.0448364
20
77.2473211
11
23.2440235
21
77.2473211
0
LINE
8
DEFAULT_255_1_234
10
23.2440235
20
77.2473211
11
23.6263342
21
76.2931506
0
LINE
8
DEFAULT_255_1_234
10
23.6263342
20
76.2931506
11
24.008645
21
77.2473211
0
LINE
8
DEFAULT_255_1_234
10
24.008645
20
77.2473211
11
24.2086353
21
77.2473211
0
LINE
8
DEFAULT_255_1_234
10
24.2086353
20
77.2473211
11
24.2086353
21
76.0779
0
LINE
8
DEFAULT_255_1_234
10
24.2086353
20
76.0779
11
24.0544259
21
76.0779
0
LINE
8
DEFAULT_255_1_234
10
24.0544259
20
76.0779
11
24.0544259
21
76.5332996
0
LINE
8
DEFAULT_255_1_234
10
24.0544259
20
76.5332996
11
24.068883
21
77.0248419
0
LINE
8
DEFAULT_255_1_234
10
24.068883
20
77.0248419
11
23.6849659
21
76.0779
0
LINE
8
DEFAULT_255_1_234
10
23.6849659
20
76.0779
11
23.5668994
21
76.0779
0
LINE
8
DEFAULT_255_1_234
10
23.5668994
20
76.0779
11
23.1837854
21
77.0224324
0
LINE
8
DEFAULT_255_1_234
10
23.1837854
20
77.0224324
11
23.1990458
21
76.5332996
0
LINE
8
DEFAULT_255_1_234
10
23.1990458
20
76.5332996
11
23.1990458
21
76.0779
0
LINE
8
DEFAULT_255_1_234
10
23.1990458
20
76.0779
11
23.0448364
21
76.0779
0
LINE
8
DEFAULT_255_1_234
10
23.0448364
20
76.0779
11
23.0448364
21
77.2473211
0
LINE
8
DEFAULT_255_1_234
10
23.0448364
20
69.3098211
11
23.2440235
21
69.3098211
0
LINE
8
DEFAULT_255_1_234
10
23.2440235
20
69.3098211
11
23.6263342
21
68.3556506
0
LINE
8
DEFAULT_255_1_234
10
23.6263342
20
68.3556506
11
24.008645
21
69.3098211
0
LINE
8
DEFAULT_255_1_234
10
24.008645
20
69.3098211
11
24.2086353
21
69.3098211
0
LINE
8
DEFAULT_255_1_234
10
24.2086353
20
69.3098211
11
24.2086353
21
68.1404
0
LINE
8
DEFAULT_255_1_234
10
24.2086353
20
68.1404
11
24.0544259
21
68.1404
0
LINE
8
DEFAULT_255_1_234
10
24.0544259
20
68.1404
11
24.0544259
21
68.5957996
0
LINE
8
DEFAULT_255_1_234
10
24.0544259
20
68.5957996
11
24.068883
21
69.0873419
0
LINE
8
DEFAULT_255_1_234
10
24.068883
20
69.0873419
11
23.6849659
21
68.1404
0
LINE
8
DEFAULT_255_1_234
10
23.6849659
20
68.1404
11
23.5668994
21
68.1404
0
LINE
8
DEFAULT_255_1_234
10
23.5668994
20
68.1404
11
23.1837854
21
69.0849324
0
LINE
8
DEFAULT_255_1_234
10
23.1837854
20
69.0849324
11
23.1990458
21
68.5957996
0
LINE
8
DEFAULT_255_1_234
10
23.1990458
20
68.5957996
11
23.1990458
21
68.1404
0
LINE
8
DEFAULT_255_1_234
10
23.1990458
20
68.1404
11
23.0448364
21
68.1404
0
LINE
8
DEFAULT_255_1_234
10
23.0448364
20
68.1404
11
23.0448364
21
69.3098211
0
ENDSEC
0
EOF