0
SECTION
2
HEADER
9
$MEASUREMENT
70
1
0
ENDSEC
0
SECTION
2
TABLES
0
TABLE
2
LTYPE
0
LTYPE
72
65
70
64
2
CONTINUOUS
3
______
73
0
40
0
0
ENDTAB
0
TABLE
2
LAYER
0
LAYER
2
DEFAULT_255_2_778
70
0
62
255
6
CONTINUOUS
0
LAYER
2
DEFAULT_255_1_234
70
0
62
255
6
CONTINUOUS
0
ENDTAB
0
ENDSEC
0
SECTION
2
ENTITIES
0
ARC
8
DEFAULT_255_2_778
10
3.5695693
20
99.6176527
40
0.7914215
50
129.1312896
51
180.1450914
0
ARC
8
DEFAULT_255_2_778
10
3.5698345
20
99.6181398
40
0.7912112
50
89.854026
51
129.1684493
0
ARC
8
DEFAULT_255_2_778
10
25.7988937
20
99.6178263
40
0.7915249
50
39.4792447
51
90.147911
0
ARC
8
DEFAULT_255_2_778
10
25.7994935
20
99.617673
40
0.7911595
50
359.8533901
51
39.5154338
0
ARC
8
DEFAULT_255_2_778
10
25.7991693
20
-1.9863996
40
0.7914836
50
309.4761667
51
0.1482649
0
ARC
8
DEFAULT_255_2_778
10
25.798898
20
-1.9868307
40
0.7913235
50
269.8517415
51
309.511178
0
ARC
8
DEFAULT_255_2_778
10
3.569842
20
-1.9867725
40
0.7913815
50
219.1282118
51
270.1454017
0
ARC
8
DEFAULT_255_2_778
10
3.5695247
20
-1.98639
40
0.7913769
50
179.8524075
51
219.1641908
0
LINE
8
DEFAULT_255_2_778
10
3.5718503
20
100.4093486
11
25.7968503
21
100.4093486
0
LINE
8
DEFAULT_255_2_778
10
26.5906503
20
99.6156486
11
26.5906503
21
-1.9843514
0
LINE
8
DEFAULT_255_2_778
10
25.7968503
20
-2.7781514
11
3.5718503
21
-2.7781514
0
LINE
8
DEFAULT_255_2_778
10
2.7781503
20
-1.9843514
11
2.7781503
21
99.6156486
0
LINE
8
DEFAULT_255_1_234
10
6.6879835
20
0.5189243
11
6.7144882
21
0.5189243
0
LINE
8
DEFAULT_255_1_234
10
6.7144882
20
0.5189243
11
6.7144882
21
0.392826
0
LINE
8
DEFAULT_255_1_234
10
6.7144882
20
0.392826
11
6.6871803
21
0.392826
0
LINE
8
DEFAULT_255_1_234
10
6.1402189
20
-0.2063417
11
6.1402189
21
-0.1493164
0
LINE
8
DEFAULT_255_1_234
10
6.2896093
20
-0.1685925
11
6.2896093
21
-0.2232083
0
ARC
8
DEFAULT_255_1_234
10
6.6924151
20
-0.1069545
40
0.4998079
50
90.6001036
51
104.514704
0
ARC
8
DEFAULT_255_1_234
10
6.6535667
20
0.0375131
40
0.3502176
50
104.2855254
51
133.862935
0
ARC
8
DEFAULT_255_1_234
10
6.6699424
20
0.026683
40
0.3693984
50
134.5302688
51
161.6210873
0
ARC
8
DEFAULT_255_1_234
10
6.8352613
20
-0.0316105
40
0.5446739
50
161.2849839
51
174.2076652
0
ARC
8
DEFAULT_255_1_234
10
6.975955
20
-0.0510213
40
0.6866274
50
173.7810589
51
174.9254635
0
ARC
8
DEFAULT_255_1_234
10
6.5209382
20
-0.1893161
40
0.3033419
50
95.8330959
51
138.9954921
0
ARC
8
DEFAULT_255_1_234
10
6.5432738
20
-0.3171625
40
0.4328947
50
89.8753725
51
97.0544009
0
ARC
8
DEFAULT_255_1_234
10
6.5480204
20
-0.2336252
40
0.3493769
50
71.6407809
51
90.6240094
0
ARC
8
DEFAULT_255_1_234
10
6.5630777
20
-0.1781918
40
0.2920396
50
39.6367836
51
71.019018
0
ARC
8
DEFAULT_255_1_234
10
6.499425
20
-0.2332002
40
0.3761538
50
10.658731
51
39.9043955
0
ARC
8
DEFAULT_255_1_234
10
6.3446333
20
-0.2668314
40
0.5345136
50
359.682601
51
11.132623
0
ARC
8
DEFAULT_255_1_234
10
6.3406464
20
-0.273899
40
0.5385081
50
347.2486944
51
0.4369317
0
ARC
8
DEFAULT_255_1_234
10
6.5073941
20
-0.3140193
40
0.3670249
50
318.1409698
51
347.6118597
0
ARC
8
DEFAULT_255_1_234
10
6.5398934
20
-0.3407298
40
0.3250007
50
275.6342139
51
317.8248465
0
ARC
8
DEFAULT_255_1_234
10
6.5178045
20
-0.2107781
40
0.4565864
50
269.8874292
51
276.7917694
0
ARC
8
DEFAULT_255_1_234
10
6.5123116
20
-0.3133257
40
0.3540676
50
246.9140195
51
270.7437342
0
ARC
8
DEFAULT_255_1_234
10
6.5129506
20
-0.3275616
40
0.3412781
50
218.1665114
51
245.878116
0
ARC
8
DEFAULT_255_1_234
10
6.6008967
20
-0.2539721
40
0.455911
50
191.4115814
51
218.6077802
0
ARC
8
DEFAULT_255_1_234
10
6.7947056
20
-0.2105167
40
0.6545001
50
179.6345085
51
191.7836486
0
ARC
8
DEFAULT_255_1_234
10
7.3529393
20
-0.1426303
40
1.2127388
50
171.4525249
51
180.3158839
0
ARC
8
DEFAULT_255_1_234
10
6.9134269
20
-0.0742392
40
0.7679464
50
157.9802646
51
171.6246686
0
ARC
8
DEFAULT_255_1_234
10
6.692029
20
0.0140421
40
0.5296008
50
141.4298019
51
157.854097
0
ARC
8
DEFAULT_255_1_234
10
6.627861
20
0.0594381
40
0.4511509
50
102.8715806
51
140.8564722
0
ARC
8
DEFAULT_255_1_234
10
6.6926226
20
-0.1845448
40
0.7034845
50
90.3778349
51
103.5869322
0
ARC
8
DEFAULT_255_1_234
10
6.5188002
20
-0.245027
40
0.2370698
50
89.8751008
51
126.2071704
0
ARC
8
DEFAULT_255_1_234
10
6.5233792
20
-0.2604697
40
0.2522934
50
124.9745049
51
144.895901
0
ARC
8
DEFAULT_255_1_234
10
6.5057982
20
-0.246144
40
0.2296779
50
145.2974905
51
160.2660252
0
ARC
8
DEFAULT_255_1_234
10
6.8130521
20
-0.2263929
40
0.5234525
50
179.6514266
51
190.2855912
0
ARC
8
DEFAULT_255_1_234
10
6.6436658
20
-0.2583214
40
0.3510893
50
190.0945431
51
207.5098196
0
ARC
8
DEFAULT_255_1_234
10
6.5870928
20
-0.2852377
40
0.288489
50
207.9583163
51
216.3251085
0
ARC
8
DEFAULT_255_1_234
10
6.5531036
20
-0.3131895
40
0.2445587
50
215.7661442
51
232.5456785
0
ARC
8
DEFAULT_255_1_234
10
6.5148019
20
-0.3618518
40
0.1826382
50
232.8005391
51
270.6605633
0
ARC
8
DEFAULT_255_1_234
10
6.519372
20
-0.3254388
40
0.2190529
50
269.35537
51
288.4744281
0
ARC
8
DEFAULT_255_1_234
10
6.5286617
20
-0.3603882
40
0.1829749
50
289.1833337
51
322.9683818
0
ARC
8
DEFAULT_255_1_234
10
6.4675139
20
-0.3121609
40
0.2608399
50
322.6007884
51
346.5182367
0
ARC
8
DEFAULT_255_1_234
10
6.3517735
20
-0.2826384
40
0.3802777
50
346.2582162
51
358.7741648
0
ARC
8
DEFAULT_255_1_234
10
6.2499404
20
-0.2771035
40
0.4822176
50
358.3755224
51
0.0098023
0
ARC
8
DEFAULT_255_1_234
10
6.3255591
20
-0.2743343
40
0.4066078
50
359.6214041
51
11.2839074
0
ARC
8
DEFAULT_255_1_234
10
6.4532738
20
-0.2476934
40
0.2761514
50
11.0482309
51
31.8146458
0
ARC
8
DEFAULT_255_1_234
10
6.4841781
20
-0.2309416
40
0.2410679
50
32.3035391
51
38.082671
0
ARC
8
DEFAULT_255_1_234
10
6.5262441
20
-0.1928338
40
0.1844966
50
36.825067
51
85.7415724
0
ARC
8
DEFAULT_255_1_234
10
6.5195274
20
-0.2428699
40
0.2349122
50
85.0140713
51
90.0513278
0
LINE
8
DEFAULT_255_1_234
10
7.7545983
20
0.0153343
11
7.7545983
21
-0.110764
0
LINE
8
DEFAULT_255_1_234
10
7.7545983
20
-0.110764
11
7.2477957
21
-0.110764
0
LINE
8
DEFAULT_255_1_234
10
7.2477957
20
-0.110764
11
7.2477957
21
-0.5252017
0
LINE
8
DEFAULT_255_1_234
10
7.2477957
20
-0.5252017
11
7.8365221
21
-0.5252017
0
LINE
8
DEFAULT_255_1_234
10
7.8365221
20
-0.5252017
11
7.8365221
21
-0.6513
0
LINE
8
DEFAULT_255_1_234
10
7.8365221
20
-0.6513
11
7.0935863
21
-0.6513
0
LINE
8
DEFAULT_255_1_234
10
7.0935863
20
-0.6513
11
7.0935863
21
0.5181211
0
LINE
8
DEFAULT_255_1_234
10
7.0935863
20
0.5181211
11
7.8284903
21
0.5181211
0
LINE
8
DEFAULT_255_1_234
10
7.8284903
20
0.5181211
11
7.8284903
21
0.3912196
0
LINE
8
DEFAULT_255_1_234
10
7.8284903
20
0.3912196
11
7.2477957
21
0.3912196
0
LINE
8
DEFAULT_255_1_234
10
7.2477957
20
0.3912196
11
7.2477957
21
0.0153343
0
LINE
8
DEFAULT_255_1_234
10
7.2477957
20
0.0153343
11
7.7545983
21
0.0153343
0
LINE
8
DEFAULT_255_1_234
10
8.8043465
20
0.1799849
11
8.649334
21
0.1799849
0
LINE
8
DEFAULT_255_1_234
10
7.9569981
20
-0.3123606
11
8.1120107
21
-0.3123606
0
ARC
8
DEFAULT_255_1_234
10
8.7152153
20
1.0746768
40
1.252368
50
248.9199003
51
254.1439814
0
ARC
8
DEFAULT_255_1_234
10
8.5471648
20
0.6420234
40
0.788226
50
241.633709
51
249.0064503
0
ARC
8
DEFAULT_255_1_234
10
8.3943042
20
0.3619317
40
0.4691427
50
230.498225
51
241.8087113
0
ARC
8
DEFAULT_255_1_234
10
8.3158616
20
0.2619906
40
0.3421437
50
227.4064532
51
229.9881192
0
ARC
8
DEFAULT_255_1_234
10
8.2671137
20
0.2144088
40
0.2741476
50
200.6781896
51
228.1763934
0
ARC
8
DEFAULT_255_1_234
10
8.2743447
20
0.2129077
40
0.2804109
50
179.5061581
51
199.8694617
0
ARC
8
DEFAULT_255_1_234
10
8.2734199
20
0.220321
40
0.2795204
50
132.4834203
51
181.0242172
0
ARC
8
DEFAULT_255_1_234
10
8.3329782
20
0.1640704
40
0.3612768
50
129.2532479
51
133.4242687
0
ARC
8
DEFAULT_255_1_234
10
8.3476231
20
0.1420965
40
0.3875675
50
101.98776
51
128.8742646
0
ARC
8
DEFAULT_255_1_234
10
8.3874842
20
-0.0300259
40
0.5642249
50
89.5906553
51
102.3169264
0
ARC
8
DEFAULT_255_1_234
10
8.3945334
20
0.0018148
40
0.5323783
50
77.2360837
51
90.3248275
0
ARC
8
DEFAULT_255_1_234
10
8.4152413
20
0.09854
40
0.4334697
50
63.837784
51
77.0809408
0
ARC
8
DEFAULT_255_1_234
10
8.4430175
20
0.1502911
40
0.3747796
50
45.9864267
51
64.1607727
0
ARC
8
DEFAULT_255_1_234
10
8.4691056
20
0.1800866
40
0.3352302
50
32.2747395
51
45.6547121
0
ARC
8
DEFAULT_255_1_234
10
8.4757497
20
0.181988
40
0.328603
50
359.6507365
51
32.6130309
0
ARC
8
DEFAULT_255_1_234
10
8.3814592
20
0.182466
40
0.2678863
50
359.469343
51
14.9832209
0
ARC
8
DEFAULT_255_1_234
10
8.4519654
20
0.2013539
40
0.1948938
50
14.9781179
51
48.2004265
0
ARC
8
DEFAULT_255_1_234
10
8.4355299
20
0.1806983
40
0.2212521
50
48.5927837
51
74.1241538
0
ARC
8
DEFAULT_255_1_234
10
8.4021788
20
0.0706248
40
0.3362561
50
73.7888341
51
86.6652678
0
ARC
8
DEFAULT_255_1_234
10
8.3919354
20
-0.0501119
40
0.4573953
50
86.2640471
51
90.0526343
0
ARC
8
DEFAULT_255_1_234
10
8.3891066
20
-0.0105808
40
0.4178709
50
89.6697524
51
99.2309573
0
ARC
8
DEFAULT_255_1_234
10
8.3648517
20
0.1338964
40
0.2713749
50
99.069534
51
113.7658566
0
ARC
8
DEFAULT_255_1_234
10
8.3374708
20
0.1984677
40
0.2012469
50
114.0401004
51
127.9850673
0
ARC
8
DEFAULT_255_1_234
10
8.3134272
20
0.228073
40
0.1631167
50
127.7287463
51
176.7105154
0
ARC
8
DEFAULT_255_1_234
10
8.381299
20
0.2179693
40
0.2315392
50
175.1779447
51
180.0581938
0
ARC
8
DEFAULT_255_1_234
10
8.2969836
20
0.2167428
40
0.1472271
50
179.6142195
51
228.1246017
0
ARC
8
DEFAULT_255_1_234
10
8.3411505
20
0.2576308
40
0.2072299
50
226.5779593
51
230.8800004
0
ARC
8
DEFAULT_255_1_234
10
8.3882584
20
0.3201636
40
0.2854818
50
231.4635071
51
241.9260842
0
ARC
8
DEFAULT_255_1_234
10
8.5079762
20
0.54048
40
0.53622
50
241.7178533
51
248.3259551
0
ARC
8
DEFAULT_255_1_234
10
8.6465134
20
0.8837064
40
0.9063478
50
248.2007737
51
252.4528373
0
ARC
8
DEFAULT_255_1_234
10
8.7668858
20
1.2558441
40
1.2974635
50
252.3391078
51
254.3469452
0
ARC
8
DEFAULT_255_1_234
10
8.0126561
20
-1.4418852
40
1.5037162
50
71.0197183
51
74.4087047
0
ARC
8
DEFAULT_255_1_234
10
8.1821246
20
-0.9526889
40
0.9859993
50
66.1847285
51
71.086374
0
ARC
8
DEFAULT_255_1_234
10
8.3377559
20
-0.60228
40
0.6025855
50
59.3536294
51
66.2691831
0
ARC
8
DEFAULT_255_1_234
10
8.4266211
20
-0.4519391
40
0.4279449
50
49.1020879
51
59.3293958
0
ARC
8
DEFAULT_255_1_234
10
8.5084951
20
-0.3586166
40
0.3038015
50
32.7919921
51
49.2505539
0
ARC
8
DEFAULT_255_1_234
10
8.5406041
20
-0.3357809
40
0.264448
50
31.1181161
51
32.4005348
0
ARC
8
DEFAULT_255_1_234
10
8.5317579
20
-0.3393221
40
0.2738556
50
8.1116974
51
30.7958831
0
ARC
8
DEFAULT_255_1_234
10
8.4507247
20
-0.3531247
40
0.3560327
50
359.8389159
51
8.4706516
0
ARC
8
DEFAULT_255_1_234
10
8.5133038
20
-0.3579863
40
0.2934776
50
337.4731098
51
0.7537279
0
ARC
8
DEFAULT_255_1_234
10
8.5311733
20
-0.3599613
40
0.2762607
50
307.5917067
51
336.4315538
0
ARC
8
DEFAULT_255_1_234
10
8.4851561
20
-0.3086898
40
0.3449979
50
307.6551545
51
308.4529766
0
ARC
8
DEFAULT_255_1_234
10
8.462128
20
-0.273175
40
0.3871988
50
284.3734338
51
307.1424381
0
ARC
8
DEFAULT_255_1_234
10
8.412611
20
-0.0910068
40
0.5759636
50
272.4382747
51
284.646547
0
ARC
8
DEFAULT_255_1_234
10
8.3999319
20
0.0889893
40
0.7563528
50
269.9708387
51
272.8178037
0
ARC
8
DEFAULT_255_1_234
10
8.3956358
20
-0.1148284
40
0.5525489
50
248.2707594
51
270.4055579
0
ARC
8
DEFAULT_255_1_234
10
8.39021
20
-0.1338808
40
0.5328452
50
246.1383403
51
248.0542782
0
ARC
8
DEFAULT_255_1_234
10
8.3483478
20
-0.2218157
40
0.4355005
50
233.1670131
51
246.4950969
0
ARC
8
DEFAULT_255_1_234
10
8.2929383
20
-0.2966188
40
0.3424126
50
215.3403242
51
233.0843104
0
ARC
8
DEFAULT_255_1_234
10
8.2656815
20
-0.3164451
40
0.3087104
50
179.2419209
51
215.2648451
0
ARC
8
DEFAULT_255_1_234
10
8.3424409
20
-0.3150334
40
0.2304457
50
179.335461
51
199.1045811
0
ARC
8
DEFAULT_255_1_234
10
8.3092085
20
-0.3237234
40
0.1962176
50
199.8828939
51
232.7063202
0
ARC
8
DEFAULT_255_1_234
10
8.3564353
20
-0.2643212
40
0.2720938
50
232.3738199
51
255.5136649
0
ARC
8
DEFAULT_255_1_234
10
8.390522
20
-0.1399165
40
0.4010747
50
255.2446292
51
267.5320849
0
ARC
8
DEFAULT_255_1_234
10
8.3992843
20
-0.0166298
40
0.5246356
50
267.1557994
51
270.0286766
0
ARC
8
DEFAULT_255_1_234
10
8.4020616
20
-0.061005
40
0.4802668
50
269.7000017
51
278.1660162
0
ARC
8
DEFAULT_255_1_234
10
8.427662
20
-0.2340485
40
0.3053425
50
278.0231263
51
290.625471
0
ARC
8
DEFAULT_255_1_234
10
8.4624308
20
-0.3267975
40
0.206291
50
290.6619762
51
307.0370976
0
ARC
8
DEFAULT_255_1_234
10
8.4924697
20
-0.3636496
40
0.1587906
50
306.3943566
51
355.3030547
0
ARC
8
DEFAULT_255_1_234
10
8.4412628
20
-0.3559887
40
0.2104809
50
354.3660432
51
0.0698737
0
ARC
8
DEFAULT_255_1_234
10
8.4554973
20
-0.3537383
40
0.1962563
50
359.417946
51
16.1971788
0
ARC
8
DEFAULT_255_1_234
10
8.5010284
20
-0.3412582
40
0.149053
50
16.4723299
51
52.6262157
0
ARC
8
DEFAULT_255_1_234
10
8.4189338
20
-0.4496567
40
0.2850296
50
52.7386432
51
62.4979148
0
ARC
8
DEFAULT_255_1_234
10
8.2804415
20
-0.7102717
40
0.5801521
50
62.2515216
51
68.1220564
0
ARC
8
DEFAULT_255_1_234
10
8.1084325
20
-1.1330128
40
1.0365451
50
68.0062803
51
71.8053402
0
ARC
8
DEFAULT_255_1_234
10
7.9288697
20
-1.6715242
40
1.6042013
50
71.7183119
51
73.9258742
0
LINE
8
DEFAULT_255_1_234
10
9.7207679
20
0.5181211
11
9.7207679
21
0.434591
0
LINE
8
DEFAULT_255_1_234
10
9.7207679
20
0.434591
11
9.2364541
21
-0.6513
0
LINE
8
DEFAULT_255_1_234
10
9.2364541
20
-0.6513
11
9.0806383
21
-0.6513
0
LINE
8
DEFAULT_255_1_234
10
9.0806383
20
-0.6513
11
9.5633458
21
0.3960387
0
LINE
8
DEFAULT_255_1_234
10
9.5633458
20
0.3960387
11
8.9304448
21
0.3960387
0
LINE
8
DEFAULT_255_1_234
10
8.9304448
20
0.3960387
11
8.9304448
21
0.5181211
0
LINE
8
DEFAULT_255_1_234
10
8.9304448
20
0.5181211
11
9.7207679
21
0.5181211
0
LINE
8
DEFAULT_255_1_234
10
10.3777641
20
0.5237433
11
10.3777641
21
-0.6513
0
LINE
8
DEFAULT_255_1_234
10
10.3777641
20
-0.6513
11
10.2283737
21
-0.6513
0
LINE
8
DEFAULT_255_1_234
10
10.2283737
20
-0.6513
11
10.2283737
21
0.3390133
0
LINE
8
DEFAULT_255_1_234
10
10.2283737
20
0.3390133
11
9.9287899
21
0.2289785
0
LINE
8
DEFAULT_255_1_234
10
9.9287899
20
0.2289785
11
9.9287899
21
0.3639117
0
LINE
8
DEFAULT_255_1_234
10
9.9287899
20
0.3639117
11
10.354472
21
0.5237433
0
LINE
8
DEFAULT_255_1_234
10
10.354472
20
0.5237433
11
10.3777641
21
0.5237433
0
LINE
8
DEFAULT_255_1_234
10
11.029138
20
-0.1155831
11
11.029138
21
0.0056962
0
LINE
8
DEFAULT_255_1_234
10
11.029138
20
0.0056962
11
11.1407792
21
0.0056962
0
LINE
8
DEFAULT_255_1_234
10
10.950427
20
0.2113087
11
10.8018398
21
0.2113087
0
LINE
8
DEFAULT_255_1_234
10
10.7913986
20
-0.3428813
11
10.9407889
21
-0.3428813
0
LINE
8
DEFAULT_255_1_234
10
11.1407792
20
-0.1155831
11
11.029138
21
-0.1155831
0
ARC
8
DEFAULT_255_1_234
10
11.1378658
20
0.3449713
40
0.3392876
50
270.4919872
51
281.8951556
0
ARC
8
DEFAULT_255_1_234
10
11.161992
20
0.2347702
40
0.2264817
50
281.6691735
51
301.2943132
0
ARC
8
DEFAULT_255_1_234
10
11.179013
20
0.2036304
40
0.1910381
50
301.7833094
51
311.7545298
0
ARC
8
DEFAULT_255_1_234
10
11.1881706
20
0.1934748
40
0.1773635
50
311.7323931
51
354.2802411
0
ARC
8
DEFAULT_255_1_234
10
11.1155331
20
0.2059722
40
0.2509385
50
353.0937916
51
0.1181479
0
ARC
8
DEFAULT_255_1_234
10
11.0694116
20
0.2107386
40
0.2970898
50
359.1805295
51
15.0453146
0
ARC
8
DEFAULT_255_1_234
10
11.2039953
20
0.2499992
40
0.1569564
50
13.9577229
51
77.6713066
0
ARC
8
DEFAULT_255_1_234
10
11.1653482
20
0.1114949
40
0.3006298
50
76.1116566
51
90.7026153
0
ARC
8
DEFAULT_255_1_234
10
11.1594321
20
0.1388545
40
0.2732568
50
89.5324876
51
103.531937
0
ARC
8
DEFAULT_255_1_234
10
11.1393765
20
0.2187884
40
0.1908508
50
103.2931773
51
133.5619022
0
ARC
8
DEFAULT_255_1_234
10
11.1349253
20
0.2247375
40
0.1834746
50
133.8349307
51
173.5344437
0
ARC
8
DEFAULT_255_1_234
10
11.2072296
20
0.2119213
40
0.2568033
50
172.5096846
51
180.1366907
0
ARC
8
DEFAULT_255_1_234
10
11.112119
20
0.2153622
40
0.3103056
50
155.3484492
51
180.7484736
0
ARC
8
DEFAULT_255_1_234
10
11.1072279
20
0.2124846
40
0.3070957
50
131.5744599
51
154.4798489
0
ARC
8
DEFAULT_255_1_234
10
11.1385427
20
0.180831
40
0.3515643
50
96.9875458
51
131.9690667
0
ARC
8
DEFAULT_255_1_234
10
11.1604906
20
0.0562636
40
0.4779224
50
89.8596053
51
97.7825159
0
ARC
8
DEFAULT_255_1_234
10
11.165297
20
0.0300616
40
0.5041361
50
78.3655447
51
90.4131539
0
ARC
8
DEFAULT_255_1_234
10
11.2010887
20
0.1959887
40
0.3344039
50
56.6229102
51
78.638727
0
ARC
8
DEFAULT_255_1_234
10
11.2225831
20
0.2335805
40
0.2912001
50
47.0253525
51
56.0854072
0
ARC
8
DEFAULT_255_1_234
10
11.2245611
20
0.2375223
40
0.2869704
50
10.9208013
51
46.7778124
0
ARC
8
DEFAULT_255_1_234
10
11.0881678
20
0.2059857
40
0.426899
50
359.6364486
51
11.6087304
0
ARC
8
DEFAULT_255_1_234
10
11.2716522
20
0.2044752
40
0.243409
50
332.3549906
51
359.7179418
0
ARC
8
DEFAULT_255_1_234
10
11.2066123
20
0.2353142
40
0.3153459
50
325.2333722
51
332.8745602
0
ARC
8
DEFAULT_255_1_234
10
11.2218747
20
0.2246828
40
0.2967456
50
292.9802137
51
325.2392345
0
ARC
8
DEFAULT_255_1_234
10
11.1944121
20
0.2780863
40
0.3566604
50
292.5402179
51
293.6924929
0
ARC
8
DEFAULT_255_1_234
10
11.2336717
20
-0.3673909
40
0.3307468
50
57.6435486
51
72.8625112
0
ARC
8
DEFAULT_255_1_234
10
11.2691216
20
-0.3099451
40
0.2632492
50
36.7248896
51
57.4697979
0
ARC
8
DEFAULT_255_1_234
10
11.2679849
20
-0.308678
40
0.2634081
50
8.0545065
51
36.356114
0
ARC
8
DEFAULT_255_1_234
10
11.1817034
20
-0.3241826
40
0.3510261
50
359.8320645
51
8.5869982
0
ARC
8
DEFAULT_255_1_234
10
11.1441811
20
-0.3289899
40
0.3885653
50
343.9829931
51
0.5571613
0
ARC
8
DEFAULT_255_1_234
10
11.2328008
20
-0.3532562
40
0.2966924
50
311.6359546
51
343.7651759
0
ARC
8
DEFAULT_255_1_234
10
11.1949577
20
-0.3105898
40
0.3537231
50
279.7829875
51
311.6255694
0
ARC
8
DEFAULT_255_1_234
10
11.1648353
20
-0.166872
40
0.5004971
50
269.7286406
51
280.3856417
0
ARC
8
DEFAULT_255_1_234
10
11.1586426
20
-0.1710004
40
0.4963778
50
256.6828919
51
270.4412052
0
ARC
8
DEFAULT_255_1_234
10
11.1247722
20
-0.3094606
40
0.3538406
50
229.4223008
51
256.8556159
0
ARC
8
DEFAULT_255_1_234
10
11.0833114
20
-0.3561264
40
0.2914296
50
181.818294
51
229.6455059
0
ARC
8
DEFAULT_255_1_234
10
11.1873071
20
-0.3430504
40
0.3959084
50
179.9755256
51
183.2323064
0
ARC
8
DEFAULT_255_1_234
10
11.1700816
20
-0.3450963
40
0.2293034
50
179.4465117
51
196.2869258
0
ARC
8
DEFAULT_255_1_234
10
11.1213224
20
-0.3584349
40
0.1787621
50
196.5661473
51
227.705904
0
ARC
8
DEFAULT_255_1_234
10
11.1377319
20
-0.3400845
40
0.2033784
50
227.7652068
51
257.8762805
0
ARC
8
DEFAULT_255_1_234
10
11.1602289
20
-0.2457844
40
0.3003081
50
257.4584385
51
270.426602
0
ARC
8
DEFAULT_255_1_234
10
11.1647856
20
-0.2168004
40
0.329292
50
269.5962073
51
280.8789248
0
ARC
8
DEFAULT_255_1_234
10
11.1877384
20
-0.3314315
40
0.2123908
50
280.6346389
51
299.8595945
0
ARC
8
DEFAULT_255_1_234
10
11.2068291
20
-0.3676788
40
0.171457
50
300.3576302
51
314.5517981
0
ARC
8
DEFAULT_255_1_234
10
11.1985351
20
-0.3616081
40
0.1816095
50
315.0728369
51
345.0431014
0
ARC
8
DEFAULT_255_1_234
10
11.1062166
20
-0.3347159
40
0.2777492
50
344.5986631
51
357.9269593
0
ARC
8
DEFAULT_255_1_234
10
11.0166492
20
-0.3285724
40
0.3674917
50
357.4748886
51
0.0231117
0
ARC
8
DEFAULT_255_1_234
10
11.1189601
20
-0.3261321
40
0.2651907
50
359.5047933
51
13.4239635
0
ARC
8
DEFAULT_255_1_234
10
11.2056245
20
-0.3039522
40
0.1757509
50
12.9498199
51
48.7551375
0
ARC
8
DEFAULT_255_1_234
10
11.1873979
20
-0.32886
40
0.2065134
50
49.5088623
51
72.1836453
0
ARC
8
DEFAULT_255_1_234
10
11.1516131
20
-0.4350709
40
0.3185836
50
71.9010081
51
84.3554254
0
ARC
8
DEFAULT_255_1_234
10
11.1354763
20
-0.5711674
40
0.4556151
50
84.0193428
51
89.333121
0
LINE
8
DEFAULT_255_1_234
10
12.2250639
20
0.5237433
11
12.2250639
21
-0.6513
0
LINE
8
DEFAULT_255_1_234
10
12.2250639
20
-0.6513
11
12.0756735
21
-0.6513
0
LINE
8
DEFAULT_255_1_234
10
12.0756735
20
-0.6513
11
12.0756735
21
0.3390133
0
LINE
8
DEFAULT_255_1_234
10
12.0756735
20
0.3390133
11
11.7760897
21
0.2289785
0
LINE
8
DEFAULT_255_1_234
10
11.7760897
20
0.2289785
11
11.7760897
21
0.3639117
0
LINE
8
DEFAULT_255_1_234
10
11.7760897
20
0.3639117
11
12.2017718
21
0.5237433
0
LINE
8
DEFAULT_255_1_234
10
12.2017718
20
0.5237433
11
12.2250639
21
0.5237433
0
LINE
8
DEFAULT_255_1_234
10
12.9848663
20
-0.0938974
11
12.9848663
21
-0.2151766
0
LINE
8
DEFAULT_255_1_234
10
12.9848663
20
-0.2151766
11
12.5929175
21
-0.2151766
0
LINE
8
DEFAULT_255_1_234
10
12.5929175
20
-0.2151766
11
12.5929175
21
-0.0938974
0
LINE
8
DEFAULT_255_1_234
10
12.5929175
20
-0.0938974
11
12.9848663
21
-0.0938974
0
LINE
8
DEFAULT_255_1_234
10
13.7414561
20
0.5181211
11
13.7414561
21
-0.258548
0
LINE
8
DEFAULT_255_1_234
10
13.7414561
20
-0.258548
11
13.9036972
21
-0.258548
0
LINE
8
DEFAULT_255_1_234
10
13.9036972
20
-0.258548
11
13.9036972
21
-0.3798272
0
LINE
8
DEFAULT_255_1_234
10
13.9036972
20
-0.3798272
11
13.7414561
21
-0.3798272
0
LINE
8
DEFAULT_255_1_234
10
13.7414561
20
-0.3798272
11
13.7414561
21
-0.6513
0
LINE
8
DEFAULT_255_1_234
10
13.7414561
20
-0.6513
11
13.5920657
21
-0.6513
0
LINE
8
DEFAULT_255_1_234
10
13.5920657
20
-0.6513
11
13.5920657
21
-0.3798272
0
LINE
8
DEFAULT_255_1_234
10
13.5920657
20
-0.3798272
11
13.0595615
21
-0.3798272
0
LINE
8
DEFAULT_255_1_234
10
13.0595615
20
-0.3798272
11
13.0595615
21
-0.2922813
0
LINE
8
DEFAULT_255_1_234
10
13.0595615
20
-0.2922813
11
13.5832308
21
0.5181211
0
LINE
8
DEFAULT_255_1_234
10
13.5832308
20
0.5181211
11
13.7414561
21
0.5181211
0
LINE
8
DEFAULT_255_1_234
10
13.5743959
20
0.2827912
11
13.228228
21
-0.258548
0
LINE
8
DEFAULT_255_1_234
10
13.228228
20
-0.258548
11
13.5920657
21
-0.258548
0
LINE
8
DEFAULT_255_1_234
10
13.5920657
20
-0.258548
11
13.5920657
21
0.3149181
0
LINE
8
DEFAULT_255_1_234
10
13.5920657
20
0.3149181
11
13.5743959
21
0.2827912
0
LINE
8
DEFAULT_255_1_234
10
14.7590773
20
-0.6513
11
14.5052744
21
-0.1782306
0
LINE
8
DEFAULT_255_1_234
10
14.5052744
20
-0.1782306
11
14.2305889
21
-0.1782306
0
LINE
8
DEFAULT_255_1_234
10
14.2305889
20
-0.1782306
11
14.2305889
21
-0.6513
0
LINE
8
DEFAULT_255_1_234
10
14.2305889
20
-0.6513
11
14.0755764
21
-0.6513
0
LINE
8
DEFAULT_255_1_234
10
14.0755764
20
-0.6513
11
14.0755764
21
0.5181211
0
LINE
8
DEFAULT_255_1_234
10
14.0755764
20
0.5181211
11
14.4627062
21
0.5181211
0
LINE
8
DEFAULT_255_1_234
10
14.6498457
20
-0.1453005
11
14.9245311
21
-0.6416619
0
LINE
8
DEFAULT_255_1_234
10
14.9245311
20
-0.6416619
11
14.9245311
21
-0.6513
0
LINE
8
DEFAULT_255_1_234
10
14.9245311
20
-0.6513
11
14.7590773
21
-0.6513
0
LINE
8
DEFAULT_255_1_234
10
14.2305889
20
0.3912196
11
14.2305889
21
-0.0521323
0
LINE
8
DEFAULT_255_1_234
10
14.2305889
20
-0.0521323
11
14.4675252
21
-0.0521323
0
LINE
8
DEFAULT_255_1_234
10
14.466722
20
0.3912196
11
14.2305889
21
0.3912196
0
ARC
8
DEFAULT_255_1_234
10
14.4668701
20
-0.1780239
40
0.6961575
50
80.653586
51
90.3427061
0
ARC
8
DEFAULT_255_1_234
10
14.5088176
20
0.0682348
40
0.4463577
50
65.6987447
51
80.8329603
0
ARC
8
DEFAULT_255_1_234
10
14.5565816
20
0.1777322
40
0.3269094
50
50.0017161
51
65.4305835
0
ARC
8
DEFAULT_255_1_234
10
14.5784281
20
0.2072482
40
0.2902647
50
11.628416
51
49.5603263
0
ARC
8
DEFAULT_255_1_234
10
14.4248617
20
0.1697299
40
0.4482792
50
359.5655735
51
12.3691
0
ARC
8
DEFAULT_255_1_234
10
14.5325476
20
0.1634644
40
0.3405924
50
341.9983148
51
0.4822259
0
ARC
8
DEFAULT_255_1_234
10
14.5720317
20
0.1527471
40
0.2997359
50
323.8609373
51
341.61416
0
ARC
8
DEFAULT_255_1_234
10
14.5418561
20
0.1760484
40
0.3378487
50
296.7018614
51
323.6876402
0
ARC
8
DEFAULT_255_1_234
10
14.4977456
20
0.2549235
40
0.4281516
50
290.8086567
51
297.2323311
0
ARC
8
DEFAULT_255_1_234
10
14.4700985
20
0.3072351
40
0.3593766
50
269.589728
51
281.8058135
0
ARC
8
DEFAULT_255_1_234
10
14.4951885
20
0.1924743
40
0.2419125
50
281.5501019
51
303.9357432
0
ARC
8
DEFAULT_255_1_234
10
14.5089072
20
0.1686936
40
0.2145323
50
304.4415616
51
311.2106213
0
ARC
8
DEFAULT_255_1_234
10
14.5221178
20
0.1547632
40
0.1953505
50
310.9875673
51
356.2715578
0
ARC
8
DEFAULT_255_1_234
10
14.4464826
20
0.1660422
40
0.2716331
50
354.9348262
51
0.0609027
0
ARC
8
DEFAULT_255_1_234
10
14.4277701
20
0.1687435
40
0.2903554
50
359.5239371
51
12.8808918
0
ARC
8
DEFAULT_255_1_234
10
14.5255256
20
0.1926728
40
0.1897315
50
12.4173452
51
43.1022135
0
ARC
8
DEFAULT_255_1_234
10
14.5316861
20
0.1963724
40
0.1827118
50
43.5751728
51
48.203944
0
ARC
8
DEFAULT_255_1_234
10
14.5147353
20
0.1742302
40
0.2105272
50
48.7809703
51
72.6969569
0
ARC
8
DEFAULT_255_1_234
10
14.4792977
20
0.066682
40
0.3237537
50
72.3702241
51
84.8791103
0
ARC
8
DEFAULT_255_1_234
10
14.4645453
20
-0.0675231
40
0.4587478
50
84.5400526
51
89.7281406
0
LINE
8
DEFAULT_255_1_234
10
15.4128608
20
-0.6513
11
15.0891817
21
-0.6513
0
LINE
8
DEFAULT_255_1_234
10
15.0891817
20
-0.6513
11
15.0891817
21
0.5181211
0
LINE
8
DEFAULT_255_1_234
10
15.0891817
20
0.5181211
11
15.4192862
21
0.5181211
0
LINE
8
DEFAULT_255_1_234
10
15.9349238
20
-0.0272339
11
15.9349238
21
-0.1019291
0
LINE
8
DEFAULT_255_1_234
10
15.4233021
20
0.3912196
11
15.2433911
21
0.3912196
0
LINE
8
DEFAULT_255_1_234
10
15.2433911
20
0.3912196
11
15.2433911
21
-0.5252017
0
LINE
8
DEFAULT_255_1_234
10
15.2433911
20
-0.5252017
11
15.4056322
21
-0.5252017
0
LINE
8
DEFAULT_255_1_234
10
15.7823208
20
-0.0987164
11
15.7823208
21
-0.0304466
0
ARC
8
DEFAULT_255_1_234
10
15.4231804
20
-0.0684106
40
0.5865446
50
75.4101064
51
90.3804066
0
ARC
8
DEFAULT_255_1_234
10
15.4461318
20
0.0272492
40
0.4881916
50
60.145586
51
75.1888407
0
ARC
8
DEFAULT_255_1_234
10
15.4620093
20
0.0549199
40
0.4562893
50
26.5253612
51
60.1450928
0
ARC
8
DEFAULT_255_1_234
10
15.3499843
20
-0.0044842
40
0.5830602
50
7.4030428
51
26.8320788
0
ARC
8
DEFAULT_255_1_234
10
15.1905599
20
-0.0293196
40
0.7443669
50
0.1605367
51
7.7176192
0
ARC
8
DEFAULT_255_1_234
10
15.2069504
20
-0.1057566
40
0.7279835
50
348.7289388
51
0.3012466
0
ARC
8
DEFAULT_255_1_234
10
15.3725934
20
-0.1386614
40
0.559104
50
333.0706509
51
348.7181832
0
ARC
8
DEFAULT_255_1_234
10
15.4692692
20
-0.1911681
40
0.4491417
50
299.2531685
51
333.4571258
0
ARC
8
DEFAULT_255_1_234
10
15.4331832
20
-0.1226172
40
0.5265881
50
278.107187
51
299.0339503
0
ARC
8
DEFAULT_255_1_234
10
15.407591
20
0.0281216
40
0.679442
50
270.4443897
51
278.4511052
0
ARC
8
DEFAULT_255_1_234
10
15.409674
20
-0.0647787
40
0.4604407
50
269.4970433
51
284.0205042
0
ARC
8
DEFAULT_255_1_234
10
15.4452041
20
-0.2013022
40
0.3193797
50
283.7700273
51
318.1555492
0
ARC
8
DEFAULT_255_1_234
10
15.41148
20
-0.1760633
40
0.3613588
50
318.7415601
51
343.6873628
0
ARC
8
DEFAULT_255_1_234
10
15.2310823
20
-0.1197168
40
0.5503313
50
343.3325091
51
355.8548958
0
ARC
8
DEFAULT_255_1_234
10
15.0212507
20
-0.0997681
40
0.7610708
50
355.4988528
51
0.0791727
0
ARC
8
DEFAULT_255_1_234
10
15.099513
20
-0.026222
40
0.6828208
50
359.6455037
51
9.8607896
0
ARC
8
DEFAULT_255_1_234
10
15.3355828
20
0.0164099
40
0.4429406
50
9.6571907
51
26.1932807
0
ARC
8
DEFAULT_255_1_234
10
15.4283816
20
0.0595118
40
0.3406537
50
26.5777228
51
40.1532208
0
ARC
8
DEFAULT_255_1_234
10
15.4539543
20
0.0794619
40
0.308246
50
40.3840491
51
80.1431104
0
ARC
8
DEFAULT_255_1_234
10
15.421266
20
-0.0654667
40
0.4566909
50
79.2152159
51
89.7445637
0
LINE
8
DEFAULT_255_1_234
10
16.8625896
20
0.0402327
11
16.8625896
21
-0.1525291
0
LINE
8
DEFAULT_255_1_234
10
16.1244728
20
-0.1726084
11
16.1244728
21
0.0257755
0
LINE
8
DEFAULT_255_1_234
10
16.7140024
20
-0.1926877
11
16.7140024
21
0.0506739
0
LINE
8
DEFAULT_255_1_234
10
16.27306
20
0.0619184
11
16.27306
21
-0.1758211
0
ARC
8
DEFAULT_255_1_234
10
15.6378785
20
-0.1574195
40
1.2247208
50
353.8441951
51
0.2287902
0
ARC
8
DEFAULT_255_1_234
10
16.1018289
20
-0.2092194
40
0.7578929
50
344.4934747
51
353.9765454
0
ARC
8
DEFAULT_255_1_234
10
16.4010879
20
-0.2943019
40
0.4467846
50
329.2803592
51
344.7472793
0
ARC
8
DEFAULT_255_1_234
10
16.5003704
20
-0.3487982
40
0.3336173
50
324.9352394
51
328.6160465
0
ARC
8
DEFAULT_255_1_234
10
16.5380813
20
-0.3751573
40
0.2876076
50
280.580143
51
324.9173126
0
ARC
8
DEFAULT_255_1_234
10
16.4979605
20
-0.2080901
40
0.4592847
50
269.5977311
51
281.6734359
0
ARC
8
DEFAULT_255_1_234
10
16.4907511
20
-0.2200827
40
0.4472986
50
256.6228859
51
270.51044
0
ARC
8
DEFAULT_255_1_234
10
16.4505489
20
-0.3749123
40
0.2873874
50
215.8618325
51
257.2788573
0
ARC
8
DEFAULT_255_1_234
10
16.552652
20
-0.3064023
40
0.4102928
50
197.9693508
51
215.2623606
0
ARC
8
DEFAULT_255_1_234
10
16.8011636
20
-0.2225291
40
0.6725652
50
187.8816417
51
198.2346507
0
ARC
8
DEFAULT_255_1_234
10
17.1969844
20
-0.1653921
40
1.0724845
50
180.8976217
51
188.0055519
0
ARC
8
DEFAULT_255_1_234
10
17.4770032
20
-0.1550223
40
1.3526448
50
180.7449369
51
181.1510016
0
ARC
8
DEFAULT_255_1_234
10
17.3192761
20
0.0306042
40
1.1948131
50
173.7675579
51
180.231553
0
ARC
8
DEFAULT_255_1_234
10
16.8674908
20
0.0816666
40
0.7401564
50
164.3058563
51
173.9002247
0
ARC
8
DEFAULT_255_1_234
10
16.5762977
20
0.1655656
40
0.4371288
50
148.7922025
51
164.568378
0
ARC
8
DEFAULT_255_1_234
10
16.4811429
20
0.2186929
40
0.3282386
50
144.5883898
51
148.1176286
0
ARC
8
DEFAULT_255_1_234
10
16.4468327
20
0.2426315
40
0.2864044
50
101.6440918
51
144.514236
0
ARC
8
DEFAULT_255_1_234
10
16.4893394
20
0.0737069
40
0.4604934
50
89.5284041
51
102.5819763
0
ARC
8
DEFAULT_255_1_234
10
16.4972481
20
0.0698018
40
0.464401
50
77.0437873
51
90.5081339
0
ARC
8
DEFAULT_255_1_234
10
16.5374483
20
0.2340615
40
0.2953195
50
48.2778575
51
77.4994676
0
ARC
8
DEFAULT_255_1_234
10
16.5447114
20
0.2469746
40
0.2808655
50
36.3142134
51
47.6305865
0
ARC
8
DEFAULT_255_1_234
10
16.4578421
20
0.1884515
40
0.3855453
50
18.2931786
51
35.6769206
0
ARC
8
DEFAULT_255_1_234
10
16.203518
20
0.1011593
40
0.654423
50
8.024666
51
18.5605216
0
ARC
8
DEFAULT_255_1_234
10
15.78721
20
0.0396792
40
1.0752407
50
1.1274072
51
8.1718305
0
ARC
8
DEFAULT_255_1_234
10
15.4636291
20
0.0269885
40
1.3990231
50
0.5424119
51
1.3863029
0
ARC
8
DEFAULT_255_1_234
10
15.6457669
20
0.0542342
40
1.0682415
50
359.8090433
51
4.9407866
0
ARC
8
DEFAULT_255_1_234
10
16.0667683
20
0.0918113
40
0.6455691
50
4.8362157
51
12.2904523
0
ARC
8
DEFAULT_255_1_234
10
16.3422797
20
0.1531965
40
0.3633074
50
12.0805627
51
23.8173984
0
ARC
8
DEFAULT_255_1_234
10
16.4596503
20
0.2028919
40
0.2358723
50
24.2871213
51
31.3935614
0
ARC
8
DEFAULT_255_1_234
10
16.51212
20
0.2372233
40
0.1732111
50
30.7407893
51
82.4657128
0
ARC
8
DEFAULT_255_1_234
10
16.4941334
20
0.1488691
40
0.263235
50
81.1060089
51
90.2184952
0
ARC
8
DEFAULT_255_1_234
10
16.4905633
20
0.1746924
40
0.2374236
50
89.3806855
51
105.6762551
0
ARC
8
DEFAULT_255_1_234
10
16.4722264
20
0.2413567
40
0.1682847
50
105.7981136
51
149.7388061
0
ARC
8
DEFAULT_255_1_234
10
16.5786342
20
0.177395
40
0.2924306
50
149.4208916
51
163.6286378
0
ARC
8
DEFAULT_255_1_234
10
16.787723
20
0.113625
40
0.5110213
50
163.3763315
51
172.1410975
0
ARC
8
DEFAULT_255_1_234
10
17.1177949
20
0.0663518
40
0.8444586
50
172.0259487
51
178.0703232
0
ARC
8
DEFAULT_255_1_234
10
17.4208039
20
0.0519906
40
1.1477868
50
177.8631668
51
179.5044149
0
ARC
8
DEFAULT_255_1_234
10
17.3135443
20
-0.1794611
40
1.0404907
50
179.7995573
51
185.2460446
0
ARC
8
DEFAULT_255_1_234
10
16.9092482
20
-0.2177487
40
0.6343885
50
185.1411642
51
193.0079639
0
ARC
8
DEFAULT_255_1_234
10
16.6448955
20
-0.2802359
40
0.3627568
50
192.7897626
51
205.2507664
0
ARC
8
DEFAULT_255_1_234
10
16.5402502
20
-0.3269585
40
0.2481908
50
205.8005384
51
211.2537509
0
ARC
8
DEFAULT_255_1_234
10
16.4878942
20
-0.362042
40
0.1852521
50
210.3789793
51
238.4008143
0
ARC
8
DEFAULT_255_1_234
10
16.4859464
20
-0.3573624
40
0.1882621
50
239.6520629
51
265.9793761
0
ARC
8
DEFAULT_255_1_234
10
16.4944664
20
-0.2901573
40
0.2559272
50
265.1315437
51
270.060332
0
ARC
8
DEFAULT_255_1_234
10
16.4973443
20
-0.3225466
40
0.2235528
50
269.3314664
51
287.2178029
0
ARC
8
DEFAULT_255_1_234
10
16.5111295
20
-0.3728721
40
0.1714108
50
287.7958004
51
329.080874
0
ARC
8
DEFAULT_255_1_234
10
16.4153752
20
-0.313107
40
0.2842745
50
328.6634704
51
343.3325132
0
ARC
8
DEFAULT_255_1_234
10
16.1980772
20
-0.2454137
40
0.5118644
50
343.0499468
51
351.9393422
0
ARC
8
DEFAULT_255_1_234
10
15.8514072
20
-0.1943051
40
0.8622784
50
351.8069023
51
357.7959224
0
ARC
8
DEFAULT_255_1_234
10
15.5278628
20
-0.1775279
40
1.1862365
50
357.5871873
51
359.2677531
0
LINE
8
DEFAULT_255_1_234
10
17.8191696
20
-0.5300208
11
17.8191696
21
-0.6513
0
LINE
8
DEFAULT_255_1_234
10
17.8191696
20
-0.6513
11
17.0529417
21
-0.6513
0
LINE
8
DEFAULT_255_1_234
10
17.0529417
20
-0.6513
11
17.0529417
21
-0.5444779
0
LINE
8
DEFAULT_255_1_234
10
17.0529417
20
-0.5444779
11
17.4577414
21
-0.0947005
0
LINE
8
DEFAULT_255_1_234
10
17.17904
20
0.1735595
11
17.0304529
21
0.1735595
0
LINE
8
DEFAULT_255_1_234
10
17.5452873
20
-0.1902782
11
17.2320495
21
-0.5300208
0
LINE
8
DEFAULT_255_1_234
10
17.2320495
20
-0.5300208
11
17.8191696
21
-0.5300208
0
ARC
8
DEFAULT_255_1_234
10
16.1087247
20
1.0982527
40
1.8008286
50
318.5132453
51
320.7828378
0
ARC
8
DEFAULT_255_1_234
10
16.6374221
20
0.6679426
40
1.1191493
50
320.7372736
51
323.9737074
0
ARC
8
DEFAULT_255_1_234
10
17.0294078
20
0.3839361
40
0.6350923
50
323.8961724
51
328.6421089
0
ARC
8
DEFAULT_255_1_234
10
17.2340673
20
0.2577031
40
0.3946393
50
328.8299013
51
331.789948
0
ARC
8
DEFAULT_255_1_234
10
17.3337852
20
0.2062509
40
0.2824501
50
331.4255242
51
352.9364833
0
ARC
8
DEFAULT_255_1_234
10
17.3474352
20
0.2031976
40
0.2685315
50
353.2248685
51
0.0169286
0
ARC
8
DEFAULT_255_1_234
10
17.3684229
20
0.205495
40
0.2475536
50
359.4866256
51
15.9339782
0
ARC
8
DEFAULT_255_1_234
10
17.4191214
20
0.2191286
40
0.1950618
50
16.1714718
51
43.5284424
0
ARC
8
DEFAULT_255_1_234
10
17.4268523
20
0.2268573
40
0.184134
50
43.4415429
51
83.1661404
0
ARC
8
DEFAULT_255_1_234
10
17.4134441
20
0.1531771
40
0.258926
50
82.160215
51
90.1505798
0
ARC
8
DEFAULT_255_1_234
10
17.4102869
20
0.0994865
40
0.3126255
50
89.5460705
51
102.5418777
0
ARC
8
DEFAULT_255_1_234
10
17.3859955
20
0.2025665
40
0.2067346
50
102.1739365
51
129.2061916
0
ARC
8
DEFAULT_255_1_234
10
17.3781026
20
0.2150094
40
0.1921118
50
129.7279328
51
135.7542026
0
ARC
8
DEFAULT_255_1_234
10
17.3902554
20
0.2053045
40
0.2075944
50
136.175737
51
166.3674722
0
ARC
8
DEFAULT_255_1_234
10
17.4909473
20
0.1783182
40
0.3118201
50
165.9092917
51
178.8683903
0
ARC
8
DEFAULT_255_1_234
10
17.5774335
20
0.1736179
40
0.3983935
50
178.438168
51
180.0083905
0
ARC
8
DEFAULT_255_1_234
10
17.4372937
20
0.1775231
40
0.4068601
50
163.2878735
51
180.5581814
0
ARC
8
DEFAULT_255_1_234
10
17.3571198
20
0.199584
40
0.3237344
50
133.454115
51
162.9470031
0
ARC
8
DEFAULT_255_1_234
10
17.3749739
20
0.1806
40
0.349795
50
100.7869394
51
133.4384016
0
ARC
8
DEFAULT_255_1_234
10
17.4097511
20
0.0257319
40
0.5084616
50
89.6605301
51
101.3704185
0
ARC
8
DEFAULT_255_1_234
10
17.416385
20
0.0318496
40
0.502348
50
78.2171172
51
90.4130393
0
ARC
8
DEFAULT_255_1_234
10
17.4518928
20
0.1942637
40
0.3361092
50
55.9268222
51
78.4888551
0
ARC
8
DEFAULT_255_1_234
10
17.4715368
20
0.2281324
40
0.2970617
50
47.9292255
51
55.4054003
0
ARC
8
DEFAULT_255_1_234
10
17.4816929
20
0.2384502
40
0.2825983
50
4.3347696
51
48.0560701
0
ARC
8
DEFAULT_255_1_234
10
17.3721322
20
0.2214601
40
0.393225
50
359.925209
51
5.5967654
0
ARC
8
DEFAULT_255_1_234
10
17.4150214
20
0.2270816
40
0.3503892
50
337.8914096
51
358.9967724
0
ARC
8
DEFAULT_255_1_234
10
17.1436626
20
0.3317706
40
0.6412172
50
326.9135351
51
338.3505194
0
ARC
8
DEFAULT_255_1_234
10
16.745093
20
0.5872284
40
1.1146189
50
319.6472867
51
327.095818
0
ARC
8
DEFAULT_255_1_234
10
16.3617933
20
0.9034
40
1.6114559
50
317.2586784
51
319.9046139
0
LINE
8
DEFAULT_255_1_234
10
18.3010739
20
-0.0938974
11
18.3010739
21
-0.2151766
0
LINE
8
DEFAULT_255_1_234
10
18.3010739
20
-0.2151766
11
17.909125
21
-0.2151766
0
LINE
8
DEFAULT_255_1_234
10
17.909125
20
-0.2151766
11
17.909125
21
-0.0938974
0
LINE
8
DEFAULT_255_1_234
10
17.909125
20
-0.0938974
11
18.3010739
21
-0.0938974
0
LINE
8
DEFAULT_255_1_234
10
19.1636826
20
0.0402327
11
19.1636826
21
-0.1525291
0
LINE
8
DEFAULT_255_1_234
10
18.4255658
20
-0.1726084
11
18.4255658
21
0.0257755
0
LINE
8
DEFAULT_255_1_234
10
19.0150954
20
-0.1926877
11
19.0150954
21
0.0506739
0
LINE
8
DEFAULT_255_1_234
10
18.574153
20
0.0619184
11
18.574153
21
-0.1758211
0
ARC
8
DEFAULT_255_1_234
10
17.9389715
20
-0.1574195
40
1.2247208
50
353.8441951
51
0.2287902
0
ARC
8
DEFAULT_255_1_234
10
18.4029219
20
-0.2092194
40
0.7578929
50
344.4934747
51
353.9765454
0
ARC
8
DEFAULT_255_1_234
10
18.7021809
20
-0.2943019
40
0.4467846
50
329.2803592
51
344.7472793
0
ARC
8
DEFAULT_255_1_234
10
18.8014634
20
-0.3487982
40
0.3336173
50
324.9352394
51
328.6160465
0
ARC
8
DEFAULT_255_1_234
10
18.8391743
20
-0.3751573
40
0.2876076
50
280.580143
51
324.9173126
0
ARC
8
DEFAULT_255_1_234
10
18.7990535
20
-0.2080901
40
0.4592847
50
269.5977311
51
281.6734359
0
ARC
8
DEFAULT_255_1_234
10
18.7918441
20
-0.2200827
40
0.4472986
50
256.6228859
51
270.51044
0
ARC
8
DEFAULT_255_1_234
10
18.7516419
20
-0.3749123
40
0.2873874
50
215.8618325
51
257.2788573
0
ARC
8
DEFAULT_255_1_234
10
18.853745
20
-0.3064023
40
0.4102928
50
197.9693508
51
215.2623606
0
ARC
8
DEFAULT_255_1_234
10
19.1022566
20
-0.2225291
40
0.6725652
50
187.8816417
51
198.2346507
0
ARC
8
DEFAULT_255_1_234
10
19.4980774
20
-0.1653921
40
1.0724845
50
180.8976217
51
188.0055519
0
ARC
8
DEFAULT_255_1_234
10
19.7780962
20
-0.1550223
40
1.3526448
50
180.7449369
51
181.1510016
0
ARC
8
DEFAULT_255_1_234
10
19.6203691
20
0.0306042
40
1.1948131
50
173.7675579
51
180.231553
0
ARC
8
DEFAULT_255_1_234
10
19.1685838
20
0.0816666
40
0.7401564
50
164.3058563
51
173.9002247
0
ARC
8
DEFAULT_255_1_234
10
18.8773907
20
0.1655656
40
0.4371288
50
148.7922025
51
164.568378
0
ARC
8
DEFAULT_255_1_234
10
18.7822359
20
0.2186929
40
0.3282386
50
144.5883898
51
148.1176286
0
ARC
8
DEFAULT_255_1_234
10
18.7479257
20
0.2426315
40
0.2864044
50
101.6440918
51
144.514236
0
ARC
8
DEFAULT_255_1_234
10
18.7904324
20
0.0737069
40
0.4604934
50
89.5284041
51
102.5819763
0
ARC
8
DEFAULT_255_1_234
10
18.7983411
20
0.0698018
40
0.464401
50
77.0437873
51
90.5081339
0
ARC
8
DEFAULT_255_1_234
10
18.8385413
20
0.2340615
40
0.2953195
50
48.2778575
51
77.4994676
0
ARC
8
DEFAULT_255_1_234
10
18.8458045
20
0.2469746
40
0.2808655
50
36.3142134
51
47.6305865
0
ARC
8
DEFAULT_255_1_234
10
18.7589351
20
0.1884515
40
0.3855453
50
18.2931786
51
35.6769206
0
ARC
8
DEFAULT_255_1_234
10
18.504611
20
0.1011593
40
0.654423
50
8.024666
51
18.5605216
0
ARC
8
DEFAULT_255_1_234
10
18.088303
20
0.0396792
40
1.0752407
50
1.1274072
51
8.1718305
0
ARC
8
DEFAULT_255_1_234
10
17.7647221
20
0.0269885
40
1.3990231
50
0.5424119
51
1.3863029
0
ARC
8
DEFAULT_255_1_234
10
17.9468599
20
0.0542342
40
1.0682415
50
359.8090433
51
4.9407866
0
ARC
8
DEFAULT_255_1_234
10
18.3678613
20
0.0918113
40
0.6455691
50
4.8362157
51
12.2904523
0
ARC
8
DEFAULT_255_1_234
10
18.6433728
20
0.1531965
40
0.3633074
50
12.0805627
51
23.8173984
0
ARC
8
DEFAULT_255_1_234
10
18.7607433
20
0.2028919
40
0.2358723
50
24.2871213
51
31.3935614
0
ARC
8
DEFAULT_255_1_234
10
18.813213
20
0.2372233
40
0.1732111
50
30.7407893
51
82.4657128
0
ARC
8
DEFAULT_255_1_234
10
18.7952264
20
0.1488691
40
0.263235
50
81.1060089
51
90.2184952
0
ARC
8
DEFAULT_255_1_234
10
18.7916563
20
0.1746924
40
0.2374236
50
89.3806855
51
105.6762551
0
ARC
8
DEFAULT_255_1_234
10
18.7733194
20
0.2413567
40
0.1682847
50
105.7981136
51
149.7388061
0
ARC
8
DEFAULT_255_1_234
10
18.8797272
20
0.177395
40
0.2924306
50
149.4208916
51
163.6286378
0
ARC
8
DEFAULT_255_1_234
10
19.088816
20
0.113625
40
0.5110213
50
163.3763315
51
172.1410975
0
ARC
8
DEFAULT_255_1_234
10
19.4188879
20
0.0663518
40
0.8444586
50
172.0259487
51
178.0703232
0
ARC
8
DEFAULT_255_1_234
10
19.7218969
20
0.0519906
40
1.1477868
50
177.8631668
51
179.5044149
0
ARC
8
DEFAULT_255_1_234
10
19.6146373
20
-0.1794611
40
1.0404907
50
179.7995573
51
185.2460446
0
ARC
8
DEFAULT_255_1_234
10
19.2103413
20
-0.2177487
40
0.6343885
50
185.1411642
51
193.0079639
0
ARC
8
DEFAULT_255_1_234
10
18.9459885
20
-0.2802359
40
0.3627568
50
192.7897626
51
205.2507664
0
ARC
8
DEFAULT_255_1_234
10
18.8413432
20
-0.3269585
40
0.2481908
50
205.8005384
51
211.2537509
0
ARC
8
DEFAULT_255_1_234
10
18.7889873
20
-0.362042
40
0.1852521
50
210.3789793
51
238.4008143
0
ARC
8
DEFAULT_255_1_234
10
18.7870394
20
-0.3573624
40
0.1882621
50
239.6520629
51
265.9793761
0
ARC
8
DEFAULT_255_1_234
10
18.7955595
20
-0.2901573
40
0.2559272
50
265.1315437
51
270.060332
0
ARC
8
DEFAULT_255_1_234
10
18.7984373
20
-0.3225466
40
0.2235528
50
269.3314664
51
287.2178029
0
ARC
8
DEFAULT_255_1_234
10
18.8122225
20
-0.3728721
40
0.1714108
50
287.7958004
51
329.080874
0
ARC
8
DEFAULT_255_1_234
10
18.7164682
20
-0.313107
40
0.2842745
50
328.6634704
51
343.3325132
0
ARC
8
DEFAULT_255_1_234
10
18.4991702
20
-0.2454137
40
0.5118644
50
343.0499468
51
351.9393422
0
ARC
8
DEFAULT_255_1_234
10
18.1525002
20
-0.1943051
40
0.8622784
50
351.8069023
51
357.7959224
0
ARC
8
DEFAULT_255_1_234
10
17.8289558
20
-0.1775279
40
1.1862365
50
357.5871873
51
359.2677531
0
LINE
8
DEFAULT_255_1_234
10
20.14998
20
-0.6513
11
20.0383389
21
-0.3460939
0
LINE
8
DEFAULT_255_1_234
10
20.0383389
20
-0.3460939
11
19.5484028
21
-0.3460939
0
LINE
8
DEFAULT_255_1_234
10
19.5484028
20
-0.3460939
11
19.438368
21
-0.6513
0
LINE
8
DEFAULT_255_1_234
10
19.438368
20
-0.6513
11
19.2793396
21
-0.6513
0
LINE
8
DEFAULT_255_1_234
10
19.2793396
20
-0.6513
11
19.7259042
21
0.5181211
0
LINE
8
DEFAULT_255_1_234
10
19.7259042
20
0.5181211
11
19.8608375
21
0.5181211
0
LINE
8
DEFAULT_255_1_234
10
19.8608375
20
0.5181211
11
20.3082053
21
-0.6513
0
LINE
8
DEFAULT_255_1_234
10
20.3082053
20
-0.6513
11
20.14998
21
-0.6513
0
LINE
8
DEFAULT_255_1_234
10
19.7933708
20
0.3277689
11
19.5949869
21
-0.2191925
0
LINE
8
DEFAULT_255_1_234
10
19.5949869
20
-0.2191925
11
19.992558
21
-0.2191925
0
LINE
8
DEFAULT_255_1_234
10
19.992558
20
-0.2191925
11
19.7933708
21
0.3277689
0
LINE
8
DEFAULT_255_1_234
10
20.8712301
20
-0.6513
11
20.4656273
21
-0.6513
0
LINE
8
DEFAULT_255_1_234
10
20.4656273
20
-0.6513
11
20.4656273
21
0.5181211
0
LINE
8
DEFAULT_255_1_234
10
20.4656273
20
0.5181211
11
20.8479381
21
0.5181211
0
LINE
8
DEFAULT_255_1_234
10
20.8768523
20
-0.1043386
11
20.6198367
21
-0.1043386
0
LINE
8
DEFAULT_255_1_234
10
20.6198367
20
-0.1043386
11
20.6198367
21
-0.5252017
0
LINE
8
DEFAULT_255_1_234
10
20.6198367
20
-0.5252017
11
20.8744428
21
-0.5252017
0
LINE
8
DEFAULT_255_1_234
10
20.6198367
20
0.3912196
11
20.6198367
21
0.0193501
0
LINE
8
DEFAULT_255_1_234
10
20.6198367
20
0.0193501
11
20.8527571
21
0.0193501
0
LINE
8
DEFAULT_255_1_234
10
20.8479381
20
0.3912196
11
20.6198367
21
0.3912196
0
ARC
8
DEFAULT_255_1_234
10
20.851709
20
-0.2186099
40
0.7367406
50
82.1257326
51
90.2932599
0
ARC
8
DEFAULT_255_1_234
10
20.8906044
20
0.0532013
40
0.4621653
50
69.9044149
51
82.2857423
0
ARC
8
DEFAULT_255_1_234
10
20.9476722
20
0.2074637
40
0.2976871
50
51.1838526
51
70.0181538
0
ARC
8
DEFAULT_255_1_234
10
20.9731688
20
0.244524
40
0.2528517
50
12.1017251
51
50.4214761
0
ARC
8
DEFAULT_255_1_234
10
20.8347562
20
0.2097676
40
0.3955061
50
359.5251267
51
12.8211707
0
ARC
8
DEFAULT_255_1_234
10
20.9927489
20
0.2028344
40
0.2375281
50
323.4908128
51
0.8817314
0
ARC
8
DEFAULT_255_1_234
10
20.9509176
20
0.235155
40
0.2903817
50
298.6825083
51
323.2756573
0
ARC
8
DEFAULT_255_1_234
10
20.9147539
20
0.2952649
40
0.3604842
50
293.1999386
51
299.1396394
0
ARC
8
DEFAULT_255_1_234
10
20.9820511
20
-0.3132874
40
0.2871098
50
54.0011765
51
74.9167975
0
ARC
8
DEFAULT_255_1_234
10
20.9936871
20
-0.2935668
40
0.2643248
50
36.3580696
51
53.5291921
0
ARC
8
DEFAULT_255_1_234
10
20.9810113
20
-0.3026002
40
0.2798884
50
4.8189881
51
36.3089977
0
ARC
8
DEFAULT_255_1_234
10
20.9030948
20
-0.313573
40
0.358478
50
359.9370252
51
5.5204067
0
ARC
8
DEFAULT_255_1_234
10
20.8706469
20
-0.3176333
40
0.3909429
50
344.7478609
51
0.5373281
0
ARC
8
DEFAULT_255_1_234
10
20.9697441
20
-0.3443456
40
0.2883093
50
311.1786488
51
344.6886812
0
ARC
8
DEFAULT_255_1_234
10
20.9405488
20
-0.3080013
40
0.3348923
50
286.0418249
51
310.8441291
0
ARC
8
DEFAULT_255_1_234
10
20.889832
20
-0.1433193
40
0.5071869
50
274.1042341
51
286.4071509
0
ARC
8
DEFAULT_255_1_234
10
20.8721576
20
0.0450229
40
0.6963234
50
269.9236873
51
274.445647
0
ARC
8
DEFAULT_255_1_234
10
20.8767576
20
-0.1889463
40
0.3362634
50
269.6055768
51
281.3740047
0
ARC
8
DEFAULT_255_1_234
10
20.8998214
20
-0.2982647
40
0.224546
50
281.1055983
51
302.5132223
0
ARC
8
DEFAULT_255_1_234
10
20.9145114
20
-0.3246177
40
0.1944357
50
303.0368945
51
311.8811219
0
ARC
8
DEFAULT_255_1_234
10
20.921652
20
-0.333111
40
0.1833454
50
311.9916004
51
351.7143462
0
ARC
8
DEFAULT_255_1_234
10
20.839975
20
-0.316607
40
0.2665871
50
350.7339597
51
0.2221581
0
ARC
8
DEFAULT_255_1_234
10
20.8292196
20
-0.3109533
40
0.2773789
50
359.0456241
51
17.2296242
0
ARC
8
DEFAULT_255_1_234
10
20.9331314
20
-0.2800837
40
0.1689915
50
17.6685481
51
78.9940892
0
ARC
8
DEFAULT_255_1_234
10
20.8814477
20
-0.4655776
40
0.3612658
50
76.5635957
51
90.6980921
0
LINE
8
DEFAULT_255_1_234
10
20.8770462
20
-0.1043387
11
20.8768523
21
-0.1043386
0
ARC
8
DEFAULT_255_1_234
10
20.8550138
20
0.3479036
40
0.3285612
50
269.6064736
51
281.4533503
0
ARC
8
DEFAULT_255_1_234
10
20.8772957
20
0.2427688
40
0.2210975
50
281.2041486
51
302.5148063
0
ARC
8
DEFAULT_255_1_234
10
20.8909807
20
0.2181241
40
0.1929674
50
303.021671
51
309.8369575
0
ARC
8
DEFAULT_255_1_234
10
20.9093269
20
0.1975488
40
0.1654181
50
309.5228395
51
356.9509836
0
ARC
8
DEFAULT_255_1_234
10
20.8429851
20
0.2070932
40
0.2322512
50
355.4701227
51
0.0492546
0
ARC
8
DEFAULT_255_1_234
10
20.8150943
20
0.2093094
40
0.2601498
50
359.5558597
51
11.2096359
0
ARC
8
DEFAULT_255_1_234
10
20.9108232
20
0.229123
40
0.1623975
50
10.9182341
51
31.3230275
0
ARC
8
DEFAULT_255_1_234
10
20.9393966
20
0.2450214
40
0.1297302
50
31.8852677
51
52.1412565
0
ARC
8
DEFAULT_255_1_234
10
20.9119699
20
0.206275
40
0.1771663
50
52.8285564
51
71.9850297
0
ARC
8
DEFAULT_255_1_234
10
20.8743875
20
0.0956664
40
0.2939794
50
71.6863486
51
82.8455995
0
ARC
8
DEFAULT_255_1_234
10
20.8504411
20
-0.0852851
40
0.476506
50
82.6984714
51
90.1729175
0
ARC
8
DEFAULT_255_1_234
10
20.8482046
20
0.0370623
40
0.3541573
50
89.8708275
51
90.0431131
0
LINE
8
DEFAULT_255_1_234
10
22.1844193
20
0.0402327
11
22.1844193
21
-0.1525291
0
LINE
8
DEFAULT_255_1_234
10
21.4463026
20
-0.1726084
11
21.4463026
21
0.0257755
0
LINE
8
DEFAULT_255_1_234
10
22.0358322
20
-0.1926877
11
22.0358322
21
0.0506739
0
LINE
8
DEFAULT_255_1_234
10
21.5948897
20
0.0619184
11
21.5948897
21
-0.1758211
0
ARC
8
DEFAULT_255_1_234
10
20.9597083
20
-0.1574195
40
1.2247208
50
353.8441951
51
0.2287902
0
ARC
8
DEFAULT_255_1_234
10
21.4236587
20
-0.2092194
40
0.7578929
50
344.4934747
51
353.9765454
0
ARC
8
DEFAULT_255_1_234
10
21.7229177
20
-0.2943019
40
0.4467846
50
329.2803592
51
344.7472793
0
ARC
8
DEFAULT_255_1_234
10
21.8222002
20
-0.3487982
40
0.3336173
50
324.9352394
51
328.6160465
0
ARC
8
DEFAULT_255_1_234
10
21.859911
20
-0.3751573
40
0.2876076
50
280.580143
51
324.9173126
0
ARC
8
DEFAULT_255_1_234
10
21.8197903
20
-0.2080901
40
0.4592847
50
269.5977311
51
281.6734359
0
ARC
8
DEFAULT_255_1_234
10
21.8125809
20
-0.2200827
40
0.4472986
50
256.6228859
51
270.51044
0
ARC
8
DEFAULT_255_1_234
10
21.7723786
20
-0.3749123
40
0.2873874
50
215.8618325
51
257.2788573
0
ARC
8
DEFAULT_255_1_234
10
21.8744818
20
-0.3064023
40
0.4102928
50
197.9693508
51
215.2623606
0
ARC
8
DEFAULT_255_1_234
10
22.1229934
20
-0.2225291
40
0.6725652
50
187.8816417
51
198.2346507
0
ARC
8
DEFAULT_255_1_234
10
22.5188142
20
-0.1653921
40
1.0724845
50
180.8976217
51
188.0055519
0
ARC
8
DEFAULT_255_1_234
10
22.798833
20
-0.1550223
40
1.3526448
50
180.7449369
51
181.1510016
0
ARC
8
DEFAULT_255_1_234
10
22.6411059
20
0.0306042
40
1.1948131
50
173.7675579
51
180.231553
0
ARC
8
DEFAULT_255_1_234
10
22.1893206
20
0.0816666
40
0.7401564
50
164.3058563
51
173.9002247
0
ARC
8
DEFAULT_255_1_234
10
21.8981275
20
0.1655656
40
0.4371288
50
148.7922025
51
164.568378
0
ARC
8
DEFAULT_255_1_234
10
21.8029727
20
0.2186929
40
0.3282386
50
144.5883898
51
148.1176286
0
ARC
8
DEFAULT_255_1_234
10
21.7686625
20
0.2426315
40
0.2864044
50
101.6440918
51
144.514236
0
ARC
8
DEFAULT_255_1_234
10
21.8111691
20
0.0737069
40
0.4604934
50
89.5284041
51
102.5819763
0
ARC
8
DEFAULT_255_1_234
10
21.8190779
20
0.0698018
40
0.464401
50
77.0437873
51
90.5081339
0
ARC
8
DEFAULT_255_1_234
10
21.8592781
20
0.2340615
40
0.2953195
50
48.2778575
51
77.4994676
0
ARC
8
DEFAULT_255_1_234
10
21.8665412
20
0.2469746
40
0.2808655
50
36.3142134
51
47.6305865
0
ARC
8
DEFAULT_255_1_234
10
21.7796719
20
0.1884515
40
0.3855453
50
18.2931786
51
35.6769206
0
ARC
8
DEFAULT_255_1_234
10
21.5253478
20
0.1011593
40
0.654423
50
8.024666
51
18.5605216
0
ARC
8
DEFAULT_255_1_234
10
21.1090398
20
0.0396792
40
1.0752407
50
1.1274072
51
8.1718305
0
ARC
8
DEFAULT_255_1_234
10
20.7854589
20
0.0269885
40
1.3990231
50
0.5424119
51
1.3863029
0
ARC
8
DEFAULT_255_1_234
10
20.9675966
20
0.0542342
40
1.0682415
50
359.8090433
51
4.9407866
0
ARC
8
DEFAULT_255_1_234
10
21.388598
20
0.0918113
40
0.6455691
50
4.8362157
51
12.2904523
0
ARC
8
DEFAULT_255_1_234
10
21.6641095
20
0.1531965
40
0.3633074
50
12.0805627
51
23.8173984
0
ARC
8
DEFAULT_255_1_234
10
21.7814801
20
0.2028919
40
0.2358723
50
24.2871213
51
31.3935614
0
ARC
8
DEFAULT_255_1_234
10
21.8339498
20
0.2372233
40
0.1732111
50
30.7407893
51
82.4657128
0
ARC
8
DEFAULT_255_1_234
10
21.8159632
20
0.1488691
40
0.263235
50
81.1060089
51
90.2184952
0
ARC
8
DEFAULT_255_1_234
10
21.8123931
20
0.1746924
40
0.2374236
50
89.3806855
51
105.6762551
0
ARC
8
DEFAULT_255_1_234
10
21.7940562
20
0.2413567
40
0.1682847
50
105.7981136
51
149.7388061
0
ARC
8
DEFAULT_255_1_234
10
21.900464
20
0.177395
40
0.2924306
50
149.4208916
51
163.6286378
0
ARC
8
DEFAULT_255_1_234
10
22.1095528
20
0.113625
40
0.5110213
50
163.3763315
51
172.1410975
0
ARC
8
DEFAULT_255_1_234
10
22.4396247
20
0.0663518
40
0.8444586
50
172.0259487
51
178.0703232
0
ARC
8
DEFAULT_255_1_234
10
22.7426336
20
0.0519906
40
1.1477868
50
177.8631668
51
179.5044149
0
ARC
8
DEFAULT_255_1_234
10
22.6353741
20
-0.1794611
40
1.0404907
50
179.7995573
51
185.2460446
0
ARC
8
DEFAULT_255_1_234
10
22.231078
20
-0.2177487
40
0.6343885
50
185.1411642
51
193.0079639
0
ARC
8
DEFAULT_255_1_234
10
21.9667253
20
-0.2802359
40
0.3627568
50
192.7897626
51
205.2507664
0
ARC
8
DEFAULT_255_1_234
10
21.86208
20
-0.3269585
40
0.2481908
50
205.8005384
51
211.2537509
0
ARC
8
DEFAULT_255_1_234
10
21.809724
20
-0.362042
40
0.1852521
50
210.3789793
51
238.4008143
0
ARC
8
DEFAULT_255_1_234
10
21.8077762
20
-0.3573624
40
0.1882621
50
239.6520629
51
265.9793761
0
ARC
8
DEFAULT_255_1_234
10
21.8162962
20
-0.2901573
40
0.2559272
50
265.1315437
51
270.060332
0
ARC
8
DEFAULT_255_1_234
10
21.8191741
20
-0.3225466
40
0.2235528
50
269.3314664
51
287.2178029
0
ARC
8
DEFAULT_255_1_234
10
21.8329593
20
-0.3728721
40
0.1714108
50
287.7958004
51
329.080874
0
ARC
8
DEFAULT_255_1_234
10
21.737205
20
-0.313107
40
0.2842745
50
328.6634704
51
343.3325132
0
ARC
8
DEFAULT_255_1_234
10
21.519907
20
-0.2454137
40
0.5118644
50
343.0499468
51
351.9393422
0
ARC
8
DEFAULT_255_1_234
10
21.173237
20
-0.1943051
40
0.8622784
50
351.8069023
51
357.7959224
0
ARC
8
DEFAULT_255_1_234
10
20.8496926
20
-0.1775279
40
1.1862365
50
357.5871873
51
359.2677531
0
ARC
8
DEFAULT_255_2_778
10
7.7537338
20
99.9637992
40
3.0484709
50
251.6854144
51
258.6071955
0
ARC
8
DEFAULT_255_2_778
10
7.539521
20
98.8821738
40
1.9458471
50
258.4992492
51
268.3986479
0
ARC
8
DEFAULT_255_2_778
10
7.5172314
20
98.4519206
40
1.5151737
50
268.7865272
51
269.9950384
0
ARC
8
DEFAULT_255_2_778
10
7.5277432
20
98.0007355
40
1.0640417
50
269.426895
51
279.6711067
0
ARC
8
DEFAULT_255_2_778
10
7.6417753
20
97.3711746
40
0.4243233
50
278.7731084
51
300.3324923
0
ARC
8
DEFAULT_255_2_778
10
7.760746
20
97.1685552
40
0.1893587
50
300.2240287
51
1.9041213
0
ARC
8
DEFAULT_255_2_778
10
7.7452705
20
97.1777089
40
0.2047497
50
359.1991369
51
359.99965
0
ARC
8
DEFAULT_255_2_778
10
7.7523233
20
97.1785378
40
0.1976988
50
359.7594145
51
47.1793976
0
ARC
8
DEFAULT_255_2_778
10
7.6187277
20
97.029931
40
0.3975169
50
47.6144502
51
60.8366176
0
ARC
8
DEFAULT_255_2_778
10
7.0190958
20
96.0139865
40
1.5771337
50
59.799464
51
64.8885807
0
ARC
8
DEFAULT_255_2_778
10
6.0948833
20
94.0849682
40
3.7160912
50
64.6076081
51
66.8386974
0
ARC
8
DEFAULT_255_2_778
10
9.6419609
20
102.4480052
40
5.368109
50
244.3032309
51
247.1393781
0
ARC
8
DEFAULT_255_2_778
10
8.5507088
20
100.188018
40
2.8584574
50
240.2323579
51
244.3709759
0
ARC
8
DEFAULT_255_2_778
10
7.7800475
20
98.8511591
40
1.315392
50
233.2209971
51
240.4606284
0
ARC
8
DEFAULT_255_2_778
10
7.3561477
20
98.2800187
40
0.6041399
50
225.6990744
51
232.9899679
0
ARC
8
DEFAULT_255_2_778
10
7.3965073
20
98.3044214
40
0.6499005
50
178.2783416
51
224.6550883
0
ARC
8
DEFAULT_255_2_778
10
7.5059624
20
98.3377974
40
0.7591885
50
157.033673
51
181.0453383
0
ARC
8
DEFAULT_255_2_778
10
7.378439
20
98.3786396
40
0.6259551
50
124.9113017
51
155.9211516
0
ARC
8
DEFAULT_255_2_778
10
7.5960466
20
98.0700681
40
1.0035357
50
100.4079723
51
125.0168617
0
ARC
8
DEFAULT_255_2_778
10
7.6991199
20
97.5760046
40
1.5081396
50
89.6483922
51
100.8684975
0
ARC
8
DEFAULT_255_2_778
10
7.7083242
20
97.2237988
40
1.8603169
50
89.5079487
51
89.9984402
0
ARC
8
DEFAULT_255_2_778
10
7.7099573
20
97.1585694
40
1.9255311
50
83.9170631
51
89.5732113
0
ARC
8
DEFAULT_255_2_778
10
7.5071517
20
95.1509957
40
3.9433074
50
80.7325723
51
84.0779772
0
ARC
8
DEFAULT_255_2_778
10
7.0208457
20
92.128082
40
7.0050837
50
78.5086351
51
80.7886813
0
ARC
8
DEFAULT_255_2_778
10
7.6620177
20
96.7275544
40
1.9415426
50
67.135818
51
78.0934208
0
ARC
8
DEFAULT_255_2_778
10
7.7851814
20
97.2979809
40
1.3579807
50
78.2126325
51
89.7333975
0
ARC
8
DEFAULT_255_2_778
10
7.7793853
20
97.7131211
40
0.9429038
50
89.2638155
51
100.5666868
0
ARC
8
DEFAULT_255_2_778
10
7.6660949
20
98.2829419
40
0.362036
50
99.4784875
51
124.329414
0
ARC
8
DEFAULT_255_2_778
10
7.5705593
20
98.431051
40
0.1859067
50
125.7571195
51
182.2824883
0
ARC
8
DEFAULT_255_2_778
10
7.5493239
20
98.4243629
40
0.1645253
50
180.2492993
51
239.8144161
0
ARC
8
DEFAULT_255_2_778
10
7.932718
20
99.0244128
40
0.876484
50
237.8725734
51
242.8068846
0
ARC
8
DEFAULT_255_2_778
10
9.4175857
20
101.8409958
40
4.0604642
50
242.3328458
51
244.031083
0
ARC
8
DEFAULT_255_2_778
10
12.3804066
20
107.8894314
40
10.7955807
50
243.950624
51
244.8024316
0
ARC
8
DEFAULT_255_2_778
10
15.4009918
20
114.2734175
40
17.8580926
50
244.7535425
51
244.9563234
0
ARC
8
DEFAULT_255_2_778
10
5.8652927
20
93.7718264
40
4.7527588
50
62.2505456
51
65.4301556
0
ARC
8
DEFAULT_255_2_778
10
6.9275435
20
95.7799172
40
2.4810291
50
57.2951304
51
62.3684211
0
ARC
8
DEFAULT_255_2_778
10
7.6807233
20
96.9432235
40
1.0952081
50
48.7345704
51
57.5685367
0
ARC
8
DEFAULT_255_2_778
10
8.0117486
20
97.3307722
40
0.5856147
50
44.3236031
51
48.0704418
0
ARC
8
DEFAULT_255_2_778
10
7.9783002
20
97.3107468
40
0.6236013
50
1.3523843
51
43.4925744
0
ARC
8
DEFAULT_255_2_778
10
7.7103531
20
97.2778151
40
0.8926473
50
359.9763756
51
3.0599076
0
ARC
8
DEFAULT_255_2_778
10
7.8645343
20
97.2627407
40
0.7386124
50
333.0361889
51
1.1408766
0
ARC
8
DEFAULT_255_2_778
10
7.8947908
20
97.2696919
40
0.7150741
50
300.8430083
51
331.4403095
0
ARC
8
DEFAULT_255_2_778
10
7.694568
20
97.5832162
40
1.0869673
50
281.4258583
51
301.4316118
0
ARC
8
DEFAULT_255_2_778
10
7.5632666
20
98.1914414
40
1.7091691
50
270.2273513
51
281.7010805
0
ARC
8
DEFAULT_255_2_778
10
7.5453797
20
98.6681043
40
2.1859577
50
269.9983113
51
270.6466065
0
LINE
8
DEFAULT_255_2_778
10
7.5453153
20
96.4821465
11
7.5438002
21
96.482147
0
ARC
8
DEFAULT_255_2_778
10
7.5509161
20
99.6650969
40
3.1829579
50
256.2431122
51
269.871909
0
ARC
8
DEFAULT_255_2_778
10
21.7538511
20
99.8896629
40
2.9720345
50
251.5709223
51
258.7508181
0
ARC
8
DEFAULT_255_2_778
10
21.5538128
20
98.8664385
40
1.9294488
50
258.6495077
51
268.8281511
0
ARC
8
DEFAULT_255_2_778
10
21.5355488
20
98.4716193
40
1.5343723
50
269.2085037
51
269.9981866
0
ARC
8
DEFAULT_255_2_778
10
21.5473849
20
98.0032184
40
1.0660376
50
269.3612297
51
279.5899087
0
ARC
8
DEFAULT_255_2_778
10
21.6608439
20
97.3717324
40
0.424527
50
278.6895227
51
300.2363944
0
ARC
8
DEFAULT_255_2_778
10
21.7799083
20
97.1682793
40
0.188796
50
300.1108484
51
1.9024905
0
ARC
8
DEFAULT_255_2_778
10
21.7439577
20
97.1789221
40
0.2246851
50
358.8842611
51
0.0019649
0
ARC
8
DEFAULT_255_2_778
10
21.7769791
20
97.1828385
40
0.1917038
50
358.831716
51
47.0900458
0
ARC
8
DEFAULT_255_2_778
10
21.6364654
20
97.023484
40
0.4041259
50
47.8812665
51
61.174665
0
ARC
8
DEFAULT_255_2_778
10
21.0418848
20
96.0035117
40
1.5846568
50
60.1210877
51
65.1917015
0
ARC
8
DEFAULT_255_2_778
10
20.1415278
20
94.0979122
40
3.6922188
50
64.9168629
51
67.1565628
0
ARC
8
DEFAULT_255_2_778
10
23.6275467
20
102.3694888
40
5.2839333
50
244.2656926
51
247.1407051
0
ARC
8
DEFAULT_255_2_778
10
22.5594997
20
100.161265
40
2.8309849
50
240.1545061
51
244.3326325
0
ARC
8
DEFAULT_255_2_778
10
21.7856548
20
98.8252346
40
1.2870531
50
232.697515
51
240.4357497
0
ARC
8
DEFAULT_255_2_778
10
21.3705506
20
98.2742218
40
0.5972006
50
225.5850892
51
232.3393736
0
ARC
8
DEFAULT_255_2_778
10
21.4133941
20
98.3037933
40
0.6483829
50
178.7795739
51
224.7095916
0
ARC
8
DEFAULT_255_2_778
10
21.6669319
20
98.3278135
40
0.9018316
50
179.997867
51
180.6487041
0
ARC
8
DEFAULT_255_2_778
10
21.5167738
20
98.3416249
40
0.7517998
50
156.9195758
51
181.050088
0
ARC
8
DEFAULT_255_2_778
10
21.3928482
20
98.3810712
40
0.6224513
50
124.7111133
51
155.7879672
0
ARC
8
DEFAULT_255_2_778
10
21.6055459
20
98.0891942
40
0.9835402
50
101.7934503
51
125.2143527
0
ARC
8
DEFAULT_255_2_778
10
21.729848
20
97.5366326
40
1.5498677
50
89.5248728
51
102.1166783
0
ARC
8
DEFAULT_255_2_778
10
21.7283109
20
96.9830834
40
2.1034129
50
83.2889725
51
89.6080411
0
ARC
8
DEFAULT_255_2_778
10
21.529975
20
95.2152668
40
3.8823067
50
79.4764054
51
83.4308492
0
ARC
8
DEFAULT_255_2_778
10
21.2186357
20
93.4620673
40
5.6628977
50
78.2224868
51
79.6190915
0
ARC
8
DEFAULT_255_2_778
10
21.6838473
20
96.7395715
40
1.9311543
50
67.1323814
51
78.3148813
0
ARC
8
DEFAULT_255_2_778
10
21.801359
20
97.2910614
40
1.3672981
50
78.4565774
51
89.7552271
0
ARC
8
DEFAULT_255_2_778
10
21.7951366
20
97.721947
40
0.9364778
50
89.2619009
51
100.5950934
0
ARC
8
DEFAULT_255_2_778
10
21.6824182
20
98.2874169
40
0.3599879
50
99.5087086
51
124.406715
0
ARC
8
DEFAULT_255_2_778
10
21.5878565
20
98.433843
40
0.1858061
50
125.8630185
51
182.2986975
0
ARC
8
DEFAULT_255_2_778
10
21.5497296
20
98.4263047
40
0.1475296
50
179.9666559
51
180.100057
0
ARC
8
DEFAULT_255_2_778
10
21.566185
20
98.426293
40
0.163985
50
180.0859454
51
239.8819968
0
ARC
8
DEFAULT_255_2_778
10
21.9379018
20
99.0130619
40
0.8584853
50
238.072871
51
243.0442008
0
ARC
8
DEFAULT_255_2_778
10
23.4872034
20
101.9780845
40
4.2038426
50
242.5409111
51
244.1884903
0
ARC
8
DEFAULT_255_2_778
10
26.6463384
20
108.472696
40
11.4260319
50
244.1076525
51
244.9219574
0
ARC
8
DEFAULT_255_2_778
10
29.9038827
20
115.396355
40
19.0777309
50
244.8743531
51
245.066969
0
ARC
8
DEFAULT_255_2_778
10
19.8865272
20
93.8041274
40
4.7250654
50
62.0340028
51
65.293009
0
ARC
8
DEFAULT_255_2_778
10
20.9507744
20
95.7990758
40
2.464003
50
57.1127289
51
62.13736
0
ARC
8
DEFAULT_255_2_778
10
21.7037139
20
96.9527906
40
1.0863604
50
48.3695509
51
57.4197129
0
ARC
8
DEFAULT_255_2_778
10
22.0286268
20
97.3295419
40
0.5889589
50
44.472493
51
47.6467012
0
ARC
8
DEFAULT_255_2_778
10
21.9979457
20
97.3124032
40
0.6229283
50
1.2061613
51
43.6203607
0
ARC
8
DEFAULT_255_2_778
10
21.7312413
20
97.2799903
40
0.890659
50
359.9779196
51
2.9299178
0
ARC
8
DEFAULT_255_2_778
10
21.8802547
20
97.2648837
40
0.7417924
50
333.172934
51
1.140392
0
ARC
8
DEFAULT_255_2_778
10
21.9146167
20
97.2695736
40
0.7135172
50
300.9808035
51
331.5913995
0
ARC
8
DEFAULT_255_2_778
10
21.7182603
20
97.5794862
40
1.0803281
50
281.9040909
51
301.4483918
0
ARC
8
DEFAULT_255_2_778
10
21.5848425
20
98.1780518
40
1.6935565
50
270.5796874
51
282.1436175
0
ARC
8
DEFAULT_255_2_778
10
21.5636722
20
98.6729735
40
2.1887267
50
269.9959074
51
271.0027751
0
LINE
8
DEFAULT_255_2_778
10
21.5635158
20
96.4842468
11
21.5625002
21
96.484247
0
ARC
8
DEFAULT_255_2_778
10
21.5700221
20
99.6730174
40
3.1887792
50
256.2556596
51
269.8648469
0
LINE
8
DEFAULT_255_2_778
10
6.7958002
20
96.575047
11
6.7958002
21
97.069747
0
LINE
8
DEFAULT_255_2_778
10
8.4164002
20
98.992747
11
8.4164002
21
98.516547
0
LINE
8
DEFAULT_255_2_778
10
6.7940002
20
96.573447
11
6.7958002
21
96.575047
0
LINE
8
DEFAULT_255_2_778
10
8.9866002
20
99.042247
11
9.6629002
21
99.042247
0
LINE
8
DEFAULT_255_2_778
10
9.6629002
20
99.042247
11
9.6629002
21
96.534847
0
LINE
8
DEFAULT_255_2_778
10
9.6629002
20
96.534847
11
8.9866002
21
96.534847
0
LINE
8
DEFAULT_255_2_778
10
8.9866002
20
96.534847
11
8.9866002
21
99.042247
0
LINE
8
DEFAULT_255_2_778
10
10.2809002
20
96.534847
11
10.2809002
21
99.042247
0
LINE
8
DEFAULT_255_2_778
10
10.2809002
20
99.042247
11
12.0132002
21
99.042247
0
LINE
8
DEFAULT_255_2_778
10
12.0132002
20
99.042247
11
12.0132002
21
98.588547
0
LINE
8
DEFAULT_255_2_778
10
12.0132002
20
98.588547
11
10.9321002
21
98.588547
0
LINE
8
DEFAULT_255_2_778
10
10.9321002
20
98.588547
11
10.9321002
21
98.022247
0
LINE
8
DEFAULT_255_2_778
10
10.9321002
20
98.022247
11
11.8735002
21
98.022247
0
LINE
8
DEFAULT_255_2_778
10
11.8735002
20
98.022247
11
11.8735002
21
97.608747
0
LINE
8
DEFAULT_255_2_778
10
11.8735002
20
97.608747
11
10.9321002
21
97.608747
0
LINE
8
DEFAULT_255_2_778
10
10.9321002
20
97.608747
11
10.9321002
21
97.013447
0
LINE
8
DEFAULT_255_2_778
10
10.9321002
20
97.013447
11
12.0412002
21
97.013447
0
LINE
8
DEFAULT_255_2_778
10
12.0412002
20
97.013447
11
12.0412002
21
96.533247
0
LINE
8
DEFAULT_255_2_778
10
12.0412002
20
96.533247
11
10.2809002
21
96.534847
0
LINE
8
DEFAULT_255_2_778
10
12.4817002
20
96.534847
11
12.4817002
21
99.042247
0
LINE
8
DEFAULT_255_2_778
10
12.4817002
20
99.042247
11
13.3575002
21
99.042247
0
LINE
8
DEFAULT_255_2_778
10
13.3575002
20
99.042247
11
13.9671002
21
97.439947
0
LINE
8
DEFAULT_255_2_778
10
13.9671002
20
97.439947
11
14.5897002
21
99.042247
0
LINE
8
DEFAULT_255_2_778
10
14.5897002
20
99.042247
11
15.4215002
21
99.042247
0
LINE
8
DEFAULT_255_2_778
10
15.4215002
20
99.042247
11
15.4215002
21
96.534847
0
LINE
8
DEFAULT_255_2_778
10
15.4215002
20
96.534847
11
14.7812002
21
96.534847
0
LINE
8
DEFAULT_255_2_778
10
14.7812002
20
96.534847
11
14.7812002
21
98.310647
0
LINE
8
DEFAULT_255_2_778
10
14.7812002
20
98.310647
11
14.0724002
21
96.510447
0
LINE
8
DEFAULT_255_2_778
10
14.0724002
20
96.510447
11
13.6515002
21
96.510447
0
LINE
8
DEFAULT_255_2_778
10
13.6515002
20
96.510447
11
12.9559002
21
98.310647
0
LINE
8
DEFAULT_255_2_778
10
12.9559002
20
98.310647
11
12.9559002
21
96.534547
0
LINE
8
DEFAULT_255_2_778
10
12.9559002
20
96.534547
11
12.4817002
21
96.534847
0
LINE
8
DEFAULT_255_2_778
10
16.0409002
20
96.534847
11
16.0409002
21
99.042247
0
LINE
8
DEFAULT_255_2_778
10
16.0409002
20
99.042247
11
17.7731002
21
99.042247
0
LINE
8
DEFAULT_255_2_778
10
17.7731002
20
99.042247
11
17.7731002
21
98.588547
0
LINE
8
DEFAULT_255_2_778
10
17.7731002
20
98.588547
11
16.6921002
21
98.588547
0
LINE
8
DEFAULT_255_2_778
10
16.6921002
20
98.588547
11
16.6921002
21
98.022247
0
LINE
8
DEFAULT_255_2_778
10
16.6921002
20
98.022247
11
17.6334002
21
98.022247
0
LINE
8
DEFAULT_255_2_778
10
17.6334002
20
98.022247
11
17.6334002
21
97.608747
0
LINE
8
DEFAULT_255_2_778
10
17.6334002
20
97.608747
11
16.6921002
21
97.608747
0
LINE
8
DEFAULT_255_2_778
10
16.6921002
20
97.608747
11
16.6921002
21
97.013447
0
LINE
8
DEFAULT_255_2_778
10
16.6921002
20
97.013447
11
17.8030002
21
97.013447
0
LINE
8
DEFAULT_255_2_778
10
17.8030002
20
97.013447
11
17.8030002
21
96.533247
0
LINE
8
DEFAULT_255_2_778
10
17.8030002
20
96.533247
11
16.0409002
21
96.534847
0
LINE
8
DEFAULT_255_2_778
10
18.2454002
20
96.534847
11
18.2454002
21
99.042247
0
LINE
8
DEFAULT_255_2_778
10
18.2454002
20
99.042247
11
19.0283002
21
99.042247
0
LINE
8
DEFAULT_255_2_778
10
19.0283002
20
99.042247
11
19.8586002
21
97.363447
0
LINE
8
DEFAULT_255_2_778
10
19.8586002
20
97.363447
11
19.8586002
21
99.042247
0
LINE
8
DEFAULT_255_2_778
10
19.8586002
20
99.042247
11
20.3343002
21
99.042247
0
LINE
8
DEFAULT_255_2_778
10
20.3343002
20
99.042247
11
20.3343002
21
96.534847
0
LINE
8
DEFAULT_255_2_778
10
20.3343002
20
96.534847
11
19.5739002
21
96.534847
0
LINE
8
DEFAULT_255_2_778
10
19.5739002
20
96.534847
11
18.7214002
21
98.236047
0
LINE
8
DEFAULT_255_2_778
10
18.7214002
20
98.236047
11
18.7214002
21
96.534847
0
LINE
8
DEFAULT_255_2_778
10
18.7214002
20
96.534847
11
18.2454002
21
96.534847
0
LINE
8
DEFAULT_255_2_778
10
20.8143002
20
96.575247
11
20.8143002
21
97.070047
0
LINE
8
DEFAULT_255_2_778
10
22.3745002
20
99.005747
11
22.4343002
21
98.995147
0
LINE
8
DEFAULT_255_2_778
10
22.4343002
20
98.995147
11
22.4343002
21
98.518947
0
LINE
8
DEFAULT_255_2_778
10
20.8124002
20
96.575547
11
20.8143002
21
96.575247
0
LINE
8
DEFAULT_255_1_234
10
8.8524023
20
94.7684849
11
8.6973897
21
94.7684849
0
LINE
8
DEFAULT_255_1_234
10
8.0050539
20
94.2761394
11
8.1600665
21
94.2761394
0
ARC
8
DEFAULT_255_1_234
10
8.763271
20
95.6631768
40
1.252368
50
248.9199003
51
254.1439814
0
ARC
8
DEFAULT_255_1_234
10
8.5952205
20
95.2305234
40
0.788226
50
241.633709
51
249.0064503
0
ARC
8
DEFAULT_255_1_234
10
8.44236
20
94.9504317
40
0.4691427
50
230.498225
51
241.8087113
0
ARC
8
DEFAULT_255_1_234
10
8.3639174
20
94.8504906
40
0.3421437
50
227.4064532
51
229.9881192
0
ARC
8
DEFAULT_255_1_234
10
8.3151694
20
94.8029088
40
0.2741476
50
200.6781896
51
228.1763934
0
ARC
8
DEFAULT_255_1_234
10
8.3224005
20
94.8014077
40
0.2804109
50
179.5061581
51
199.8694617
0
ARC
8
DEFAULT_255_1_234
10
8.3214757
20
94.808821
40
0.2795204
50
132.4834203
51
181.0242172
0
ARC
8
DEFAULT_255_1_234
10
8.3810339
20
94.7525704
40
0.3612768
50
129.2532479
51
133.4242687
0
ARC
8
DEFAULT_255_1_234
10
8.3956789
20
94.7305965
40
0.3875675
50
101.98776
51
128.8742646
0
ARC
8
DEFAULT_255_1_234
10
8.4355399
20
94.5584741
40
0.5642249
50
89.5906553
51
102.3169264
0
ARC
8
DEFAULT_255_1_234
10
8.4425891
20
94.5903148
40
0.5323783
50
77.2360837
51
90.3248275
0
ARC
8
DEFAULT_255_1_234
10
8.4632971
20
94.68704
40
0.4334697
50
63.837784
51
77.0809408
0
ARC
8
DEFAULT_255_1_234
10
8.4910732
20
94.7387911
40
0.3747796
50
45.9864267
51
64.1607727
0
ARC
8
DEFAULT_255_1_234
10
8.5171614
20
94.7685866
40
0.3352302
50
32.2747395
51
45.6547121
0
ARC
8
DEFAULT_255_1_234
10
8.5238054
20
94.770488
40
0.328603
50
359.6507365
51
32.6130309
0
ARC
8
DEFAULT_255_1_234
10
8.429515
20
94.770966
40
0.2678863
50
359.469343
51
14.9832209
0
ARC
8
DEFAULT_255_1_234
10
8.5000212
20
94.7898539
40
0.1948938
50
14.9781179
51
48.2004265
0
ARC
8
DEFAULT_255_1_234
10
8.4835856
20
94.7691983
40
0.2212521
50
48.5927837
51
74.1241538
0
ARC
8
DEFAULT_255_1_234
10
8.4502346
20
94.6591248
40
0.3362561
50
73.7888341
51
86.6652678
0
ARC
8
DEFAULT_255_1_234
10
8.4399911
20
94.5383881
40
0.4573953
50
86.2640471
51
90.0526343
0
ARC
8
DEFAULT_255_1_234
10
8.4371624
20
94.5779192
40
0.4178709
50
89.6697524
51
99.2309573
0
ARC
8
DEFAULT_255_1_234
10
8.4129075
20
94.7223964
40
0.2713749
50
99.069534
51
113.7658566
0
ARC
8
DEFAULT_255_1_234
10
8.3855266
20
94.7869677
40
0.2012469
50
114.0401004
51
127.9850673
0
ARC
8
DEFAULT_255_1_234
10
8.361483
20
94.816573
40
0.1631167
50
127.7287463
51
176.7105154
0
ARC
8
DEFAULT_255_1_234
10
8.4293547
20
94.8064693
40
0.2315392
50
175.1779447
51
180.0581938
0
ARC
8
DEFAULT_255_1_234
10
8.3450394
20
94.8052428
40
0.1472271
50
179.6142195
51
228.1246017
0
ARC
8
DEFAULT_255_1_234
10
8.3892063
20
94.8461308
40
0.2072299
50
226.5779593
51
230.8800004
0
ARC
8
DEFAULT_255_1_234
10
8.4363141
20
94.9086636
40
0.2854818
50
231.4635071
51
241.9260842
0
ARC
8
DEFAULT_255_1_234
10
8.5560319
20
95.12898
40
0.53622
50
241.7178533
51
248.3259551
0
ARC
8
DEFAULT_255_1_234
10
8.6945691
20
95.4722064
40
0.9063478
50
248.2007737
51
252.4528373
0
ARC
8
DEFAULT_255_1_234
10
8.8149416
20
95.8443441
40
1.2974635
50
252.3391078
51
254.3469452
0
ARC
8
DEFAULT_255_1_234
10
8.0607119
20
93.1466148
40
1.5037162
50
71.0197183
51
74.4087047
0
ARC
8
DEFAULT_255_1_234
10
8.2301804
20
93.6358111
40
0.9859993
50
66.1847285
51
71.086374
0
ARC
8
DEFAULT_255_1_234
10
8.3858116
20
93.98622
40
0.6025855
50
59.3536294
51
66.2691831
0
ARC
8
DEFAULT_255_1_234
10
8.4746769
20
94.1365609
40
0.4279449
50
49.1020879
51
59.3293958
0
ARC
8
DEFAULT_255_1_234
10
8.5565509
20
94.2298834
40
0.3038015
50
32.7919921
51
49.2505539
0
ARC
8
DEFAULT_255_1_234
10
8.5886599
20
94.2527191
40
0.264448
50
31.1181161
51
32.4005348
0
ARC
8
DEFAULT_255_1_234
10
8.5798136
20
94.2491779
40
0.2738556
50
8.1116974
51
30.7958831
0
ARC
8
DEFAULT_255_1_234
10
8.4987804
20
94.2353753
40
0.3560327
50
359.8389159
51
8.4706516
0
ARC
8
DEFAULT_255_1_234
10
8.5613596
20
94.2305137
40
0.2934776
50
337.4731098
51
0.7537279
0
ARC
8
DEFAULT_255_1_234
10
8.5792291
20
94.2285387
40
0.2762607
50
307.5917067
51
336.4315538
0
ARC
8
DEFAULT_255_1_234
10
8.5332119
20
94.2798102
40
0.3449979
50
307.6551545
51
308.4529766
0
ARC
8
DEFAULT_255_1_234
10
8.5101838
20
94.315325
40
0.3871988
50
284.3734338
51
307.1424381
0
ARC
8
DEFAULT_255_1_234
10
8.4606668
20
94.4974932
40
0.5759636
50
272.4382747
51
284.646547
0
ARC
8
DEFAULT_255_1_234
10
8.4479876
20
94.6774893
40
0.7563528
50
269.9708387
51
272.8178037
0
ARC
8
DEFAULT_255_1_234
10
8.4436916
20
94.4736716
40
0.5525489
50
248.2707594
51
270.4055579
0
ARC
8
DEFAULT_255_1_234
10
8.4382657
20
94.4546192
40
0.5328452
50
246.1383403
51
248.0542782
0
ARC
8
DEFAULT_255_1_234
10
8.3964036
20
94.3666843
40
0.4355005
50
233.1670131
51
246.4950969
0
ARC
8
DEFAULT_255_1_234
10
8.3409941
20
94.2918812
40
0.3424126
50
215.3403242
51
233.0843104
0
ARC
8
DEFAULT_255_1_234
10
8.3137372
20
94.2720549
40
0.3087104
50
179.2419209
51
215.2648451
0
ARC
8
DEFAULT_255_1_234
10
8.3904966
20
94.2734666
40
0.2304457
50
179.335461
51
199.1045811
0
ARC
8
DEFAULT_255_1_234
10
8.3572643
20
94.2647766
40
0.1962176
50
199.8828939
51
232.7063202
0
ARC
8
DEFAULT_255_1_234
10
8.4044911
20
94.3241788
40
0.2720938
50
232.3738199
51
255.5136649
0
ARC
8
DEFAULT_255_1_234
10
8.4385778
20
94.4485835
40
0.4010747
50
255.2446292
51
267.5320849
0
ARC
8
DEFAULT_255_1_234
10
8.4473401
20
94.5718702
40
0.5246356
50
267.1557994
51
270.0286766
0
ARC
8
DEFAULT_255_1_234
10
8.4501173
20
94.527495
40
0.4802668
50
269.7000017
51
278.1660162
0
ARC
8
DEFAULT_255_1_234
10
8.4757178
20
94.3544515
40
0.3053425
50
278.0231263
51
290.625471
0
ARC
8
DEFAULT_255_1_234
10
8.5104865
20
94.2617025
40
0.206291
50
290.6619762
51
307.0370976
0
ARC
8
DEFAULT_255_1_234
10
8.5405254
20
94.2248504
40
0.1587906
50
306.3943566
51
355.3030547
0
ARC
8
DEFAULT_255_1_234
10
8.4893186
20
94.2325113
40
0.2104809
50
354.3660432
51
0.0698737
0
ARC
8
DEFAULT_255_1_234
10
8.5035531
20
94.2347617
40
0.1962563
50
359.417946
51
16.1971788
0
ARC
8
DEFAULT_255_1_234
10
8.5490841
20
94.2472418
40
0.149053
50
16.4723299
51
52.6262157
0
ARC
8
DEFAULT_255_1_234
10
8.4669895
20
94.1388433
40
0.2850296
50
52.7386432
51
62.4979148
0
ARC
8
DEFAULT_255_1_234
10
8.3284972
20
93.8782283
40
0.5801521
50
62.2515216
51
68.1220564
0
ARC
8
DEFAULT_255_1_234
10
8.1564883
20
93.4554872
40
1.0365451
50
68.0062803
51
71.8053402
0
ARC
8
DEFAULT_255_1_234
10
7.9769255
20
92.9169758
40
1.6042013
50
71.7183119
51
73.9258742
0
LINE
8
DEFAULT_255_1_234
10
9.2178464
20
95.1066211
11
9.2178464
21
93.9372
0
LINE
8
DEFAULT_255_1_234
10
9.2178464
20
93.9372
11
9.063637
21
93.9372
0
LINE
8
DEFAULT_255_1_234
10
9.063637
20
93.9372
11
9.063637
21
95.1066211
0
LINE
8
DEFAULT_255_1_234
10
9.063637
20
95.1066211
11
9.2178464
21
95.1066211
0
LINE
8
DEFAULT_255_1_234
10
9.4997604
20
95.1066211
11
9.6989475
21
95.1066211
0
LINE
8
DEFAULT_255_1_234
10
9.6989475
20
95.1066211
11
10.0812583
21
94.1524506
0
LINE
8
DEFAULT_255_1_234
10
10.0812583
20
94.1524506
11
10.463569
21
95.1066211
0
LINE
8
DEFAULT_255_1_234
10
10.463569
20
95.1066211
11
10.6635593
21
95.1066211
0
LINE
8
DEFAULT_255_1_234
10
10.6635593
20
95.1066211
11
10.6635593
21
93.9372
0
LINE
8
DEFAULT_255_1_234
10
10.6635593
20
93.9372
11
10.5093499
21
93.9372
0
LINE
8
DEFAULT_255_1_234
10
10.5093499
20
93.9372
11
10.5093499
21
94.3925996
0
LINE
8
DEFAULT_255_1_234
10
10.5093499
20
94.3925996
11
10.523807
21
94.8841419
0
LINE
8
DEFAULT_255_1_234
10
10.523807
20
94.8841419
11
10.1398899
21
93.9372
0
LINE
8
DEFAULT_255_1_234
10
10.1398899
20
93.9372
11
10.0218234
21
93.9372
0
LINE
8
DEFAULT_255_1_234
10
10.0218234
20
93.9372
11
9.6387095
21
94.8817324
0
LINE
8
DEFAULT_255_1_234
10
9.6387095
20
94.8817324
11
9.6539698
21
94.3925996
0
LINE
8
DEFAULT_255_1_234
10
9.6539698
20
94.3925996
11
9.6539698
21
93.9372
0
LINE
8
DEFAULT_255_1_234
10
9.6539698
20
93.9372
11
9.4997604
21
93.9372
0
LINE
8
DEFAULT_255_1_234
10
9.4997604
20
93.9372
11
9.4997604
21
95.1066211
0
LINE
8
DEFAULT_255_1_234
10
11.7076853
20
93.9372
11
11.5960441
21
94.2424061
0
LINE
8
DEFAULT_255_1_234
10
11.5960441
20
94.2424061
11
11.1061081
21
94.2424061
0
LINE
8
DEFAULT_255_1_234
10
11.1061081
20
94.2424061
11
10.9960732
21
93.9372
0
LINE
8
DEFAULT_255_1_234
10
10.9960732
20
93.9372
11
10.8370448
21
93.9372
0
LINE
8
DEFAULT_255_1_234
10
10.8370448
20
93.9372
11
11.2836095
21
95.1066211
0
LINE
8
DEFAULT_255_1_234
10
11.2836095
20
95.1066211
11
11.4185427
21
95.1066211
0
LINE
8
DEFAULT_255_1_234
10
11.4185427
20
95.1066211
11
11.8659105
21
93.9372
0
LINE
8
DEFAULT_255_1_234
10
11.8659105
20
93.9372
11
11.7076853
21
93.9372
0
LINE
8
DEFAULT_255_1_234
10
11.3510761
20
94.9162689
11
11.1526921
21
94.3693075
0
LINE
8
DEFAULT_255_1_234
10
11.1526921
20
94.3693075
11
11.5502632
21
94.3693075
0
LINE
8
DEFAULT_255_1_234
10
11.5502632
20
94.3693075
11
11.3510761
21
94.9162689
0
LINE
8
DEFAULT_255_1_234
10
12.727716
20
95.1066211
11
12.727716
21
94.9797196
0
LINE
8
DEFAULT_255_1_234
10
12.727716
20
94.9797196
11
12.3518307
21
94.9797196
0
LINE
8
DEFAULT_255_1_234
10
12.3518307
20
94.9797196
11
12.3518307
21
93.9372
0
LINE
8
DEFAULT_255_1_234
10
12.3518307
20
93.9372
11
12.1984245
21
93.9372
0
LINE
8
DEFAULT_255_1_234
10
12.1984245
20
93.9372
11
12.1984245
21
94.9797196
0
LINE
8
DEFAULT_255_1_234
10
12.1984245
20
94.9797196
11
11.8233423
21
94.9797196
0
LINE
8
DEFAULT_255_1_234
10
11.8233423
20
94.9797196
11
11.8233423
21
95.1066211
0
LINE
8
DEFAULT_255_1_234
10
11.8233423
20
95.1066211
11
12.727716
21
95.1066211
0
LINE
8
DEFAULT_255_1_234
10
13.0666554
20
95.1066211
11
13.0666554
21
93.9372
0
LINE
8
DEFAULT_255_1_234
10
13.0666554
20
93.9372
11
12.912446
21
93.9372
0
LINE
8
DEFAULT_255_1_234
10
12.912446
20
93.9372
11
12.912446
21
95.1066211
0
LINE
8
DEFAULT_255_1_234
10
12.912446
20
95.1066211
11
13.0666554
21
95.1066211
0
LINE
8
DEFAULT_255_1_234
10
14.053756
20
94.3082663
11
14.2087686
21
94.3082663
0
LINE
8
DEFAULT_255_1_234
10
13.3084107
20
94.4672947
11
13.3084107
21
94.5797391
0
LINE
8
DEFAULT_255_1_234
10
14.2087686
20
94.7307357
11
14.053756
21
94.7307357
0
LINE
8
DEFAULT_255_1_234
10
13.4634232
20
94.5757232
11
13.4634232
21
94.4624757
0
ARC
8
DEFAULT_255_1_234
10
13.6607072
20
94.3679846
40
0.5513052
50
340.1774281
51
353.7814284
0
ARC
8
DEFAULT_255_1_234
10
13.8178425
20
94.3094582
40
0.3836379
50
311.4558989
51
340.4421614
0
ARC
8
DEFAULT_255_1_234
10
13.8145093
20
94.3205528
40
0.3941894
50
282.4333181
51
310.7513653
0
ARC
8
DEFAULT_255_1_234
10
13.7705832
20
94.5020679
40
0.5809175
50
269.9358511
51
282.809604
0
ARC
8
DEFAULT_255_1_234
10
13.7653899
20
94.6478212
40
0.7266847
50
270.0021091
51
270.3581957
0
ARC
8
DEFAULT_255_1_234
10
13.7601315
20
94.3877585
40
0.4666519
50
250.7884749
51
270.6489167
0
ARC
8
DEFAULT_255_1_234
10
13.743315
20
94.3240319
40
0.4009729
50
219.3627325
51
250.0611886
0
ARC
8
DEFAULT_255_1_234
10
13.8262361
20
94.3945042
40
0.5097822
50
193.5479632
51
219.5756669
0
ARC
8
DEFAULT_255_1_234
10
14.0633982
20
94.4560919
40
0.7547848
50
181.1218675
51
193.87563
0
ARC
8
DEFAULT_255_1_234
10
14.2704163
20
94.467158
40
0.9620055
50
179.9918545
51
181.5394234
0
ARC
8
DEFAULT_255_1_234
10
14.0853265
20
94.5834788
40
0.7769248
50
169.5837241
51
180.2757934
0
ARC
8
DEFAULT_255_1_234
10
13.9016203
20
94.6174229
40
0.590109
50
155.0365899
51
169.6003176
0
ARC
8
DEFAULT_255_1_234
10
13.7880667
20
94.6721677
40
0.4640625
50
136.783148
51
155.2472683
0
ARC
8
DEFAULT_255_1_234
10
13.7491144
20
94.7052562
40
0.4130255
50
121.7633186
51
136.428115
0
ARC
8
DEFAULT_255_1_234
10
13.7626106
20
94.6803227
40
0.4413323
50
95.6459699
51
121.5490577
0
ARC
8
DEFAULT_255_1_234
10
13.7783388
20
94.5694949
40
0.55319
50
89.924208
51
96.1377933
0
ARC
8
DEFAULT_255_1_234
10
13.7833821
20
94.5813542
40
0.5413475
50
76.6779277
51
90.4563316
0
ARC
8
DEFAULT_255_1_234
10
13.8227444
20
94.7404114
40
0.3775041
50
47.485847
51
76.9287264
0
ARC
8
DEFAULT_255_1_234
10
13.8080417
20
94.7304159
40
0.3948286
50
16.5424086
51
46.8933463
0
ARC
8
DEFAULT_255_1_234
10
13.6472574
20
94.6775861
40
0.564021
50
5.4072051
51
17.0365086
0
ARC
8
DEFAULT_255_1_234
10
13.5033591
20
94.6544679
40
0.5556559
50
7.8891745
51
15.9239216
0
ARC
8
DEFAULT_255_1_234
10
13.7020605
20
94.7121631
40
0.3487515
50
15.7653144
51
27.9410532
0
ARC
8
DEFAULT_255_1_234
10
13.8124822
20
94.771279
40
0.2235026
50
27.8166557
51
46.4008329
0
ARC
8
DEFAULT_255_1_234
10
13.8174465
20
94.7707082
40
0.2205286
50
47.4371857
51
75.0698205
0
ARC
8
DEFAULT_255_1_234
10
13.786586
20
94.6632765
40
0.3322915
50
74.7008593
51
87.8124495
0
ARC
8
DEFAULT_255_1_234
10
13.7792547
20
94.5576844
40
0.4380987
50
87.3814673
51
90.0240855
0
ARC
8
DEFAULT_255_1_234
10
13.7754091
20
94.6754291
40
0.3203749
50
89.3451631
51
108.5745436
0
ARC
8
DEFAULT_255_1_234
10
13.7617196
20
94.7267908
40
0.2673494
50
109.2998449
51
143.3037509
0
ARC
8
DEFAULT_255_1_234
10
13.8379268
20
94.6681881
40
0.3634757
50
143.0753173
51
163.1916937
0
ARC
8
DEFAULT_255_1_234
10
14.0330996
20
94.6065967
40
0.5681262
50
162.9373603
51
174.6208611
0
ARC
8
DEFAULT_255_1_234
10
14.2957038
20
94.577801
40
0.8322832
50
174.3419979
51
180.1430411
0
ARC
8
DEFAULT_255_1_234
10
14.2026194
20
94.4583698
40
0.7392076
50
179.6817502
51
189.150529
0
ARC
8
DEFAULT_255_1_234
10
13.9525443
20
94.416719
40
0.4856932
50
188.9910863
51
203.5773039
0
ARC
8
DEFAULT_255_1_234
10
13.8445775
20
94.3719211
40
0.3688271
50
203.9077269
51
215.1312379
0
ARC
8
DEFAULT_255_1_234
10
13.7522869
20
94.3003941
40
0.2522457
50
213.9071664
51
263.8849284
0
ARC
8
DEFAULT_255_1_234
10
13.7648198
20
94.3788518
40
0.3316174
50
263.1758525
51
270.1031083
0
ARC
8
DEFAULT_255_1_234
10
13.768029
20
94.5035365
40
0.4563091
50
269.6719807
51
279.0609165
0
ARC
8
DEFAULT_255_1_234
10
13.7947058
20
94.3422907
40
0.2928759
50
278.8750225
51
293.6346586
0
ARC
8
DEFAULT_255_1_234
10
13.8267266
20
94.26709
40
0.2111472
50
293.8553404
51
310.0518804
0
ARC
8
DEFAULT_255_1_234
10
13.827212
20
94.2608516
40
0.2060917
50
311.0646779
51
332.0108348
0
ARC
8
DEFAULT_255_1_234
10
13.7079847
20
94.3265978
40
0.3422352
50
331.6588543
51
343.2878891
0
ARC
8
DEFAULT_255_1_234
10
13.5017362
20
94.3899798
40
0.5580003
50
343.1446044
51
351.010618
0
ARC
8
DEFAULT_255_1_234
10
13.3476008
20
94.4180871
40
0.7146438
50
350.7157277
51
351.1602153
0
LINE
8
DEFAULT_255_1_234
10
15.4874213
20
94.6038343
11
15.4874213
21
94.477736
0
LINE
8
DEFAULT_255_1_234
10
15.4874213
20
94.477736
11
14.9806186
21
94.477736
0
LINE
8
DEFAULT_255_1_234
10
14.9806186
20
94.477736
11
14.9806186
21
94.0632983
0
LINE
8
DEFAULT_255_1_234
10
14.9806186
20
94.0632983
11
15.569345
21
94.0632983
0
LINE
8
DEFAULT_255_1_234
10
15.569345
20
94.0632983
11
15.569345
21
93.9372
0
LINE
8
DEFAULT_255_1_234
10
15.569345
20
93.9372
11
14.8264092
21
93.9372
0
LINE
8
DEFAULT_255_1_234
10
14.8264092
20
93.9372
11
14.8264092
21
95.1066211
0
LINE
8
DEFAULT_255_1_234
10
14.8264092
20
95.1066211
11
15.5613133
21
95.1066211
0
LINE
8
DEFAULT_255_1_234
10
15.5613133
20
95.1066211
11
15.5613133
21
94.9797196
0
LINE
8
DEFAULT_255_1_234
10
15.5613133
20
94.9797196
11
14.9806186
21
94.9797196
0
LINE
8
DEFAULT_255_1_234
10
14.9806186
20
94.9797196
11
14.9806186
21
94.6038343
0
LINE
8
DEFAULT_255_1_234
10
14.9806186
20
94.6038343
11
15.4874213
21
94.6038343
0
LINE
8
DEFAULT_255_1_234
10
16.5853599
20
95.1066211
11
16.5853599
21
94.9797196
0
LINE
8
DEFAULT_255_1_234
10
16.5853599
20
94.9797196
11
16.2094746
21
94.9797196
0
LINE
8
DEFAULT_255_1_234
10
16.2094746
20
94.9797196
11
16.2094746
21
93.9372
0
LINE
8
DEFAULT_255_1_234
10
16.2094746
20
93.9372
11
16.0560684
21
93.9372
0
LINE
8
DEFAULT_255_1_234
10
16.0560684
20
93.9372
11
16.0560684
21
94.9797196
0
LINE
8
DEFAULT_255_1_234
10
16.0560684
20
94.9797196
11
15.6809862
21
94.9797196
0
LINE
8
DEFAULT_255_1_234
10
15.6809862
20
94.9797196
11
15.6809862
21
95.1066211
0
LINE
8
DEFAULT_255_1_234
10
15.6809862
20
95.1066211
11
16.5853599
21
95.1066211
0
LINE
8
DEFAULT_255_1_234
10
17.4865209
20
94.0584792
11
17.4865209
21
93.9372
0
LINE
8
DEFAULT_255_1_234
10
17.4865209
20
93.9372
11
16.7202931
21
93.9372
0
LINE
8
DEFAULT_255_1_234
10
16.7202931
20
93.9372
11
16.7202931
21
94.0440221
0
LINE
8
DEFAULT_255_1_234
10
16.7202931
20
94.0440221
11
17.1250927
21
94.4937995
0
LINE
8
DEFAULT_255_1_234
10
16.8463914
20
94.7620595
11
16.6978042
21
94.7620595
0
LINE
8
DEFAULT_255_1_234
10
17.2126387
20
94.3982218
11
16.8994009
21
94.0584792
0
LINE
8
DEFAULT_255_1_234
10
16.8994009
20
94.0584792
11
17.4865209
21
94.0584792
0
ARC
8
DEFAULT_255_1_234
10
15.7760761
20
95.6867527
40
1.8008286
50
318.5132453
51
320.7828378
0
ARC
8
DEFAULT_255_1_234
10
16.3047735
20
95.2564426
40
1.1191493
50
320.7372736
51
323.9737074
0
ARC
8
DEFAULT_255_1_234
10
16.6967591
20
94.9724361
40
0.6350923
50
323.8961724
51
328.6421089
0
ARC
8
DEFAULT_255_1_234
10
16.9014187
20
94.8462031
40
0.3946393
50
328.8299013
51
331.789948
0
ARC
8
DEFAULT_255_1_234
10
17.0011365
20
94.7947509
40
0.2824501
50
331.4255242
51
352.9364833
0
ARC
8
DEFAULT_255_1_234
10
17.0147866
20
94.7916976
40
0.2685315
50
353.2248685
51
0.0169286
0
ARC
8
DEFAULT_255_1_234
10
17.0357743
20
94.793995
40
0.2475536
50
359.4866256
51
15.9339782
0
ARC
8
DEFAULT_255_1_234
10
17.0864728
20
94.8076286
40
0.1950618
50
16.1714718
51
43.5284424
0
ARC
8
DEFAULT_255_1_234
10
17.0942037
20
94.8153573
40
0.184134
50
43.4415429
51
83.1661404
0
ARC
8
DEFAULT_255_1_234
10
17.0807955
20
94.7416771
40
0.258926
50
82.160215
51
90.1505798
0
ARC
8
DEFAULT_255_1_234
10
17.0776382
20
94.6879865
40
0.3126255
50
89.5460705
51
102.5418777
0
ARC
8
DEFAULT_255_1_234
10
17.0533468
20
94.7910665
40
0.2067346
50
102.1739365
51
129.2061916
0
ARC
8
DEFAULT_255_1_234
10
17.045454
20
94.8035094
40
0.1921118
50
129.7279328
51
135.7542026
0
ARC
8
DEFAULT_255_1_234
10
17.0576068
20
94.7938045
40
0.2075944
50
136.175737
51
166.3674722
0
ARC
8
DEFAULT_255_1_234
10
17.1582987
20
94.7668182
40
0.3118201
50
165.9092917
51
178.8683903
0
ARC
8
DEFAULT_255_1_234
10
17.2447848
20
94.7621179
40
0.3983935
50
178.438168
51
180.0083905
0
ARC
8
DEFAULT_255_1_234
10
17.104645
20
94.7660231
40
0.4068601
50
163.2878735
51
180.5581814
0
ARC
8
DEFAULT_255_1_234
10
17.0244712
20
94.788084
40
0.3237344
50
133.454115
51
162.9470031
0
ARC
8
DEFAULT_255_1_234
10
17.0423253
20
94.7691
40
0.349795
50
100.7869394
51
133.4384016
0
ARC
8
DEFAULT_255_1_234
10
17.0771024
20
94.6142319
40
0.5084616
50
89.6605301
51
101.3704185
0
ARC
8
DEFAULT_255_1_234
10
17.0837363
20
94.6203496
40
0.502348
50
78.2171172
51
90.4130393
0
ARC
8
DEFAULT_255_1_234
10
17.1192442
20
94.7827637
40
0.3361092
50
55.9268222
51
78.4888551
0
ARC
8
DEFAULT_255_1_234
10
17.1388882
20
94.8166324
40
0.2970617
50
47.9292255
51
55.4054003
0
ARC
8
DEFAULT_255_1_234
10
17.1490442
20
94.8269502
40
0.2825983
50
4.3347696
51
48.0560701
0
ARC
8
DEFAULT_255_1_234
10
17.0394836
20
94.8099601
40
0.393225
50
359.925209
51
5.5967654
0
ARC
8
DEFAULT_255_1_234
10
17.0823728
20
94.8155816
40
0.3503892
50
337.8914096
51
358.9967724
0
ARC
8
DEFAULT_255_1_234
10
16.811014
20
94.9202706
40
0.6412172
50
326.9135351
51
338.3505194
0
ARC
8
DEFAULT_255_1_234
10
16.4124444
20
95.1757284
40
1.1146189
50
319.6472867
51
327.095818
0
ARC
8
DEFAULT_255_1_234
10
16.0291447
20
95.4919
40
1.6114559
50
317.2586784
51
319.9046139
0
LINE
8
DEFAULT_255_1_234
10
18.3772407
20
94.6287327
11
18.3772407
21
94.4359709
0
LINE
8
DEFAULT_255_1_234
10
17.639124
20
94.4158916
11
17.639124
21
94.6142755
0
LINE
8
DEFAULT_255_1_234
10
18.2286536
20
94.3958123
11
18.2286536
21
94.6391739
0
LINE
8
DEFAULT_255_1_234
10
17.7877111
20
94.6504184
11
17.7877111
21
94.4126789
0
ARC
8
DEFAULT_255_1_234
10
17.1525297
20
94.4310805
40
1.2247208
50
353.8441951
51
0.2287902
0
ARC
8
DEFAULT_255_1_234
10
17.61648
20
94.3792806
40
0.7578929
50
344.4934747
51
353.9765454
0
ARC
8
DEFAULT_255_1_234
10
17.9157391
20
94.2941981
40
0.4467846
50
329.2803592
51
344.7472793
0
ARC
8
DEFAULT_255_1_234
10
18.0150216
20
94.2397018
40
0.3336173
50
324.9352394
51
328.6160465
0
ARC
8
DEFAULT_255_1_234
10
18.0527324
20
94.2133427
40
0.2876076
50
280.580143
51
324.9173126
0
ARC
8
DEFAULT_255_1_234
10
18.0126117
20
94.3804099
40
0.4592847
50
269.5977311
51
281.6734359
0
ARC
8
DEFAULT_255_1_234
10
18.0054022
20
94.3684173
40
0.4472986
50
256.6228859
51
270.51044
0
ARC
8
DEFAULT_255_1_234
10
17.9652
20
94.2135877
40
0.2873874
50
215.8618325
51
257.2788573
0
ARC
8
DEFAULT_255_1_234
10
18.0673032
20
94.2820977
40
0.4102928
50
197.9693508
51
215.2623606
0
ARC
8
DEFAULT_255_1_234
10
18.3158147
20
94.3659709
40
0.6725652
50
187.8816417
51
198.2346507
0
ARC
8
DEFAULT_255_1_234
10
18.7116356
20
94.4231079
40
1.0724845
50
180.8976217
51
188.0055519
0
ARC
8
DEFAULT_255_1_234
10
18.9916544
20
94.4334777
40
1.3526448
50
180.7449369
51
181.1510016
0
ARC
8
DEFAULT_255_1_234
10
18.8339273
20
94.6191042
40
1.1948131
50
173.7675579
51
180.231553
0
ARC
8
DEFAULT_255_1_234
10
18.382142
20
94.6701666
40
0.7401564
50
164.3058563
51
173.9002247
0
ARC
8
DEFAULT_255_1_234
10
18.0909488
20
94.7540656
40
0.4371288
50
148.7922025
51
164.568378
0
ARC
8
DEFAULT_255_1_234
10
17.9957941
20
94.8071929
40
0.3282386
50
144.5883898
51
148.1176286
0
ARC
8
DEFAULT_255_1_234
10
17.9614838
20
94.8311315
40
0.2864044
50
101.6440918
51
144.514236
0
ARC
8
DEFAULT_255_1_234
10
18.0039905
20
94.6622069
40
0.4604934
50
89.5284041
51
102.5819763
0
ARC
8
DEFAULT_255_1_234
10
18.0118993
20
94.6583018
40
0.464401
50
77.0437873
51
90.5081339
0
ARC
8
DEFAULT_255_1_234
10
18.0520995
20
94.8225615
40
0.2953195
50
48.2778575
51
77.4994676
0
ARC
8
DEFAULT_255_1_234
10
18.0593626
20
94.8354746
40
0.2808655
50
36.3142134
51
47.6305865
0
ARC
8
DEFAULT_255_1_234
10
17.9724933
20
94.7769515
40
0.3855453
50
18.2931786
51
35.6769206
0
ARC
8
DEFAULT_255_1_234
10
17.7181692
20
94.6896593
40
0.654423
50
8.024666
51
18.5605216
0
ARC
8
DEFAULT_255_1_234
10
17.3018612
20
94.6281792
40
1.0752407
50
1.1274072
51
8.1718305
0
ARC
8
DEFAULT_255_1_234
10
16.9782802
20
94.6154885
40
1.3990231
50
0.5424119
51
1.3863029
0
ARC
8
DEFAULT_255_1_234
10
17.160418
20
94.6427342
40
1.0682415
50
359.8090433
51
4.9407866
0
ARC
8
DEFAULT_255_1_234
10
17.5814194
20
94.6803113
40
0.6455691
50
4.8362157
51
12.2904523
0
ARC
8
DEFAULT_255_1_234
10
17.8569309
20
94.7416965
40
0.3633074
50
12.0805627
51
23.8173984
0
ARC
8
DEFAULT_255_1_234
10
17.9743014
20
94.7913919
40
0.2358723
50
24.2871213
51
31.3935614
0
ARC
8
DEFAULT_255_1_234
10
18.0267712
20
94.8257233
40
0.1732111
50
30.7407893
51
82.4657128
0
ARC
8
DEFAULT_255_1_234
10
18.0087846
20
94.7373691
40
0.263235
50
81.1060089
51
90.2184952
0
ARC
8
DEFAULT_255_1_234
10
18.0052145
20
94.7631924
40
0.2374236
50
89.3806855
51
105.6762551
0
ARC
8
DEFAULT_255_1_234
10
17.9868775
20
94.8298567
40
0.1682847
50
105.7981136
51
149.7388061
0
ARC
8
DEFAULT_255_1_234
10
18.0932854
20
94.765895
40
0.2924306
50
149.4208916
51
163.6286378
0
ARC
8
DEFAULT_255_1_234
10
18.3023742
20
94.702125
40
0.5110213
50
163.3763315
51
172.1410975
0
ARC
8
DEFAULT_255_1_234
10
18.6324461
20
94.6548518
40
0.8444586
50
172.0259487
51
178.0703232
0
ARC
8
DEFAULT_255_1_234
10
18.935455
20
94.6404906
40
1.1477868
50
177.8631668
51
179.5044149
0
ARC
8
DEFAULT_255_1_234
10
18.8281955
20
94.4090389
40
1.0404907
50
179.7995573
51
185.2460446
0
ARC
8
DEFAULT_255_1_234
10
18.4238994
20
94.3707513
40
0.6343885
50
185.1411642
51
193.0079639
0
ARC
8
DEFAULT_255_1_234
10
18.1595467
20
94.3082641
40
0.3627568
50
192.7897626
51
205.2507664
0
ARC
8
DEFAULT_255_1_234
10
18.0549014
20
94.2615415
40
0.2481908
50
205.8005384
51
211.2537509
0
ARC
8
DEFAULT_255_1_234
10
18.0025454
20
94.226458
40
0.1852521
50
210.3789793
51
238.4008143
0
ARC
8
DEFAULT_255_1_234
10
18.0005976
20
94.2311376
40
0.1882621
50
239.6520629
51
265.9793761
0
ARC
8
DEFAULT_255_1_234
10
18.0091176
20
94.2983427
40
0.2559272
50
265.1315437
51
270.060332
0
ARC
8
DEFAULT_255_1_234
10
18.0119955
20
94.2659534
40
0.2235528
50
269.3314664
51
287.2178029
0
ARC
8
DEFAULT_255_1_234
10
18.0257807
20
94.2156279
40
0.1714108
50
287.7958004
51
329.080874
0
ARC
8
DEFAULT_255_1_234
10
17.9300264
20
94.275393
40
0.2842745
50
328.6634704
51
343.3325132
0
ARC
8
DEFAULT_255_1_234
10
17.7127284
20
94.3430863
40
0.5118644
50
343.0499468
51
351.9393422
0
ARC
8
DEFAULT_255_1_234
10
17.3660584
20
94.3941949
40
0.8622784
50
351.8069023
51
357.7959224
0
ARC
8
DEFAULT_255_1_234
10
17.042514
20
94.4109721
40
1.1862365
50
357.5871873
51
359.2677531
0
LINE
8
DEFAULT_255_1_234
10
19.3008906
20
94.6287327
11
19.3008906
21
94.4359709
0
LINE
8
DEFAULT_255_1_234
10
18.5627739
20
94.4158916
11
18.5627739
21
94.6142755
0
LINE
8
DEFAULT_255_1_234
10
19.1523035
20
94.3958123
11
19.1523035
21
94.6391739
0
LINE
8
DEFAULT_255_1_234
10
18.711361
20
94.6504184
11
18.711361
21
94.4126789
0
ARC
8
DEFAULT_255_1_234
10
18.0761796
20
94.4310805
40
1.2247208
50
353.8441951
51
0.2287902
0
ARC
8
DEFAULT_255_1_234
10
18.5401299
20
94.3792806
40
0.7578929
50
344.4934747
51
353.9765454
0
ARC
8
DEFAULT_255_1_234
10
18.839389
20
94.2941981
40
0.4467846
50
329.2803592
51
344.7472793
0
ARC
8
DEFAULT_255_1_234
10
18.9386715
20
94.2397018
40
0.3336173
50
324.9352394
51
328.6160465
0
ARC
8
DEFAULT_255_1_234
10
18.9763823
20
94.2133427
40
0.2876076
50
280.580143
51
324.9173126
0
ARC
8
DEFAULT_255_1_234
10
18.9362616
20
94.3804099
40
0.4592847
50
269.5977311
51
281.6734359
0
ARC
8
DEFAULT_255_1_234
10
18.9290521
20
94.3684173
40
0.4472986
50
256.6228859
51
270.51044
0
ARC
8
DEFAULT_255_1_234
10
18.8888499
20
94.2135877
40
0.2873874
50
215.8618325
51
257.2788573
0
ARC
8
DEFAULT_255_1_234
10
18.9909531
20
94.2820977
40
0.4102928
50
197.9693508
51
215.2623606
0
ARC
8
DEFAULT_255_1_234
10
19.2394647
20
94.3659709
40
0.6725652
50
187.8816417
51
198.2346507
0
ARC
8
DEFAULT_255_1_234
10
19.6352855
20
94.4231079
40
1.0724845
50
180.8976217
51
188.0055519
0
ARC
8
DEFAULT_255_1_234
10
19.9153043
20
94.4334777
40
1.3526448
50
180.7449369
51
181.1510016
0
ARC
8
DEFAULT_255_1_234
10
19.7575772
20
94.6191042
40
1.1948131
50
173.7675579
51
180.231553
0
ARC
8
DEFAULT_255_1_234
10
19.3057919
20
94.6701666
40
0.7401564
50
164.3058563
51
173.9002247
0
ARC
8
DEFAULT_255_1_234
10
19.0145987
20
94.7540656
40
0.4371288
50
148.7922025
51
164.568378
0
ARC
8
DEFAULT_255_1_234
10
18.919444
20
94.8071929
40
0.3282386
50
144.5883898
51
148.1176286
0
ARC
8
DEFAULT_255_1_234
10
18.8851337
20
94.8311315
40
0.2864044
50
101.6440918
51
144.514236
0
ARC
8
DEFAULT_255_1_234
10
18.9276404
20
94.6622069
40
0.4604934
50
89.5284041
51
102.5819763
0
ARC
8
DEFAULT_255_1_234
10
18.9355492
20
94.6583018
40
0.464401
50
77.0437873
51
90.5081339
0
ARC
8
DEFAULT_255_1_234
10
18.9757494
20
94.8225615
40
0.2953195
50
48.2778575
51
77.4994676
0
ARC
8
DEFAULT_255_1_234
10
18.9830125
20
94.8354746
40
0.2808655
50
36.3142134
51
47.6305865
0
ARC
8
DEFAULT_255_1_234
10
18.8961432
20
94.7769515
40
0.3855453
50
18.2931786
51
35.6769206
0
ARC
8
DEFAULT_255_1_234
10
18.6418191
20
94.6896593
40
0.654423
50
8.024666
51
18.5605216
0
ARC
8
DEFAULT_255_1_234
10
18.2255111
20
94.6281792
40
1.0752407
50
1.1274072
51
8.1718305
0
ARC
8
DEFAULT_255_1_234
10
17.9019301
20
94.6154885
40
1.3990231
50
0.5424119
51
1.3863029
0
ARC
8
DEFAULT_255_1_234
10
18.0840679
20
94.6427342
40
1.0682415
50
359.8090433
51
4.9407866
0
ARC
8
DEFAULT_255_1_234
10
18.5050693
20
94.6803113
40
0.6455691
50
4.8362157
51
12.2904523
0
ARC
8
DEFAULT_255_1_234
10
18.7805808
20
94.7416965
40
0.3633074
50
12.0805627
51
23.8173984
0
ARC
8
DEFAULT_255_1_234
10
18.8979513
20
94.7913919
40
0.2358723
50
24.2871213
51
31.3935614
0
ARC
8
DEFAULT_255_1_234
10
18.9504211
20
94.8257233
40
0.1732111
50
30.7407893
51
82.4657128
0
ARC
8
DEFAULT_255_1_234
10
18.9324345
20
94.7373691
40
0.263235
50
81.1060089
51
90.2184952
0
ARC
8
DEFAULT_255_1_234
10
18.9288644
20
94.7631924
40
0.2374236
50
89.3806855
51
105.6762551
0
ARC
8
DEFAULT_255_1_234
10
18.9105274
20
94.8298567
40
0.1682847
50
105.7981136
51
149.7388061
0
ARC
8
DEFAULT_255_1_234
10
19.0169353
20
94.765895
40
0.2924306
50
149.4208916
51
163.6286378
0
ARC
8
DEFAULT_255_1_234
10
19.2260241
20
94.702125
40
0.5110213
50
163.3763315
51
172.1410975
0
ARC
8
DEFAULT_255_1_234
10
19.556096
20
94.6548518
40
0.8444586
50
172.0259487
51
178.0703232
0
ARC
8
DEFAULT_255_1_234
10
19.8591049
20
94.6404906
40
1.1477868
50
177.8631668
51
179.5044149
0
ARC
8
DEFAULT_255_1_234
10
19.7518454
20
94.4090389
40
1.0404907
50
179.7995573
51
185.2460446
0
ARC
8
DEFAULT_255_1_234
10
19.3475493
20
94.3707513
40
0.6343885
50
185.1411642
51
193.0079639
0
ARC
8
DEFAULT_255_1_234
10
19.0831966
20
94.3082641
40
0.3627568
50
192.7897626
51
205.2507664
0
ARC
8
DEFAULT_255_1_234
10
18.9785513
20
94.2615415
40
0.2481908
50
205.8005384
51
211.2537509
0
ARC
8
DEFAULT_255_1_234
10
18.9261953
20
94.226458
40
0.1852521
50
210.3789793
51
238.4008143
0
ARC
8
DEFAULT_255_1_234
10
18.9242475
20
94.2311376
40
0.1882621
50
239.6520629
51
265.9793761
0
ARC
8
DEFAULT_255_1_234
10
18.9327675
20
94.2983427
40
0.2559272
50
265.1315437
51
270.060332
0
ARC
8
DEFAULT_255_1_234
10
18.9356454
20
94.2659534
40
0.2235528
50
269.3314664
51
287.2178029
0
ARC
8
DEFAULT_255_1_234
10
18.9494306
20
94.2156279
40
0.1714108
50
287.7958004
51
329.080874
0
ARC
8
DEFAULT_255_1_234
10
18.8536763
20
94.275393
40
0.2842745
50
328.6634704
51
343.3325132
0
ARC
8
DEFAULT_255_1_234
10
18.6363783
20
94.3430863
40
0.5118644
50
343.0499468
51
351.9393422
0
ARC
8
DEFAULT_255_1_234
10
18.2897083
20
94.3941949
40
0.8622784
50
351.8069023
51
357.7959224
0
ARC
8
DEFAULT_255_1_234
10
17.9661639
20
94.4109721
40
1.1862365
50
357.5871873
51
359.2677531
0
LINE
8
DEFAULT_255_1_234
10
20.3056611
20
94.7684849
11
20.1506485
21
94.7684849
0
LINE
8
DEFAULT_255_1_234
10
19.4583127
20
94.2761394
11
19.6133252
21
94.2761394
0
ARC
8
DEFAULT_255_1_234
10
20.2165298
20
95.6631768
40
1.252368
50
248.9199003
51
254.1439814
0
ARC
8
DEFAULT_255_1_234
10
20.0484793
20
95.2305234
40
0.788226
50
241.633709
51
249.0064503
0
ARC
8
DEFAULT_255_1_234
10
19.8956187
20
94.9504317
40
0.4691427
50
230.498225
51
241.8087113
0
ARC
8
DEFAULT_255_1_234
10
19.8171762
20
94.8504906
40
0.3421437
50
227.4064532
51
229.9881192
0
ARC
8
DEFAULT_255_1_234
10
19.7684282
20
94.8029088
40
0.2741476
50
200.6781896
51
228.1763934
0
ARC
8
DEFAULT_255_1_234
10
19.7756593
20
94.8014077
40
0.2804109
50
179.5061581
51
199.8694617
0
ARC
8
DEFAULT_255_1_234
10
19.7747345
20
94.808821
40
0.2795204
50
132.4834203
51
181.0242172
0
ARC
8
DEFAULT_255_1_234
10
19.8342927
20
94.7525704
40
0.3612768
50
129.2532479
51
133.4242687
0
ARC
8
DEFAULT_255_1_234
10
19.8489377
20
94.7305965
40
0.3875675
50
101.98776
51
128.8742646
0
ARC
8
DEFAULT_255_1_234
10
19.8887987
20
94.5584741
40
0.5642249
50
89.5906553
51
102.3169264
0
ARC
8
DEFAULT_255_1_234
10
19.8958479
20
94.5903148
40
0.5323783
50
77.2360837
51
90.3248275
0
ARC
8
DEFAULT_255_1_234
10
19.9165558
20
94.68704
40
0.4334697
50
63.837784
51
77.0809408
0
ARC
8
DEFAULT_255_1_234
10
19.944332
20
94.7387911
40
0.3747796
50
45.9864267
51
64.1607727
0
ARC
8
DEFAULT_255_1_234
10
19.9704201
20
94.7685866
40
0.3352302
50
32.2747395
51
45.6547121
0
ARC
8
DEFAULT_255_1_234
10
19.9770642
20
94.770488
40
0.328603
50
359.6507365
51
32.6130309
0
ARC
8
DEFAULT_255_1_234
10
19.8827737
20
94.770966
40
0.2678863
50
359.469343
51
14.9832209
0
ARC
8
DEFAULT_255_1_234
10
19.95328
20
94.7898539
40
0.1948938
50
14.9781179
51
48.2004265
0
ARC
8
DEFAULT_255_1_234
10
19.9368444
20
94.7691983
40
0.2212521
50
48.5927837
51
74.1241538
0
ARC
8
DEFAULT_255_1_234
10
19.9034934
20
94.6591248
40
0.3362561
50
73.7888341
51
86.6652678
0
ARC
8
DEFAULT_255_1_234
10
19.8932499
20
94.5383881
40
0.4573953
50
86.2640471
51
90.0526343
0
ARC
8
DEFAULT_255_1_234
10
19.8904212
20
94.5779192
40
0.4178709
50
89.6697524
51
99.2309573
0
ARC
8
DEFAULT_255_1_234
10
19.8661663
20
94.7223964
40
0.2713749
50
99.069534
51
113.7658566
0
ARC
8
DEFAULT_255_1_234
10
19.8387854
20
94.7869677
40
0.2012469
50
114.0401004
51
127.9850673
0
ARC
8
DEFAULT_255_1_234
10
19.8147418
20
94.816573
40
0.1631167
50
127.7287463
51
176.7105154
0
ARC
8
DEFAULT_255_1_234
10
19.8826135
20
94.8064693
40
0.2315392
50
175.1779447
51
180.0581938
0
ARC
8
DEFAULT_255_1_234
10
19.7982982
20
94.8052428
40
0.1472271
50
179.6142195
51
228.1246017
0
ARC
8
DEFAULT_255_1_234
10
19.8424651
20
94.8461308
40
0.2072299
50
226.5779593
51
230.8800004
0
ARC
8
DEFAULT_255_1_234
10
19.8895729
20
94.9086636
40
0.2854818
50
231.4635071
51
241.9260842
0
ARC
8
DEFAULT_255_1_234
10
20.0092907
20
95.12898
40
0.53622
50
241.7178533
51
248.3259551
0
ARC
8
DEFAULT_255_1_234
10
20.1478279
20
95.4722064
40
0.9063478
50
248.2007737
51
252.4528373
0
ARC
8
DEFAULT_255_1_234
10
20.2682004
20
95.8443441
40
1.2974635
50
252.3391078
51
254.3469452
0
ARC
8
DEFAULT_255_1_234
10
19.5139707
20
93.1466148
40
1.5037162
50
71.0197183
51
74.4087047
0
ARC
8
DEFAULT_255_1_234
10
19.6834392
20
93.6358111
40
0.9859993
50
66.1847285
51
71.086374
0
ARC
8
DEFAULT_255_1_234
10
19.8390704
20
93.98622
40
0.6025855
50
59.3536294
51
66.2691831
0
ARC
8
DEFAULT_255_1_234
10
19.9279357
20
94.1365609
40
0.4279449
50
49.1020879
51
59.3293958
0
ARC
8
DEFAULT_255_1_234
10
20.0098097
20
94.2298834
40
0.3038015
50
32.7919921
51
49.2505539
0
ARC
8
DEFAULT_255_1_234
10
20.0419186
20
94.2527191
40
0.264448
50
31.1181161
51
32.4005348
0
ARC
8
DEFAULT_255_1_234
10
20.0330724
20
94.2491779
40
0.2738556
50
8.1116974
51
30.7958831
0
ARC
8
DEFAULT_255_1_234
10
19.9520392
20
94.2353753
40
0.3560327
50
359.8389159
51
8.4706516
0
ARC
8
DEFAULT_255_1_234
10
20.0146184
20
94.2305137
40
0.2934776
50
337.4731098
51
0.7537279
0
ARC
8
DEFAULT_255_1_234
10
20.0324879
20
94.2285387
40
0.2762607
50
307.5917067
51
336.4315538
0
ARC
8
DEFAULT_255_1_234
10
19.9864707
20
94.2798102
40
0.3449979
50
307.6551545
51
308.4529766
0
ARC
8
DEFAULT_255_1_234
10
19.9634425
20
94.315325
40
0.3871988
50
284.3734338
51
307.1424381
0
ARC
8
DEFAULT_255_1_234
10
19.9139256
20
94.4974932
40
0.5759636
50
272.4382747
51
284.646547
0
ARC
8
DEFAULT_255_1_234
10
19.9012464
20
94.6774893
40
0.7563528
50
269.9708387
51
272.8178037
0
ARC
8
DEFAULT_255_1_234
10
19.8969504
20
94.4736716
40
0.5525489
50
248.2707594
51
270.4055579
0
ARC
8
DEFAULT_255_1_234
10
19.8915245
20
94.4546192
40
0.5328452
50
246.1383403
51
248.0542782
0
ARC
8
DEFAULT_255_1_234
10
19.8496624
20
94.3666843
40
0.4355005
50
233.1670131
51
246.4950969
0
ARC
8
DEFAULT_255_1_234
10
19.7942529
20
94.2918812
40
0.3424126
50
215.3403242
51
233.0843104
0
ARC
8
DEFAULT_255_1_234
10
19.766996
20
94.2720549
40
0.3087104
50
179.2419209
51
215.2648451
0
ARC
8
DEFAULT_255_1_234
10
19.8437554
20
94.2734666
40
0.2304457
50
179.335461
51
199.1045811
0
ARC
8
DEFAULT_255_1_234
10
19.8105231
20
94.2647766
40
0.1962176
50
199.8828939
51
232.7063202
0
ARC
8
DEFAULT_255_1_234
10
19.8577499
20
94.3241788
40
0.2720938
50
232.3738199
51
255.5136649
0
ARC
8
DEFAULT_255_1_234
10
19.8918366
20
94.4485835
40
0.4010747
50
255.2446292
51
267.5320849
0
ARC
8
DEFAULT_255_1_234
10
19.9005989
20
94.5718702
40
0.5246356
50
267.1557994
51
270.0286766
0
ARC
8
DEFAULT_255_1_234
10
19.9033761
20
94.527495
40
0.4802668
50
269.7000017
51
278.1660162
0
ARC
8
DEFAULT_255_1_234
10
19.9289766
20
94.3544515
40
0.3053425
50
278.0231263
51
290.625471
0
ARC
8
DEFAULT_255_1_234
10
19.9637453
20
94.2617025
40
0.206291
50
290.6619762
51
307.0370976
0
ARC
8
DEFAULT_255_1_234
10
19.9937842
20
94.2248504
40
0.1587906
50
306.3943566
51
355.3030547
0
ARC
8
DEFAULT_255_1_234
10
19.9425774
20
94.2325113
40
0.2104809
50
354.3660432
51
0.0698737
0
ARC
8
DEFAULT_255_1_234
10
19.9568119
20
94.2347617
40
0.1962563
50
359.417946
51
16.1971788
0
ARC
8
DEFAULT_255_1_234
10
20.0023429
20
94.2472418
40
0.149053
50
16.4723299
51
52.6262157
0
ARC
8
DEFAULT_255_1_234
10
19.9202483
20
94.1388433
40
0.2850296
50
52.7386432
51
62.4979148
0
ARC
8
DEFAULT_255_1_234
10
19.781756
20
93.8782283
40
0.5801521
50
62.2515216
51
68.1220564
0
ARC
8
DEFAULT_255_1_234
10
19.6097471
20
93.4554872
40
1.0365451
50
68.0062803
51
71.8053402
0
ARC
8
DEFAULT_255_1_234
10
19.4301843
20
92.9169758
40
1.6042013
50
71.7183119
51
73.9258742
0
LINE
8
DEFAULT_255_2_778
10
9.3927417
20
60.7219082
11
10.7156417
21
60.7219082
0
LINE
8
DEFAULT_255_2_778
10
10.7156417
20
60.7219082
11
10.7156417
21
51.4615082
0
LINE
8
DEFAULT_255_2_778
10
9.3926834
20
51.4614333
11
12.0384834
21
51.4614333
0
LINE
8
DEFAULT_255_2_778
10
12.0384834
20
51.4614333
11
12.0384834
21
46.1697333
0
LINE
8
DEFAULT_255_2_778
10
12.0384834
20
46.1697333
11
9.3926834
21
46.1697333
0
LINE
8
DEFAULT_255_2_778
10
9.3926834
20
46.1697333
11
9.3926834
21
51.4614333
0
LINE
8
DEFAULT_255_2_778
10
10.1865
20
46.6989666
11
10.1865
21
50.9322666
0
LINE
8
DEFAULT_255_2_778
10
9.9219167
20
50.138575
11
10.1865167
21
50.932275
0
LINE
8
DEFAULT_255_2_778
10
10.1865167
20
50.932275
11
10.4511167
21
50.138575
0
LINE
8
DEFAULT_255_2_778
10
10.4511167
20
50.138575
11
9.9219167
21
50.138575
0
LINE
8
DEFAULT_255_2_778
10
11.2448
20
50.9322666
11
11.2448
21
46.6989666
0
LINE
8
DEFAULT_255_2_778
10
10.9802167
20
47.492675
11
11.2448167
21
46.698975
0
LINE
8
DEFAULT_255_2_778
10
11.2448167
20
46.698975
11
11.5094167
21
47.492675
0
LINE
8
DEFAULT_255_2_778
10
11.5094167
20
47.492675
11
10.9802167
21
47.492675
0
LINE
8
DEFAULT_255_2_778
10
10.7156417
20
46.1698082
11
10.7156417
21
36.9094082
0
LINE
8
DEFAULT_255_2_778
10
10.7156417
20
36.9094082
11
9.3927417
21
36.9094082
0
LINE
8
DEFAULT_255_1_234
10
4.2454489
20
93.1223211
11
4.2454489
21
92.0789983
0
LINE
8
DEFAULT_255_1_234
10
4.2454489
20
92.0789983
11
4.7996389
21
92.0789983
0
LINE
8
DEFAULT_255_1_234
10
4.7996389
20
92.0789983
11
4.7996389
21
91.9529
0
LINE
8
DEFAULT_255_1_234
10
4.7996389
20
91.9529
11
4.0904364
21
91.9529
0
LINE
8
DEFAULT_255_1_234
10
4.0904364
20
91.9529
11
4.0904364
21
93.1223211
0
LINE
8
DEFAULT_255_1_234
10
4.0904364
20
93.1223211
11
4.2454489
21
93.1223211
0
LINE
8
DEFAULT_255_1_234
10
5.377924
20
92.9215276
11
5.377924
21
92.5801788
0
LINE
8
DEFAULT_255_1_234
10
5.377924
20
92.5801788
11
5.7040126
21
92.5801788
0
LINE
8
DEFAULT_255_1_234
10
5.7040126
20
92.5801788
11
5.7040126
21
92.4396233
0
LINE
8
DEFAULT_255_1_234
10
5.7040126
20
92.4396233
11
5.377924
21
92.4396233
0
LINE
8
DEFAULT_255_1_234
10
5.377924
20
92.4396233
11
5.377924
21
92.0701634
0
LINE
8
DEFAULT_255_1_234
10
5.377924
20
92.0701634
11
5.2285337
21
92.0701634
0
LINE
8
DEFAULT_255_1_234
10
5.2285337
20
92.0701634
11
5.2285337
21
92.4396233
0
LINE
8
DEFAULT_255_1_234
10
5.2285337
20
92.4396233
11
4.9024451
21
92.4396233
0
LINE
8
DEFAULT_255_1_234
10
4.9024451
20
92.4396233
11
4.9024451
21
92.5801788
0
LINE
8
DEFAULT_255_1_234
10
4.9024451
20
92.5801788
11
5.2285337
21
92.5801788
0
LINE
8
DEFAULT_255_1_234
10
5.2285337
20
92.5801788
11
5.2285337
21
92.9215276
0
LINE
8
DEFAULT_255_1_234
10
5.2285337
20
92.9215276
11
5.377924
21
92.9215276
0
LINE
8
DEFAULT_255_1_234
10
5.0936293
20
4.6404
11
4.9819881
21
4.9456061
0
LINE
8
DEFAULT_255_1_234
10
4.9819881
20
4.9456061
11
4.4920521
21
4.9456061
0
LINE
8
DEFAULT_255_1_234
10
4.4920521
20
4.9456061
11
4.3820173
21
4.6404
0
LINE
8
DEFAULT_255_1_234
10
4.3820173
20
4.6404
11
4.2229889
21
4.6404
0
LINE
8
DEFAULT_255_1_234
10
4.2229889
20
4.6404
11
4.6695535
21
5.8098211
0
LINE
8
DEFAULT_255_1_234
10
4.6695535
20
5.8098211
11
4.8044867
21
5.8098211
0
LINE
8
DEFAULT_255_1_234
10
4.8044867
20
5.8098211
11
5.2518545
21
4.6404
0
LINE
8
DEFAULT_255_1_234
10
5.2518545
20
4.6404
11
5.0936293
21
4.6404
0
LINE
8
DEFAULT_255_1_234
10
4.7370201
20
5.6194689
11
4.5386362
21
5.0725075
0
LINE
8
DEFAULT_255_1_234
10
4.5386362
20
5.0725075
11
4.9362072
21
5.0725075
0
LINE
8
DEFAULT_255_1_234
10
4.9362072
20
5.0725075
11
4.7370201
21
5.6194689
0
LINE
8
DEFAULT_255_1_234
10
6.0638633
20
5.8098211
11
6.2188758
21
5.8098211
0
LINE
8
DEFAULT_255_1_234
10
6.2188758
20
5.8098211
11
6.2188758
21
5.014679
0
LINE
8
DEFAULT_255_1_234
10
5.8349587
20
4.6259429
11
5.7939969
21
4.6243365
0
LINE
8
DEFAULT_255_1_234
10
5.3723306
20
5.0130727
11
5.3723306
21
5.8098211
0
LINE
8
DEFAULT_255_1_234
10
5.3723306
20
5.8098211
11
5.5249336
21
5.8098211
0
LINE
8
DEFAULT_255_1_234
10
5.5249336
20
5.8098211
11
5.5249336
21
5.0178917
0
LINE
8
DEFAULT_255_1_234
10
6.0638633
20
5.0170885
11
6.0638633
21
5.8098211
0
ARC
8
DEFAULT_255_1_234
10
5.7835657
20
5.0126928
40
0.4353147
50
343.0898354
51
0.2614217
0
ARC
8
DEFAULT_255_1_234
10
5.8664058
20
4.9895837
40
0.3493402
50
315.3345598
51
342.7641223
0
ARC
8
DEFAULT_255_1_234
10
5.8440507
20
5.0127682
40
0.3815385
50
284.6606969
51
315.2182466
0
ARC
8
DEFAULT_255_1_234
10
5.798522
20
5.1673755
40
0.5426573
50
273.8500273
51
285.1797701
0
ARC
8
DEFAULT_255_1_234
10
5.789727
20
5.2015475
40
0.5772268
50
257.6317484
51
270.4238298
0
ARC
8
DEFAULT_255_1_234
10
5.7472468
20
5.0194198
40
0.3902347
50
230.6087562
51
257.9964012
0
ARC
8
DEFAULT_255_1_234
10
5.7340471
20
4.9987802
40
0.3659186
50
227.7440991
51
230.1551448
0
ARC
8
DEFAULT_255_1_234
10
5.7206302
20
4.9826471
40
0.3449568
50
189.2524587
51
227.5916061
0
ARC
8
DEFAULT_255_1_234
10
5.8727989
20
5.0154013
40
0.5004737
50
180.2665968
51
190.1525252
0
ARC
8
DEFAULT_255_1_234
10
5.8950008
20
5.0150918
40
0.3700778
50
179.5665184
51
191.9952995
0
ARC
8
DEFAULT_255_1_234
10
5.7722115
20
4.9877043
40
0.2442808
50
191.6974072
51
215.1404042
0
ARC
8
DEFAULT_255_1_234
10
5.748403
20
4.9735108
40
0.2166522
50
215.6950207
51
224.8513522
0
ARC
8
DEFAULT_255_1_234
10
5.7539773
20
4.9814697
40
0.2262237
50
225.2846858
51
255.0111758
0
ARC
8
DEFAULT_255_1_234
10
5.7863733
20
5.0928455
40
0.3421979
50
254.5944985
51
267.9129803
0
ARC
8
DEFAULT_255_1_234
10
5.7938214
20
5.2012903
40
0.4508556
50
267.4689655
51
270.0223026
0
ARC
8
DEFAULT_255_1_234
10
5.7968359
20
5.1423849
40
0.3919604
50
269.5849941
51
281.1843768
0
ARC
8
DEFAULT_255_1_234
10
5.8247124
20
5.0071059
40
0.2538457
50
280.9344262
51
300.9743589
0
ARC
8
DEFAULT_255_1_234
10
5.8459729
20
4.9679688
40
0.2093566
50
301.4980046
51
315.1466847
0
ARC
8
DEFAULT_255_1_234
10
5.8315268
20
4.9798236
40
0.2279656
50
315.5952539
51
345.6678731
0
ARC
8
DEFAULT_255_1_234
10
5.7195784
20
5.0110009
40
0.3441564
50
345.2524969
51
358.6304371
0
ARC
8
DEFAULT_255_1_234
10
5.6178138
20
5.0169916
40
0.4460494
50
358.1735671
51
0.0124524
0
LINE
8
DEFAULT_255_1_234
10
6.5618311
20
5.8098211
11
6.8437451
21
5.3616501
0
LINE
8
DEFAULT_255_1_234
10
6.8437451
20
5.3616501
11
7.1240527
21
5.8098211
0
LINE
8
DEFAULT_255_1_234
10
7.1240527
20
5.8098211
11
7.30557
21
5.8098211
0
LINE
8
DEFAULT_255_1_234
10
7.30557
20
5.8098211
11
6.9361101
21
5.2299296
0
LINE
8
DEFAULT_255_1_234
10
6.9361101
20
5.2299296
11
7.3144049
21
4.6404
0
LINE
8
DEFAULT_255_1_234
10
7.3144049
20
4.6404
11
7.1312813
21
4.6404
0
LINE
8
DEFAULT_255_1_234
10
7.1312813
20
4.6404
11
6.8437451
21
5.0966027
0
LINE
8
DEFAULT_255_1_234
10
6.8437451
20
5.0966027
11
6.5546025
21
4.6404
0
LINE
8
DEFAULT_255_1_234
10
6.5546025
20
4.6404
11
6.372282
21
4.6404
0
LINE
8
DEFAULT_255_1_234
10
6.372282
20
4.6404
11
6.7513801
21
5.2299296
0
LINE
8
DEFAULT_255_1_234
10
6.7513801
20
5.2299296
11
6.3811169
21
5.8098211
0
LINE
8
DEFAULT_255_1_234
10
6.3811169
20
5.8098211
11
6.5618311
21
5.8098211
0
LINE
8
DEFAULT_255_1_234
10
7.94329
20
5.8154433
11
7.94329
21
4.6404
0
LINE
8
DEFAULT_255_1_234
10
7.94329
20
4.6404
11
7.7938997
21
4.6404
0
LINE
8
DEFAULT_255_1_234
10
7.7938997
20
4.6404
11
7.7938997
21
5.6307133
0
LINE
8
DEFAULT_255_1_234
10
7.7938997
20
5.6307133
11
7.4943159
21
5.5206785
0
LINE
8
DEFAULT_255_1_234
10
7.4943159
20
5.5206785
11
7.4943159
21
5.6556117
0
LINE
8
DEFAULT_255_1_234
10
7.4943159
20
5.6556117
11
7.919998
21
5.8154433
0
LINE
8
DEFAULT_255_1_234
10
7.919998
20
5.8154433
11
7.94329
21
5.8154433
0
LINE
8
DEFAULT_255_1_234
10
5.0936293
20
12.5779
11
4.9819881
21
12.8831061
0
LINE
8
DEFAULT_255_1_234
10
4.9819881
20
12.8831061
11
4.4920521
21
12.8831061
0
LINE
8
DEFAULT_255_1_234
10
4.4920521
20
12.8831061
11
4.3820173
21
12.5779
0
LINE
8
DEFAULT_255_1_234
10
4.3820173
20
12.5779
11
4.2229889
21
12.5779
0
LINE
8
DEFAULT_255_1_234
10
4.2229889
20
12.5779
11
4.6695535
21
13.7473211
0
LINE
8
DEFAULT_255_1_234
10
4.6695535
20
13.7473211
11
4.8044867
21
13.7473211
0
LINE
8
DEFAULT_255_1_234
10
4.8044867
20
13.7473211
11
5.2518545
21
12.5779
0
LINE
8
DEFAULT_255_1_234
10
5.2518545
20
12.5779
11
5.0936293
21
12.5779
0
LINE
8
DEFAULT_255_1_234
10
4.7370201
20
13.5569689
11
4.5386362
21
13.0100075
0
LINE
8
DEFAULT_255_1_234
10
4.5386362
20
13.0100075
11
4.9362072
21
13.0100075
0
LINE
8
DEFAULT_255_1_234
10
4.9362072
20
13.0100075
11
4.7370201
21
13.5569689
0
LINE
8
DEFAULT_255_1_234
10
6.0638633
20
13.7473211
11
6.2188758
21
13.7473211
0
LINE
8
DEFAULT_255_1_234
10
6.2188758
20
13.7473211
11
6.2188758
21
12.952179
0
LINE
8
DEFAULT_255_1_234
10
5.8349587
20
12.5634429
11
5.7939969
21
12.5618365
0
LINE
8
DEFAULT_255_1_234
10
5.3723306
20
12.9505727
11
5.3723306
21
13.7473211
0
LINE
8
DEFAULT_255_1_234
10
5.3723306
20
13.7473211
11
5.5249336
21
13.7473211
0
LINE
8
DEFAULT_255_1_234
10
5.5249336
20
13.7473211
11
5.5249336
21
12.9553917
0
LINE
8
DEFAULT_255_1_234
10
6.0638633
20
12.9545885
11
6.0638633
21
13.7473211
0
ARC
8
DEFAULT_255_1_234
10
5.7835657
20
12.9501928
40
0.4353147
50
343.0898354
51
0.2614217
0
ARC
8
DEFAULT_255_1_234
10
5.8664058
20
12.9270837
40
0.3493402
50
315.3345598
51
342.7641223
0
ARC
8
DEFAULT_255_1_234
10
5.8440507
20
12.9502682
40
0.3815385
50
284.6606969
51
315.2182466
0
ARC
8
DEFAULT_255_1_234
10
5.798522
20
13.1048755
40
0.5426573
50
273.8500273
51
285.1797701
0
ARC
8
DEFAULT_255_1_234
10
5.789727
20
13.1390475
40
0.5772268
50
257.6317484
51
270.4238298
0
ARC
8
DEFAULT_255_1_234
10
5.7472468
20
12.9569198
40
0.3902347
50
230.6087562
51
257.9964012
0
ARC
8
DEFAULT_255_1_234
10
5.7340471
20
12.9362802
40
0.3659186
50
227.7440991
51
230.1551448
0
ARC
8
DEFAULT_255_1_234
10
5.7206302
20
12.9201471
40
0.3449568
50
189.2524587
51
227.5916061
0
ARC
8
DEFAULT_255_1_234
10
5.8727989
20
12.9529013
40
0.5004737
50
180.2665968
51
190.1525252
0
ARC
8
DEFAULT_255_1_234
10
5.8950008
20
12.9525918
40
0.3700778
50
179.5665184
51
191.9952995
0
ARC
8
DEFAULT_255_1_234
10
5.7722115
20
12.9252043
40
0.2442808
50
191.6974072
51
215.1404042
0
ARC
8
DEFAULT_255_1_234
10
5.748403
20
12.9110108
40
0.2166522
50
215.6950207
51
224.8513522
0
ARC
8
DEFAULT_255_1_234
10
5.7539773
20
12.9189697
40
0.2262237
50
225.2846858
51
255.0111758
0
ARC
8
DEFAULT_255_1_234
10
5.7863733
20
13.0303455
40
0.3421979
50
254.5944985
51
267.9129803
0
ARC
8
DEFAULT_255_1_234
10
5.7938214
20
13.1387903
40
0.4508556
50
267.4689655
51
270.0223026
0
ARC
8
DEFAULT_255_1_234
10
5.7968359
20
13.0798849
40
0.3919604
50
269.5849941
51
281.1843768
0
ARC
8
DEFAULT_255_1_234
10
5.8247124
20
12.9446059
40
0.2538457
50
280.9344262
51
300.9743589
0
ARC
8
DEFAULT_255_1_234
10
5.8459729
20
12.9054688
40
0.2093566
50
301.4980046
51
315.1466847
0
ARC
8
DEFAULT_255_1_234
10
5.8315268
20
12.9173236
40
0.2279656
50
315.5952539
51
345.6678731
0
ARC
8
DEFAULT_255_1_234
10
5.7195784
20
12.9485009
40
0.3441564
50
345.2524969
51
358.6304371
0
ARC
8
DEFAULT_255_1_234
10
5.6178138
20
12.9544916
40
0.4460494
50
358.1735671
51
0.0124524
0
LINE
8
DEFAULT_255_1_234
10
6.5618311
20
13.7473211
11
6.8437451
21
13.2991501
0
LINE
8
DEFAULT_255_1_234
10
6.8437451
20
13.2991501
11
7.1240527
21
13.7473211
0
LINE
8
DEFAULT_255_1_234
10
7.1240527
20
13.7473211
11
7.30557
21
13.7473211
0
LINE
8
DEFAULT_255_1_234
10
7.30557
20
13.7473211
11
6.9361101
21
13.1674296
0
LINE
8
DEFAULT_255_1_234
10
6.9361101
20
13.1674296
11
7.3144049
21
12.5779
0
LINE
8
DEFAULT_255_1_234
10
7.3144049
20
12.5779
11
7.1312813
21
12.5779
0
LINE
8
DEFAULT_255_1_234
10
7.1312813
20
12.5779
11
6.8437451
21
13.0341027
0
LINE
8
DEFAULT_255_1_234
10
6.8437451
20
13.0341027
11
6.5546025
21
12.5779
0
LINE
8
DEFAULT_255_1_234
10
6.5546025
20
12.5779
11
6.372282
21
12.5779
0
LINE
8
DEFAULT_255_1_234
10
6.372282
20
12.5779
11
6.7513801
21
13.1674296
0
LINE
8
DEFAULT_255_1_234
10
6.7513801
20
13.1674296
11
6.3811169
21
13.7473211
0
LINE
8
DEFAULT_255_1_234
10
6.3811169
20
13.7473211
11
6.5618311
21
13.7473211
0
LINE
8
DEFAULT_255_1_234
10
7.94329
20
13.7529433
11
7.94329
21
12.5779
0
LINE
8
DEFAULT_255_1_234
10
7.94329
20
12.5779
11
7.7938997
21
12.5779
0
LINE
8
DEFAULT_255_1_234
10
7.7938997
20
12.5779
11
7.7938997
21
13.5682133
0
LINE
8
DEFAULT_255_1_234
10
7.7938997
20
13.5682133
11
7.4943159
21
13.4581785
0
LINE
8
DEFAULT_255_1_234
10
7.4943159
20
13.4581785
11
7.4943159
21
13.5931117
0
LINE
8
DEFAULT_255_1_234
10
7.4943159
20
13.5931117
11
7.919998
21
13.7529433
0
LINE
8
DEFAULT_255_1_234
10
7.919998
20
13.7529433
11
7.94329
21
13.7529433
0
LINE
8
DEFAULT_255_1_234
10
5.0936293
20
20.5154
11
4.9819881
21
20.8206061
0
LINE
8
DEFAULT_255_1_234
10
4.9819881
20
20.8206061
11
4.4920521
21
20.8206061
0
LINE
8
DEFAULT_255_1_234
10
4.4920521
20
20.8206061
11
4.3820173
21
20.5154
0
LINE
8
DEFAULT_255_1_234
10
4.3820173
20
20.5154
11
4.2229889
21
20.5154
0
LINE
8
DEFAULT_255_1_234
10
4.2229889
20
20.5154
11
4.6695535
21
21.6848211
0
LINE
8
DEFAULT_255_1_234
10
4.6695535
20
21.6848211
11
4.8044867
21
21.6848211
0
LINE
8
DEFAULT_255_1_234
10
4.8044867
20
21.6848211
11
5.2518545
21
20.5154
0
LINE
8
DEFAULT_255_1_234
10
5.2518545
20
20.5154
11
5.0936293
21
20.5154
0
LINE
8
DEFAULT_255_1_234
10
4.7370201
20
21.4944689
11
4.5386362
21
20.9475075
0
LINE
8
DEFAULT_255_1_234
10
4.5386362
20
20.9475075
11
4.9362072
21
20.9475075
0
LINE
8
DEFAULT_255_1_234
10
4.9362072
20
20.9475075
11
4.7370201
21
21.4944689
0
LINE
8
DEFAULT_255_1_234
10
6.0638633
20
21.6848211
11
6.2188758
21
21.6848211
0
LINE
8
DEFAULT_255_1_234
10
6.2188758
20
21.6848211
11
6.2188758
21
20.889679
0
LINE
8
DEFAULT_255_1_234
10
5.8349587
20
20.5009429
11
5.7939969
21
20.4993365
0
LINE
8
DEFAULT_255_1_234
10
5.3723306
20
20.8880727
11
5.3723306
21
21.6848211
0
LINE
8
DEFAULT_255_1_234
10
5.3723306
20
21.6848211
11
5.5249336
21
21.6848211
0
LINE
8
DEFAULT_255_1_234
10
5.5249336
20
21.6848211
11
5.5249336
21
20.8928917
0
LINE
8
DEFAULT_255_1_234
10
6.0638633
20
20.8920885
11
6.0638633
21
21.6848211
0
ARC
8
DEFAULT_255_1_234
10
5.7835657
20
20.8876928
40
0.4353147
50
343.0898354
51
0.2614217
0
ARC
8
DEFAULT_255_1_234
10
5.8664058
20
20.8645837
40
0.3493402
50
315.3345598
51
342.7641223
0
ARC
8
DEFAULT_255_1_234
10
5.8440507
20
20.8877682
40
0.3815385
50
284.6606969
51
315.2182466
0
ARC
8
DEFAULT_255_1_234
10
5.798522
20
21.0423755
40
0.5426573
50
273.8500273
51
285.1797701
0
ARC
8
DEFAULT_255_1_234
10
5.789727
20
21.0765475
40
0.5772268
50
257.6317484
51
270.4238298
0
ARC
8
DEFAULT_255_1_234
10
5.7472468
20
20.8944198
40
0.3902347
50
230.6087562
51
257.9964012
0
ARC
8
DEFAULT_255_1_234
10
5.7340471
20
20.8737802
40
0.3659186
50
227.7440991
51
230.1551448
0
ARC
8
DEFAULT_255_1_234
10
5.7206302
20
20.8576471
40
0.3449568
50
189.2524587
51
227.5916061
0
ARC
8
DEFAULT_255_1_234
10
5.8727989
20
20.8904013
40
0.5004737
50
180.2665968
51
190.1525252
0
ARC
8
DEFAULT_255_1_234
10
5.8950008
20
20.8900918
40
0.3700778
50
179.5665184
51
191.9952995
0
ARC
8
DEFAULT_255_1_234
10
5.7722115
20
20.8627043
40
0.2442808
50
191.6974072
51
215.1404042
0
ARC
8
DEFAULT_255_1_234
10
5.748403
20
20.8485108
40
0.2166522
50
215.6950207
51
224.8513522
0
ARC
8
DEFAULT_255_1_234
10
5.7539773
20
20.8564697
40
0.2262237
50
225.2846858
51
255.0111758
0
ARC
8
DEFAULT_255_1_234
10
5.7863733
20
20.9678455
40
0.3421979
50
254.5944985
51
267.9129803
0
ARC
8
DEFAULT_255_1_234
10
5.7938214
20
21.0762903
40
0.4508556
50
267.4689655
51
270.0223026
0
ARC
8
DEFAULT_255_1_234
10
5.7968359
20
21.0173849
40
0.3919604
50
269.5849941
51
281.1843768
0
ARC
8
DEFAULT_255_1_234
10
5.8247124
20
20.8821059
40
0.2538457
50
280.9344262
51
300.9743589
0
ARC
8
DEFAULT_255_1_234
10
5.8459729
20
20.8429688
40
0.2093566
50
301.4980046
51
315.1466847
0
ARC
8
DEFAULT_255_1_234
10
5.8315268
20
20.8548236
40
0.2279656
50
315.5952539
51
345.6678731
0
ARC
8
DEFAULT_255_1_234
10
5.7195784
20
20.8860009
40
0.3441564
50
345.2524969
51
358.6304371
0
ARC
8
DEFAULT_255_1_234
10
5.6178138
20
20.8919916
40
0.4460494
50
358.1735671
51
0.0124524
0
LINE
8
DEFAULT_255_1_234
10
6.5618311
20
21.6848211
11
6.8437451
21
21.2366501
0
LINE
8
DEFAULT_255_1_234
10
6.8437451
20
21.2366501
11
7.1240527
21
21.6848211
0
LINE
8
DEFAULT_255_1_234
10
7.1240527
20
21.6848211
11
7.30557
21
21.6848211
0
LINE
8
DEFAULT_255_1_234
10
7.30557
20
21.6848211
11
6.9361101
21
21.1049296
0
LINE
8
DEFAULT_255_1_234
10
6.9361101
20
21.1049296
11
7.3144049
21
20.5154
0
LINE
8
DEFAULT_255_1_234
10
7.3144049
20
20.5154
11
7.1312813
21
20.5154
0
LINE
8
DEFAULT_255_1_234
10
7.1312813
20
20.5154
11
6.8437451
21
20.9716027
0
LINE
8
DEFAULT_255_1_234
10
6.8437451
20
20.9716027
11
6.5546025
21
20.5154
0
LINE
8
DEFAULT_255_1_234
10
6.5546025
20
20.5154
11
6.372282
21
20.5154
0
LINE
8
DEFAULT_255_1_234
10
6.372282
20
20.5154
11
6.7513801
21
21.1049296
0
LINE
8
DEFAULT_255_1_234
10
6.7513801
20
21.1049296
11
6.3811169
21
21.6848211
0
LINE
8
DEFAULT_255_1_234
10
6.3811169
20
21.6848211
11
6.5618311
21
21.6848211
0
LINE
8
DEFAULT_255_1_234
10
7.94329
20
21.6904433
11
7.94329
21
20.5154
0
LINE
8
DEFAULT_255_1_234
10
7.94329
20
20.5154
11
7.7938997
21
20.5154
0
LINE
8
DEFAULT_255_1_234
10
7.7938997
20
20.5154
11
7.7938997
21
21.5057133
0
LINE
8
DEFAULT_255_1_234
10
7.7938997
20
21.5057133
11
7.4943159
21
21.3956785
0
LINE
8
DEFAULT_255_1_234
10
7.4943159
20
21.3956785
11
7.4943159
21
21.5306117
0
LINE
8
DEFAULT_255_1_234
10
7.4943159
20
21.5306117
11
7.919998
21
21.6904433
0
LINE
8
DEFAULT_255_1_234
10
7.919998
20
21.6904433
11
7.94329
21
21.6904433
0
LINE
8
DEFAULT_255_1_234
10
5.0936293
20
28.4529
11
4.9819881
21
28.7581061
0
LINE
8
DEFAULT_255_1_234
10
4.9819881
20
28.7581061
11
4.4920521
21
28.7581061
0
LINE
8
DEFAULT_255_1_234
10
4.4920521
20
28.7581061
11
4.3820173
21
28.4529
0
LINE
8
DEFAULT_255_1_234
10
4.3820173
20
28.4529
11
4.2229889
21
28.4529
0
LINE
8
DEFAULT_255_1_234
10
4.2229889
20
28.4529
11
4.6695535
21
29.6223211
0
LINE
8
DEFAULT_255_1_234
10
4.6695535
20
29.6223211
11
4.8044867
21
29.6223211
0
LINE
8
DEFAULT_255_1_234
10
4.8044867
20
29.6223211
11
5.2518545
21
28.4529
0
LINE
8
DEFAULT_255_1_234
10
5.2518545
20
28.4529
11
5.0936293
21
28.4529
0
LINE
8
DEFAULT_255_1_234
10
4.7370201
20
29.4319689
11
4.5386362
21
28.8850075
0
LINE
8
DEFAULT_255_1_234
10
4.5386362
20
28.8850075
11
4.9362072
21
28.8850075
0
LINE
8
DEFAULT_255_1_234
10
4.9362072
20
28.8850075
11
4.7370201
21
29.4319689
0
LINE
8
DEFAULT_255_1_234
10
6.0638633
20
29.6223211
11
6.2188758
21
29.6223211
0
LINE
8
DEFAULT_255_1_234
10
6.2188758
20
29.6223211
11
6.2188758
21
28.827179
0
LINE
8
DEFAULT_255_1_234
10
5.8349587
20
28.4384429
11
5.7939969
21
28.4368365
0
LINE
8
DEFAULT_255_1_234
10
5.3723306
20
28.8255727
11
5.3723306
21
29.6223211
0
LINE
8
DEFAULT_255_1_234
10
5.3723306
20
29.6223211
11
5.5249336
21
29.6223211
0
LINE
8
DEFAULT_255_1_234
10
5.5249336
20
29.6223211
11
5.5249336
21
28.8303917
0
LINE
8
DEFAULT_255_1_234
10
6.0638633
20
28.8295885
11
6.0638633
21
29.6223211
0
ARC
8
DEFAULT_255_1_234
10
5.7835657
20
28.8251928
40
0.4353147
50
343.0898354
51
0.2614217
0
ARC
8
DEFAULT_255_1_234
10
5.8664058
20
28.8020837
40
0.3493402
50
315.3345598
51
342.7641223
0
ARC
8
DEFAULT_255_1_234
10
5.8440507
20
28.8252682
40
0.3815385
50
284.6606969
51
315.2182466
0
ARC
8
DEFAULT_255_1_234
10
5.798522
20
28.9798755
40
0.5426573
50
273.8500273
51
285.1797701
0
ARC
8
DEFAULT_255_1_234
10
5.789727
20
29.0140475
40
0.5772268
50
257.6317484
51
270.4238298
0
ARC
8
DEFAULT_255_1_234
10
5.7472468
20
28.8319198
40
0.3902347
50
230.6087562
51
257.9964012
0
ARC
8
DEFAULT_255_1_234
10
5.7340471
20
28.8112802
40
0.3659186
50
227.7440991
51
230.1551448
0
ARC
8
DEFAULT_255_1_234
10
5.7206302
20
28.7951471
40
0.3449568
50
189.2524587
51
227.5916061
0
ARC
8
DEFAULT_255_1_234
10
5.8727989
20
28.8279013
40
0.5004737
50
180.2665968
51
190.1525252
0
ARC
8
DEFAULT_255_1_234
10
5.8950008
20
28.8275918
40
0.3700778
50
179.5665184
51
191.9952995
0
ARC
8
DEFAULT_255_1_234
10
5.7722115
20
28.8002043
40
0.2442808
50
191.6974072
51
215.1404042
0
ARC
8
DEFAULT_255_1_234
10
5.748403
20
28.7860108
40
0.2166522
50
215.6950207
51
224.8513522
0
ARC
8
DEFAULT_255_1_234
10
5.7539773
20
28.7939697
40
0.2262237
50
225.2846858
51
255.0111758
0
ARC
8
DEFAULT_255_1_234
10
5.7863733
20
28.9053455
40
0.3421979
50
254.5944985
51
267.9129803
0
ARC
8
DEFAULT_255_1_234
10
5.7938214
20
29.0137903
40
0.4508556
50
267.4689655
51
270.0223026
0
ARC
8
DEFAULT_255_1_234
10
5.7968359
20
28.9548849
40
0.3919604
50
269.5849941
51
281.1843768
0
ARC
8
DEFAULT_255_1_234
10
5.8247124
20
28.8196059
40
0.2538457
50
280.9344262
51
300.9743589
0
ARC
8
DEFAULT_255_1_234
10
5.8459729
20
28.7804688
40
0.2093566
50
301.4980046
51
315.1466847
0
ARC
8
DEFAULT_255_1_234
10
5.8315268
20
28.7923236
40
0.2279656
50
315.5952539
51
345.6678731
0
ARC
8
DEFAULT_255_1_234
10
5.7195784
20
28.8235009
40
0.3441564
50
345.2524969
51
358.6304371
0
ARC
8
DEFAULT_255_1_234
10
5.6178138
20
28.8294916
40
0.4460494
50
358.1735671
51
0.0124524
0
LINE
8
DEFAULT_255_1_234
10
6.5618311
20
29.6223211
11
6.8437451
21
29.1741501
0
LINE
8
DEFAULT_255_1_234
10
6.8437451
20
29.1741501
11
7.1240527
21
29.6223211
0
LINE
8
DEFAULT_255_1_234
10
7.1240527
20
29.6223211
11
7.30557
21
29.6223211
0
LINE
8
DEFAULT_255_1_234
10
7.30557
20
29.6223211
11
6.9361101
21
29.0424296
0
LINE
8
DEFAULT_255_1_234
10
6.9361101
20
29.0424296
11
7.3144049
21
28.4529
0
LINE
8
DEFAULT_255_1_234
10
7.3144049
20
28.4529
11
7.1312813
21
28.4529
0
LINE
8
DEFAULT_255_1_234
10
7.1312813
20
28.4529
11
6.8437451
21
28.9091027
0
LINE
8
DEFAULT_255_1_234
10
6.8437451
20
28.9091027
11
6.5546025
21
28.4529
0
LINE
8
DEFAULT_255_1_234
10
6.5546025
20
28.4529
11
6.372282
21
28.4529
0
LINE
8
DEFAULT_255_1_234
10
6.372282
20
28.4529
11
6.7513801
21
29.0424296
0
LINE
8
DEFAULT_255_1_234
10
6.7513801
20
29.0424296
11
6.3811169
21
29.6223211
0
LINE
8
DEFAULT_255_1_234
10
6.3811169
20
29.6223211
11
6.5618311
21
29.6223211
0
LINE
8
DEFAULT_255_1_234
10
7.94329
20
29.6279433
11
7.94329
21
28.4529
0
LINE
8
DEFAULT_255_1_234
10
7.94329
20
28.4529
11
7.7938997
21
28.4529
0
LINE
8
DEFAULT_255_1_234
10
7.7938997
20
28.4529
11
7.7938997
21
29.4432133
0
LINE
8
DEFAULT_255_1_234
10
7.7938997
20
29.4432133
11
7.4943159
21
29.3331785
0
LINE
8
DEFAULT_255_1_234
10
7.4943159
20
29.3331785
11
7.4943159
21
29.4681117
0
LINE
8
DEFAULT_255_1_234
10
7.4943159
20
29.4681117
11
7.919998
21
29.6279433
0
LINE
8
DEFAULT_255_1_234
10
7.919998
20
29.6279433
11
7.94329
21
29.6279433
0
LINE
8
DEFAULT_255_1_234
10
4.4591154
20
36.3904
11
4.1354364
21
36.3904
0
LINE
8
DEFAULT_255_1_234
10
4.1354364
20
36.3904
11
4.1354364
21
37.5598211
0
LINE
8
DEFAULT_255_1_234
10
4.1354364
20
37.5598211
11
4.4655408
21
37.5598211
0
LINE
8
DEFAULT_255_1_234
10
4.9811784
20
37.0144661
11
4.9811784
21
36.9397709
0
LINE
8
DEFAULT_255_1_234
10
4.4695567
20
37.4329196
11
4.2896458
21
37.4329196
0
LINE
8
DEFAULT_255_1_234
10
4.2896458
20
37.4329196
11
4.2896458
21
36.5164983
0
LINE
8
DEFAULT_255_1_234
10
4.2896458
20
36.5164983
11
4.4518869
21
36.5164983
0
LINE
8
DEFAULT_255_1_234
10
4.8285754
20
36.9429836
11
4.8285754
21
37.0112534
0
ARC
8
DEFAULT_255_1_234
10
4.4694351
20
36.9732894
40
0.5865446
50
75.4101064
51
90.3804066
0
ARC
8
DEFAULT_255_1_234
10
4.4923864
20
37.0689492
40
0.4881916
50
60.145586
51
75.1888407
0
ARC
8
DEFAULT_255_1_234
10
4.508264
20
37.0966199
40
0.4562893
50
26.5253612
51
60.1450928
0
ARC
8
DEFAULT_255_1_234
10
4.3962389
20
37.0372158
40
0.5830602
50
7.4030428
51
26.8320788
0
ARC
8
DEFAULT_255_1_234
10
4.2368146
20
37.0123804
40
0.7443669
50
0.1605367
51
7.7176192
0
ARC
8
DEFAULT_255_1_234
10
4.253205
20
36.9359434
40
0.7279835
50
348.7289388
51
0.3012466
0
ARC
8
DEFAULT_255_1_234
10
4.4188481
20
36.9030386
40
0.559104
50
333.0706509
51
348.7181832
0
ARC
8
DEFAULT_255_1_234
10
4.5155238
20
36.8505319
40
0.4491417
50
299.2531685
51
333.4571258
0
ARC
8
DEFAULT_255_1_234
10
4.4794378
20
36.9190828
40
0.5265881
50
278.107187
51
299.0339503
0
ARC
8
DEFAULT_255_1_234
10
4.4538457
20
37.0698216
40
0.679442
50
270.4443897
51
278.4511052
0
ARC
8
DEFAULT_255_1_234
10
4.4559287
20
36.9769213
40
0.4604407
50
269.4970433
51
284.0205042
0
ARC
8
DEFAULT_255_1_234
10
4.4914588
20
36.8403978
40
0.3193797
50
283.7700273
51
318.1555492
0
ARC
8
DEFAULT_255_1_234
10
4.4577346
20
36.8656367
40
0.3613588
50
318.7415601
51
343.6873628
0
ARC
8
DEFAULT_255_1_234
10
4.2773369
20
36.9219832
40
0.5503313
50
343.3325091
51
355.8548958
0
ARC
8
DEFAULT_255_1_234
10
4.0675054
20
36.9419319
40
0.7610708
50
355.4988528
51
0.0791727
0
ARC
8
DEFAULT_255_1_234
10
4.1457676
20
37.015478
40
0.6828208
50
359.6455037
51
9.8607896
0
ARC
8
DEFAULT_255_1_234
10
4.3818374
20
37.0581099
40
0.4429406
50
9.6571907
51
26.1932807
0
ARC
8
DEFAULT_255_1_234
10
4.4746363
20
37.1012118
40
0.3406537
50
26.5777228
51
40.1532208
0
ARC
8
DEFAULT_255_1_234
10
4.5002089
20
37.1211619
40
0.308246
50
40.3840491
51
80.1431104
0
ARC
8
DEFAULT_255_1_234
10
4.4675207
20
36.9762333
40
0.4566909
50
79.2152159
51
89.7445637
0
LINE
8
DEFAULT_255_1_234
10
5.3795526
20
37.5598211
11
5.3795526
21
36.3904
0
LINE
8
DEFAULT_255_1_234
10
5.3795526
20
36.3904
11
5.2253433
21
36.3904
0
LINE
8
DEFAULT_255_1_234
10
5.2253433
20
36.3904
11
5.2253433
21
37.5598211
0
LINE
8
DEFAULT_255_1_234
10
5.2253433
20
37.5598211
11
5.3795526
21
37.5598211
0
LINE
8
DEFAULT_255_1_234
10
5.8389681
20
36.9261169
11
5.8389681
21
37.0473962
0
LINE
8
DEFAULT_255_1_234
10
5.8389681
20
37.0473962
11
5.9506092
21
37.0473962
0
LINE
8
DEFAULT_255_1_234
10
5.760257
20
37.2530087
11
5.6116699
21
37.2530087
0
LINE
8
DEFAULT_255_1_234
10
5.6012286
20
36.6988188
11
5.7506189
21
36.6988188
0
LINE
8
DEFAULT_255_1_234
10
5.9506092
20
36.9261169
11
5.8389681
21
36.9261169
0
ARC
8
DEFAULT_255_1_234
10
5.9476959
20
37.3866713
40
0.3392876
50
270.4919872
51
281.8951556
0
ARC
8
DEFAULT_255_1_234
10
5.971822
20
37.2764702
40
0.2264817
50
281.6691735
51
301.2943132
0
ARC
8
DEFAULT_255_1_234
10
5.9888431
20
37.2453304
40
0.1910381
50
301.7833094
51
311.7545298
0
ARC
8
DEFAULT_255_1_234
10
5.9980006
20
37.2351748
40
0.1773635
50
311.7323931
51
354.2802411
0
ARC
8
DEFAULT_255_1_234
10
5.9253632
20
37.2476722
40
0.2509385
50
353.0937916
51
0.1181479
0
ARC
8
DEFAULT_255_1_234
10
5.8792416
20
37.2524386
40
0.2970898
50
359.1805295
51
15.0453146
0
ARC
8
DEFAULT_255_1_234
10
6.0138253
20
37.2916992
40
0.1569564
50
13.9577229
51
77.6713066
0
ARC
8
DEFAULT_255_1_234
10
5.9751783
20
37.1531949
40
0.3006298
50
76.1116566
51
90.7026153
0
ARC
8
DEFAULT_255_1_234
10
5.9692621
20
37.1805545
40
0.2732568
50
89.5324876
51
103.531937
0
ARC
8
DEFAULT_255_1_234
10
5.9492065
20
37.2604884
40
0.1908508
50
103.2931773
51
133.5619022
0
ARC
8
DEFAULT_255_1_234
10
5.9447553
20
37.2664375
40
0.1834746
50
133.8349307
51
173.5344437
0
ARC
8
DEFAULT_255_1_234
10
6.0170597
20
37.2536213
40
0.2568033
50
172.5096846
51
180.1366907
0
ARC
8
DEFAULT_255_1_234
10
5.921949
20
37.2570622
40
0.3103056
50
155.3484492
51
180.7484736
0
ARC
8
DEFAULT_255_1_234
10
5.9170579
20
37.2541846
40
0.3070957
50
131.5744599
51
154.4798489
0
ARC
8
DEFAULT_255_1_234
10
5.9483727
20
37.222531
40
0.3515643
50
96.9875458
51
131.9690667
0
ARC
8
DEFAULT_255_1_234
10
5.9703207
20
37.0979636
40
0.4779224
50
89.8596053
51
97.7825159
0
ARC
8
DEFAULT_255_1_234
10
5.975127
20
37.0717616
40
0.5041361
50
78.3655447
51
90.4131539
0
ARC
8
DEFAULT_255_1_234
10
6.0109188
20
37.2376887
40
0.3344039
50
56.6229102
51
78.638727
0
ARC
8
DEFAULT_255_1_234
10
6.0324131
20
37.2752805
40
0.2912001
50
47.0253525
51
56.0854072
0
ARC
8
DEFAULT_255_1_234
10
6.0343911
20
37.2792223
40
0.2869704
50
10.9208013
51
46.7778124
0
ARC
8
DEFAULT_255_1_234
10
5.8979978
20
37.2476857
40
0.426899
50
359.6364486
51
11.6087304
0
ARC
8
DEFAULT_255_1_234
10
6.0814822
20
37.2461752
40
0.243409
50
332.3549906
51
359.7179418
0
ARC
8
DEFAULT_255_1_234
10
6.0164423
20
37.2770142
40
0.3153459
50
325.2333722
51
332.8745602
0
ARC
8
DEFAULT_255_1_234
10
6.0317047
20
37.2663828
40
0.2967456
50
292.9802137
51
325.2392345
0
ARC
8
DEFAULT_255_1_234
10
6.0042421
20
37.3197863
40
0.3566604
50
292.5402179
51
293.6924929
0
ARC
8
DEFAULT_255_1_234
10
6.0435017
20
36.6743091
40
0.3307468
50
57.6435486
51
72.8625112
0
ARC
8
DEFAULT_255_1_234
10
6.0789517
20
36.7317549
40
0.2632492
50
36.7248896
51
57.4697979
0
ARC
8
DEFAULT_255_1_234
10
6.0778149
20
36.733022
40
0.2634081
50
8.0545065
51
36.356114
0
ARC
8
DEFAULT_255_1_234
10
5.9915335
20
36.7175174
40
0.3510261
50
359.8320645
51
8.5869982
0
ARC
8
DEFAULT_255_1_234
10
5.9540111
20
36.7127101
40
0.3885653
50
343.9829931
51
0.5571613
0
ARC
8
DEFAULT_255_1_234
10
6.0426308
20
36.6884438
40
0.2966924
50
311.6359546
51
343.7651759
0
ARC
8
DEFAULT_255_1_234
10
6.0047877
20
36.7311102
40
0.3537231
50
279.7829875
51
311.6255694
0
ARC
8
DEFAULT_255_1_234
10
5.9746653
20
36.874828
40
0.5004971
50
269.7286406
51
280.3856417
0
ARC
8
DEFAULT_255_1_234
10
5.9684726
20
36.8706996
40
0.4963778
50
256.6828919
51
270.4412052
0
ARC
8
DEFAULT_255_1_234
10
5.9346022
20
36.7322394
40
0.3538406
50
229.4223008
51
256.8556159
0
ARC
8
DEFAULT_255_1_234
10
5.8931415
20
36.6855736
40
0.2914296
50
181.818294
51
229.6455059
0
ARC
8
DEFAULT_255_1_234
10
5.9971371
20
36.6986496
40
0.3959084
50
179.9755256
51
183.2323064
0
ARC
8
DEFAULT_255_1_234
10
5.9799117
20
36.6966037
40
0.2293034
50
179.4465117
51
196.2869258
0
ARC
8
DEFAULT_255_1_234
10
5.9311525
20
36.6832651
40
0.1787621
50
196.5661473
51
227.705904
0
ARC
8
DEFAULT_255_1_234
10
5.9475619
20
36.7016155
40
0.2033784
50
227.7652068
51
257.8762805
0
ARC
8
DEFAULT_255_1_234
10
5.970059
20
36.7959156
40
0.3003081
50
257.4584385
51
270.426602
0
ARC
8
DEFAULT_255_1_234
10
5.9746156
20
36.8248996
40
0.329292
50
269.5962073
51
280.8789248
0
ARC
8
DEFAULT_255_1_234
10
5.9975685
20
36.7102685
40
0.2123908
50
280.6346389
51
299.8595945
0
ARC
8
DEFAULT_255_1_234
10
6.0166591
20
36.6740212
40
0.171457
50
300.3576302
51
314.5517981
0
ARC
8
DEFAULT_255_1_234
10
6.0083651
20
36.6800919
40
0.1816095
50
315.0728369
51
345.0431014
0
ARC
8
DEFAULT_255_1_234
10
5.9160466
20
36.7069841
40
0.2777492
50
344.5986631
51
357.9269593
0
ARC
8
DEFAULT_255_1_234
10
5.8264792
20
36.7131276
40
0.3674917
50
357.4748886
51
0.0231117
0
ARC
8
DEFAULT_255_1_234
10
5.9287901
20
36.7155679
40
0.2651907
50
359.5047933
51
13.4239635
0
ARC
8
DEFAULT_255_1_234
10
6.0154545
20
36.7377478
40
0.1757509
50
12.9498199
51
48.7551375
0
ARC
8
DEFAULT_255_1_234
10
5.9972279
20
36.71284
40
0.2065134
50
49.5088623
51
72.1836453
0
ARC
8
DEFAULT_255_1_234
10
5.9614431
20
36.6066291
40
0.3185836
50
71.9010081
51
84.3554254
0
ARC
8
DEFAULT_255_1_234
10
5.9453063
20
36.4705326
40
0.4556151
50
84.0193428
51
89.333121
0
LINE
8
DEFAULT_255_1_234
10
4.4591154
20
44.3279
11
4.1354364
21
44.3279
0
LINE
8
DEFAULT_255_1_234
10
4.1354364
20
44.3279
11
4.1354364
21
45.4973211
0
LINE
8
DEFAULT_255_1_234
10
4.1354364
20
45.4973211
11
4.4655408
21
45.4973211
0
LINE
8
DEFAULT_255_1_234
10
4.9811784
20
44.9519661
11
4.9811784
21
44.8772709
0
LINE
8
DEFAULT_255_1_234
10
4.4695567
20
45.3704196
11
4.2896458
21
45.3704196
0
LINE
8
DEFAULT_255_1_234
10
4.2896458
20
45.3704196
11
4.2896458
21
44.4539983
0
LINE
8
DEFAULT_255_1_234
10
4.2896458
20
44.4539983
11
4.4518869
21
44.4539983
0
LINE
8
DEFAULT_255_1_234
10
4.8285754
20
44.8804836
11
4.8285754
21
44.9487534
0
ARC
8
DEFAULT_255_1_234
10
4.4694351
20
44.9107894
40
0.5865446
50
75.4101064
51
90.3804066
0
ARC
8
DEFAULT_255_1_234
10
4.4923864
20
45.0064492
40
0.4881916
50
60.145586
51
75.1888407
0
ARC
8
DEFAULT_255_1_234
10
4.508264
20
45.0341199
40
0.4562893
50
26.5253612
51
60.1450928
0
ARC
8
DEFAULT_255_1_234
10
4.3962389
20
44.9747158
40
0.5830602
50
7.4030428
51
26.8320788
0
ARC
8
DEFAULT_255_1_234
10
4.2368146
20
44.9498804
40
0.7443669
50
0.1605367
51
7.7176192
0
ARC
8
DEFAULT_255_1_234
10
4.253205
20
44.8734434
40
0.7279835
50
348.7289388
51
0.3012466
0
ARC
8
DEFAULT_255_1_234
10
4.4188481
20
44.8405386
40
0.559104
50
333.0706509
51
348.7181832
0
ARC
8
DEFAULT_255_1_234
10
4.5155238
20
44.7880319
40
0.4491417
50
299.2531685
51
333.4571258
0
ARC
8
DEFAULT_255_1_234
10
4.4794378
20
44.8565828
40
0.5265881
50
278.107187
51
299.0339503
0
ARC
8
DEFAULT_255_1_234
10
4.4538457
20
45.0073216
40
0.679442
50
270.4443897
51
278.4511052
0
ARC
8
DEFAULT_255_1_234
10
4.4559287
20
44.9144213
40
0.4604407
50
269.4970433
51
284.0205042
0
ARC
8
DEFAULT_255_1_234
10
4.4914588
20
44.7778978
40
0.3193797
50
283.7700273
51
318.1555492
0
ARC
8
DEFAULT_255_1_234
10
4.4577346
20
44.8031367
40
0.3613588
50
318.7415601
51
343.6873628
0
ARC
8
DEFAULT_255_1_234
10
4.2773369
20
44.8594832
40
0.5503313
50
343.3325091
51
355.8548958
0
ARC
8
DEFAULT_255_1_234
10
4.0675054
20
44.8794319
40
0.7610708
50
355.4988528
51
0.0791727
0
ARC
8
DEFAULT_255_1_234
10
4.1457676
20
44.952978
40
0.6828208
50
359.6455037
51
9.8607896
0
ARC
8
DEFAULT_255_1_234
10
4.3818374
20
44.9956099
40
0.4429406
50
9.6571907
51
26.1932807
0
ARC
8
DEFAULT_255_1_234
10
4.4746363
20
45.0387118
40
0.3406537
50
26.5777228
51
40.1532208
0
ARC
8
DEFAULT_255_1_234
10
4.5002089
20
45.0586619
40
0.308246
50
40.3840491
51
80.1431104
0
ARC
8
DEFAULT_255_1_234
10
4.4675207
20
44.9137333
40
0.4566909
50
79.2152159
51
89.7445637
0
LINE
8
DEFAULT_255_1_234
10
5.3795526
20
45.4973211
11
5.3795526
21
44.3279
0
LINE
8
DEFAULT_255_1_234
10
5.3795526
20
44.3279
11
5.2253433
21
44.3279
0
LINE
8
DEFAULT_255_1_234
10
5.2253433
20
44.3279
11
5.2253433
21
45.4973211
0
LINE
8
DEFAULT_255_1_234
10
5.2253433
20
45.4973211
11
5.3795526
21
45.4973211
0
LINE
8
DEFAULT_255_1_234
10
6.3891421
20
44.4491792
11
6.3891421
21
44.3279
0
LINE
8
DEFAULT_255_1_234
10
6.3891421
20
44.3279
11
5.6229143
21
44.3279
0
LINE
8
DEFAULT_255_1_234
10
5.6229143
20
44.3279
11
5.6229143
21
44.4347221
0
LINE
8
DEFAULT_255_1_234
10
5.6229143
20
44.4347221
11
6.0277139
21
44.8844995
0
LINE
8
DEFAULT_255_1_234
10
5.7490126
20
45.1527595
11
5.6004254
21
45.1527595
0
LINE
8
DEFAULT_255_1_234
10
6.1152599
20
44.7889218
11
5.8020221
21
44.4491792
0
LINE
8
DEFAULT_255_1_234
10
5.8020221
20
44.4491792
11
6.3891421
21
44.4491792
0
ARC
8
DEFAULT_255_1_234
10
4.6786972
20
46.0774527
40
1.8008286
50
318.5132453
51
320.7828378
0
ARC
8
DEFAULT_255_1_234
10
5.2073947
20
45.6471426
40
1.1191493
50
320.7372736
51
323.9737074
0
ARC
8
DEFAULT_255_1_234
10
5.5993803
20
45.3631361
40
0.6350923
50
323.8961724
51
328.6421089
0
ARC
8
DEFAULT_255_1_234
10
5.8040399
20
45.2369031
40
0.3946393
50
328.8299013
51
331.789948
0
ARC
8
DEFAULT_255_1_234
10
5.9037577
20
45.1854509
40
0.2824501
50
331.4255242
51
352.9364833
0
ARC
8
DEFAULT_255_1_234
10
5.9174078
20
45.1823976
40
0.2685315
50
353.2248685
51
0.0169286
0
ARC
8
DEFAULT_255_1_234
10
5.9383955
20
45.184695
40
0.2475536
50
359.4866256
51
15.9339782
0
ARC
8
DEFAULT_255_1_234
10
5.989094
20
45.1983286
40
0.1950618
50
16.1714718
51
43.5284424
0
ARC
8
DEFAULT_255_1_234
10
5.9968248
20
45.2060573
40
0.184134
50
43.4415429
51
83.1661404
0
ARC
8
DEFAULT_255_1_234
10
5.9834167
20
45.1323771
40
0.258926
50
82.160215
51
90.1505798
0
ARC
8
DEFAULT_255_1_234
10
5.9802594
20
45.0786865
40
0.3126255
50
89.5460705
51
102.5418777
0
ARC
8
DEFAULT_255_1_234
10
5.955968
20
45.1817665
40
0.2067346
50
102.1739365
51
129.2061916
0
ARC
8
DEFAULT_255_1_234
10
5.9480752
20
45.1942094
40
0.1921118
50
129.7279328
51
135.7542026
0
ARC
8
DEFAULT_255_1_234
10
5.9602279
20
45.1845045
40
0.2075944
50
136.175737
51
166.3674722
0
ARC
8
DEFAULT_255_1_234
10
6.0609199
20
45.1575182
40
0.3118201
50
165.9092917
51
178.8683903
0
ARC
8
DEFAULT_255_1_234
10
6.147406
20
45.1528179
40
0.3983935
50
178.438168
51
180.0083905
0
ARC
8
DEFAULT_255_1_234
10
6.0072662
20
45.1567231
40
0.4068601
50
163.2878735
51
180.5581814
0
ARC
8
DEFAULT_255_1_234
10
5.9270923
20
45.178784
40
0.3237344
50
133.454115
51
162.9470031
0
ARC
8
DEFAULT_255_1_234
10
5.9449465
20
45.1598
40
0.349795
50
100.7869394
51
133.4384016
0
ARC
8
DEFAULT_255_1_234
10
5.9797236
20
45.0049319
40
0.5084616
50
89.6605301
51
101.3704185
0
ARC
8
DEFAULT_255_1_234
10
5.9863575
20
45.0110496
40
0.502348
50
78.2171172
51
90.4130393
0
ARC
8
DEFAULT_255_1_234
10
6.0218653
20
45.1734637
40
0.3361092
50
55.9268222
51
78.4888551
0
ARC
8
DEFAULT_255_1_234
10
6.0415094
20
45.2073324
40
0.2970617
50
47.9292255
51
55.4054003
0
ARC
8
DEFAULT_255_1_234
10
6.0516654
20
45.2176502
40
0.2825983
50
4.3347696
51
48.0560701
0
ARC
8
DEFAULT_255_1_234
10
5.9421048
20
45.2006601
40
0.393225
50
359.925209
51
5.5967654
0
ARC
8
DEFAULT_255_1_234
10
5.984994
20
45.2062816
40
0.3503892
50
337.8914096
51
358.9967724
0
ARC
8
DEFAULT_255_1_234
10
5.7136352
20
45.3109706
40
0.6412172
50
326.9135351
51
338.3505194
0
ARC
8
DEFAULT_255_1_234
10
5.3150656
20
45.5664284
40
1.1146189
50
319.6472867
51
327.095818
0
ARC
8
DEFAULT_255_1_234
10
4.9317659
20
45.8826
40
1.6114559
50
317.2586784
51
319.9046139
0
LINE
8
DEFAULT_255_1_234
10
4.4499154
20
52.2654
11
4.1262364
21
52.2654
0
LINE
8
DEFAULT_255_1_234
10
4.1262364
20
52.2654
11
4.1262364
21
53.4348211
0
LINE
8
DEFAULT_255_1_234
10
4.1262364
20
53.4348211
11
4.4563408
21
53.4348211
0
LINE
8
DEFAULT_255_1_234
10
4.9719784
20
52.8894661
11
4.9719784
21
52.8147709
0
LINE
8
DEFAULT_255_1_234
10
4.4603567
20
53.3079196
11
4.2804458
21
53.3079196
0
LINE
8
DEFAULT_255_1_234
10
4.2804458
20
53.3079196
11
4.2804458
21
52.3914983
0
LINE
8
DEFAULT_255_1_234
10
4.2804458
20
52.3914983
11
4.4426869
21
52.3914983
0
LINE
8
DEFAULT_255_1_234
10
4.8193754
20
52.8179836
11
4.8193754
21
52.8862534
0
ARC
8
DEFAULT_255_1_234
10
4.4602351
20
52.8482894
40
0.5865446
50
75.4101064
51
90.3804066
0
ARC
8
DEFAULT_255_1_234
10
4.4831864
20
52.9439492
40
0.4881916
50
60.145586
51
75.1888407
0
ARC
8
DEFAULT_255_1_234
10
4.499064
20
52.9716199
40
0.4562893
50
26.5253612
51
60.1450928
0
ARC
8
DEFAULT_255_1_234
10
4.3870389
20
52.9122158
40
0.5830602
50
7.4030428
51
26.8320788
0
ARC
8
DEFAULT_255_1_234
10
4.2276146
20
52.8873804
40
0.7443669
50
0.1605367
51
7.7176192
0
ARC
8
DEFAULT_255_1_234
10
4.244005
20
52.8109434
40
0.7279835
50
348.7289388
51
0.3012466
0
ARC
8
DEFAULT_255_1_234
10
4.4096481
20
52.7780386
40
0.559104
50
333.0706509
51
348.7181832
0
ARC
8
DEFAULT_255_1_234
10
4.5063238
20
52.7255319
40
0.4491417
50
299.2531685
51
333.4571258
0
ARC
8
DEFAULT_255_1_234
10
4.4702378
20
52.7940828
40
0.5265881
50
278.107187
51
299.0339503
0
ARC
8
DEFAULT_255_1_234
10
4.4446457
20
52.9448216
40
0.679442
50
270.4443897
51
278.4511052
0
ARC
8
DEFAULT_255_1_234
10
4.4467287
20
52.8519213
40
0.4604407
50
269.4970433
51
284.0205042
0
ARC
8
DEFAULT_255_1_234
10
4.4822588
20
52.7153978
40
0.3193797
50
283.7700273
51
318.1555492
0
ARC
8
DEFAULT_255_1_234
10
4.4485346
20
52.7406367
40
0.3613588
50
318.7415601
51
343.6873628
0
ARC
8
DEFAULT_255_1_234
10
4.2681369
20
52.7969832
40
0.5503313
50
343.3325091
51
355.8548958
0
ARC
8
DEFAULT_255_1_234
10
4.0583054
20
52.8169319
40
0.7610708
50
355.4988528
51
0.0791727
0
ARC
8
DEFAULT_255_1_234
10
4.1365676
20
52.890478
40
0.6828208
50
359.6455037
51
9.8607896
0
ARC
8
DEFAULT_255_1_234
10
4.3726374
20
52.9331099
40
0.4429406
50
9.6571907
51
26.1932807
0
ARC
8
DEFAULT_255_1_234
10
4.4654363
20
52.9762118
40
0.3406537
50
26.5777228
51
40.1532208
0
ARC
8
DEFAULT_255_1_234
10
4.4910089
20
52.9961619
40
0.308246
50
40.3840491
51
80.1431104
0
ARC
8
DEFAULT_255_1_234
10
4.4583207
20
52.8512333
40
0.4566909
50
79.2152159
51
89.7445637
0
LINE
8
DEFAULT_255_1_234
10
5.3703526
20
53.4348211
11
5.3703526
21
52.2654
0
LINE
8
DEFAULT_255_1_234
10
5.3703526
20
52.2654
11
5.2161433
21
52.2654
0
LINE
8
DEFAULT_255_1_234
10
5.2161433
20
52.2654
11
5.2161433
21
53.4348211
0
LINE
8
DEFAULT_255_1_234
10
5.2161433
20
53.4348211
11
5.3703526
21
53.4348211
0
LINE
8
DEFAULT_255_1_234
10
6.102044
20
53.4404433
11
6.102044
21
52.2654
0
LINE
8
DEFAULT_255_1_234
10
6.102044
20
52.2654
11
5.9526537
21
52.2654
0
LINE
8
DEFAULT_255_1_234
10
5.9526537
20
52.2654
11
5.9526537
21
53.2557133
0
LINE
8
DEFAULT_255_1_234
10
5.9526537
20
53.2557133
11
5.6530698
21
53.1456785
0
LINE
8
DEFAULT_255_1_234
10
5.6530698
20
53.1456785
11
5.6530698
21
53.2806117
0
LINE
8
DEFAULT_255_1_234
10
5.6530698
20
53.2806117
11
6.078752
21
53.4404433
0
LINE
8
DEFAULT_255_1_234
10
6.078752
20
53.4404433
11
6.102044
21
53.4404433
0
LINE
8
DEFAULT_255_1_234
10
4.4591154
20
60.2029
11
4.1354364
21
60.2029
0
LINE
8
DEFAULT_255_1_234
10
4.1354364
20
60.2029
11
4.1354364
21
61.3723211
0
LINE
8
DEFAULT_255_1_234
10
4.1354364
20
61.3723211
11
4.4655408
21
61.3723211
0
LINE
8
DEFAULT_255_1_234
10
4.9811784
20
60.8269661
11
4.9811784
21
60.7522709
0
LINE
8
DEFAULT_255_1_234
10
4.4695567
20
61.2454196
11
4.2896458
21
61.2454196
0
LINE
8
DEFAULT_255_1_234
10
4.2896458
20
61.2454196
11
4.2896458
21
60.3289983
0
LINE
8
DEFAULT_255_1_234
10
4.2896458
20
60.3289983
11
4.4518869
21
60.3289983
0
LINE
8
DEFAULT_255_1_234
10
4.8285754
20
60.7554836
11
4.8285754
21
60.8237534
0
ARC
8
DEFAULT_255_1_234
10
4.4694351
20
60.7857894
40
0.5865446
50
75.4101064
51
90.3804066
0
ARC
8
DEFAULT_255_1_234
10
4.4923864
20
60.8814492
40
0.4881916
50
60.145586
51
75.1888407
0
ARC
8
DEFAULT_255_1_234
10
4.508264
20
60.9091199
40
0.4562893
50
26.5253612
51
60.1450928
0
ARC
8
DEFAULT_255_1_234
10
4.3962389
20
60.8497158
40
0.5830602
50
7.4030428
51
26.8320788
0
ARC
8
DEFAULT_255_1_234
10
4.2368146
20
60.8248804
40
0.7443669
50
0.1605367
51
7.7176192
0
ARC
8
DEFAULT_255_1_234
10
4.253205
20
60.7484434
40
0.7279835
50
348.7289388
51
0.3012466
0
ARC
8
DEFAULT_255_1_234
10
4.4188481
20
60.7155386
40
0.559104
50
333.0706509
51
348.7181832
0
ARC
8
DEFAULT_255_1_234
10
4.5155238
20
60.6630319
40
0.4491417
50
299.2531685
51
333.4571258
0
ARC
8
DEFAULT_255_1_234
10
4.4794378
20
60.7315828
40
0.5265881
50
278.107187
51
299.0339503
0
ARC
8
DEFAULT_255_1_234
10
4.4538457
20
60.8823216
40
0.679442
50
270.4443897
51
278.4511052
0
ARC
8
DEFAULT_255_1_234
10
4.4559287
20
60.7894213
40
0.4604407
50
269.4970433
51
284.0205042
0
ARC
8
DEFAULT_255_1_234
10
4.4914588
20
60.6528978
40
0.3193797
50
283.7700273
51
318.1555492
0
ARC
8
DEFAULT_255_1_234
10
4.4577346
20
60.6781367
40
0.3613588
50
318.7415601
51
343.6873628
0
ARC
8
DEFAULT_255_1_234
10
4.2773369
20
60.7344832
40
0.5503313
50
343.3325091
51
355.8548958
0
ARC
8
DEFAULT_255_1_234
10
4.0675054
20
60.7544319
40
0.7610708
50
355.4988528
51
0.0791727
0
ARC
8
DEFAULT_255_1_234
10
4.1457676
20
60.827978
40
0.6828208
50
359.6455037
51
9.8607896
0
ARC
8
DEFAULT_255_1_234
10
4.3818374
20
60.8706099
40
0.4429406
50
9.6571907
51
26.1932807
0
ARC
8
DEFAULT_255_1_234
10
4.4746363
20
60.9137118
40
0.3406537
50
26.5777228
51
40.1532208
0
ARC
8
DEFAULT_255_1_234
10
4.5002089
20
60.9336619
40
0.308246
50
40.3840491
51
80.1431104
0
ARC
8
DEFAULT_255_1_234
10
4.4675207
20
60.7887333
40
0.4566909
50
79.2152159
51
89.7445637
0
LINE
8
DEFAULT_255_1_234
10
5.3795526
20
61.3723211
11
5.3795526
21
60.2029
0
LINE
8
DEFAULT_255_1_234
10
5.3795526
20
60.2029
11
5.2253433
21
60.2029
0
LINE
8
DEFAULT_255_1_234
10
5.2253433
20
60.2029
11
5.2253433
21
61.3723211
0
LINE
8
DEFAULT_255_1_234
10
5.2253433
20
61.3723211
11
5.3795526
21
61.3723211
0
LINE
8
DEFAULT_255_1_234
10
6.356212
20
60.8944327
11
6.356212
21
60.7016709
0
LINE
8
DEFAULT_255_1_234
10
5.6180953
20
60.6815916
11
5.6180953
21
60.8799755
0
LINE
8
DEFAULT_255_1_234
10
6.2076249
20
60.6615123
11
6.2076249
21
60.9048739
0
LINE
8
DEFAULT_255_1_234
10
5.7666824
20
60.9161184
11
5.7666824
21
60.6783789
0
ARC
8
DEFAULT_255_1_234
10
5.131501
20
60.6967805
40
1.2247208
50
353.8441951
51
0.2287902
0
ARC
8
DEFAULT_255_1_234
10
5.5954513
20
60.6449806
40
0.7578929
50
344.4934747
51
353.9765454
0
ARC
8
DEFAULT_255_1_234
10
5.8947104
20
60.5598981
40
0.4467846
50
329.2803592
51
344.7472793
0
ARC
8
DEFAULT_255_1_234
10
5.9939928
20
60.5054018
40
0.3336173
50
324.9352394
51
328.6160465
0
ARC
8
DEFAULT_255_1_234
10
6.0317037
20
60.4790427
40
0.2876076
50
280.580143
51
324.9173126
0
ARC
8
DEFAULT_255_1_234
10
5.991583
20
60.6461099
40
0.4592847
50
269.5977311
51
281.6734359
0
ARC
8
DEFAULT_255_1_234
10
5.9843735
20
60.6341173
40
0.4472986
50
256.6228859
51
270.51044
0
ARC
8
DEFAULT_255_1_234
10
5.9441713
20
60.4792877
40
0.2873874
50
215.8618325
51
257.2788573
0
ARC
8
DEFAULT_255_1_234
10
6.0462745
20
60.5477977
40
0.4102928
50
197.9693508
51
215.2623606
0
ARC
8
DEFAULT_255_1_234
10
6.294786
20
60.6316709
40
0.6725652
50
187.8816417
51
198.2346507
0
ARC
8
DEFAULT_255_1_234
10
6.6906069
20
60.6888079
40
1.0724845
50
180.8976217
51
188.0055519
0
ARC
8
DEFAULT_255_1_234
10
6.9706257
20
60.6991777
40
1.3526448
50
180.7449369
51
181.1510016
0
ARC
8
DEFAULT_255_1_234
10
6.8128986
20
60.8848042
40
1.1948131
50
173.7675579
51
180.231553
0
ARC
8
DEFAULT_255_1_234
10
6.3611132
20
60.9358666
40
0.7401564
50
164.3058563
51
173.9002247
0
ARC
8
DEFAULT_255_1_234
10
6.0699201
20
61.0197656
40
0.4371288
50
148.7922025
51
164.568378
0
ARC
8
DEFAULT_255_1_234
10
5.9747653
20
61.0728929
40
0.3282386
50
144.5883898
51
148.1176286
0
ARC
8
DEFAULT_255_1_234
10
5.9404551
20
61.0968315
40
0.2864044
50
101.6440918
51
144.514236
0
ARC
8
DEFAULT_255_1_234
10
5.9829618
20
60.9279069
40
0.4604934
50
89.5284041
51
102.5819763
0
ARC
8
DEFAULT_255_1_234
10
5.9908706
20
60.9240018
40
0.464401
50
77.0437873
51
90.5081339
0
ARC
8
DEFAULT_255_1_234
10
6.0310708
20
61.0882615
40
0.2953195
50
48.2778575
51
77.4994676
0
ARC
8
DEFAULT_255_1_234
10
6.0383339
20
61.1011746
40
0.2808655
50
36.3142134
51
47.6305865
0
ARC
8
DEFAULT_255_1_234
10
5.9514646
20
61.0426515
40
0.3855453
50
18.2931786
51
35.6769206
0
ARC
8
DEFAULT_255_1_234
10
5.6971405
20
60.9553593
40
0.654423
50
8.024666
51
18.5605216
0
ARC
8
DEFAULT_255_1_234
10
5.2808325
20
60.8938792
40
1.0752407
50
1.1274072
51
8.1718305
0
ARC
8
DEFAULT_255_1_234
10
4.9572515
20
60.8811885
40
1.3990231
50
0.5424119
51
1.3863029
0
ARC
8
DEFAULT_255_1_234
10
5.1393893
20
60.9084342
40
1.0682415
50
359.8090433
51
4.9407866
0
ARC
8
DEFAULT_255_1_234
10
5.5603907
20
60.9460113
40
0.6455691
50
4.8362157
51
12.2904523
0
ARC
8
DEFAULT_255_1_234
10
5.8359022
20
61.0073965
40
0.3633074
50
12.0805627
51
23.8173984
0
ARC
8
DEFAULT_255_1_234
10
5.9532727
20
61.0570919
40
0.2358723
50
24.2871213
51
31.3935614
0
ARC
8
DEFAULT_255_1_234
10
6.0057424
20
61.0914233
40
0.1732111
50
30.7407893
51
82.4657128
0
ARC
8
DEFAULT_255_1_234
10
5.9877559
20
61.0030691
40
0.263235
50
81.1060089
51
90.2184952
0
ARC
8
DEFAULT_255_1_234
10
5.9841858
20
61.0288924
40
0.2374236
50
89.3806855
51
105.6762551
0
ARC
8
DEFAULT_255_1_234
10
5.9658488
20
61.0955567
40
0.1682847
50
105.7981136
51
149.7388061
0
ARC
8
DEFAULT_255_1_234
10
6.0722567
20
61.031595
40
0.2924306
50
149.4208916
51
163.6286378
0
ARC
8
DEFAULT_255_1_234
10
6.2813455
20
60.967825
40
0.5110213
50
163.3763315
51
172.1410975
0
ARC
8
DEFAULT_255_1_234
10
6.6114174
20
60.9205518
40
0.8444586
50
172.0259487
51
178.0703232
0
ARC
8
DEFAULT_255_1_234
10
6.9144263
20
60.9061906
40
1.1477868
50
177.8631668
51
179.5044149
0
ARC
8
DEFAULT_255_1_234
10
6.8071668
20
60.6747389
40
1.0404907
50
179.7995573
51
185.2460446
0
ARC
8
DEFAULT_255_1_234
10
6.4028707
20
60.6364513
40
0.6343885
50
185.1411642
51
193.0079639
0
ARC
8
DEFAULT_255_1_234
10
6.1385179
20
60.5739641
40
0.3627568
50
192.7897626
51
205.2507664
0
ARC
8
DEFAULT_255_1_234
10
6.0338726
20
60.5272415
40
0.2481908
50
205.8005384
51
211.2537509
0
ARC
8
DEFAULT_255_1_234
10
5.9815167
20
60.492158
40
0.1852521
50
210.3789793
51
238.4008143
0
ARC
8
DEFAULT_255_1_234
10
5.9795689
20
60.4968376
40
0.1882621
50
239.6520629
51
265.9793761
0
ARC
8
DEFAULT_255_1_234
10
5.9880889
20
60.5640427
40
0.2559272
50
265.1315437
51
270.060332
0
ARC
8
DEFAULT_255_1_234
10
5.9909668
20
60.5316534
40
0.2235528
50
269.3314664
51
287.2178029
0
ARC
8
DEFAULT_255_1_234
10
6.004752
20
60.4813279
40
0.1714108
50
287.7958004
51
329.080874
0
ARC
8
DEFAULT_255_1_234
10
5.9089977
20
60.541093
40
0.2842745
50
328.6634704
51
343.3325132
0
ARC
8
DEFAULT_255_1_234
10
5.6916997
20
60.6087863
40
0.5118644
50
343.0499468
51
351.9393422
0
ARC
8
DEFAULT_255_1_234
10
5.3450297
20
60.6598949
40
0.8622784
50
351.8069023
51
357.7959224
0
ARC
8
DEFAULT_255_1_234
10
5.0214853
20
60.6766721
40
1.1862365
50
357.5871873
51
359.2677531
0
LINE
8
DEFAULT_255_1_234
10
4.2454489
20
69.3098211
11
4.2454489
21
68.2664983
0
LINE
8
DEFAULT_255_1_234
10
4.2454489
20
68.2664983
11
4.7996389
21
68.2664983
0
LINE
8
DEFAULT_255_1_234
10
4.7996389
20
68.2664983
11
4.7996389
21
68.1404
0
LINE
8
DEFAULT_255_1_234
10
4.7996389
20
68.1404
11
4.0904364
21
68.1404
0
LINE
8
DEFAULT_255_1_234
10
4.0904364
20
68.1404
11
4.0904364
21
69.3098211
0
LINE
8
DEFAULT_255_1_234
10
4.0904364
20
69.3098211
11
4.2454489
21
69.3098211
0
LINE
8
DEFAULT_255_1_234
10
5.377924
20
69.1090276
11
5.377924
21
68.7676788
0
LINE
8
DEFAULT_255_1_234
10
5.377924
20
68.7676788
11
5.7040126
21
68.7676788
0
LINE
8
DEFAULT_255_1_234
10
5.7040126
20
68.7676788
11
5.7040126
21
68.6271233
0
LINE
8
DEFAULT_255_1_234
10
5.7040126
20
68.6271233
11
5.377924
21
68.6271233
0
LINE
8
DEFAULT_255_1_234
10
5.377924
20
68.6271233
11
5.377924
21
68.2576634
0
LINE
8
DEFAULT_255_1_234
10
5.377924
20
68.2576634
11
5.2285337
21
68.2576634
0
LINE
8
DEFAULT_255_1_234
10
5.2285337
20
68.2576634
11
5.2285337
21
68.6271233
0
LINE
8
DEFAULT_255_1_234
10
5.2285337
20
68.6271233
11
4.9024451
21
68.6271233
0
LINE
8
DEFAULT_255_1_234
10
4.9024451
20
68.6271233
11
4.9024451
21
68.7676788
0
LINE
8
DEFAULT_255_1_234
10
4.9024451
20
68.7676788
11
5.2285337
21
68.7676788
0
LINE
8
DEFAULT_255_1_234
10
5.2285337
20
68.7676788
11
5.2285337
21
69.1090276
0
LINE
8
DEFAULT_255_1_234
10
5.2285337
20
69.1090276
11
5.377924
21
69.1090276
0
LINE
8
DEFAULT_255_1_234
10
4.2454489
20
77.2473211
11
4.2454489
21
76.2039983
0
LINE
8
DEFAULT_255_1_234
10
4.2454489
20
76.2039983
11
4.7996389
21
76.2039983
0
LINE
8
DEFAULT_255_1_234
10
4.7996389
20
76.2039983
11
4.7996389
21
76.0779
0
LINE
8
DEFAULT_255_1_234
10
4.7996389
20
76.0779
11
4.0904364
21
76.0779
0
LINE
8
DEFAULT_255_1_234
10
4.0904364
20
76.0779
11
4.0904364
21
77.2473211
0
LINE
8
DEFAULT_255_1_234
10
4.0904364
20
77.2473211
11
4.2454489
21
77.2473211
0
LINE
8
DEFAULT_255_1_234
10
5.377924
20
77.0465276
11
5.377924
21
76.7051788
0
LINE
8
DEFAULT_255_1_234
10
5.377924
20
76.7051788
11
5.7040126
21
76.7051788
0
LINE
8
DEFAULT_255_1_234
10
5.7040126
20
76.7051788
11
5.7040126
21
76.5646233
0
LINE
8
DEFAULT_255_1_234
10
5.7040126
20
76.5646233
11
5.377924
21
76.5646233
0
LINE
8
DEFAULT_255_1_234
10
5.377924
20
76.5646233
11
5.377924
21
76.1951634
0
LINE
8
DEFAULT_255_1_234
10
5.377924
20
76.1951634
11
5.2285337
21
76.1951634
0
LINE
8
DEFAULT_255_1_234
10
5.2285337
20
76.1951634
11
5.2285337
21
76.5646233
0
LINE
8
DEFAULT_255_1_234
10
5.2285337
20
76.5646233
11
4.9024451
21
76.5646233
0
LINE
8
DEFAULT_255_1_234
10
4.9024451
20
76.5646233
11
4.9024451
21
76.7051788
0
LINE
8
DEFAULT_255_1_234
10
4.9024451
20
76.7051788
11
5.2285337
21
76.7051788
0
LINE
8
DEFAULT_255_1_234
10
5.2285337
20
76.7051788
11
5.2285337
21
77.0465276
0
LINE
8
DEFAULT_255_1_234
10
5.2285337
20
77.0465276
11
5.377924
21
77.0465276
0
LINE
8
DEFAULT_255_1_234
10
4.2454489
20
85.1848211
11
4.2454489
21
84.1414983
0
LINE
8
DEFAULT_255_1_234
10
4.2454489
20
84.1414983
11
4.7996389
21
84.1414983
0
LINE
8
DEFAULT_255_1_234
10
4.7996389
20
84.1414983
11
4.7996389
21
84.0154
0
LINE
8
DEFAULT_255_1_234
10
4.7996389
20
84.0154
11
4.0904364
21
84.0154
0
LINE
8
DEFAULT_255_1_234
10
4.0904364
20
84.0154
11
4.0904364
21
85.1848211
0
LINE
8
DEFAULT_255_1_234
10
4.0904364
20
85.1848211
11
4.2454489
21
85.1848211
0
LINE
8
DEFAULT_255_1_234
10
5.377924
20
84.9840276
11
5.377924
21
84.6426788
0
LINE
8
DEFAULT_255_1_234
10
5.377924
20
84.6426788
11
5.7040126
21
84.6426788
0
LINE
8
DEFAULT_255_1_234
10
5.7040126
20
84.6426788
11
5.7040126
21
84.5021233
0
LINE
8
DEFAULT_255_1_234
10
5.7040126
20
84.5021233
11
5.377924
21
84.5021233
0
LINE
8
DEFAULT_255_1_234
10
5.377924
20
84.5021233
11
5.377924
21
84.1326634
0
LINE
8
DEFAULT_255_1_234
10
5.377924
20
84.1326634
11
5.2285337
21
84.1326634
0
LINE
8
DEFAULT_255_1_234
10
5.2285337
20
84.1326634
11
5.2285337
21
84.5021233
0
LINE
8
DEFAULT_255_1_234
10
5.2285337
20
84.5021233
11
4.9024451
21
84.5021233
0
LINE
8
DEFAULT_255_1_234
10
4.9024451
20
84.5021233
11
4.9024451
21
84.6426788
0
LINE
8
DEFAULT_255_1_234
10
4.9024451
20
84.6426788
11
5.2285337
21
84.6426788
0
LINE
8
DEFAULT_255_1_234
10
5.2285337
20
84.6426788
11
5.2285337
21
84.9840276
0
LINE
8
DEFAULT_255_1_234
10
5.2285337
20
84.9840276
11
5.377924
21
84.9840276
0
LINE
8
DEFAULT_255_1_234
10
23.0434364
20
93.1223211
11
23.2426235
21
93.1223211
0
LINE
8
DEFAULT_255_1_234
10
23.2426235
20
93.1223211
11
23.6249342
21
92.1681506
0
LINE
8
DEFAULT_255_1_234
10
23.6249342
20
92.1681506
11
24.007245
21
93.1223211
0
LINE
8
DEFAULT_255_1_234
10
24.007245
20
93.1223211
11
24.2072353
21
93.1223211
0
LINE
8
DEFAULT_255_1_234
10
24.2072353
20
93.1223211
11
24.2072353
21
91.9529
0
LINE
8
DEFAULT_255_1_234
10
24.2072353
20
91.9529
11
24.0530259
21
91.9529
0
LINE
8
DEFAULT_255_1_234
10
24.0530259
20
91.9529
11
24.0530259
21
92.4082996
0
LINE
8
DEFAULT_255_1_234
10
24.0530259
20
92.4082996
11
24.067483
21
92.8998419
0
LINE
8
DEFAULT_255_1_234
10
24.067483
20
92.8998419
11
23.6835659
21
91.9529
0
LINE
8
DEFAULT_255_1_234
10
23.6835659
20
91.9529
11
23.5654994
21
91.9529
0
LINE
8
DEFAULT_255_1_234
10
23.5654994
20
91.9529
11
23.1823854
21
92.8974324
0
LINE
8
DEFAULT_255_1_234
10
23.1823854
20
92.8974324
11
23.1976458
21
92.4082996
0
LINE
8
DEFAULT_255_1_234
10
23.1976458
20
92.4082996
11
23.1976458
21
91.9529
0
LINE
8
DEFAULT_255_1_234
10
23.1976458
20
91.9529
11
23.0434364
21
91.9529
0
LINE
8
DEFAULT_255_1_234
10
23.0434364
20
91.9529
11
23.0434364
21
93.1223211
0
LINE
8
DEFAULT_255_1_234
10
23.0434364
20
69.3098211
11
23.2426235
21
69.3098211
0
LINE
8
DEFAULT_255_1_234
10
23.2426235
20
69.3098211
11
23.6249342
21
68.3556506
0
LINE
8
DEFAULT_255_1_234
10
23.6249342
20
68.3556506
11
24.007245
21
69.3098211
0
LINE
8
DEFAULT_255_1_234
10
24.007245
20
69.3098211
11
24.2072353
21
69.3098211
0
LINE
8
DEFAULT_255_1_234
10
24.2072353
20
69.3098211
11
24.2072353
21
68.1404
0
LINE
8
DEFAULT_255_1_234
10
24.2072353
20
68.1404
11
24.0530259
21
68.1404
0
LINE
8
DEFAULT_255_1_234
10
24.0530259
20
68.1404
11
24.0530259
21
68.5957996
0
LINE
8
DEFAULT_255_1_234
10
24.0530259
20
68.5957996
11
24.067483
21
69.0873419
0
LINE
8
DEFAULT_255_1_234
10
24.067483
20
69.0873419
11
23.6835659
21
68.1404
0
LINE
8
DEFAULT_255_1_234
10
23.6835659
20
68.1404
11
23.5654994
21
68.1404
0
LINE
8
DEFAULT_255_1_234
10
23.5654994
20
68.1404
11
23.1823854
21
69.0849324
0
LINE
8
DEFAULT_255_1_234
10
23.1823854
20
69.0849324
11
23.1976458
21
68.5957996
0
LINE
8
DEFAULT_255_1_234
10
23.1976458
20
68.5957996
11
23.1976458
21
68.1404
0
LINE
8
DEFAULT_255_1_234
10
23.1976458
20
68.1404
11
23.0434364
21
68.1404
0
LINE
8
DEFAULT_255_1_234
10
23.0434364
20
68.1404
11
23.0434364
21
69.3098211
0
LINE
8
DEFAULT_255_1_234
10
23.0434364
20
77.2473211
11
23.2426235
21
77.2473211
0
LINE
8
DEFAULT_255_1_234
10
23.2426235
20
77.2473211
11
23.6249342
21
76.2931506
0
LINE
8
DEFAULT_255_1_234
10
23.6249342
20
76.2931506
11
24.007245
21
77.2473211
0
LINE
8
DEFAULT_255_1_234
10
24.007245
20
77.2473211
11
24.2072353
21
77.2473211
0
LINE
8
DEFAULT_255_1_234
10
24.2072353
20
77.2473211
11
24.2072353
21
76.0779
0
LINE
8
DEFAULT_255_1_234
10
24.2072353
20
76.0779
11
24.0530259
21
76.0779
0
LINE
8
DEFAULT_255_1_234
10
24.0530259
20
76.0779
11
24.0530259
21
76.5332996
0
LINE
8
DEFAULT_255_1_234
10
24.0530259
20
76.5332996
11
24.067483
21
77.0248419
0
LINE
8
DEFAULT_255_1_234
10
24.067483
20
77.0248419
11
23.6835659
21
76.0779
0
LINE
8
DEFAULT_255_1_234
10
23.6835659
20
76.0779
11
23.5654994
21
76.0779
0
LINE
8
DEFAULT_255_1_234
10
23.5654994
20
76.0779
11
23.1823854
21
77.0224324
0
LINE
8
DEFAULT_255_1_234
10
23.1823854
20
77.0224324
11
23.1976458
21
76.5332996
0
LINE
8
DEFAULT_255_1_234
10
23.1976458
20
76.5332996
11
23.1976458
21
76.0779
0
LINE
8
DEFAULT_255_1_234
10
23.1976458
20
76.0779
11
23.0434364
21
76.0779
0
LINE
8
DEFAULT_255_1_234
10
23.0434364
20
76.0779
11
23.0434364
21
77.2473211
0
LINE
8
DEFAULT_255_1_234
10
23.0434364
20
85.1848211
11
23.2426235
21
85.1848211
0
LINE
8
DEFAULT_255_1_234
10
23.2426235
20
85.1848211
11
23.6249342
21
84.2306506
0
LINE
8
DEFAULT_255_1_234
10
23.6249342
20
84.2306506
11
24.007245
21
85.1848211
0
LINE
8
DEFAULT_255_1_234
10
24.007245
20
85.1848211
11
24.2072353
21
85.1848211
0
LINE
8
DEFAULT_255_1_234
10
24.2072353
20
85.1848211
11
24.2072353
21
84.0154
0
LINE
8
DEFAULT_255_1_234
10
24.2072353
20
84.0154
11
24.0530259
21
84.0154
0
LINE
8
DEFAULT_255_1_234
10
24.0530259
20
84.0154
11
24.0530259
21
84.4707996
0
LINE
8
DEFAULT_255_1_234
10
24.0530259
20
84.4707996
11
24.067483
21
84.9623419
0
LINE
8
DEFAULT_255_1_234
10
24.067483
20
84.9623419
11
23.6835659
21
84.0154
0
LINE
8
DEFAULT_255_1_234
10
23.6835659
20
84.0154
11
23.5654994
21
84.0154
0
LINE
8
DEFAULT_255_1_234
10
23.5654994
20
84.0154
11
23.1823854
21
84.9599324
0
LINE
8
DEFAULT_255_1_234
10
23.1823854
20
84.9599324
11
23.1976458
21
84.4707996
0
LINE
8
DEFAULT_255_1_234
10
23.1976458
20
84.4707996
11
23.1976458
21
84.0154
0
LINE
8
DEFAULT_255_1_234
10
23.1976458
20
84.0154
11
23.0434364
21
84.0154
0
LINE
8
DEFAULT_255_1_234
10
23.0434364
20
84.0154
11
23.0434364
21
85.1848211
0
ENDSEC
0
EOF