0
SECTION
2
HEADER
9
$MEASUREMENT
70
1
0
ENDSEC
0
SECTION
2
TABLES
0
TABLE
2
LTYPE
0
LTYPE
72
65
70
64
2
CONTINUOUS
3
______
73
0
40
0
0
ENDTAB
0
TABLE
2
LAYER
0
LAYER
2
DEFAULT_255_2_778
70
0
62
255
6
CONTINUOUS
0
LAYER
2
DEFAULT_255_1_388
70
0
62
255
6
CONTINUOUS
0
ENDTAB
0
ENDSEC
0
SECTION
2
ENTITIES
0
ARC
8
DEFAULT_255_2_778
10
3.5695693
20
51.9926534
40
0.7914215
50
129.1312896
51
180.1450914
0
ARC
8
DEFAULT_255_2_778
10
3.5698345
20
51.9931405
40
0.7912112
50
89.854026
51
129.1684493
0
ARC
8
DEFAULT_255_2_778
10
25.7988937
20
51.992827
40
0.7915249
50
39.4792447
51
90.147911
0
ARC
8
DEFAULT_255_2_778
10
25.7994935
20
51.9926737
40
0.7911595
50
359.8533901
51
39.5154338
0
ARC
8
DEFAULT_255_2_778
10
25.7991693
20
-1.9863989
40
0.7914836
50
309.4761667
51
0.1482649
0
ARC
8
DEFAULT_255_2_778
10
25.798898
20
-1.98683
40
0.7913235
50
269.8517415
51
309.511178
0
ARC
8
DEFAULT_255_2_778
10
3.569842
20
-1.9867718
40
0.7913815
50
219.1282118
51
270.1454017
0
ARC
8
DEFAULT_255_2_778
10
3.5695247
20
-1.9863893
40
0.7913769
50
179.8524075
51
219.1641908
0
LINE
8
DEFAULT_255_2_778
10
3.5718503
20
52.7843492
11
25.7968503
21
52.7843492
0
LINE
8
DEFAULT_255_2_778
10
26.5906503
20
51.9906492
11
26.5906503
21
-1.9843508
0
LINE
8
DEFAULT_255_2_778
10
25.7968503
20
-2.7781508
11
3.5718503
21
-2.7781508
0
LINE
8
DEFAULT_255_2_778
10
2.7781503
20
-1.9843508
11
2.7781503
21
51.9906492
0
LINE
8
DEFAULT_255_1_388
10
5.7504015
20
0.6766934
11
5.7802191
21
0.6766934
0
LINE
8
DEFAULT_255_1_388
10
5.7802191
20
0.6766934
11
5.7802191
21
0.5348338
0
LINE
8
DEFAULT_255_1_388
10
5.7802191
20
0.5348338
11
5.7494979
21
0.5348338
0
LINE
8
DEFAULT_255_1_388
10
5.1341705
20
-0.1392253
11
5.1341705
21
-0.0750722
0
LINE
8
DEFAULT_255_1_388
10
5.3022335
20
-0.0967578
11
5.3022335
21
-0.1582001
0
ARC
8
DEFAULT_255_1_388
10
5.7553871
20
-0.0274174
40
0.562282
50
90.6001079
51
104.5146616
0
ARC
8
DEFAULT_255_1_388
10
5.711683
20
0.13511
40
0.3939917
50
104.2855758
51
133.8630124
0
ARC
8
DEFAULT_255_1_388
10
5.7301083
20
0.1229243
40
0.4155734
50
134.5304124
51
161.6210222
0
ARC
8
DEFAULT_255_1_388
10
5.9161015
20
0.0573421
40
0.6127682
50
161.2850533
51
174.2074364
0
ARC
8
DEFAULT_255_1_388
10
6.0750582
20
0.0354437
40
0.7731446
50
173.7817938
51
174.9251711
0
ARC
8
DEFAULT_255_1_388
10
5.5624775
20
-0.120073
40
0.3412588
50
95.8332067
51
138.995412
0
ARC
8
DEFAULT_255_1_388
10
5.5876056
20
-0.2639305
40
0.4870358
50
89.8755506
51
97.0540979
0
ARC
8
DEFAULT_255_1_388
10
5.5929445
20
-0.1699159
40
0.3930432
50
71.6407016
51
90.6240821
0
ARC
8
DEFAULT_255_1_388
10
5.6098838
20
-0.1075567
40
0.3285421
50
39.6368051
51
71.0190743
0
ARC
8
DEFAULT_255_1_388
10
5.5382746
20
-0.1694414
40
0.4231706
50
10.6588054
51
39.9044509
0
ARC
8
DEFAULT_255_1_388
10
5.3641291
20
-0.2072777
40
0.60133
50
359.6827842
51
11.1326896
0
ARC
8
DEFAULT_255_1_388
10
5.3596627
20
-0.2152285
40
0.6058047
50
347.2485908
51
0.4371098
0
ARC
8
DEFAULT_255_1_388
10
5.5472413
20
-0.2603621
40
0.4128987
50
318.1408565
51
347.6118497
0
ARC
8
DEFAULT_255_1_388
10
5.5838009
20
-0.2904097
40
0.3656244
50
275.6342406
51
317.824739
0
ARC
8
DEFAULT_255_1_388
10
5.558953
20
-0.1442173
40
0.513655
50
269.8872513
51
276.7916069
0
ARC
8
DEFAULT_255_1_388
10
5.5527723
20
-0.2595819
40
0.398323
50
246.9139443
51
270.7436787
0
ARC
8
DEFAULT_255_1_388
10
5.5534919
20
-0.2755956
40
0.3839368
50
218.1665534
51
245.8780431
0
ARC
8
DEFAULT_255_1_388
10
5.6524291
20
-0.1928097
40
0.5128958
50
191.4115343
51
218.6077624
0
ARC
8
DEFAULT_255_1_388
10
5.8704607
20
-0.1439223
40
0.7363054
50
179.6344971
51
191.7836758
0
ARC
8
DEFAULT_255_1_388
10
6.4984482
20
-0.0675505
40
1.3642984
50
171.4523743
51
180.3158856
0
ARC
8
DEFAULT_255_1_388
10
6.0040209
20
0.0093895
40
0.8639311
50
157.9802296
51
171.6246761
0
ARC
8
DEFAULT_255_1_388
10
5.7549559
20
0.1087038
40
0.5958004
50
141.4299236
51
157.8541251
0
ARC
8
DEFAULT_255_1_388
10
5.6827643
20
0.1597746
40
0.5075416
50
102.871586
51
140.8564533
0
ARC
8
DEFAULT_255_1_388
10
5.7556195
20
-0.1147057
40
0.7914163
50
90.377773
51
103.5868422
0
ARC
8
DEFAULT_255_1_388
10
5.5600717
20
-0.1827457
40
0.2667015
50
89.8751238
51
126.2072139
0
ARC
8
DEFAULT_255_1_388
10
5.5652188
20
-0.2001153
40
0.2838229
50
124.9742447
51
144.8960197
0
ARC
8
DEFAULT_255_1_388
10
5.5454433
20
-0.1840019
40
0.2583845
50
145.2974778
51
160.2660922
0
ARC
8
DEFAULT_255_1_388
10
5.8910921
20
-0.1617849
40
0.5888695
50
179.6512124
51
190.285571
0
ARC
8
DEFAULT_255_1_388
10
5.7005401
20
-0.1977032
40
0.3949683
50
190.0944895
51
207.5099647
0
ARC
8
DEFAULT_255_1_388
10
5.6368982
20
-0.2279823
40
0.3245464
50
207.9585471
51
216.325377
0
ARC
8
DEFAULT_255_1_388
10
5.5986619
20
-0.2594288
40
0.2751259
50
215.7661336
51
232.5457193
0
ARC
8
DEFAULT_255_1_388
10
5.5555735
20
-0.3141727
40
0.2054668
50
232.8005815
51
270.6605497
0
ARC
8
DEFAULT_255_1_388
10
5.560716
20
-0.2732147
40
0.2464268
50
269.3550767
51
288.474612
0
ARC
8
DEFAULT_255_1_388
10
5.5711667
20
-0.3125279
40
0.2058436
50
289.1831976
51
322.9685307
0
ARC
8
DEFAULT_255_1_388
10
5.5023768
20
-0.2582721
40
0.2934408
50
322.6007085
51
346.5183319
0
ARC
8
DEFAULT_255_1_388
10
5.3721524
20
-0.2250566
40
0.4278249
50
346.2584622
51
358.7739592
0
ARC
8
DEFAULT_255_1_388
10
5.25701
20
-0.2188171
40
0.5430876
50
358.3757628
51
0.0082477
0
ARC
8
DEFAULT_255_1_388
10
5.3426918
20
-0.2157144
40
0.4574157
50
359.6211417
51
11.28403
0
ARC
8
DEFAULT_255_1_388
10
5.4863524
20
-0.1857465
40
0.3106708
50
11.0483152
51
31.8145585
0
ARC
8
DEFAULT_255_1_388
10
5.5211229
20
-0.1668955
40
0.2711963
50
32.3028554
51
38.0820598
0
ARC
8
DEFAULT_255_1_388
10
5.5684462
20
-0.1240283
40
0.2075566
50
36.8249851
51
85.741667
0
ARC
8
DEFAULT_255_1_388
10
5.5608875
20
-0.1803935
40
0.2643487
50
85.0150021
51
90.050843
0
LINE
8
DEFAULT_255_1_388
10
6.9503351
20
0.1101585
11
6.9503351
21
-0.0317011
0
LINE
8
DEFAULT_255_1_388
10
6.9503351
20
-0.0317011
11
6.3801859
21
-0.0317011
0
LINE
8
DEFAULT_255_1_388
10
6.3801859
20
-0.0317011
11
6.3801859
21
-0.4979404
0
LINE
8
DEFAULT_255_1_388
10
6.3801859
20
-0.4979404
11
7.0424986
21
-0.4979404
0
LINE
8
DEFAULT_255_1_388
10
7.0424986
20
-0.4979404
11
7.0424986
21
-0.6398
0
LINE
8
DEFAULT_255_1_388
10
7.0424986
20
-0.6398
11
6.2067015
21
-0.6398
0
LINE
8
DEFAULT_255_1_388
10
6.2067015
20
-0.6398
11
6.2067015
21
0.6757898
0
LINE
8
DEFAULT_255_1_388
10
6.2067015
20
0.6757898
11
7.033463
21
0.6757898
0
LINE
8
DEFAULT_255_1_388
10
7.033463
20
0.6757898
11
7.033463
21
0.5330267
0
LINE
8
DEFAULT_255_1_388
10
7.033463
20
0.5330267
11
6.3801859
21
0.5330267
0
LINE
8
DEFAULT_255_1_388
10
6.3801859
20
0.5330267
11
6.3801859
21
0.1101585
0
LINE
8
DEFAULT_255_1_388
10
6.3801859
20
0.1101585
11
6.9503351
21
0.1101585
0
LINE
8
DEFAULT_255_1_388
10
8.1312938
20
0.2953892
11
7.9569059
21
0.2953892
0
LINE
8
DEFAULT_255_1_388
10
7.1780333
20
-0.2584958
11
7.3524212
21
-0.2584958
0
ARC
8
DEFAULT_255_1_388
10
8.0309786
20
1.3017821
40
1.4087688
50
248.9196578
51
254.1442424
0
ARC
8
DEFAULT_255_1_388
10
7.8419666
20
0.8151805
40
0.8867498
50
241.6337352
51
249.0064643
0
ARC
8
DEFAULT_255_1_388
10
7.6699979
20
0.5000764
40
0.5277799
50
230.4982261
51
241.8087583
0
ARC
8
DEFAULT_255_1_388
10
7.581775
20
0.3876686
40
0.3849419
50
227.4062979
51
229.9877433
0
ARC
8
DEFAULT_255_1_388
10
7.5269097
20
0.3341155
40
0.3084129
50
200.6782127
51
228.1765252
0
ARC
8
DEFAULT_255_1_388
10
7.5350466
20
0.3324277
40
0.315461
50
179.506278
51
199.8695278
0
ARC
8
DEFAULT_255_1_388
10
7.5340054
20
0.3407671
40
0.3144584
50
132.4834401
51
181.0242352
0
ARC
8
DEFAULT_255_1_388
10
7.6009259
20
0.2775788
40
0.4063094
50
129.2526113
51
133.4249077
0
ARC
8
DEFAULT_255_1_388
10
7.6174851
20
0.2527619
40
0.436014
50
101.9878945
51
128.8741833
0
ARC
8
DEFAULT_255_1_388
10
7.6623267
20
0.059136
40
0.6347415
50
89.5906376
51
102.3170567
0
ARC
8
DEFAULT_255_1_388
10
7.6702578
20
0.0949586
40
0.5989122
50
77.2359491
51
90.3248968
0
ARC
8
DEFAULT_255_1_388
10
7.6935509
20
0.2037554
40
0.4876594
50
63.8379856
51
77.0808925
0
ARC
8
DEFAULT_255_1_388
10
7.7248043
20
0.2619882
40
0.4216191
50
45.9863127
51
64.1608798
0
ARC
8
DEFAULT_255_1_388
10
7.7541436
20
0.295499
40
0.3771394
50
32.2747934
51
45.6544796
0
ARC
8
DEFAULT_255_1_388
10
7.7616243
20
0.2976426
40
0.3696765
50
359.6507495
51
32.6129943
0
ARC
8
DEFAULT_255_1_388
10
7.6555425
20
0.2981788
40
0.3013762
50
359.469654
51
14.983205
0
ARC
8
DEFAULT_255_1_388
10
7.7348678
20
0.3194288
40
0.2192542
50
14.9781954
51
48.2004799
0
ARC
8
DEFAULT_255_1_388
10
7.7163788
20
0.2961937
40
0.2489048
50
48.5926661
51
74.1242559
0
ARC
8
DEFAULT_255_1_388
10
7.6788591
20
0.1723607
40
0.3782845
50
73.7889321
51
86.6653996
0
ARC
8
DEFAULT_255_1_388
10
7.6673405
20
0.0365955
40
0.5145025
50
86.2642725
51
90.0533288
0
ARC
8
DEFAULT_255_1_388
10
7.6641498
20
0.0810376
40
0.4700681
50
89.669455
51
99.2313411
0
ARC
8
DEFAULT_255_1_388
10
7.6368658
20
0.2435401
40
0.3052945
50
99.0695987
51
113.7659242
0
ARC
8
DEFAULT_255_1_388
10
7.6060652
20
0.3161772
40
0.226407
50
114.0402885
51
127.9848946
0
ARC
8
DEFAULT_255_1_388
10
7.5790129
20
0.3494884
40
0.1835045
50
127.7287217
51
176.7106493
0
ARC
8
DEFAULT_255_1_388
10
7.6553794
20
0.338121
40
0.2604907
50
175.1780759
51
180.0581213
0
ARC
8
DEFAULT_255_1_388
10
7.5605137
20
0.3367411
40
0.1656287
50
179.6140658
51
228.124674
0
ARC
8
DEFAULT_255_1_388
10
7.6102495
20
0.382794
40
0.2332038
50
226.5785315
51
230.8792476
0
ARC
8
DEFAULT_255_1_388
10
7.6631981
20
0.4530908
40
0.3211664
50
231.4636401
51
241.9261664
0
ARC
8
DEFAULT_255_1_388
10
7.7978765
20
0.7009349
40
0.6032345
50
241.7177136
51
248.3259138
0
ARC
8
DEFAULT_255_1_388
10
7.9537359
20
1.0870771
40
1.0196417
50
248.2007377
51
252.4527713
0
ARC
8
DEFAULT_255_1_388
10
8.0890886
20
1.5055092
40
1.4594143
50
252.3388938
51
254.347037
0
ARC
8
DEFAULT_255_1_388
10
7.2406187
20
-1.5292905
40
1.6917621
50
71.0197462
51
74.4085467
0
ARC
8
DEFAULT_255_1_388
10
7.4313275
20
-0.9787856
40
1.1091618
50
66.1845203
51
71.086519
0
ARC
8
DEFAULT_255_1_388
10
7.6063823
20
-0.5846561
40
0.6779073
50
59.3537334
51
66.269255
0
ARC
8
DEFAULT_255_1_388
10
7.7063549
20
-0.4155223
40
0.4814366
50
49.1021732
51
59.3294421
0
ARC
8
DEFAULT_255_1_388
10
7.7984538
20
-0.3105425
40
0.3417875
50
32.7924183
51
49.2503526
0
ARC
8
DEFAULT_255_1_388
10
7.8334152
20
-0.2855689
40
0.2988789
50
31.121225
51
32.3977355
0
ARC
8
DEFAULT_255_1_388
10
7.824633
20
-0.2888272
40
0.3080861
50
8.1116803
51
30.7958224
0
ARC
8
DEFAULT_255_1_388
10
7.7334675
20
-0.3043563
40
0.4005385
50
359.8390945
51
8.4707348
0
ARC
8
DEFAULT_255_1_388
10
7.8038723
20
-0.3098249
40
0.3301608
50
337.4732479
51
0.7538283
0
ARC
8
DEFAULT_255_1_388
10
7.8239748
20
-0.3120446
40
0.3107929
50
307.5917028
51
336.4313755
0
ARC
8
DEFAULT_255_1_388
10
7.7728806
20
-0.2552491
40
0.3870096
50
307.6560665
51
308.4561779
0
ARC
8
DEFAULT_255_1_388
10
7.7463022
20
-0.2144168
40
0.435591
50
284.3733666
51
307.1426212
0
ARC
8
DEFAULT_255_1_388
10
7.6905917
20
-0.0094609
40
0.6479685
50
272.4384566
51
284.6464689
0
ARC
8
DEFAULT_255_1_388
10
7.6763302
20
0.1929434
40
0.8508149
50
269.9708517
51
272.8180721
0
ARC
8
DEFAULT_255_1_388
10
7.6714984
20
-0.0362717
40
0.6216151
50
248.2707343
51
270.4054609
0
ARC
8
DEFAULT_255_1_388
10
7.6653856
20
-0.0577327
40
0.5994203
50
246.1380358
51
248.054058
0
ARC
8
DEFAULT_255_1_388
10
7.6182998
20
-0.1566295
40
0.4899388
50
233.1671897
51
246.4951656
0
ARC
8
DEFAULT_255_1_388
10
7.5559633
20
-0.2407863
40
0.3852115
50
215.3403381
51
233.084328
0
ARC
8
DEFAULT_255_1_388
10
7.5252997
20
-0.2630907
40
0.3472969
50
179.2419235
51
215.2648426
0
ARC
8
DEFAULT_255_1_388
10
7.6116548
20
-0.2615021
40
0.259251
50
179.3355796
51
199.1045873
0
ARC
8
DEFAULT_255_1_388
10
7.574269
20
-0.2712777
40
0.2207454
50
199.8830064
51
232.7061328
0
ARC
8
DEFAULT_255_1_388
10
7.6273965
20
-0.2044544
40
0.306101
50
232.3736206
51
255.5136621
0
ARC
8
DEFAULT_255_1_388
10
7.665747
20
-0.0644823
40
0.4512213
50
255.2447928
51
267.5318292
0
ARC
8
DEFAULT_255_1_388
10
7.6755937
20
0.0741709
40
0.5901825
50
267.1564563
51
270.0294721
0
ARC
8
DEFAULT_255_1_388
10
7.6787263
20
0.0242623
40
0.5402814
50
269.6999944
51
278.1662446
0
ARC
8
DEFAULT_255_1_388
10
7.707529
20
-0.1704026
40
0.3435003
50
278.0229022
51
290.6255326
0
ARC
8
DEFAULT_255_1_388
10
7.7466457
20
-0.2747453
40
0.2320666
50
290.6616368
51
307.0374127
0
ARC
8
DEFAULT_255_1_388
10
7.7804357
20
-0.316196
40
0.1786372
50
306.3942078
51
355.303191
0
ARC
8
DEFAULT_255_1_388
10
7.722865
20
-0.3075814
40
0.2367516
50
354.3662092
51
0.0709489
0
ARC
8
DEFAULT_255_1_388
10
7.7388518
20
-0.3050439
40
0.2207761
50
359.4175379
51
16.1975911
0
ARC
8
DEFAULT_255_1_388
10
7.7900636
20
-0.2910046
40
0.1676828
50
16.4721294
51
52.6261798
0
ARC
8
DEFAULT_255_1_388
10
7.6977144
20
-0.4129394
40
0.3206412
50
52.7381828
51
62.4979144
0
ARC
8
DEFAULT_255_1_388
10
7.5418896
20
-0.7061764
40
0.6527035
50
62.2517425
51
68.1219454
0
ARC
8
DEFAULT_255_1_388
10
7.3484384
20
-1.1816049
40
1.1659797
50
68.006043
51
71.8055127
0
ARC
8
DEFAULT_255_1_388
10
7.1464292
20
-1.7874277
40
1.8045908
50
71.718361
51
73.9260743
0
LINE
8
DEFAULT_255_1_388
10
9.1622608
20
0.6757898
11
9.1622608
21
0.5818191
0
LINE
8
DEFAULT_255_1_388
10
9.1622608
20
0.5818191
11
8.6174115
21
-0.6398
0
LINE
8
DEFAULT_255_1_388
10
8.6174115
20
-0.6398
11
8.44212
21
-0.6398
0
LINE
8
DEFAULT_255_1_388
10
8.44212
20
-0.6398
11
8.9851622
21
0.538448
0
LINE
8
DEFAULT_255_1_388
10
8.9851622
20
0.538448
11
8.2731534
21
0.538448
0
LINE
8
DEFAULT_255_1_388
10
8.2731534
20
0.538448
11
8.2731534
21
0.6757898
0
LINE
8
DEFAULT_255_1_388
10
8.2731534
20
0.6757898
11
9.1622608
21
0.6757898
0
LINE
8
DEFAULT_255_1_388
10
9.9013766
20
0.6821148
11
9.9013766
21
-0.6398
0
LINE
8
DEFAULT_255_1_388
10
9.9013766
20
-0.6398
11
9.7333136
21
-0.6398
0
LINE
8
DEFAULT_255_1_388
10
9.7333136
20
-0.6398
11
9.7333136
21
0.474295
0
LINE
8
DEFAULT_255_1_388
10
9.7333136
20
0.474295
11
9.396284
21
0.3505066
0
LINE
8
DEFAULT_255_1_388
10
9.396284
20
0.3505066
11
9.396284
21
0.5023055
0
LINE
8
DEFAULT_255_1_388
10
9.396284
20
0.5023055
11
9.8751732
21
0.6821148
0
LINE
8
DEFAULT_255_1_388
10
9.8751732
20
0.6821148
11
9.9013766
21
0.6821148
0
LINE
8
DEFAULT_255_1_388
10
10.6341673
20
-0.0371225
11
10.6341673
21
0.0993157
0
LINE
8
DEFAULT_255_1_388
10
10.6341673
20
0.0993157
11
10.7597628
21
0.0993157
0
LINE
8
DEFAULT_255_1_388
10
10.545618
20
0.3306282
11
10.3784586
21
0.3306282
0
LINE
8
DEFAULT_255_1_388
10
10.3667123
20
-0.2928313
11
10.5347752
21
-0.2928313
0
LINE
8
DEFAULT_255_1_388
10
10.7597628
20
-0.0371225
11
10.6341673
21
-0.0371225
0
ARC
8
DEFAULT_255_1_388
10
10.7564854
20
0.4809922
40
0.3816905
50
270.491971
51
281.8953028
0
ARC
8
DEFAULT_255_1_388
10
10.7836281
20
0.3570199
40
0.2547877
50
281.6690378
51
301.2943765
0
ARC
8
DEFAULT_255_1_388
10
10.8027733
20
0.3219926
40
0.2149197
50
301.7834992
51
311.754567
0
ARC
8
DEFAULT_255_1_388
10
10.8130774
20
0.310565
40
0.1995326
50
311.7325027
51
354.2803031
0
ARC
8
DEFAULT_255_1_388
10
10.731319
20
0.324628
40
0.2823461
50
353.0941646
51
0.1174696
0
ARC
8
DEFAULT_255_1_388
10
10.6794748
20
0.3299874
40
0.3342238
50
359.1804452
51
15.0452323
0
ARC
8
DEFAULT_255_1_388
10
10.8308806
20
0.3741546
40
0.1765747
50
13.957816
51
77.6713812
0
ARC
8
DEFAULT_255_1_388
10
10.7874042
20
0.2183464
40
0.3381982
50
76.111571
51
90.7028736
0
ARC
8
DEFAULT_255_1_388
10
10.7807454
20
0.249125
40
0.3074046
50
89.5321574
51
103.5319393
0
ARC
8
DEFAULT_255_1_388
10
10.7581838
20
0.3390443
40
0.2147041
50
103.2930114
51
133.5619756
0
ARC
8
DEFAULT_255_1_388
10
10.7531779
20
0.3457351
40
0.2064084
50
133.8349761
51
173.5343225
0
ARC
8
DEFAULT_255_1_388
10
10.8345437
20
0.3313144
40
0.2889266
50
172.5097183
51
180.1360699
0
ARC
8
DEFAULT_255_1_388
10
10.7275201
20
0.335188
40
0.3490913
50
155.3483706
51
180.7484035
0
ARC
8
DEFAULT_255_1_388
10
10.7220176
20
0.3319519
40
0.3454798
50
131.5745177
51
154.4799474
0
ARC
8
DEFAULT_255_1_388
10
10.7572459
20
0.2963422
40
0.3955058
50
96.9874487
51
131.9690874
0
ARC
8
DEFAULT_255_1_388
10
10.7819352
20
0.1562407
40
0.537622
50
89.8592909
51
97.7827481
0
ARC
8
DEFAULT_255_1_388
10
10.7873461
20
0.126736
40
0.5671399
50
78.3654493
51
90.4132586
0
ARC
8
DEFAULT_255_1_388
10
10.8276102
20
0.3133918
40
0.3762034
50
56.6229818
51
78.6387103
0
ARC
8
DEFAULT_255_1_388
10
10.8517931
20
0.3556846
40
0.3275964
50
47.0254604
51
56.085558
0
ARC
8
DEFAULT_255_1_388
10
10.8540182
20
0.3601189
40
0.3228382
50
10.9207523
51
46.777927
0
ARC
8
DEFAULT_255_1_388
10
10.7005776
20
0.3246401
40
0.4802559
50
359.6364235
51
11.6087615
0
ARC
8
DEFAULT_255_1_388
10
10.9069942
20
0.3229404
40
0.273833
50
332.3549969
51
359.7179765
0
ARC
8
DEFAULT_255_1_388
10
10.8338342
20
0.3576285
40
0.3547505
50
325.2332381
51
332.8746682
0
ARC
8
DEFAULT_255_1_388
10
10.8509925
20
0.3456763
40
0.3338396
50
292.9803892
51
325.2391113
0
ARC
8
DEFAULT_255_1_388
10
10.8199121
20
0.4061679
40
0.4016959
50
292.542178
51
293.6931461
0
ARC
8
DEFAULT_255_1_388
10
10.8642693
20
-0.3203964
40
0.372079
50
57.643292
51
72.8626085
0
ARC
8
DEFAULT_255_1_388
10
10.9041527
20
-0.2557727
40
0.2961455
50
36.7246661
51
57.4701329
0
ARC
8
DEFAULT_255_1_388
10
10.9028684
20
-0.254353
40
0.2963321
50
8.054535
51
36.3561529
0
ARC
8
DEFAULT_255_1_388
10
10.8058357
20
-0.2717927
40
0.3948682
50
359.8316595
51
8.5873361
0
ARC
8
DEFAULT_255_1_388
10
10.7635831
20
-0.277203
40
0.4371398
50
343.9831631
51
0.557075
0
ARC
8
DEFAULT_255_1_388
10
10.863288
20
-0.3045037
40
0.3337749
50
311.6358204
51
343.7652116
0
ARC
8
DEFAULT_255_1_388
10
10.8207134
20
-0.2565045
40
0.3979351
50
279.7829743
51
311.625622
0
ARC
8
DEFAULT_255_1_388
10
10.7868269
20
-0.0948358
40
0.5630417
50
269.7285092
51
280.3857694
0
ARC
8
DEFAULT_255_1_388
10
10.7798582
20
-0.0994759
40
0.5584119
50
256.6827433
51
270.4412869
0
ARC
8
DEFAULT_255_1_388
10
10.7417569
20
-0.2552302
40
0.3980715
50
229.4223821
51
256.8554507
0
ARC
8
DEFAULT_255_1_388
10
10.6951122
20
-0.3077317
40
0.3278564
50
181.8183354
51
229.6455015
0
ARC
8
DEFAULT_255_1_388
10
10.8120732
20
-0.2930175
40
0.4453611
50
179.9760419
51
183.2330638
0
ARC
8
DEFAULT_255_1_388
10
10.7927284
20
-0.2953219
40
0.2579652
50
179.4467996
51
196.2871626
0
ARC
8
DEFAULT_255_1_388
10
10.7378738
20
-0.3103291
40
0.2011057
50
196.5661293
51
227.7059371
0
ARC
8
DEFAULT_255_1_388
10
10.7563345
20
-0.2896845
40
0.2287994
50
227.7653015
51
257.8763321
0
ARC
8
DEFAULT_255_1_388
10
10.7816428
20
-0.1836039
40
0.3378385
50
257.4583525
51
270.4267406
0
ARC
8
DEFAULT_255_1_388
10
10.7867678
20
-0.150977
40
0.3704652
50
269.5965319
51
280.8788143
0
ARC
8
DEFAULT_255_1_388
10
10.8125906
20
-0.2799471
40
0.2389415
50
280.6347277
51
299.8594068
0
ARC
8
DEFAULT_255_1_388
10
10.8340675
20
-0.3207264
40
0.19289
50
300.3575552
51
314.5515667
0
ARC
8
DEFAULT_255_1_388
10
10.8247351
20
-0.3138975
40
0.204312
50
315.0730962
51
345.0429362
0
ARC
8
DEFAULT_255_1_388
10
10.7208858
20
-0.2836461
40
0.31246
50
344.598526
51
357.9270698
0
ARC
8
DEFAULT_255_1_388
10
10.6199163
20
-0.2767295
40
0.4136265
50
357.4755098
51
0.0224936
0
ARC
8
DEFAULT_255_1_388
10
10.7352041
20
-0.2739901
40
0.2983498
50
359.5051035
51
13.4236939
0
ARC
8
DEFAULT_255_1_388
10
10.8327131
20
-0.2490363
40
0.1977186
50
12.9497905
51
48.7550905
0
ARC
8
DEFAULT_255_1_388
10
10.8122053
20
-0.2770627
40
0.2323321
50
49.509109
51
72.1832965
0
ARC
8
DEFAULT_255_1_388
10
10.7719521
20
-0.3965368
40
0.358397
50
71.9008458
51
84.3555134
0
ARC
8
DEFAULT_255_1_388
10
10.7537916
20
-0.5497288
40
0.512641
50
84.019632
51
89.3326067
0
LINE
8
DEFAULT_255_1_388
10
12.2922081
20
-0.5033618
11
12.2922081
21
-0.6398
0
LINE
8
DEFAULT_255_1_388
10
12.2922081
20
-0.6398
11
11.4302076
21
-0.6398
0
LINE
8
DEFAULT_255_1_388
10
11.4302076
20
-0.6398
11
11.4302076
21
-0.5196259
0
LINE
8
DEFAULT_255_1_388
10
11.4302076
20
-0.5196259
11
11.8856041
21
-0.0136298
0
LINE
8
DEFAULT_255_1_388
10
11.5720672
20
0.2881607
11
11.4049078
21
0.2881607
0
LINE
8
DEFAULT_255_1_388
10
11.9840926
20
-0.121154
11
11.6317025
21
-0.5033618
0
LINE
8
DEFAULT_255_1_388
10
11.6317025
20
-0.5033618
11
12.2922081
21
-0.5033618
0
ARC
8
DEFAULT_255_1_388
10
10.3680101
20
1.3283983
40
2.0258655
50
318.5132526
51
320.7829045
0
ARC
8
DEFAULT_255_1_388
10
10.9628057
20
0.8442929
40
1.2589638
50
320.7372878
51
323.9739031
0
ARC
8
DEFAULT_255_1_388
10
11.4036989
20
0.5248554
40
0.7145141
50
323.8962701
51
328.64194
0
ARC
8
DEFAULT_255_1_388
10
11.6339247
20
0.3828545
40
0.4440242
50
328.8294576
51
331.7891185
0
ARC
8
DEFAULT_255_1_388
10
11.7461567
20
0.3249374
40
0.3177517
50
331.4254512
51
352.9365785
0
ARC
8
DEFAULT_255_1_388
10
11.7614567
20
0.321505
40
0.3021496
50
353.2257659
51
0.0166158
0
ARC
8
DEFAULT_255_1_388
10
11.7851327
20
0.3240894
40
0.2784847
50
359.486299
51
15.9343185
0
ARC
8
DEFAULT_255_1_388
10
11.8421594
20
0.3394269
40
0.2194403
50
16.1712913
51
43.5286088
0
ARC
8
DEFAULT_255_1_388
10
11.8508539
20
0.3481191
40
0.2071504
50
43.4417391
51
83.1661095
0
ARC
8
DEFAULT_255_1_388
10
11.83577
20
0.2652316
40
0.2912888
50
82.160179
51
90.1505708
0
ARC
8
DEFAULT_255_1_388
10
11.8322182
20
0.2048279
40
0.3517025
50
89.5460741
51
102.5418361
0
ARC
8
DEFAULT_255_1_388
10
11.8048902
20
0.3207933
40
0.2325748
50
102.1738499
51
129.206123
0
ARC
8
DEFAULT_255_1_388
10
11.7960355
20
0.3347664
40
0.2161591
50
129.72865
51
135.753947
0
ARC
8
DEFAULT_255_1_388
10
11.8096837
20
0.3238728
40
0.2335433
50
136.1757367
51
166.3673339
0
ARC
8
DEFAULT_255_1_388
10
11.9229526
20
0.2935148
40
0.3507873
50
165.9090694
51
178.8684636
0
ARC
8
DEFAULT_255_1_388
10
12.0205297
20
0.2882263
40
0.4484624
50
178.4391136
51
180.0083808
0
ARC
8
DEFAULT_255_1_388
10
11.8625998
20
0.2926197
40
0.4577138
50
163.2878482
51
180.5581842
0
ARC
8
DEFAULT_255_1_388
10
11.772404
20
0.3174393
40
0.3641968
50
133.4540601
51
162.947111
0
ARC
8
DEFAULT_255_1_388
10
11.7924921
20
0.2960789
40
0.3935189
50
100.7869829
51
133.4382499
0
ARC
8
DEFAULT_255_1_388
10
11.8316166
20
0.1218399
40
0.5720313
50
89.660664
51
101.3702276
0
ARC
8
DEFAULT_255_1_388
10
11.8390775
20
0.1287263
40
0.5651495
50
78.2172678
51
90.412935
0
ARC
8
DEFAULT_255_1_388
10
11.8790241
20
0.3114511
40
0.378122
50
55.9269121
51
78.4888449
0
ARC
8
DEFAULT_255_1_388
10
11.9010956
20
0.3495187
40
0.3342379
50
47.929771
51
55.4049217
0
ARC
8
DEFAULT_255_1_388
10
11.9125487
20
0.3611618
40
0.3179217
50
4.334829
51
48.0560205
0
ARC
8
DEFAULT_255_1_388
10
11.7893288
20
0.3420487
40
0.442341
50
359.9251713
51
5.5971671
0
ARC
8
DEFAULT_255_1_388
10
11.8375443
20
0.3483728
40
0.3941854
50
337.8914027
51
358.9967534
0
ARC
8
DEFAULT_255_1_388
10
11.5323013
20
0.4661295
40
0.7213271
50
326.9132501
51
338.3508308
0
ARC
8
DEFAULT_255_1_388
10
11.0839125
20
0.7535105
40
1.2538973
50
319.6471833
51
327.0959558
0
ARC
8
DEFAULT_255_1_388
10
10.6525783
20
1.109305
40
1.8129975
50
317.2588228
51
319.9045804
0
LINE
8
DEFAULT_255_1_388
10
12.8343468
20
-0.0127263
11
12.8343468
21
-0.1491645
0
LINE
8
DEFAULT_255_1_388
10
12.8343468
20
-0.1491645
11
12.3934073
21
-0.1491645
0
LINE
8
DEFAULT_255_1_388
10
12.3934073
20
-0.1491645
11
12.3934073
21
-0.0127263
0
LINE
8
DEFAULT_255_1_388
10
12.3934073
20
-0.0127263
11
12.8343468
21
-0.0127263
0
LINE
8
DEFAULT_255_1_388
10
13.6855045
20
0.6757898
11
13.6855045
21
-0.197957
0
LINE
8
DEFAULT_255_1_388
10
13.6855045
20
-0.197957
11
13.8680245
21
-0.197957
0
LINE
8
DEFAULT_255_1_388
10
13.8680245
20
-0.197957
11
13.8680245
21
-0.3343952
0
LINE
8
DEFAULT_255_1_388
10
13.8680245
20
-0.3343952
11
13.6855045
21
-0.3343952
0
LINE
8
DEFAULT_255_1_388
10
13.6855045
20
-0.3343952
11
13.6855045
21
-0.6398
0
LINE
8
DEFAULT_255_1_388
10
13.6855045
20
-0.6398
11
13.5174415
21
-0.6398
0
LINE
8
DEFAULT_255_1_388
10
13.5174415
20
-0.6398
11
13.5174415
21
-0.3343952
0
LINE
8
DEFAULT_255_1_388
10
13.5174415
20
-0.3343952
11
12.9183783
21
-0.3343952
0
LINE
8
DEFAULT_255_1_388
10
12.9183783
20
-0.3343952
11
12.9183783
21
-0.2359067
0
LINE
8
DEFAULT_255_1_388
10
12.9183783
20
-0.2359067
11
13.5075023
21
0.6757898
0
LINE
8
DEFAULT_255_1_388
10
13.5075023
20
0.6757898
11
13.6855045
21
0.6757898
0
LINE
8
DEFAULT_255_1_388
10
13.4975631
20
0.4110455
11
13.1081268
21
-0.197957
0
LINE
8
DEFAULT_255_1_388
10
13.1081268
20
-0.197957
11
13.5174415
21
-0.197957
0
LINE
8
DEFAULT_255_1_388
10
13.5174415
20
-0.197957
11
13.5174415
21
0.447188
0
LINE
8
DEFAULT_255_1_388
10
13.5174415
20
0.447188
11
13.4975631
21
0.4110455
0
LINE
8
DEFAULT_255_1_388
10
14.5185909
20
-0.6398
11
14.0622909
21
-0.6398
0
LINE
8
DEFAULT_255_1_388
10
14.0622909
20
-0.6398
11
14.0622909
21
0.6757898
0
LINE
8
DEFAULT_255_1_388
10
14.0622909
20
0.6757898
11
14.4923875
21
0.6757898
0
LINE
8
DEFAULT_255_1_388
10
14.5249159
20
-0.0244726
11
14.2357752
21
-0.0244726
0
LINE
8
DEFAULT_255_1_388
10
14.2357752
20
-0.0244726
11
14.2357752
21
-0.4979404
0
LINE
8
DEFAULT_255_1_388
10
14.2357752
20
-0.4979404
11
14.5222052
21
-0.4979404
0
LINE
8
DEFAULT_255_1_388
10
14.2357752
20
0.5330267
11
14.2357752
21
0.1146763
0
LINE
8
DEFAULT_255_1_388
10
14.2357752
20
0.1146763
11
14.4978089
21
0.1146763
0
LINE
8
DEFAULT_255_1_388
10
14.4923875
20
0.5330267
11
14.2357752
21
0.5330267
0
ARC
8
DEFAULT_255_1_388
10
14.4966296
20
-0.1530176
40
0.8288183
50
82.1256322
51
90.2932506
0
ARC
8
DEFAULT_255_1_388
10
14.5403871
20
0.152759
40
0.5199321
50
69.9044202
51
82.2857574
0
ARC
8
DEFAULT_255_1_388
10
14.6045863
20
0.3262993
40
0.3348993
50
51.1840204
51
70.018125
0
ARC
8
DEFAULT_255_1_388
10
14.6332696
20
0.3679945
40
0.2844579
50
12.1018086
51
50.421322
0
ARC
8
DEFAULT_255_1_388
10
14.4775567
20
0.3288937
40
0.4449429
50
359.5252354
51
12.8212369
0
ARC
8
DEFAULT_255_1_388
10
14.6552997
20
0.3210943
40
0.2672162
50
323.4907456
51
0.8818258
0
ARC
8
DEFAULT_255_1_388
10
14.6082409
20
0.3574523
40
0.3266736
50
298.6824053
51
323.2758285
0
ARC
8
DEFAULT_255_1_388
10
14.5675701
20
0.4250509
40
0.4055105
50
293.1994739
51
299.139634
0
ARC
8
DEFAULT_255_1_388
10
14.6432651
20
-0.2595349
40
0.3229926
50
54.0009997
51
74.9168635
0
ARC
8
DEFAULT_255_1_388
10
14.6563577
20
-0.2373489
40
0.2973581
50
36.3578854
51
53.5293172
0
ARC
8
DEFAULT_255_1_388
10
14.6420946
20
-0.247515
40
0.3148715
50
4.8189348
51
36.3090187
0
ARC
8
DEFAULT_255_1_388
10
14.554397
20
-0.2598617
40
0.4033265
50
359.9373213
51
5.5201284
0
ARC
8
DEFAULT_255_1_388
10
14.51793
20
-0.2644267
40
0.4398126
50
344.7479357
51
0.5372278
0
ARC
8
DEFAULT_255_1_388
10
14.6294198
20
-0.2944795
40
0.3243441
50
311.1785587
51
344.6887681
0
ARC
8
DEFAULT_255_1_388
10
14.5965742
20
-0.2535916
40
0.3767511
50
286.0417804
51
310.8440924
0
ARC
8
DEFAULT_255_1_388
10
14.5395151
20
-0.0683115
40
0.5705957
50
274.1044074
51
286.4070149
0
ARC
8
DEFAULT_255_1_388
10
14.5196366
20
0.1434901
40
0.7832907
50
269.9235077
51
274.4458593
0
ARC
8
DEFAULT_255_1_388
10
14.5248085
20
-0.1196538
40
0.3782955
50
269.6057074
51
281.3740795
0
ARC
8
DEFAULT_255_1_388
10
14.5507583
20
-0.2426431
40
0.2526069
50
281.105298
51
302.5134029
0
ARC
8
DEFAULT_255_1_388
10
14.5672971
20
-0.2723056
40
0.2187131
50
303.0365425
51
311.8818034
0
ARC
8
DEFAULT_255_1_388
10
14.5753148
20
-0.2818398
40
0.2062624
50
311.9916937
51
351.7143773
0
ARC
8
DEFAULT_255_1_388
10
14.4834173
20
-0.2632729
40
0.2999202
50
350.7343295
51
0.2221526
0
ARC
8
DEFAULT_255_1_388
10
14.4713261
20
-0.256913
40
0.3120525
50
359.045729
51
17.2295312
0
ARC
8
DEFAULT_255_1_388
10
14.5882291
20
-0.2221845
40
0.1901144
50
17.6685208
51
78.9940245
0
ARC
8
DEFAULT_255_1_388
10
14.5300652
20
-0.4309989
40
0.4065575
50
76.565218
51
90.7103392
0
LINE
8
DEFAULT_255_1_388
10
14.5250249
20
-0.0244726
11
14.5249159
21
-0.0244726
0
ARC
8
DEFAULT_255_1_388
10
14.5003478
20
0.4842949
40
0.3696273
50
269.6064514
51
281.4533785
0
ARC
8
DEFAULT_255_1_388
10
14.5254119
20
0.3660283
40
0.2487412
50
281.2044438
51
302.5143998
0
ARC
8
DEFAULT_255_1_388
10
14.5408372
20
0.3382576
40
0.2170405
50
303.0211308
51
309.8378766
0
ARC
8
DEFAULT_255_1_388
10
14.561449
20
0.3151486
40
0.1860946
50
309.5229446
51
356.9509628
0
ARC
8
DEFAULT_255_1_388
10
14.4868616
20
0.3258831
40
0.2612347
50
355.4699226
51
0.0498632
0
ARC
8
DEFAULT_255_1_388
10
14.4554289
20
0.3283789
40
0.2926762
50
359.5558955
51
11.2092924
0
ARC
8
DEFAULT_255_1_388
10
14.5631257
20
0.3506667
40
0.1827036
50
10.9185717
51
31.322519
0
ARC
8
DEFAULT_255_1_388
10
14.5952805
20
0.3685571
40
0.1459418
50
31.8850633
51
52.1415586
0
ARC
8
DEFAULT_255_1_388
10
14.5644234
20
0.3249674
40
0.1993088
50
52.8283418
51
71.9850132
0
ARC
8
DEFAULT_255_1_388
10
14.5221395
20
0.2005158
40
0.3307407
50
71.686634
51
82.8453416
0
ARC
8
DEFAULT_255_1_388
10
14.4952042
20
-0.0030108
40
0.536039
50
82.6981895
51
90.1730083
0
ARC
8
DEFAULT_255_1_388
10
14.4926873
20
0.0848836
40
0.4481429
50
89.8851568
51
90.0383283
0
LINE
8
DEFAULT_255_1_388
10
15.6706356
20
-0.6398
11
15.2143355
21
-0.6398
0
LINE
8
DEFAULT_255_1_388
10
15.2143355
20
-0.6398
11
15.2143355
21
0.6757898
0
LINE
8
DEFAULT_255_1_388
10
15.2143355
20
0.6757898
11
15.6444322
21
0.6757898
0
LINE
8
DEFAULT_255_1_388
10
15.6769605
20
-0.0244726
11
15.3878199
21
-0.0244726
0
LINE
8
DEFAULT_255_1_388
10
15.3878199
20
-0.0244726
11
15.3878199
21
-0.4979404
0
LINE
8
DEFAULT_255_1_388
10
15.3878199
20
-0.4979404
11
15.6742499
21
-0.4979404
0
LINE
8
DEFAULT_255_1_388
10
15.3878199
20
0.5330267
11
15.3878199
21
0.1146763
0
LINE
8
DEFAULT_255_1_388
10
15.3878199
20
0.1146763
11
15.6498536
21
0.1146763
0
LINE
8
DEFAULT_255_1_388
10
15.6444322
20
0.5330267
11
15.3878199
21
0.5330267
0
ARC
8
DEFAULT_255_1_388
10
15.6486743
20
-0.1530176
40
0.8288183
50
82.1256322
51
90.2932506
0
ARC
8
DEFAULT_255_1_388
10
15.6924317
20
0.152759
40
0.5199321
50
69.9044202
51
82.2857574
0
ARC
8
DEFAULT_255_1_388
10
15.756631
20
0.3262993
40
0.3348993
50
51.1840204
51
70.018125
0
ARC
8
DEFAULT_255_1_388
10
15.7853142
20
0.3679945
40
0.2844579
50
12.1018086
51
50.421322
0
ARC
8
DEFAULT_255_1_388
10
15.6296014
20
0.3288937
40
0.4449429
50
359.5252354
51
12.8212369
0
ARC
8
DEFAULT_255_1_388
10
15.8073444
20
0.3210943
40
0.2672162
50
323.4907456
51
0.8818258
0
ARC
8
DEFAULT_255_1_388
10
15.7602856
20
0.3574523
40
0.3266736
50
298.6824053
51
323.2758285
0
ARC
8
DEFAULT_255_1_388
10
15.7196148
20
0.4250509
40
0.4055105
50
293.1994739
51
299.139634
0
ARC
8
DEFAULT_255_1_388
10
15.7953097
20
-0.2595349
40
0.3229926
50
54.0009997
51
74.9168635
0
ARC
8
DEFAULT_255_1_388
10
15.8084024
20
-0.2373489
40
0.2973581
50
36.3578854
51
53.5293172
0
ARC
8
DEFAULT_255_1_388
10
15.7941392
20
-0.247515
40
0.3148715
50
4.8189348
51
36.3090187
0
ARC
8
DEFAULT_255_1_388
10
15.7064417
20
-0.2598617
40
0.4033265
50
359.9373213
51
5.5201284
0
ARC
8
DEFAULT_255_1_388
10
15.6699747
20
-0.2644267
40
0.4398126
50
344.7479357
51
0.5372278
0
ARC
8
DEFAULT_255_1_388
10
15.7814645
20
-0.2944795
40
0.3243441
50
311.1785587
51
344.6887681
0
ARC
8
DEFAULT_255_1_388
10
15.7486189
20
-0.2535916
40
0.3767511
50
286.0417804
51
310.8440924
0
ARC
8
DEFAULT_255_1_388
10
15.6915598
20
-0.0683115
40
0.5705957
50
274.1044074
51
286.4070149
0
ARC
8
DEFAULT_255_1_388
10
15.6716813
20
0.1434901
40
0.7832907
50
269.9235077
51
274.4458593
0
ARC
8
DEFAULT_255_1_388
10
15.6768532
20
-0.1196538
40
0.3782955
50
269.6057074
51
281.3740795
0
ARC
8
DEFAULT_255_1_388
10
15.702803
20
-0.2426431
40
0.2526069
50
281.105298
51
302.5134029
0
ARC
8
DEFAULT_255_1_388
10
15.7193417
20
-0.2723056
40
0.2187131
50
303.0365425
51
311.8818034
0
ARC
8
DEFAULT_255_1_388
10
15.7273595
20
-0.2818398
40
0.2062624
50
311.9916937
51
351.7143773
0
ARC
8
DEFAULT_255_1_388
10
15.6354619
20
-0.2632729
40
0.2999202
50
350.7343295
51
0.2221526
0
ARC
8
DEFAULT_255_1_388
10
15.6233707
20
-0.256913
40
0.3120525
50
359.045729
51
17.2295312
0
ARC
8
DEFAULT_255_1_388
10
15.7402738
20
-0.2221845
40
0.1901144
50
17.6685208
51
78.9940245
0
ARC
8
DEFAULT_255_1_388
10
15.6821099
20
-0.4309989
40
0.4065575
50
76.565218
51
90.7103392
0
LINE
8
DEFAULT_255_1_388
10
15.6770696
20
-0.0244726
11
15.6769605
21
-0.0244726
0
ARC
8
DEFAULT_255_1_388
10
15.6523925
20
0.4842949
40
0.3696273
50
269.6064514
51
281.4533785
0
ARC
8
DEFAULT_255_1_388
10
15.6774565
20
0.3660283
40
0.2487412
50
281.2044438
51
302.5143998
0
ARC
8
DEFAULT_255_1_388
10
15.6928819
20
0.3382576
40
0.2170405
50
303.0211308
51
309.8378766
0
ARC
8
DEFAULT_255_1_388
10
15.7134937
20
0.3151486
40
0.1860946
50
309.5229446
51
356.9509628
0
ARC
8
DEFAULT_255_1_388
10
15.6389063
20
0.3258831
40
0.2612347
50
355.4699226
51
0.0498632
0
ARC
8
DEFAULT_255_1_388
10
15.6074736
20
0.3283789
40
0.2926762
50
359.5558955
51
11.2092924
0
ARC
8
DEFAULT_255_1_388
10
15.7151704
20
0.3506667
40
0.1827036
50
10.9185717
51
31.322519
0
ARC
8
DEFAULT_255_1_388
10
15.7473252
20
0.3685571
40
0.1459418
50
31.8850633
51
52.1415586
0
ARC
8
DEFAULT_255_1_388
10
15.7164681
20
0.3249674
40
0.1993088
50
52.8283418
51
71.9850132
0
ARC
8
DEFAULT_255_1_388
10
15.6741841
20
0.2005158
40
0.3307407
50
71.686634
51
82.8453416
0
ARC
8
DEFAULT_255_1_388
10
15.6472489
20
-0.0030108
40
0.536039
50
82.6981895
51
90.1730083
0
ARC
8
DEFAULT_255_1_388
10
15.644732
20
0.0848836
40
0.4481429
50
89.8851568
51
90.0383283
0
LINE
8
DEFAULT_255_1_388
10
17.1479635
20
0.138169
11
17.1479635
21
-0.0786865
0
LINE
8
DEFAULT_255_1_388
10
16.3175877
20
-0.1012756
11
16.3175877
21
0.1219048
0
LINE
8
DEFAULT_255_1_388
10
16.9808041
20
-0.1238647
11
16.9808041
21
0.1499153
0
LINE
8
DEFAULT_255_1_388
10
16.4847472
20
0.1625652
11
16.4847472
21
-0.1048898
0
ARC
8
DEFAULT_255_1_388
10
15.7701969
20
-0.0841882
40
1.3777776
50
353.8440855
51
0.2287917
0
ARC
8
DEFAULT_255_1_388
10
16.2920986
20
-0.1424586
40
0.852639
50
344.4934746
51
353.9763743
0
ARC
8
DEFAULT_255_1_388
10
16.6287793
20
-0.2381809
40
0.5026273
50
329.2803599
51
344.7473406
0
ARC
8
DEFAULT_255_1_388
10
16.7403289
20
-0.2993962
40
0.3754848
50
324.9361395
51
328.6153007
0
ARC
8
DEFAULT_255_1_388
10
16.7828939
20
-0.3291414
40
0.3235566
50
280.5801797
51
324.9173226
0
ARC
8
DEFAULT_255_1_388
10
16.7377568
20
-0.1411764
40
0.5167077
50
269.5979457
51
281.6732777
0
ARC
8
DEFAULT_255_1_388
10
16.7296471
20
-0.1546887
40
0.5032026
50
256.6228565
51
270.5105488
0
ARC
8
DEFAULT_255_1_388
10
16.6844214
20
-0.3288655
40
0.3233092
50
215.8618351
51
257.2787793
0
ARC
8
DEFAULT_255_1_388
10
16.7992921
20
-0.2517894
40
0.4615831
50
197.9695203
51
215.2622745
0
ARC
8
DEFAULT_255_1_388
10
17.0788596
20
-0.1574359
40
0.7566307
50
187.8816486
51
198.2346584
0
ARC
8
DEFAULT_255_1_388
10
17.5241835
20
-0.0931547
40
1.2065653
50
180.8977266
51
188.0054894
0
ARC
8
DEFAULT_255_1_388
10
17.8292048
20
-0.08166
40
1.5117443
50
180.7434591
51
181.152202
0
ARC
8
DEFAULT_255_1_388
10
17.6617044
20
0.1273371
40
1.3441277
50
173.7674302
51
180.2315596
0
ARC
8
DEFAULT_255_1_388
10
17.1534913
20
0.1847779
40
0.8326847
50
164.3058537
51
173.9000553
0
ARC
8
DEFAULT_255_1_388
10
16.8258913
20
0.2791652
40
0.4917711
50
148.7922028
51
164.5682288
0
ARC
8
DEFAULT_255_1_388
10
16.7189651
20
0.3388457
40
0.3694204
50
144.5883979
51
148.1161588
0
ARC
8
DEFAULT_255_1_388
10
16.6802396
20
0.3658667
40
0.322202
50
101.6440149
51
144.5142619
0
ARC
8
DEFAULT_255_1_388
10
16.7280588
20
0.1758337
40
0.5180451
50
89.528284
51
102.5820197
0
ARC
8
DEFAULT_255_1_388
10
16.736958
20
0.1714376
40
0.5224441
50
77.0437914
51
90.508231
0
ARC
8
DEFAULT_255_1_388
10
16.7821834
20
0.3562272
40
0.3322297
50
48.2777708
51
77.4996087
0
ARC
8
DEFAULT_255_1_388
10
16.7903574
20
0.3707557
40
0.315966
50
36.3141586
51
47.6307332
0
ARC
8
DEFAULT_255_1_388
10
16.6926296
20
0.3049159
40
0.4337313
50
18.2931065
51
35.6770203
0
ARC
8
DEFAULT_255_1_388
10
16.4065137
20
0.2067107
40
0.7362203
50
8.0246996
51
18.5605636
0
ARC
8
DEFAULT_255_1_388
10
15.9381492
20
0.1375432
40
1.2096583
50
1.127539
51
8.1718423
0
ARC
8
DEFAULT_255_1_388
10
15.5732626
20
0.1232374
40
1.5747719
50
0.5432713
51
1.38669
0
ARC
8
DEFAULT_255_1_388
10
15.7790004
20
0.1539163
40
1.2018103
50
359.8092569
51
4.9408001
0
ARC
8
DEFAULT_255_1_388
10
16.2526586
20
0.19619
40
0.7262727
50
4.8364937
51
12.2906017
0
ARC
8
DEFAULT_255_1_388
10
16.562605
20
0.2652485
40
0.4087324
50
12.0806994
51
23.8171225
0
ARC
8
DEFAULT_255_1_388
10
16.6946446
20
0.3211508
40
0.2653719
50
24.2874621
51
31.3934353
0
ARC
8
DEFAULT_255_1_388
10
16.7536882
20
0.3597822
40
0.1948607
50
30.7407708
51
82.4658033
0
ARC
8
DEFAULT_255_1_388
10
16.7334543
20
0.2604017
40
0.2961198
50
81.1057101
51
90.2187368
0
ARC
8
DEFAULT_255_1_388
10
16.7294355
20
0.2894421
40
0.2670929
50
89.380395
51
105.6763916
0
ARC
8
DEFAULT_255_1_388
10
16.7088077
20
0.364432
40
0.1893189
50
105.7980655
51
149.7387869
0
ARC
8
DEFAULT_255_1_388
10
16.8285217
20
0.2924719
40
0.3289892
50
149.4208441
51
163.628295
0
ARC
8
DEFAULT_255_1_388
10
17.0637447
20
0.2207345
40
0.5749004
50
163.3764549
51
172.141138
0
ARC
8
DEFAULT_255_1_388
10
17.4350168
20
0.1675582
40
0.9499585
50
172.0258462
51
178.0705453
0
ARC
8
DEFAULT_255_1_388
10
17.7771721
20
0.1513682
40
1.2924734
50
177.8639301
51
179.5036263
0
ARC
8
DEFAULT_255_1_388
10
17.655274
20
-0.1089849
40
1.170534
50
179.7995545
51
185.246089
0
ARC
8
DEFAULT_255_1_388
10
17.2004333
20
-0.1520596
40
0.7136613
50
185.1411911
51
193.0082205
0
ARC
8
DEFAULT_255_1_388
10
16.9030593
20
-0.2223559
40
0.4080987
50
192.7897338
51
205.2507384
0
ARC
8
DEFAULT_255_1_388
10
16.7852803
20
-0.2749462
40
0.2791522
50
205.8001921
51
211.2545876
0
ARC
8
DEFAULT_255_1_388
10
16.7264343
20
-0.3143868
40
0.2084074
50
210.3789935
51
238.4007996
0
ARC
8
DEFAULT_255_1_388
10
16.7242429
20
-0.3091214
40
0.2117943
50
239.6521916
51
265.9793852
0
ARC
8
DEFAULT_255_1_388
10
16.7338277
20
-0.2334642
40
0.2879689
50
265.1324455
51
270.0603288
0
ARC
8
DEFAULT_255_1_388
10
16.7370655
20
-0.2699582
40
0.2514919
50
269.3314378
51
287.2180039
0
ARC
8
DEFAULT_255_1_388
10
16.7525737
20
-0.3265709
40
0.1928357
50
287.7957942
51
329.0808983
0
ARC
8
DEFAULT_255_1_388
10
16.6448494
20
-0.2593349
40
0.319808
50
328.6635261
51
343.3325043
0
ARC
8
DEFAULT_255_1_388
10
16.4003952
20
-0.1831805
40
0.5758408
50
343.0498092
51
351.9392499
0
ARC
8
DEFAULT_255_1_388
10
16.0103274
20
-0.1256795
40
0.9701202
50
351.8071632
51
357.7957897
0
ARC
8
DEFAULT_255_1_388
10
15.6468751
20
-0.1068276
40
1.3340376
50
357.5870923
51
359.2682493
0
LINE
8
DEFAULT_255_1_388
10
17.9114754
20
0.6821148
11
17.9114754
21
-0.6398
0
LINE
8
DEFAULT_255_1_388
10
17.9114754
20
-0.6398
11
17.7434125
21
-0.6398
0
LINE
8
DEFAULT_255_1_388
10
17.7434125
20
-0.6398
11
17.7434125
21
0.474295
0
LINE
8
DEFAULT_255_1_388
10
17.7434125
20
0.474295
11
17.4063829
21
0.3505066
0
LINE
8
DEFAULT_255_1_388
10
17.4063829
20
0.3505066
11
17.4063829
21
0.5023055
0
LINE
8
DEFAULT_255_1_388
10
17.4063829
20
0.5023055
11
17.8852721
21
0.6821148
0
LINE
8
DEFAULT_255_1_388
10
17.8852721
20
0.6821148
11
17.9114754
21
0.6821148
0
LINE
8
DEFAULT_255_1_388
10
18.7662474
20
-0.0127263
11
18.7662474
21
-0.1491645
0
LINE
8
DEFAULT_255_1_388
10
18.7662474
20
-0.1491645
11
18.325308
21
-0.1491645
0
LINE
8
DEFAULT_255_1_388
10
18.325308
20
-0.1491645
11
18.325308
21
-0.0127263
0
LINE
8
DEFAULT_255_1_388
10
18.325308
20
-0.0127263
11
18.7662474
21
-0.0127263
0
LINE
8
DEFAULT_255_1_388
10
19.7366756
20
0.138169
11
19.7366756
21
-0.0786865
0
LINE
8
DEFAULT_255_1_388
10
18.9062999
20
-0.1012756
11
18.9062999
21
0.1219048
0
LINE
8
DEFAULT_255_1_388
10
19.5695162
20
-0.1238647
11
19.5695162
21
0.1499153
0
LINE
8
DEFAULT_255_1_388
10
19.0734593
20
0.1625652
11
19.0734593
21
-0.1048898
0
ARC
8
DEFAULT_255_1_388
10
18.358909
20
-0.0841882
40
1.3777776
50
353.8440855
51
0.2287917
0
ARC
8
DEFAULT_255_1_388
10
18.8808108
20
-0.1424586
40
0.852639
50
344.4934746
51
353.9763743
0
ARC
8
DEFAULT_255_1_388
10
19.2174915
20
-0.2381809
40
0.5026273
50
329.2803599
51
344.7473406
0
ARC
8
DEFAULT_255_1_388
10
19.3290411
20
-0.2993962
40
0.3754848
50
324.9361395
51
328.6153007
0
ARC
8
DEFAULT_255_1_388
10
19.371606
20
-0.3291414
40
0.3235566
50
280.5801797
51
324.9173226
0
ARC
8
DEFAULT_255_1_388
10
19.3264689
20
-0.1411764
40
0.5167077
50
269.5979457
51
281.6732777
0
ARC
8
DEFAULT_255_1_388
10
19.3183593
20
-0.1546887
40
0.5032026
50
256.6228565
51
270.5105488
0
ARC
8
DEFAULT_255_1_388
10
19.2731335
20
-0.3288655
40
0.3233092
50
215.8618351
51
257.2787793
0
ARC
8
DEFAULT_255_1_388
10
19.3880042
20
-0.2517894
40
0.4615831
50
197.9695203
51
215.2622745
0
ARC
8
DEFAULT_255_1_388
10
19.6675718
20
-0.1574359
40
0.7566307
50
187.8816486
51
198.2346584
0
ARC
8
DEFAULT_255_1_388
10
20.1128956
20
-0.0931547
40
1.2065653
50
180.8977266
51
188.0054894
0
ARC
8
DEFAULT_255_1_388
10
20.417917
20
-0.08166
40
1.5117443
50
180.7434591
51
181.152202
0
ARC
8
DEFAULT_255_1_388
10
20.2504166
20
0.1273371
40
1.3441277
50
173.7674302
51
180.2315596
0
ARC
8
DEFAULT_255_1_388
10
19.7422035
20
0.1847779
40
0.8326847
50
164.3058537
51
173.9000553
0
ARC
8
DEFAULT_255_1_388
10
19.4146035
20
0.2791652
40
0.4917711
50
148.7922028
51
164.5682288
0
ARC
8
DEFAULT_255_1_388
10
19.3076772
20
0.3388457
40
0.3694204
50
144.5883979
51
148.1161588
0
ARC
8
DEFAULT_255_1_388
10
19.2689517
20
0.3658667
40
0.322202
50
101.6440149
51
144.5142619
0
ARC
8
DEFAULT_255_1_388
10
19.316771
20
0.1758337
40
0.5180451
50
89.528284
51
102.5820197
0
ARC
8
DEFAULT_255_1_388
10
19.3256702
20
0.1714376
40
0.5224441
50
77.0437914
51
90.508231
0
ARC
8
DEFAULT_255_1_388
10
19.3708955
20
0.3562272
40
0.3322297
50
48.2777708
51
77.4996087
0
ARC
8
DEFAULT_255_1_388
10
19.3790695
20
0.3707557
40
0.315966
50
36.3141586
51
47.6307332
0
ARC
8
DEFAULT_255_1_388
10
19.2813417
20
0.3049159
40
0.4337313
50
18.2931065
51
35.6770203
0
ARC
8
DEFAULT_255_1_388
10
18.9952258
20
0.2067107
40
0.7362203
50
8.0246996
51
18.5605636
0
ARC
8
DEFAULT_255_1_388
10
18.5268614
20
0.1375432
40
1.2096583
50
1.127539
51
8.1718423
0
ARC
8
DEFAULT_255_1_388
10
18.1619747
20
0.1232374
40
1.5747719
50
0.5432713
51
1.38669
0
ARC
8
DEFAULT_255_1_388
10
18.3677126
20
0.1539163
40
1.2018103
50
359.8092569
51
4.9408001
0
ARC
8
DEFAULT_255_1_388
10
18.8413707
20
0.19619
40
0.7262727
50
4.8364937
51
12.2906017
0
ARC
8
DEFAULT_255_1_388
10
19.1513172
20
0.2652485
40
0.4087324
50
12.0806994
51
23.8171225
0
ARC
8
DEFAULT_255_1_388
10
19.2833568
20
0.3211508
40
0.2653719
50
24.2874621
51
31.3934353
0
ARC
8
DEFAULT_255_1_388
10
19.3424004
20
0.3597822
40
0.1948607
50
30.7407708
51
82.4658033
0
ARC
8
DEFAULT_255_1_388
10
19.3221665
20
0.2604017
40
0.2961198
50
81.1057101
51
90.2187368
0
ARC
8
DEFAULT_255_1_388
10
19.3181477
20
0.2894421
40
0.2670929
50
89.380395
51
105.6763916
0
ARC
8
DEFAULT_255_1_388
10
19.2975199
20
0.364432
40
0.1893189
50
105.7980655
51
149.7387869
0
ARC
8
DEFAULT_255_1_388
10
19.4172339
20
0.2924719
40
0.3289892
50
149.4208441
51
163.628295
0
ARC
8
DEFAULT_255_1_388
10
19.6524568
20
0.2207345
40
0.5749004
50
163.3764549
51
172.141138
0
ARC
8
DEFAULT_255_1_388
10
20.023729
20
0.1675582
40
0.9499585
50
172.0258462
51
178.0705453
0
ARC
8
DEFAULT_255_1_388
10
20.3658842
20
0.1513682
40
1.2924734
50
177.8639301
51
179.5036263
0
ARC
8
DEFAULT_255_1_388
10
20.2439861
20
-0.1089849
40
1.170534
50
179.7995545
51
185.246089
0
ARC
8
DEFAULT_255_1_388
10
19.7891454
20
-0.1520596
40
0.7136613
50
185.1411911
51
193.0082205
0
ARC
8
DEFAULT_255_1_388
10
19.4917715
20
-0.2223559
40
0.4080987
50
192.7897338
51
205.2507384
0
ARC
8
DEFAULT_255_1_388
10
19.3739925
20
-0.2749462
40
0.2791522
50
205.8001921
51
211.2545876
0
ARC
8
DEFAULT_255_1_388
10
19.3151464
20
-0.3143868
40
0.2084074
50
210.3789935
51
238.4007996
0
ARC
8
DEFAULT_255_1_388
10
19.312955
20
-0.3091214
40
0.2117943
50
239.6521916
51
265.9793852
0
ARC
8
DEFAULT_255_1_388
10
19.3225399
20
-0.2334642
40
0.2879689
50
265.1324455
51
270.0603288
0
ARC
8
DEFAULT_255_1_388
10
19.3257776
20
-0.2699582
40
0.2514919
50
269.3314378
51
287.2180039
0
ARC
8
DEFAULT_255_1_388
10
19.3412858
20
-0.3265709
40
0.1928357
50
287.7957942
51
329.0808983
0
ARC
8
DEFAULT_255_1_388
10
19.2335615
20
-0.2593349
40
0.319808
50
328.6635261
51
343.3325043
0
ARC
8
DEFAULT_255_1_388
10
18.9891074
20
-0.1831805
40
0.5758408
50
343.0498092
51
351.9392499
0
ARC
8
DEFAULT_255_1_388
10
18.5990396
20
-0.1256795
40
0.9701202
50
351.8071632
51
357.7957897
0
ARC
8
DEFAULT_255_1_388
10
18.2355873
20
-0.1068276
40
1.3340376
50
357.5870923
51
359.2682493
0
LINE
8
DEFAULT_255_1_388
10
20.8462528
20
-0.6398
11
20.7206573
21
-0.2964455
0
LINE
8
DEFAULT_255_1_388
10
20.7206573
20
-0.2964455
11
20.169483
21
-0.2964455
0
LINE
8
DEFAULT_255_1_388
10
20.169483
20
-0.2964455
11
20.0456947
21
-0.6398
0
LINE
8
DEFAULT_255_1_388
10
20.0456947
20
-0.6398
11
19.8667889
21
-0.6398
0
LINE
8
DEFAULT_255_1_388
10
19.8667889
20
-0.6398
11
20.3691708
21
0.6757898
0
LINE
8
DEFAULT_255_1_388
10
20.3691708
20
0.6757898
11
20.5209696
21
0.6757898
0
LINE
8
DEFAULT_255_1_388
10
20.5209696
20
0.6757898
11
21.024255
21
-0.6398
0
LINE
8
DEFAULT_255_1_388
10
21.024255
20
-0.6398
11
20.8462528
21
-0.6398
0
LINE
8
DEFAULT_255_1_388
10
20.4450702
20
0.4616451
11
20.2218897
21
-0.1536823
0
LINE
8
DEFAULT_255_1_388
10
20.2218897
20
-0.1536823
11
20.6691542
21
-0.1536823
0
LINE
8
DEFAULT_255_1_388
10
20.6691542
20
-0.1536823
11
20.4450702
21
0.4616451
0
LINE
8
DEFAULT_255_1_388
10
22.0534149
20
-0.6398
11
21.9278194
21
-0.2964455
0
LINE
8
DEFAULT_255_1_388
10
21.9278194
20
-0.2964455
11
21.3766451
21
-0.2964455
0
LINE
8
DEFAULT_255_1_388
10
21.3766451
20
-0.2964455
11
21.2528568
21
-0.6398
0
LINE
8
DEFAULT_255_1_388
10
21.2528568
20
-0.6398
11
21.073951
21
-0.6398
0
LINE
8
DEFAULT_255_1_388
10
21.073951
20
-0.6398
11
21.5763329
21
0.6757898
0
LINE
8
DEFAULT_255_1_388
10
21.5763329
20
0.6757898
11
21.7281317
21
0.6757898
0
LINE
8
DEFAULT_255_1_388
10
21.7281317
20
0.6757898
11
22.2314171
21
-0.6398
0
LINE
8
DEFAULT_255_1_388
10
22.2314171
20
-0.6398
11
22.0534149
21
-0.6398
0
LINE
8
DEFAULT_255_1_388
10
21.6522323
20
0.4616451
11
21.4290519
21
-0.1536823
0
LINE
8
DEFAULT_255_1_388
10
21.4290519
20
-0.1536823
11
21.8763163
21
-0.1536823
0
LINE
8
DEFAULT_255_1_388
10
21.8763163
20
-0.1536823
11
21.6522323
21
0.4616451
0
LINE
8
DEFAULT_255_1_388
10
23.190099
20
0.138169
11
23.190099
21
-0.0786865
0
LINE
8
DEFAULT_255_1_388
10
22.3597232
20
-0.1012756
11
22.3597232
21
0.1219048
0
LINE
8
DEFAULT_255_1_388
10
23.0229396
20
-0.1238647
11
23.0229396
21
0.1499153
0
LINE
8
DEFAULT_255_1_388
10
22.5268827
20
0.1625652
11
22.5268827
21
-0.1048898
0
ARC
8
DEFAULT_255_1_388
10
21.8123324
20
-0.0841882
40
1.3777776
50
353.8440855
51
0.2287917
0
ARC
8
DEFAULT_255_1_388
10
22.3342341
20
-0.1424586
40
0.852639
50
344.4934746
51
353.9763743
0
ARC
8
DEFAULT_255_1_388
10
22.6709148
20
-0.2381809
40
0.5026273
50
329.2803599
51
344.7473406
0
ARC
8
DEFAULT_255_1_388
10
22.7824644
20
-0.2993962
40
0.3754848
50
324.9361395
51
328.6153007
0
ARC
8
DEFAULT_255_1_388
10
22.8250294
20
-0.3291414
40
0.3235566
50
280.5801797
51
324.9173226
0
ARC
8
DEFAULT_255_1_388
10
22.7798923
20
-0.1411764
40
0.5167077
50
269.5979457
51
281.6732777
0
ARC
8
DEFAULT_255_1_388
10
22.7717826
20
-0.1546887
40
0.5032026
50
256.6228565
51
270.5105488
0
ARC
8
DEFAULT_255_1_388
10
22.7265569
20
-0.3288655
40
0.3233092
50
215.8618351
51
257.2787793
0
ARC
8
DEFAULT_255_1_388
10
22.8414276
20
-0.2517894
40
0.4615831
50
197.9695203
51
215.2622745
0
ARC
8
DEFAULT_255_1_388
10
23.1209951
20
-0.1574359
40
0.7566307
50
187.8816486
51
198.2346584
0
ARC
8
DEFAULT_255_1_388
10
23.566319
20
-0.0931547
40
1.2065653
50
180.8977266
51
188.0054894
0
ARC
8
DEFAULT_255_1_388
10
23.8713403
20
-0.08166
40
1.5117443
50
180.7434591
51
181.152202
0
ARC
8
DEFAULT_255_1_388
10
23.7038399
20
0.1273371
40
1.3441277
50
173.7674302
51
180.2315596
0
ARC
8
DEFAULT_255_1_388
10
23.1956268
20
0.1847779
40
0.8326847
50
164.3058537
51
173.9000553
0
ARC
8
DEFAULT_255_1_388
10
22.8680268
20
0.2791652
40
0.4917711
50
148.7922028
51
164.5682288
0
ARC
8
DEFAULT_255_1_388
10
22.7611006
20
0.3388457
40
0.3694204
50
144.5883979
51
148.1161588
0
ARC
8
DEFAULT_255_1_388
10
22.7223751
20
0.3658667
40
0.322202
50
101.6440149
51
144.5142619
0
ARC
8
DEFAULT_255_1_388
10
22.7701943
20
0.1758337
40
0.5180451
50
89.528284
51
102.5820197
0
ARC
8
DEFAULT_255_1_388
10
22.7790935
20
0.1714376
40
0.5224441
50
77.0437914
51
90.508231
0
ARC
8
DEFAULT_255_1_388
10
22.8243189
20
0.3562272
40
0.3322297
50
48.2777708
51
77.4996087
0
ARC
8
DEFAULT_255_1_388
10
22.8324929
20
0.3707557
40
0.315966
50
36.3141586
51
47.6307332
0
ARC
8
DEFAULT_255_1_388
10
22.7347651
20
0.3049159
40
0.4337313
50
18.2931065
51
35.6770203
0
ARC
8
DEFAULT_255_1_388
10
22.4486492
20
0.2067107
40
0.7362203
50
8.0246996
51
18.5605636
0
ARC
8
DEFAULT_255_1_388
10
21.9802847
20
0.1375432
40
1.2096583
50
1.127539
51
8.1718423
0
ARC
8
DEFAULT_255_1_388
10
21.6153981
20
0.1232374
40
1.5747719
50
0.5432713
51
1.38669
0
ARC
8
DEFAULT_255_1_388
10
21.8211359
20
0.1539163
40
1.2018103
50
359.8092569
51
4.9408001
0
ARC
8
DEFAULT_255_1_388
10
22.2947941
20
0.19619
40
0.7262727
50
4.8364937
51
12.2906017
0
ARC
8
DEFAULT_255_1_388
10
22.6047405
20
0.2652485
40
0.4087324
50
12.0806994
51
23.8171225
0
ARC
8
DEFAULT_255_1_388
10
22.7367801
20
0.3211508
40
0.2653719
50
24.2874621
51
31.3934353
0
ARC
8
DEFAULT_255_1_388
10
22.7958237
20
0.3597822
40
0.1948607
50
30.7407708
51
82.4658033
0
ARC
8
DEFAULT_255_1_388
10
22.7755898
20
0.2604017
40
0.2961198
50
81.1057101
51
90.2187368
0
ARC
8
DEFAULT_255_1_388
10
22.771571
20
0.2894421
40
0.2670929
50
89.380395
51
105.6763916
0
ARC
8
DEFAULT_255_1_388
10
22.7509432
20
0.364432
40
0.1893189
50
105.7980655
51
149.7387869
0
ARC
8
DEFAULT_255_1_388
10
22.8706572
20
0.2924719
40
0.3289892
50
149.4208441
51
163.628295
0
ARC
8
DEFAULT_255_1_388
10
23.1058802
20
0.2207345
40
0.5749004
50
163.3764549
51
172.141138
0
ARC
8
DEFAULT_255_1_388
10
23.4771523
20
0.1675582
40
0.9499585
50
172.0258462
51
178.0705453
0
ARC
8
DEFAULT_255_1_388
10
23.8193076
20
0.1513682
40
1.2924734
50
177.8639301
51
179.5036263
0
ARC
8
DEFAULT_255_1_388
10
23.6974095
20
-0.1089849
40
1.170534
50
179.7995545
51
185.246089
0
ARC
8
DEFAULT_255_1_388
10
23.2425688
20
-0.1520596
40
0.7136613
50
185.1411911
51
193.0082205
0
ARC
8
DEFAULT_255_1_388
10
22.9451948
20
-0.2223559
40
0.4080987
50
192.7897338
51
205.2507384
0
ARC
8
DEFAULT_255_1_388
10
22.8274158
20
-0.2749462
40
0.2791522
50
205.8001921
51
211.2545876
0
ARC
8
DEFAULT_255_1_388
10
22.7685698
20
-0.3143868
40
0.2084074
50
210.3789935
51
238.4007996
0
ARC
8
DEFAULT_255_1_388
10
22.7663784
20
-0.3091214
40
0.2117943
50
239.6521916
51
265.9793852
0
ARC
8
DEFAULT_255_1_388
10
22.7759632
20
-0.2334642
40
0.2879689
50
265.1324455
51
270.0603288
0
ARC
8
DEFAULT_255_1_388
10
22.779201
20
-0.2699582
40
0.2514919
50
269.3314378
51
287.2180039
0
ARC
8
DEFAULT_255_1_388
10
22.7947092
20
-0.3265709
40
0.1928357
50
287.7957942
51
329.0808983
0
ARC
8
DEFAULT_255_1_388
10
22.6869849
20
-0.2593349
40
0.319808
50
328.6635261
51
343.3325043
0
ARC
8
DEFAULT_255_1_388
10
22.4425307
20
-0.1831805
40
0.5758408
50
343.0498092
51
351.9392499
0
ARC
8
DEFAULT_255_1_388
10
22.0524629
20
-0.1256795
40
0.9701202
50
351.8071632
51
357.7957897
0
ARC
8
DEFAULT_255_1_388
10
21.6890106
20
-0.1068276
40
1.3340376
50
357.5870923
51
359.2682493
0
ARC
8
DEFAULT_255_2_778
10
7.7537338
20
52.3387992
40
3.0484709
50
251.6854144
51
258.6071955
0
ARC
8
DEFAULT_255_2_778
10
7.539521
20
51.2571738
40
1.9458471
50
258.4992492
51
268.3986479
0
ARC
8
DEFAULT_255_2_778
10
7.5172314
20
50.8269206
40
1.5151737
50
268.7865272
51
269.9950384
0
ARC
8
DEFAULT_255_2_778
10
7.5277432
20
50.3757355
40
1.0640417
50
269.426895
51
279.6711067
0
ARC
8
DEFAULT_255_2_778
10
7.6417753
20
49.7461746
40
0.4243233
50
278.7731084
51
300.3324923
0
ARC
8
DEFAULT_255_2_778
10
7.760746
20
49.5435552
40
0.1893587
50
300.2240287
51
1.9041213
0
ARC
8
DEFAULT_255_2_778
10
7.7452705
20
49.5527089
40
0.2047497
50
359.1991369
51
359.99965
0
ARC
8
DEFAULT_255_2_778
10
7.7523233
20
49.5535378
40
0.1976988
50
359.7594145
51
47.1793976
0
ARC
8
DEFAULT_255_2_778
10
7.6187277
20
49.404931
40
0.3975169
50
47.6144502
51
60.8366176
0
ARC
8
DEFAULT_255_2_778
10
7.0190958
20
48.3889865
40
1.5771337
50
59.799464
51
64.8885807
0
ARC
8
DEFAULT_255_2_778
10
6.0948833
20
46.4599682
40
3.7160912
50
64.6076081
51
66.8386974
0
ARC
8
DEFAULT_255_2_778
10
9.6419609
20
54.8230052
40
5.368109
50
244.3032309
51
247.1393781
0
ARC
8
DEFAULT_255_2_778
10
8.5507088
20
52.563018
40
2.8584574
50
240.2323579
51
244.3709759
0
ARC
8
DEFAULT_255_2_778
10
7.7800475
20
51.2261591
40
1.315392
50
233.2209971
51
240.4606284
0
ARC
8
DEFAULT_255_2_778
10
7.3561477
20
50.6550187
40
0.6041399
50
225.6990744
51
232.9899679
0
ARC
8
DEFAULT_255_2_778
10
7.3965073
20
50.6794214
40
0.6499005
50
178.2783416
51
224.6550883
0
ARC
8
DEFAULT_255_2_778
10
7.5059624
20
50.7127974
40
0.7591885
50
157.033673
51
181.0453383
0
ARC
8
DEFAULT_255_2_778
10
7.378439
20
50.7536396
40
0.6259551
50
124.9113017
51
155.9211516
0
ARC
8
DEFAULT_255_2_778
10
7.5960466
20
50.4450681
40
1.0035357
50
100.4079723
51
125.0168617
0
ARC
8
DEFAULT_255_2_778
10
7.6991199
20
49.9510046
40
1.5081396
50
89.6483922
51
100.8684975
0
ARC
8
DEFAULT_255_2_778
10
7.7083242
20
49.5987988
40
1.8603169
50
89.5079487
51
89.9984402
0
ARC
8
DEFAULT_255_2_778
10
7.7099573
20
49.5335694
40
1.9255311
50
83.9170631
51
89.5732113
0
ARC
8
DEFAULT_255_2_778
10
7.5071517
20
47.5259957
40
3.9433074
50
80.7325723
51
84.0779772
0
ARC
8
DEFAULT_255_2_778
10
7.0208457
20
44.503082
40
7.0050837
50
78.5086351
51
80.7886813
0
ARC
8
DEFAULT_255_2_778
10
7.6620177
20
49.1025544
40
1.9415426
50
67.135818
51
78.0934208
0
ARC
8
DEFAULT_255_2_778
10
7.7851814
20
49.6729809
40
1.3579807
50
78.2126325
51
89.7333975
0
ARC
8
DEFAULT_255_2_778
10
7.7793853
20
50.0881211
40
0.9429038
50
89.2638155
51
100.5666868
0
ARC
8
DEFAULT_255_2_778
10
7.6660949
20
50.6579419
40
0.362036
50
99.4784875
51
124.329414
0
ARC
8
DEFAULT_255_2_778
10
7.5705593
20
50.806051
40
0.1859067
50
125.7571195
51
182.2824883
0
ARC
8
DEFAULT_255_2_778
10
7.5493239
20
50.7993629
40
0.1645253
50
180.2492993
51
239.8144161
0
ARC
8
DEFAULT_255_2_778
10
7.932718
20
51.3994128
40
0.876484
50
237.8725734
51
242.8068846
0
ARC
8
DEFAULT_255_2_778
10
9.4175857
20
54.2159958
40
4.0604642
50
242.3328458
51
244.031083
0
ARC
8
DEFAULT_255_2_778
10
12.3804066
20
60.2644314
40
10.7955807
50
243.950624
51
244.8024316
0
ARC
8
DEFAULT_255_2_778
10
15.4009918
20
66.6484175
40
17.8580926
50
244.7535425
51
244.9563234
0
ARC
8
DEFAULT_255_2_778
10
5.8652927
20
46.1468264
40
4.7527588
50
62.2505456
51
65.4301556
0
ARC
8
DEFAULT_255_2_778
10
6.9275435
20
48.1549172
40
2.4810291
50
57.2951304
51
62.3684211
0
ARC
8
DEFAULT_255_2_778
10
7.6807233
20
49.3182235
40
1.0952081
50
48.7345704
51
57.5685367
0
ARC
8
DEFAULT_255_2_778
10
8.0117486
20
49.7057722
40
0.5856147
50
44.3236031
51
48.0704418
0
ARC
8
DEFAULT_255_2_778
10
7.9783002
20
49.6857468
40
0.6236013
50
1.3523843
51
43.4925744
0
ARC
8
DEFAULT_255_2_778
10
7.7103531
20
49.6528151
40
0.8926473
50
359.9763756
51
3.0599076
0
ARC
8
DEFAULT_255_2_778
10
7.8645343
20
49.6377407
40
0.7386124
50
333.0361889
51
1.1408766
0
ARC
8
DEFAULT_255_2_778
10
7.8947908
20
49.6446919
40
0.7150741
50
300.8430083
51
331.4403095
0
ARC
8
DEFAULT_255_2_778
10
7.694568
20
49.9582162
40
1.0869673
50
281.4258583
51
301.4316118
0
ARC
8
DEFAULT_255_2_778
10
7.5632666
20
50.5664414
40
1.7091691
50
270.2273513
51
281.7010805
0
ARC
8
DEFAULT_255_2_778
10
7.5453797
20
51.0431043
40
2.1859577
50
269.9983113
51
270.6466065
0
LINE
8
DEFAULT_255_2_778
10
7.5453153
20
48.8571465
11
7.5438002
21
48.857147
0
ARC
8
DEFAULT_255_2_778
10
7.5509161
20
52.0400969
40
3.1829579
50
256.2431122
51
269.871909
0
ARC
8
DEFAULT_255_2_778
10
21.7538511
20
52.2646629
40
2.9720345
50
251.5709223
51
258.7508181
0
ARC
8
DEFAULT_255_2_778
10
21.5538128
20
51.2414385
40
1.9294488
50
258.6495077
51
268.8281511
0
ARC
8
DEFAULT_255_2_778
10
21.5355488
20
50.8466193
40
1.5343723
50
269.2085037
51
269.9981866
0
ARC
8
DEFAULT_255_2_778
10
21.5473849
20
50.3782184
40
1.0660376
50
269.3612297
51
279.5899087
0
ARC
8
DEFAULT_255_2_778
10
21.6608439
20
49.7467324
40
0.424527
50
278.6895227
51
300.2363944
0
ARC
8
DEFAULT_255_2_778
10
21.7799083
20
49.5432793
40
0.188796
50
300.1108484
51
1.9024905
0
ARC
8
DEFAULT_255_2_778
10
21.7439577
20
49.5539221
40
0.2246851
50
358.8842611
51
0.0019649
0
ARC
8
DEFAULT_255_2_778
10
21.7769791
20
49.5578385
40
0.1917038
50
358.831716
51
47.0900458
0
ARC
8
DEFAULT_255_2_778
10
21.6364654
20
49.398484
40
0.4041259
50
47.8812665
51
61.174665
0
ARC
8
DEFAULT_255_2_778
10
21.0418848
20
48.3785117
40
1.5846568
50
60.1210877
51
65.1917015
0
ARC
8
DEFAULT_255_2_778
10
20.1415278
20
46.4729122
40
3.6922188
50
64.9168629
51
67.1565628
0
ARC
8
DEFAULT_255_2_778
10
23.6275467
20
54.7444888
40
5.2839333
50
244.2656926
51
247.1407051
0
ARC
8
DEFAULT_255_2_778
10
22.5594997
20
52.536265
40
2.8309849
50
240.1545061
51
244.3326325
0
ARC
8
DEFAULT_255_2_778
10
21.7856548
20
51.2002346
40
1.2870531
50
232.697515
51
240.4357497
0
ARC
8
DEFAULT_255_2_778
10
21.3705506
20
50.6492218
40
0.5972006
50
225.5850892
51
232.3393736
0
ARC
8
DEFAULT_255_2_778
10
21.4133941
20
50.6787933
40
0.6483829
50
178.7795739
51
224.7095916
0
ARC
8
DEFAULT_255_2_778
10
21.6669319
20
50.7028135
40
0.9018316
50
179.997867
51
180.6487041
0
ARC
8
DEFAULT_255_2_778
10
21.5167738
20
50.7166249
40
0.7517998
50
156.9195758
51
181.050088
0
ARC
8
DEFAULT_255_2_778
10
21.3928482
20
50.7560712
40
0.6224513
50
124.7111133
51
155.7879672
0
ARC
8
DEFAULT_255_2_778
10
21.6055459
20
50.4641942
40
0.9835402
50
101.7934503
51
125.2143527
0
ARC
8
DEFAULT_255_2_778
10
21.729848
20
49.9116326
40
1.5498677
50
89.5248728
51
102.1166783
0
ARC
8
DEFAULT_255_2_778
10
21.7283109
20
49.3580834
40
2.1034129
50
83.2889725
51
89.6080411
0
ARC
8
DEFAULT_255_2_778
10
21.529975
20
47.5902668
40
3.8823067
50
79.4764054
51
83.4308492
0
ARC
8
DEFAULT_255_2_778
10
21.2186357
20
45.8370673
40
5.6628977
50
78.2224868
51
79.6190915
0
ARC
8
DEFAULT_255_2_778
10
21.6838473
20
49.1145715
40
1.9311543
50
67.1323814
51
78.3148813
0
ARC
8
DEFAULT_255_2_778
10
21.801359
20
49.6660614
40
1.3672981
50
78.4565774
51
89.7552271
0
ARC
8
DEFAULT_255_2_778
10
21.7951366
20
50.096947
40
0.9364778
50
89.2619009
51
100.5950934
0
ARC
8
DEFAULT_255_2_778
10
21.6824182
20
50.6624169
40
0.3599879
50
99.5087086
51
124.406715
0
ARC
8
DEFAULT_255_2_778
10
21.5878565
20
50.808843
40
0.1858061
50
125.8630185
51
182.2986975
0
ARC
8
DEFAULT_255_2_778
10
21.5497296
20
50.8013047
40
0.1475296
50
179.9666559
51
180.100057
0
ARC
8
DEFAULT_255_2_778
10
21.566185
20
50.801293
40
0.163985
50
180.0859454
51
239.8819968
0
ARC
8
DEFAULT_255_2_778
10
21.9379018
20
51.3880619
40
0.8584853
50
238.072871
51
243.0442008
0
ARC
8
DEFAULT_255_2_778
10
23.4872034
20
54.3530845
40
4.2038426
50
242.5409111
51
244.1884903
0
ARC
8
DEFAULT_255_2_778
10
26.6463384
20
60.847696
40
11.4260319
50
244.1076525
51
244.9219574
0
ARC
8
DEFAULT_255_2_778
10
29.9038827
20
67.771355
40
19.0777309
50
244.8743531
51
245.066969
0
ARC
8
DEFAULT_255_2_778
10
19.8865272
20
46.1791274
40
4.7250654
50
62.0340028
51
65.293009
0
ARC
8
DEFAULT_255_2_778
10
20.9507744
20
48.1740758
40
2.464003
50
57.1127289
51
62.13736
0
ARC
8
DEFAULT_255_2_778
10
21.7037139
20
49.3277906
40
1.0863604
50
48.3695509
51
57.4197129
0
ARC
8
DEFAULT_255_2_778
10
22.0286268
20
49.7045419
40
0.5889589
50
44.472493
51
47.6467012
0
ARC
8
DEFAULT_255_2_778
10
21.9979457
20
49.6874032
40
0.6229283
50
1.2061613
51
43.6203607
0
ARC
8
DEFAULT_255_2_778
10
21.7312413
20
49.6549903
40
0.890659
50
359.9779196
51
2.9299178
0
ARC
8
DEFAULT_255_2_778
10
21.8802547
20
49.6398837
40
0.7417924
50
333.172934
51
1.140392
0
ARC
8
DEFAULT_255_2_778
10
21.9146167
20
49.6445736
40
0.7135172
50
300.9808035
51
331.5913995
0
ARC
8
DEFAULT_255_2_778
10
21.7182603
20
49.9544862
40
1.0803281
50
281.9040909
51
301.4483918
0
ARC
8
DEFAULT_255_2_778
10
21.5848425
20
50.5530518
40
1.6935565
50
270.5796874
51
282.1436175
0
ARC
8
DEFAULT_255_2_778
10
21.5636722
20
51.0479735
40
2.1887267
50
269.9959074
51
271.0027751
0
LINE
8
DEFAULT_255_2_778
10
21.5635158
20
48.8592468
11
21.5625002
21
48.859247
0
ARC
8
DEFAULT_255_2_778
10
21.5700221
20
52.0480174
40
3.1887792
50
256.2556596
51
269.8648469
0
LINE
8
DEFAULT_255_2_778
10
6.7958002
20
48.950047
11
6.7958002
21
49.444747
0
LINE
8
DEFAULT_255_2_778
10
8.4164002
20
51.367747
11
8.4164002
21
50.891547
0
LINE
8
DEFAULT_255_2_778
10
6.7940002
20
48.948447
11
6.7958002
21
48.950047
0
LINE
8
DEFAULT_255_2_778
10
8.9866002
20
51.417247
11
9.6629002
21
51.417247
0
LINE
8
DEFAULT_255_2_778
10
9.6629002
20
51.417247
11
9.6629002
21
48.909847
0
LINE
8
DEFAULT_255_2_778
10
9.6629002
20
48.909847
11
8.9866002
21
48.909847
0
LINE
8
DEFAULT_255_2_778
10
8.9866002
20
48.909847
11
8.9866002
21
51.417247
0
LINE
8
DEFAULT_255_2_778
10
10.2809002
20
48.909847
11
10.2809002
21
51.417247
0
LINE
8
DEFAULT_255_2_778
10
10.2809002
20
51.417247
11
12.0132002
21
51.417247
0
LINE
8
DEFAULT_255_2_778
10
12.0132002
20
51.417247
11
12.0132002
21
50.963547
0
LINE
8
DEFAULT_255_2_778
10
12.0132002
20
50.963547
11
10.9321002
21
50.963547
0
LINE
8
DEFAULT_255_2_778
10
10.9321002
20
50.963547
11
10.9321002
21
50.397247
0
LINE
8
DEFAULT_255_2_778
10
10.9321002
20
50.397247
11
11.8735002
21
50.397247
0
LINE
8
DEFAULT_255_2_778
10
11.8735002
20
50.397247
11
11.8735002
21
49.983747
0
LINE
8
DEFAULT_255_2_778
10
11.8735002
20
49.983747
11
10.9321002
21
49.983747
0
LINE
8
DEFAULT_255_2_778
10
10.9321002
20
49.983747
11
10.9321002
21
49.388447
0
LINE
8
DEFAULT_255_2_778
10
10.9321002
20
49.388447
11
12.0412002
21
49.388447
0
LINE
8
DEFAULT_255_2_778
10
12.0412002
20
49.388447
11
12.0412002
21
48.908247
0
LINE
8
DEFAULT_255_2_778
10
12.0412002
20
48.908247
11
10.2809002
21
48.909847
0
LINE
8
DEFAULT_255_2_778
10
12.4817002
20
48.909847
11
12.4817002
21
51.417247
0
LINE
8
DEFAULT_255_2_778
10
12.4817002
20
51.417247
11
13.3575002
21
51.417247
0
LINE
8
DEFAULT_255_2_778
10
13.3575002
20
51.417247
11
13.9671002
21
49.814947
0
LINE
8
DEFAULT_255_2_778
10
13.9671002
20
49.814947
11
14.5897002
21
51.417247
0
LINE
8
DEFAULT_255_2_778
10
14.5897002
20
51.417247
11
15.4215002
21
51.417247
0
LINE
8
DEFAULT_255_2_778
10
15.4215002
20
51.417247
11
15.4215002
21
48.909847
0
LINE
8
DEFAULT_255_2_778
10
15.4215002
20
48.909847
11
14.7812002
21
48.909847
0
LINE
8
DEFAULT_255_2_778
10
14.7812002
20
48.909847
11
14.7812002
21
50.685647
0
LINE
8
DEFAULT_255_2_778
10
14.7812002
20
50.685647
11
14.0724002
21
48.885447
0
LINE
8
DEFAULT_255_2_778
10
14.0724002
20
48.885447
11
13.6515002
21
48.885447
0
LINE
8
DEFAULT_255_2_778
10
13.6515002
20
48.885447
11
12.9559002
21
50.685647
0
LINE
8
DEFAULT_255_2_778
10
12.9559002
20
50.685647
11
12.9559002
21
48.909547
0
LINE
8
DEFAULT_255_2_778
10
12.9559002
20
48.909547
11
12.4817002
21
48.909847
0
LINE
8
DEFAULT_255_2_778
10
16.0409002
20
48.909847
11
16.0409002
21
51.417247
0
LINE
8
DEFAULT_255_2_778
10
16.0409002
20
51.417247
11
17.7731002
21
51.417247
0
LINE
8
DEFAULT_255_2_778
10
17.7731002
20
51.417247
11
17.7731002
21
50.963547
0
LINE
8
DEFAULT_255_2_778
10
17.7731002
20
50.963547
11
16.6921002
21
50.963547
0
LINE
8
DEFAULT_255_2_778
10
16.6921002
20
50.963547
11
16.6921002
21
50.397247
0
LINE
8
DEFAULT_255_2_778
10
16.6921002
20
50.397247
11
17.6334002
21
50.397247
0
LINE
8
DEFAULT_255_2_778
10
17.6334002
20
50.397247
11
17.6334002
21
49.983747
0
LINE
8
DEFAULT_255_2_778
10
17.6334002
20
49.983747
11
16.6921002
21
49.983747
0
LINE
8
DEFAULT_255_2_778
10
16.6921002
20
49.983747
11
16.6921002
21
49.388447
0
LINE
8
DEFAULT_255_2_778
10
16.6921002
20
49.388447
11
17.8030002
21
49.388447
0
LINE
8
DEFAULT_255_2_778
10
17.8030002
20
49.388447
11
17.8030002
21
48.908247
0
LINE
8
DEFAULT_255_2_778
10
17.8030002
20
48.908247
11
16.0409002
21
48.909847
0
LINE
8
DEFAULT_255_2_778
10
18.2454002
20
48.909847
11
18.2454002
21
51.417247
0
LINE
8
DEFAULT_255_2_778
10
18.2454002
20
51.417247
11
19.0283002
21
51.417247
0
LINE
8
DEFAULT_255_2_778
10
19.0283002
20
51.417247
11
19.8586002
21
49.738447
0
LINE
8
DEFAULT_255_2_778
10
19.8586002
20
49.738447
11
19.8586002
21
51.417247
0
LINE
8
DEFAULT_255_2_778
10
19.8586002
20
51.417247
11
20.3343002
21
51.417247
0
LINE
8
DEFAULT_255_2_778
10
20.3343002
20
51.417247
11
20.3343002
21
48.909847
0
LINE
8
DEFAULT_255_2_778
10
20.3343002
20
48.909847
11
19.5739002
21
48.909847
0
LINE
8
DEFAULT_255_2_778
10
19.5739002
20
48.909847
11
18.7214002
21
50.611047
0
LINE
8
DEFAULT_255_2_778
10
18.7214002
20
50.611047
11
18.7214002
21
48.909847
0
LINE
8
DEFAULT_255_2_778
10
18.7214002
20
48.909847
11
18.2454002
21
48.909847
0
LINE
8
DEFAULT_255_2_778
10
20.8143002
20
48.950247
11
20.8143002
21
49.445047
0
LINE
8
DEFAULT_255_2_778
10
22.3745002
20
51.380747
11
22.4343002
21
51.370147
0
LINE
8
DEFAULT_255_2_778
10
22.4343002
20
51.370147
11
22.4343002
21
50.893947
0
LINE
8
DEFAULT_255_2_778
10
20.8124002
20
48.950547
11
20.8143002
21
48.950247
0
LINE
8
DEFAULT_255_1_388
10
8.1889457
20
47.2589892
11
8.0145577
21
47.2589892
0
LINE
8
DEFAULT_255_1_388
10
7.2356852
20
46.7051042
11
7.4100731
21
46.7051042
0
ARC
8
DEFAULT_255_1_388
10
8.0886304
20
48.2653821
40
1.4087688
50
248.9196578
51
254.1442424
0
ARC
8
DEFAULT_255_1_388
10
7.8996184
20
47.7787805
40
0.8867498
50
241.6337352
51
249.0064643
0
ARC
8
DEFAULT_255_1_388
10
7.7276498
20
47.4636764
40
0.5277799
50
230.4982261
51
241.8087583
0
ARC
8
DEFAULT_255_1_388
10
7.6394269
20
47.3512686
40
0.3849419
50
227.4062979
51
229.9877433
0
ARC
8
DEFAULT_255_1_388
10
7.5845615
20
47.2977155
40
0.3084129
50
200.6782127
51
228.1765252
0
ARC
8
DEFAULT_255_1_388
10
7.5926984
20
47.2960277
40
0.315461
50
179.506278
51
199.8695278
0
ARC
8
DEFAULT_255_1_388
10
7.5916573
20
47.3043671
40
0.3144584
50
132.4834401
51
181.0242352
0
ARC
8
DEFAULT_255_1_388
10
7.6585777
20
47.2411788
40
0.4063094
50
129.2526113
51
133.4249077
0
ARC
8
DEFAULT_255_1_388
10
7.675137
20
47.2163619
40
0.436014
50
101.9878945
51
128.8741833
0
ARC
8
DEFAULT_255_1_388
10
7.7199785
20
47.022736
40
0.6347415
50
89.5906376
51
102.3170567
0
ARC
8
DEFAULT_255_1_388
10
7.7279097
20
47.0585586
40
0.5989122
50
77.2359491
51
90.3248968
0
ARC
8
DEFAULT_255_1_388
10
7.7512028
20
47.1673554
40
0.4876594
50
63.8379856
51
77.0808925
0
ARC
8
DEFAULT_255_1_388
10
7.7824561
20
47.2255882
40
0.4216191
50
45.9863127
51
64.1608798
0
ARC
8
DEFAULT_255_1_388
10
7.8117955
20
47.259099
40
0.3771394
50
32.2747934
51
45.6544796
0
ARC
8
DEFAULT_255_1_388
10
7.8192761
20
47.2612426
40
0.3696765
50
359.6507495
51
32.6129943
0
ARC
8
DEFAULT_255_1_388
10
7.7131944
20
47.2617788
40
0.3013762
50
359.469654
51
14.983205
0
ARC
8
DEFAULT_255_1_388
10
7.7925196
20
47.2830288
40
0.2192542
50
14.9781954
51
48.2004799
0
ARC
8
DEFAULT_255_1_388
10
7.7740307
20
47.2597937
40
0.2489048
50
48.5926661
51
74.1242559
0
ARC
8
DEFAULT_255_1_388
10
7.7365109
20
47.1359607
40
0.3782845
50
73.7889321
51
86.6653996
0
ARC
8
DEFAULT_255_1_388
10
7.7249924
20
47.0001955
40
0.5145025
50
86.2642725
51
90.0533288
0
ARC
8
DEFAULT_255_1_388
10
7.7218017
20
47.0446376
40
0.4700681
50
89.669455
51
99.2313411
0
ARC
8
DEFAULT_255_1_388
10
7.6945176
20
47.2071401
40
0.3052945
50
99.0695987
51
113.7659242
0
ARC
8
DEFAULT_255_1_388
10
7.6637171
20
47.2797772
40
0.226407
50
114.0402885
51
127.9848946
0
ARC
8
DEFAULT_255_1_388
10
7.6366647
20
47.3130884
40
0.1835045
50
127.7287217
51
176.7106493
0
ARC
8
DEFAULT_255_1_388
10
7.7130312
20
47.301721
40
0.2604907
50
175.1780759
51
180.0581213
0
ARC
8
DEFAULT_255_1_388
10
7.6181656
20
47.3003411
40
0.1656287
50
179.6140658
51
228.124674
0
ARC
8
DEFAULT_255_1_388
10
7.6679013
20
47.346394
40
0.2332038
50
226.5785315
51
230.8792476
0
ARC
8
DEFAULT_255_1_388
10
7.72085
20
47.4166908
40
0.3211664
50
231.4636401
51
241.9261664
0
ARC
8
DEFAULT_255_1_388
10
7.8555283
20
47.6645349
40
0.6032345
50
241.7177136
51
248.3259138
0
ARC
8
DEFAULT_255_1_388
10
8.0113878
20
48.0506771
40
1.0196417
50
248.2007377
51
252.4527713
0
ARC
8
DEFAULT_255_1_388
10
8.1467405
20
48.4691092
40
1.4594143
50
252.3388938
51
254.347037
0
ARC
8
DEFAULT_255_1_388
10
7.2982705
20
45.4343095
40
1.6917621
50
71.0197462
51
74.4085467
0
ARC
8
DEFAULT_255_1_388
10
7.4889793
20
45.9848144
40
1.1091618
50
66.1845203
51
71.086519
0
ARC
8
DEFAULT_255_1_388
10
7.6640342
20
46.3789439
40
0.6779073
50
59.3537334
51
66.269255
0
ARC
8
DEFAULT_255_1_388
10
7.7640068
20
46.5480777
40
0.4814366
50
49.1021732
51
59.3294421
0
ARC
8
DEFAULT_255_1_388
10
7.8561056
20
46.6530575
40
0.3417875
50
32.7924183
51
49.2503526
0
ARC
8
DEFAULT_255_1_388
10
7.891067
20
46.6780311
40
0.2988789
50
31.121225
51
32.3977355
0
ARC
8
DEFAULT_255_1_388
10
7.8822848
20
46.6747728
40
0.3080861
50
8.1116803
51
30.7958224
0
ARC
8
DEFAULT_255_1_388
10
7.7911194
20
46.6592437
40
0.4005385
50
359.8390945
51
8.4707348
0
ARC
8
DEFAULT_255_1_388
10
7.8615242
20
46.6537751
40
0.3301608
50
337.4732479
51
0.7538283
0
ARC
8
DEFAULT_255_1_388
10
7.8816267
20
46.6515554
40
0.3107929
50
307.5917028
51
336.4313755
0
ARC
8
DEFAULT_255_1_388
10
7.8305324
20
46.7083509
40
0.3870096
50
307.6560665
51
308.4561779
0
ARC
8
DEFAULT_255_1_388
10
7.8039541
20
46.7491832
40
0.435591
50
284.3733666
51
307.1426212
0
ARC
8
DEFAULT_255_1_388
10
7.7482435
20
46.9541391
40
0.6479685
50
272.4384566
51
284.6464689
0
ARC
8
DEFAULT_255_1_388
10
7.733982
20
47.1565434
40
0.8508149
50
269.9708517
51
272.8180721
0
ARC
8
DEFAULT_255_1_388
10
7.7291503
20
46.9273283
40
0.6216151
50
248.2707343
51
270.4054609
0
ARC
8
DEFAULT_255_1_388
10
7.7230374
20
46.9058673
40
0.5994203
50
246.1380358
51
248.054058
0
ARC
8
DEFAULT_255_1_388
10
7.6759517
20
46.8069705
40
0.4899388
50
233.1671897
51
246.4951656
0
ARC
8
DEFAULT_255_1_388
10
7.6136152
20
46.7228137
40
0.3852115
50
215.3403381
51
233.084328
0
ARC
8
DEFAULT_255_1_388
10
7.5829516
20
46.7005093
40
0.3472969
50
179.2419235
51
215.2648426
0
ARC
8
DEFAULT_255_1_388
10
7.6693067
20
46.7020979
40
0.259251
50
179.3355796
51
199.1045873
0
ARC
8
DEFAULT_255_1_388
10
7.6319209
20
46.6923223
40
0.2207454
50
199.8830064
51
232.7061328
0
ARC
8
DEFAULT_255_1_388
10
7.6850483
20
46.7591456
40
0.306101
50
232.3736206
51
255.5136621
0
ARC
8
DEFAULT_255_1_388
10
7.7233989
20
46.8991177
40
0.4512213
50
255.2447928
51
267.5318292
0
ARC
8
DEFAULT_255_1_388
10
7.7332456
20
47.0377709
40
0.5901825
50
267.1564563
51
270.0294721
0
ARC
8
DEFAULT_255_1_388
10
7.7363781
20
46.9878623
40
0.5402814
50
269.6999944
51
278.1662446
0
ARC
8
DEFAULT_255_1_388
10
7.7651809
20
46.7931974
40
0.3435003
50
278.0229022
51
290.6255326
0
ARC
8
DEFAULT_255_1_388
10
7.8042975
20
46.6888547
40
0.2320666
50
290.6616368
51
307.0374127
0
ARC
8
DEFAULT_255_1_388
10
7.8380875
20
46.647404
40
0.1786372
50
306.3942078
51
355.303191
0
ARC
8
DEFAULT_255_1_388
10
7.7805168
20
46.6560186
40
0.2367516
50
354.3662092
51
0.0709489
0
ARC
8
DEFAULT_255_1_388
10
7.7965037
20
46.6585561
40
0.2207761
50
359.4175379
51
16.1975911
0
ARC
8
DEFAULT_255_1_388
10
7.8477155
20
46.6725954
40
0.1676828
50
16.4721294
51
52.6261798
0
ARC
8
DEFAULT_255_1_388
10
7.7553662
20
46.5506606
40
0.3206412
50
52.7381828
51
62.4979144
0
ARC
8
DEFAULT_255_1_388
10
7.5995415
20
46.2574236
40
0.6527035
50
62.2517425
51
68.1219454
0
ARC
8
DEFAULT_255_1_388
10
7.4060903
20
45.7819951
40
1.1659797
50
68.006043
51
71.8055127
0
ARC
8
DEFAULT_255_1_388
10
7.2040811
20
45.1761723
40
1.8045908
50
71.718361
51
73.9260743
0
LINE
8
DEFAULT_255_1_388
10
8.6000675
20
47.6393898
11
8.6000675
21
46.3238
0
LINE
8
DEFAULT_255_1_388
10
8.6000675
20
46.3238
11
8.4265831
21
46.3238
0
LINE
8
DEFAULT_255_1_388
10
8.4265831
20
46.3238
11
8.4265831
21
47.6393898
0
LINE
8
DEFAULT_255_1_388
10
8.4265831
20
47.6393898
11
8.6000675
21
47.6393898
0
LINE
8
DEFAULT_255_1_388
10
8.9172186
20
47.6393898
11
9.1413026
21
47.6393898
0
LINE
8
DEFAULT_255_1_388
10
9.1413026
20
47.6393898
11
9.5713993
21
46.5659553
0
LINE
8
DEFAULT_255_1_388
10
9.5713993
20
46.5659553
11
10.0014959
21
47.6393898
0
LINE
8
DEFAULT_255_1_388
10
10.0014959
20
47.6393898
11
10.2264835
21
47.6393898
0
LINE
8
DEFAULT_255_1_388
10
10.2264835
20
47.6393898
11
10.2264835
21
46.3238
0
LINE
8
DEFAULT_255_1_388
10
10.2264835
20
46.3238
11
10.0529991
21
46.3238
0
LINE
8
DEFAULT_255_1_388
10
10.0529991
20
46.3238
11
10.0529991
21
46.836121
0
LINE
8
DEFAULT_255_1_388
10
10.0529991
20
46.836121
11
10.0692633
21
47.3891025
0
LINE
8
DEFAULT_255_1_388
10
10.0692633
20
47.3891025
11
9.6373595
21
46.3238
0
LINE
8
DEFAULT_255_1_388
10
9.6373595
20
46.3238
11
9.5045355
21
46.3238
0
LINE
8
DEFAULT_255_1_388
10
9.5045355
20
46.3238
11
9.0735353
21
47.3863918
0
LINE
8
DEFAULT_255_1_388
10
9.0735353
20
47.3863918
11
9.090703
21
46.836121
0
LINE
8
DEFAULT_255_1_388
10
9.090703
20
46.836121
11
9.090703
21
46.3238
0
LINE
8
DEFAULT_255_1_388
10
9.090703
20
46.3238
11
8.9172186
21
46.3238
0
LINE
8
DEFAULT_255_1_388
10
8.9172186
20
46.3238
11
8.9172186
21
47.6393898
0
LINE
8
DEFAULT_255_1_388
10
11.4011173
20
46.3238
11
11.2755218
21
46.6671545
0
LINE
8
DEFAULT_255_1_388
10
11.2755218
20
46.6671545
11
10.7243475
21
46.6671545
0
LINE
8
DEFAULT_255_1_388
10
10.7243475
20
46.6671545
11
10.6005592
21
46.3238
0
LINE
8
DEFAULT_255_1_388
10
10.6005592
20
46.3238
11
10.4216534
21
46.3238
0
LINE
8
DEFAULT_255_1_388
10
10.4216534
20
46.3238
11
10.9240353
21
47.6393898
0
LINE
8
DEFAULT_255_1_388
10
10.9240353
20
47.6393898
11
11.0758341
21
47.6393898
0
LINE
8
DEFAULT_255_1_388
10
11.0758341
20
47.6393898
11
11.5791195
21
46.3238
0
LINE
8
DEFAULT_255_1_388
10
11.5791195
20
46.3238
11
11.4011173
21
46.3238
0
LINE
8
DEFAULT_255_1_388
10
10.9999347
20
47.4252451
11
10.7767542
21
46.8099177
0
LINE
8
DEFAULT_255_1_388
10
10.7767542
20
46.8099177
11
11.2240187
21
46.8099177
0
LINE
8
DEFAULT_255_1_388
10
11.2240187
20
46.8099177
11
10.9999347
21
47.4252451
0
LINE
8
DEFAULT_255_1_388
10
12.5486441
20
47.6393898
11
12.5486441
21
47.4966267
0
LINE
8
DEFAULT_255_1_388
10
12.5486441
20
47.4966267
11
12.125776
21
47.4966267
0
LINE
8
DEFAULT_255_1_388
10
12.125776
20
47.4966267
11
12.125776
21
46.3238
0
LINE
8
DEFAULT_255_1_388
10
12.125776
20
46.3238
11
11.9531952
21
46.3238
0
LINE
8
DEFAULT_255_1_388
10
11.9531952
20
46.3238
11
11.9531952
21
47.4966267
0
LINE
8
DEFAULT_255_1_388
10
11.9531952
20
47.4966267
11
11.5312306
21
47.4966267
0
LINE
8
DEFAULT_255_1_388
10
11.5312306
20
47.4966267
11
11.5312306
21
47.6393898
0
LINE
8
DEFAULT_255_1_388
10
11.5312306
20
47.6393898
11
12.5486441
21
47.6393898
0
LINE
8
DEFAULT_255_1_388
10
12.9299483
20
47.6393898
11
12.9299483
21
46.3238
0
LINE
8
DEFAULT_255_1_388
10
12.9299483
20
46.3238
11
12.756464
21
46.3238
0
LINE
8
DEFAULT_255_1_388
10
12.756464
20
46.3238
11
12.756464
21
47.6393898
0
LINE
8
DEFAULT_255_1_388
10
12.756464
20
47.6393898
11
12.9299483
21
47.6393898
0
LINE
8
DEFAULT_255_1_388
10
14.0404291
20
46.7412468
11
14.214817
21
46.7412468
0
LINE
8
DEFAULT_255_1_388
10
13.2019212
20
46.9201525
11
13.2019212
21
47.0466516
0
LINE
8
DEFAULT_255_1_388
10
14.214817
20
47.2165217
11
14.0404291
21
47.2165217
0
LINE
8
DEFAULT_255_1_388
10
13.3763092
20
47.0421337
11
13.3763092
21
46.9147312
0
ARC
8
DEFAULT_255_1_388
10
13.5982404
20
46.8084329
40
0.6202263
50
340.1774904
51
353.7812217
0
ARC
8
DEFAULT_255_1_388
10
13.7750257
20
46.7425893
40
0.4315926
50
311.4560052
51
340.4420756
0
ARC
8
DEFAULT_255_1_388
10
13.7712796
20
46.7550665
40
0.4434573
50
282.4332229
51
310.7514507
0
ARC
8
DEFAULT_255_1_388
10
13.7218614
20
46.9592703
40
0.6535262
50
269.9358869
51
282.8096729
0
ARC
8
DEFAULT_255_1_388
10
13.7160554
20
47.1105329
40
0.8048043
50
269.9995752
51
270.3612856
0
ARC
8
DEFAULT_255_1_388
10
13.7101044
20
46.8306781
40
0.5249831
50
250.7885263
51
270.6488451
0
ARC
8
DEFAULT_255_1_388
10
13.6911868
20
46.7589853
40
0.4510942
50
219.3628377
51
250.0611024
0
ARC
8
DEFAULT_255_1_388
10
13.7844743
20
46.8382653
40
0.5735046
50
193.5480293
51
219.5755675
0
ARC
8
DEFAULT_255_1_388
10
14.0512952
20
46.907552
40
0.849146
50
181.1220183
51
193.8754971
0
ARC
8
DEFAULT_255_1_388
10
14.2836185
20
46.9199914
40
1.0816971
50
179.9914644
51
181.5398227
0
ARC
8
DEFAULT_255_1_388
10
14.0759495
20
47.0508586
40
0.8740384
50
169.5837606
51
180.275782
0
ARC
8
DEFAULT_255_1_388
10
13.8692844
20
47.0890439
40
0.6638751
50
155.0367033
51
169.6002779
0
ARC
8
DEFAULT_255_1_388
10
13.7415302
20
47.1506336
40
0.5220662
50
136.7831557
51
155.2472983
0
ARC
8
DEFAULT_255_1_388
10
13.6977092
20
47.1878577
40
0.4646502
50
121.7633063
51
136.4281161
0
ARC
8
DEFAULT_255_1_388
10
13.7128932
20
47.1598049
40
0.4964979
50
95.6460018
51
121.5489589
0
ARC
8
DEFAULT_255_1_388
10
13.7305907
20
47.0350704
40
0.6223912
50
89.9245727
51
96.1375919
0
ARC
8
DEFAULT_255_1_388
10
13.7362612
20
47.0484721
40
0.6090084
50
76.6779212
51
90.456405
0
ARC
8
DEFAULT_255_1_388
10
13.7805425
20
47.227406
40
0.42469
50
47.4858803
51
76.9287069
0
ARC
8
DEFAULT_255_1_388
10
13.7640038
20
47.2161623
40
0.4441778
50
16.5424081
51
46.8934505
0
ARC
8
DEFAULT_255_1_388
10
13.5831088
20
47.1567265
40
0.6345318
50
5.4072971
51
17.0363711
0
ARC
8
DEFAULT_255_1_388
10
13.4212813
20
47.1307304
40
0.6250632
50
7.8888693
51
15.9242022
0
ARC
8
DEFAULT_255_1_388
10
13.6447799
20
47.1956309
40
0.3923364
50
15.7650676
51
27.9410069
0
ARC
8
DEFAULT_255_1_388
10
13.7689968
20
47.2621317
40
0.2514401
50
27.8167196
51
46.4007942
0
ARC
8
DEFAULT_255_1_388
10
13.7745809
20
47.2614882
40
0.2480958
50
47.4372362
51
75.0695672
0
ARC
8
DEFAULT_255_1_388
10
13.7398646
20
47.1406277
40
0.3738281
50
74.7009379
51
87.8124314
0
ARC
8
DEFAULT_255_1_388
10
13.7316262
20
47.0222659
40
0.4924321
50
87.3802571
51
90.0251599
0
ARC
8
DEFAULT_255_1_388
10
13.727291
20
47.1542997
40
0.3604218
50
89.3451886
51
108.5744412
0
ARC
8
DEFAULT_255_1_388
10
13.7118902
20
47.2120836
40
0.3007661
50
109.2998307
51
143.3037387
0
ARC
8
DEFAULT_255_1_388
10
13.7976192
20
47.1461584
40
0.4089031
50
143.075267
51
163.1918576
0
ARC
8
DEFAULT_255_1_388
10
14.0172026
20
47.0768652
40
0.6391492
50
162.9375929
51
174.6208776
0
ARC
8
DEFAULT_255_1_388
10
14.3126408
20
47.0444711
40
0.9363344
50
174.342123
51
180.1430283
0
ARC
8
DEFAULT_255_1_388
10
14.2078949
20
46.9101117
40
0.8315986
50
179.6817261
51
189.150555
0
ARC
8
DEFAULT_255_1_388
10
13.9265698
20
46.8632559
40
0.5464044
50
188.9911061
51
203.5772363
0
ARC
8
DEFAULT_255_1_388
10
13.805099
20
46.8128539
40
0.4149206
50
203.9075402
51
215.1312435
0
ARC
8
DEFAULT_255_1_388
10
13.7012788
20
46.7323907
40
0.2837747
50
213.9071511
51
263.8848919
0
ARC
8
DEFAULT_255_1_388
10
13.7153781
20
46.8206519
40
0.3730641
50
263.1757928
51
270.1031044
0
ARC
8
DEFAULT_255_1_388
10
13.718986
20
46.9609511
40
0.5133712
50
269.6722503
51
279.0606936
0
ARC
8
DEFAULT_255_1_388
10
13.7490016
20
46.779515
40
0.3294739
50
278.8749101
51
293.6349581
0
ARC
8
DEFAULT_255_1_388
10
13.7850219
20
46.6949251
40
0.2375405
50
293.8553806
51
310.0518171
0
ARC
8
DEFAULT_255_1_388
10
13.7855728
20
46.6879021
40
0.2318463
50
311.0644687
51
332.0111037
0
ARC
8
DEFAULT_255_1_388
10
13.6514402
20
46.7618702
40
0.3850112
50
331.6586806
51
343.2877423
0
ARC
8
DEFAULT_255_1_388
10
13.4193867
20
46.8331806
40
0.6277712
50
343.1446576
51
351.0103568
0
ARC
8
DEFAULT_255_1_388
10
13.256119
20
46.8631873
40
0.7937327
50
350.71248
51
351.1626997
0
LINE
8
DEFAULT_255_1_388
10
15.6532916
20
47.0737585
11
15.6532916
21
46.9318989
0
LINE
8
DEFAULT_255_1_388
10
15.6532916
20
46.9318989
11
15.0831424
21
46.9318989
0
LINE
8
DEFAULT_255_1_388
10
15.0831424
20
46.9318989
11
15.0831424
21
46.4656596
0
LINE
8
DEFAULT_255_1_388
10
15.0831424
20
46.4656596
11
15.7454552
21
46.4656596
0
LINE
8
DEFAULT_255_1_388
10
15.7454552
20
46.4656596
11
15.7454552
21
46.3238
0
LINE
8
DEFAULT_255_1_388
10
15.7454552
20
46.3238
11
14.9096581
21
46.3238
0
LINE
8
DEFAULT_255_1_388
10
14.9096581
20
46.3238
11
14.9096581
21
47.6393898
0
LINE
8
DEFAULT_255_1_388
10
14.9096581
20
47.6393898
11
15.7364195
21
47.6393898
0
LINE
8
DEFAULT_255_1_388
10
15.7364195
20
47.6393898
11
15.7364195
21
47.4966267
0
LINE
8
DEFAULT_255_1_388
10
15.7364195
20
47.4966267
11
15.0831424
21
47.4966267
0
LINE
8
DEFAULT_255_1_388
10
15.0831424
20
47.4966267
11
15.0831424
21
47.0737585
0
LINE
8
DEFAULT_255_1_388
10
15.0831424
20
47.0737585
11
15.6532916
21
47.0737585
0
LINE
8
DEFAULT_255_1_388
10
16.8884642
20
47.6393898
11
16.8884642
21
47.4966267
0
LINE
8
DEFAULT_255_1_388
10
16.8884642
20
47.4966267
11
16.465596
21
47.4966267
0
LINE
8
DEFAULT_255_1_388
10
16.465596
20
47.4966267
11
16.465596
21
46.3238
0
LINE
8
DEFAULT_255_1_388
10
16.465596
20
46.3238
11
16.2930152
21
46.3238
0
LINE
8
DEFAULT_255_1_388
10
16.2930152
20
46.3238
11
16.2930152
21
47.4966267
0
LINE
8
DEFAULT_255_1_388
10
16.2930152
20
47.4966267
11
15.8710506
21
47.4966267
0
LINE
8
DEFAULT_255_1_388
10
15.8710506
20
47.4966267
11
15.8710506
21
47.6393898
0
LINE
8
DEFAULT_255_1_388
10
15.8710506
20
47.6393898
11
16.8884642
21
47.6393898
0
LINE
8
DEFAULT_255_1_388
10
17.9022635
20
46.4602382
11
17.9022635
21
46.3238
0
LINE
8
DEFAULT_255_1_388
10
17.9022635
20
46.3238
11
17.040263
21
46.3238
0
LINE
8
DEFAULT_255_1_388
10
17.040263
20
46.3238
11
17.040263
21
46.4439741
0
LINE
8
DEFAULT_255_1_388
10
17.040263
20
46.4439741
11
17.4956595
21
46.9499702
0
LINE
8
DEFAULT_255_1_388
10
17.1821227
20
47.2517607
11
17.0149632
21
47.2517607
0
LINE
8
DEFAULT_255_1_388
10
17.594148
20
46.842446
11
17.2417579
21
46.4602382
0
LINE
8
DEFAULT_255_1_388
10
17.2417579
20
46.4602382
11
17.9022635
21
46.4602382
0
ARC
8
DEFAULT_255_1_388
10
15.9780655
20
48.2919983
40
2.0258655
50
318.5132526
51
320.7829045
0
ARC
8
DEFAULT_255_1_388
10
16.5728612
20
47.8078929
40
1.2589638
50
320.7372878
51
323.9739031
0
ARC
8
DEFAULT_255_1_388
10
17.0137543
20
47.4884554
40
0.7145141
50
323.8962701
51
328.64194
0
ARC
8
DEFAULT_255_1_388
10
17.2439801
20
47.3464545
40
0.4440242
50
328.8294576
51
331.7891185
0
ARC
8
DEFAULT_255_1_388
10
17.3562121
20
47.2885374
40
0.3177517
50
331.4254512
51
352.9365785
0
ARC
8
DEFAULT_255_1_388
10
17.3715121
20
47.285105
40
0.3021496
50
353.2257659
51
0.0166158
0
ARC
8
DEFAULT_255_1_388
10
17.3951882
20
47.2876894
40
0.2784847
50
359.486299
51
15.9343185
0
ARC
8
DEFAULT_255_1_388
10
17.4522148
20
47.3030269
40
0.2194403
50
16.1712913
51
43.5286088
0
ARC
8
DEFAULT_255_1_388
10
17.4609093
20
47.3117191
40
0.2071504
50
43.4417391
51
83.1661095
0
ARC
8
DEFAULT_255_1_388
10
17.4458254
20
47.2288316
40
0.2912888
50
82.160179
51
90.1505708
0
ARC
8
DEFAULT_255_1_388
10
17.4422736
20
47.1684279
40
0.3517025
50
89.5460741
51
102.5418361
0
ARC
8
DEFAULT_255_1_388
10
17.4149456
20
47.2843933
40
0.2325748
50
102.1738499
51
129.206123
0
ARC
8
DEFAULT_255_1_388
10
17.4060909
20
47.2983664
40
0.2161591
50
129.72865
51
135.753947
0
ARC
8
DEFAULT_255_1_388
10
17.4197391
20
47.2874728
40
0.2335433
50
136.1757367
51
166.3673339
0
ARC
8
DEFAULT_255_1_388
10
17.533008
20
47.2571148
40
0.3507873
50
165.9090694
51
178.8684636
0
ARC
8
DEFAULT_255_1_388
10
17.6305851
20
47.2518263
40
0.4484624
50
178.4391136
51
180.0083808
0
ARC
8
DEFAULT_255_1_388
10
17.4726553
20
47.2562197
40
0.4577138
50
163.2878482
51
180.5581842
0
ARC
8
DEFAULT_255_1_388
10
17.3824594
20
47.2810393
40
0.3641968
50
133.4540601
51
162.947111
0
ARC
8
DEFAULT_255_1_388
10
17.4025476
20
47.2596789
40
0.3935189
50
100.7869829
51
133.4382499
0
ARC
8
DEFAULT_255_1_388
10
17.4416721
20
47.0854399
40
0.5720313
50
89.660664
51
101.3702276
0
ARC
8
DEFAULT_255_1_388
10
17.449133
20
47.0923263
40
0.5651495
50
78.2172678
51
90.412935
0
ARC
8
DEFAULT_255_1_388
10
17.4890795
20
47.2750511
40
0.378122
50
55.9269121
51
78.4888449
0
ARC
8
DEFAULT_255_1_388
10
17.511151
20
47.3131187
40
0.3342379
50
47.929771
51
55.4049217
0
ARC
8
DEFAULT_255_1_388
10
17.5226041
20
47.3247618
40
0.3179217
50
4.334829
51
48.0560205
0
ARC
8
DEFAULT_255_1_388
10
17.3993842
20
47.3056487
40
0.442341
50
359.9251713
51
5.5971671
0
ARC
8
DEFAULT_255_1_388
10
17.4475997
20
47.3119728
40
0.3941854
50
337.8914027
51
358.9967534
0
ARC
8
DEFAULT_255_1_388
10
17.1423567
20
47.4297295
40
0.7213271
50
326.9132501
51
338.3508308
0
ARC
8
DEFAULT_255_1_388
10
16.6939679
20
47.7171105
40
1.2538973
50
319.6471833
51
327.0959558
0
ARC
8
DEFAULT_255_1_388
10
16.2626337
20
48.072905
40
1.8129975
50
317.2588228
51
319.9045804
0
LINE
8
DEFAULT_255_1_388
10
18.9043165
20
47.101769
11
18.9043165
21
46.8849135
0
LINE
8
DEFAULT_255_1_388
10
18.0739408
20
46.8623244
11
18.0739408
21
47.0855048
0
LINE
8
DEFAULT_255_1_388
10
18.7371571
20
46.8397353
11
18.7371571
21
47.1135153
0
LINE
8
DEFAULT_255_1_388
10
18.2411002
20
47.1261652
11
18.2411002
21
46.8587102
0
ARC
8
DEFAULT_255_1_388
10
17.5265499
20
46.8794118
40
1.3777776
50
353.8440855
51
0.2287917
0
ARC
8
DEFAULT_255_1_388
10
18.0484516
20
46.8211414
40
0.852639
50
344.4934746
51
353.9763743
0
ARC
8
DEFAULT_255_1_388
10
18.3851324
20
46.7254191
40
0.5026273
50
329.2803599
51
344.7473406
0
ARC
8
DEFAULT_255_1_388
10
18.4966819
20
46.6642038
40
0.3754848
50
324.9361395
51
328.6153007
0
ARC
8
DEFAULT_255_1_388
10
18.5392469
20
46.6344586
40
0.3235566
50
280.5801797
51
324.9173226
0
ARC
8
DEFAULT_255_1_388
10
18.4941098
20
46.8224236
40
0.5167077
50
269.5979457
51
281.6732777
0
ARC
8
DEFAULT_255_1_388
10
18.4860001
20
46.8089113
40
0.5032026
50
256.6228565
51
270.5105488
0
ARC
8
DEFAULT_255_1_388
10
18.4407744
20
46.6347345
40
0.3233092
50
215.8618351
51
257.2787793
0
ARC
8
DEFAULT_255_1_388
10
18.5556451
20
46.7118106
40
0.4615831
50
197.9695203
51
215.2622745
0
ARC
8
DEFAULT_255_1_388
10
18.8352127
20
46.8061641
40
0.7566307
50
187.8816486
51
198.2346584
0
ARC
8
DEFAULT_255_1_388
10
19.2805365
20
46.8704453
40
1.2065653
50
180.8977266
51
188.0054894
0
ARC
8
DEFAULT_255_1_388
10
19.5855579
20
46.88194
40
1.5117443
50
180.7434591
51
181.152202
0
ARC
8
DEFAULT_255_1_388
10
19.4180575
20
47.0909371
40
1.3441277
50
173.7674302
51
180.2315596
0
ARC
8
DEFAULT_255_1_388
10
18.9098443
20
47.1483779
40
0.8326847
50
164.3058537
51
173.9000553
0
ARC
8
DEFAULT_255_1_388
10
18.5822443
20
47.2427652
40
0.4917711
50
148.7922028
51
164.5682288
0
ARC
8
DEFAULT_255_1_388
10
18.4753181
20
47.3024457
40
0.3694204
50
144.5883979
51
148.1161588
0
ARC
8
DEFAULT_255_1_388
10
18.4365926
20
47.3294667
40
0.322202
50
101.6440149
51
144.5142619
0
ARC
8
DEFAULT_255_1_388
10
18.4844118
20
47.1394337
40
0.5180451
50
89.528284
51
102.5820197
0
ARC
8
DEFAULT_255_1_388
10
18.493311
20
47.1350376
40
0.5224441
50
77.0437914
51
90.508231
0
ARC
8
DEFAULT_255_1_388
10
18.5385364
20
47.3198272
40
0.3322297
50
48.2777708
51
77.4996087
0
ARC
8
DEFAULT_255_1_388
10
18.5467104
20
47.3343557
40
0.315966
50
36.3141586
51
47.6307332
0
ARC
8
DEFAULT_255_1_388
10
18.4489826
20
47.2685159
40
0.4337313
50
18.2931065
51
35.6770203
0
ARC
8
DEFAULT_255_1_388
10
18.1628667
20
47.1703107
40
0.7362203
50
8.0246996
51
18.5605636
0
ARC
8
DEFAULT_255_1_388
10
17.6945022
20
47.1011432
40
1.2096583
50
1.127539
51
8.1718423
0
ARC
8
DEFAULT_255_1_388
10
17.3296156
20
47.0868374
40
1.5747719
50
0.5432713
51
1.38669
0
ARC
8
DEFAULT_255_1_388
10
17.5353535
20
47.1175163
40
1.2018103
50
359.8092569
51
4.9408001
0
ARC
8
DEFAULT_255_1_388
10
18.0090116
20
47.15979
40
0.7262727
50
4.8364937
51
12.2906017
0
ARC
8
DEFAULT_255_1_388
10
18.3189581
20
47.2288485
40
0.4087324
50
12.0806994
51
23.8171225
0
ARC
8
DEFAULT_255_1_388
10
18.4509977
20
47.2847508
40
0.2653719
50
24.2874621
51
31.3934353
0
ARC
8
DEFAULT_255_1_388
10
18.5100413
20
47.3233822
40
0.1948607
50
30.7407708
51
82.4658033
0
ARC
8
DEFAULT_255_1_388
10
18.4898073
20
47.2240017
40
0.2961198
50
81.1057101
51
90.2187368
0
ARC
8
DEFAULT_255_1_388
10
18.4857885
20
47.2530421
40
0.2670929
50
89.380395
51
105.6763916
0
ARC
8
DEFAULT_255_1_388
10
18.4651607
20
47.328032
40
0.1893189
50
105.7980655
51
149.7387869
0
ARC
8
DEFAULT_255_1_388
10
18.5848747
20
47.2560719
40
0.3289892
50
149.4208441
51
163.628295
0
ARC
8
DEFAULT_255_1_388
10
18.8200977
20
47.1843345
40
0.5749004
50
163.3764549
51
172.141138
0
ARC
8
DEFAULT_255_1_388
10
19.1913698
20
47.1311582
40
0.9499585
50
172.0258462
51
178.0705453
0
ARC
8
DEFAULT_255_1_388
10
19.5335251
20
47.1149682
40
1.2924734
50
177.8639301
51
179.5036263
0
ARC
8
DEFAULT_255_1_388
10
19.411627
20
46.8546151
40
1.170534
50
179.7995545
51
185.246089
0
ARC
8
DEFAULT_255_1_388
10
18.9567863
20
46.8115404
40
0.7136613
50
185.1411911
51
193.0082205
0
ARC
8
DEFAULT_255_1_388
10
18.6594124
20
46.7412441
40
0.4080987
50
192.7897338
51
205.2507384
0
ARC
8
DEFAULT_255_1_388
10
18.5416334
20
46.6886538
40
0.2791522
50
205.8001921
51
211.2545876
0
ARC
8
DEFAULT_255_1_388
10
18.4827873
20
46.6492132
40
0.2084074
50
210.3789935
51
238.4007996
0
ARC
8
DEFAULT_255_1_388
10
18.4805959
20
46.6544786
40
0.2117943
50
239.6521916
51
265.9793852
0
ARC
8
DEFAULT_255_1_388
10
18.4901808
20
46.7301358
40
0.2879689
50
265.1324455
51
270.0603288
0
ARC
8
DEFAULT_255_1_388
10
18.4934185
20
46.6936418
40
0.2514919
50
269.3314378
51
287.2180039
0
ARC
8
DEFAULT_255_1_388
10
18.5089267
20
46.6370291
40
0.1928357
50
287.7957942
51
329.0808983
0
ARC
8
DEFAULT_255_1_388
10
18.4012024
20
46.7042651
40
0.319808
50
328.6635261
51
343.3325043
0
ARC
8
DEFAULT_255_1_388
10
18.1567483
20
46.7804195
40
0.5758408
50
343.0498092
51
351.9392499
0
ARC
8
DEFAULT_255_1_388
10
17.7666804
20
46.8379205
40
0.9701202
50
351.8071632
51
357.7957897
0
ARC
8
DEFAULT_255_1_388
10
17.4032281
20
46.8567724
40
1.3340376
50
357.5870923
51
359.2682493
0
LINE
8
DEFAULT_255_1_388
10
19.9434156
20
47.101769
11
19.9434156
21
46.8849135
0
LINE
8
DEFAULT_255_1_388
10
19.1130399
20
46.8623244
11
19.1130399
21
47.0855048
0
LINE
8
DEFAULT_255_1_388
10
19.7762562
20
46.8397353
11
19.7762562
21
47.1135153
0
LINE
8
DEFAULT_255_1_388
10
19.2801993
20
47.1261652
11
19.2801993
21
46.8587102
0
ARC
8
DEFAULT_255_1_388
10
18.565649
20
46.8794118
40
1.3777776
50
353.8440855
51
0.2287917
0
ARC
8
DEFAULT_255_1_388
10
19.0875508
20
46.8211414
40
0.852639
50
344.4934746
51
353.9763743
0
ARC
8
DEFAULT_255_1_388
10
19.4242315
20
46.7254191
40
0.5026273
50
329.2803599
51
344.7473406
0
ARC
8
DEFAULT_255_1_388
10
19.5357811
20
46.6642038
40
0.3754848
50
324.9361395
51
328.6153007
0
ARC
8
DEFAULT_255_1_388
10
19.578346
20
46.6344586
40
0.3235566
50
280.5801797
51
324.9173226
0
ARC
8
DEFAULT_255_1_388
10
19.5332089
20
46.8224236
40
0.5167077
50
269.5979457
51
281.6732777
0
ARC
8
DEFAULT_255_1_388
10
19.5250992
20
46.8089113
40
0.5032026
50
256.6228565
51
270.5105488
0
ARC
8
DEFAULT_255_1_388
10
19.4798735
20
46.6347345
40
0.3233092
50
215.8618351
51
257.2787793
0
ARC
8
DEFAULT_255_1_388
10
19.5947442
20
46.7118106
40
0.4615831
50
197.9695203
51
215.2622745
0
ARC
8
DEFAULT_255_1_388
10
19.8743118
20
46.8061641
40
0.7566307
50
187.8816486
51
198.2346584
0
ARC
8
DEFAULT_255_1_388
10
20.3196356
20
46.8704453
40
1.2065653
50
180.8977266
51
188.0054894
0
ARC
8
DEFAULT_255_1_388
10
20.624657
20
46.88194
40
1.5117443
50
180.7434591
51
181.152202
0
ARC
8
DEFAULT_255_1_388
10
20.4571566
20
47.0909371
40
1.3441277
50
173.7674302
51
180.2315596
0
ARC
8
DEFAULT_255_1_388
10
19.9489435
20
47.1483779
40
0.8326847
50
164.3058537
51
173.9000553
0
ARC
8
DEFAULT_255_1_388
10
19.6213435
20
47.2427652
40
0.4917711
50
148.7922028
51
164.5682288
0
ARC
8
DEFAULT_255_1_388
10
19.5144172
20
47.3024457
40
0.3694204
50
144.5883979
51
148.1161588
0
ARC
8
DEFAULT_255_1_388
10
19.4756917
20
47.3294667
40
0.322202
50
101.6440149
51
144.5142619
0
ARC
8
DEFAULT_255_1_388
10
19.523511
20
47.1394337
40
0.5180451
50
89.528284
51
102.5820197
0
ARC
8
DEFAULT_255_1_388
10
19.5324102
20
47.1350376
40
0.5224441
50
77.0437914
51
90.508231
0
ARC
8
DEFAULT_255_1_388
10
19.5776355
20
47.3198272
40
0.3322297
50
48.2777708
51
77.4996087
0
ARC
8
DEFAULT_255_1_388
10
19.5858095
20
47.3343557
40
0.315966
50
36.3141586
51
47.6307332
0
ARC
8
DEFAULT_255_1_388
10
19.4880817
20
47.2685159
40
0.4337313
50
18.2931065
51
35.6770203
0
ARC
8
DEFAULT_255_1_388
10
19.2019658
20
47.1703107
40
0.7362203
50
8.0246996
51
18.5605636
0
ARC
8
DEFAULT_255_1_388
10
18.7336014
20
47.1011432
40
1.2096583
50
1.127539
51
8.1718423
0
ARC
8
DEFAULT_255_1_388
10
18.3687147
20
47.0868374
40
1.5747719
50
0.5432713
51
1.38669
0
ARC
8
DEFAULT_255_1_388
10
18.5744526
20
47.1175163
40
1.2018103
50
359.8092569
51
4.9408001
0
ARC
8
DEFAULT_255_1_388
10
19.0481107
20
47.15979
40
0.7262727
50
4.8364937
51
12.2906017
0
ARC
8
DEFAULT_255_1_388
10
19.3580572
20
47.2288485
40
0.4087324
50
12.0806994
51
23.8171225
0
ARC
8
DEFAULT_255_1_388
10
19.4900968
20
47.2847508
40
0.2653719
50
24.2874621
51
31.3934353
0
ARC
8
DEFAULT_255_1_388
10
19.5491404
20
47.3233822
40
0.1948607
50
30.7407708
51
82.4658033
0
ARC
8
DEFAULT_255_1_388
10
19.5289065
20
47.2240017
40
0.2961198
50
81.1057101
51
90.2187368
0
ARC
8
DEFAULT_255_1_388
10
19.5248877
20
47.2530421
40
0.2670929
50
89.380395
51
105.6763916
0
ARC
8
DEFAULT_255_1_388
10
19.5042598
20
47.328032
40
0.1893189
50
105.7980655
51
149.7387869
0
ARC
8
DEFAULT_255_1_388
10
19.6239739
20
47.2560719
40
0.3289892
50
149.4208441
51
163.628295
0
ARC
8
DEFAULT_255_1_388
10
19.8591968
20
47.1843345
40
0.5749004
50
163.3764549
51
172.141138
0
ARC
8
DEFAULT_255_1_388
10
20.230469
20
47.1311582
40
0.9499585
50
172.0258462
51
178.0705453
0
ARC
8
DEFAULT_255_1_388
10
20.5726242
20
47.1149682
40
1.2924734
50
177.8639301
51
179.5036263
0
ARC
8
DEFAULT_255_1_388
10
20.4507261
20
46.8546151
40
1.170534
50
179.7995545
51
185.246089
0
ARC
8
DEFAULT_255_1_388
10
19.9958854
20
46.8115404
40
0.7136613
50
185.1411911
51
193.0082205
0
ARC
8
DEFAULT_255_1_388
10
19.6985115
20
46.7412441
40
0.4080987
50
192.7897338
51
205.2507384
0
ARC
8
DEFAULT_255_1_388
10
19.5807325
20
46.6886538
40
0.2791522
50
205.8001921
51
211.2545876
0
ARC
8
DEFAULT_255_1_388
10
19.5218864
20
46.6492132
40
0.2084074
50
210.3789935
51
238.4007996
0
ARC
8
DEFAULT_255_1_388
10
19.519695
20
46.6544786
40
0.2117943
50
239.6521916
51
265.9793852
0
ARC
8
DEFAULT_255_1_388
10
19.5292799
20
46.7301358
40
0.2879689
50
265.1324455
51
270.0603288
0
ARC
8
DEFAULT_255_1_388
10
19.5325176
20
46.6936418
40
0.2514919
50
269.3314378
51
287.2180039
0
ARC
8
DEFAULT_255_1_388
10
19.5480258
20
46.6370291
40
0.1928357
50
287.7957942
51
329.0808983
0
ARC
8
DEFAULT_255_1_388
10
19.4403015
20
46.7042651
40
0.319808
50
328.6635261
51
343.3325043
0
ARC
8
DEFAULT_255_1_388
10
19.1958474
20
46.7804195
40
0.5758408
50
343.0498092
51
351.9392499
0
ARC
8
DEFAULT_255_1_388
10
18.8057795
20
46.8379205
40
0.9701202
50
351.8071632
51
357.7957897
0
ARC
8
DEFAULT_255_1_388
10
18.4423272
20
46.8567724
40
1.3340376
50
357.5870923
51
359.2682493
0
LINE
8
DEFAULT_255_1_388
10
21.0737748
20
47.2589892
11
20.8993868
21
47.2589892
0
LINE
8
DEFAULT_255_1_388
10
20.1205143
20
46.7051042
11
20.2949022
21
46.7051042
0
ARC
8
DEFAULT_255_1_388
10
20.9734595
20
48.2653821
40
1.4087688
50
248.9196578
51
254.1442424
0
ARC
8
DEFAULT_255_1_388
10
20.7844475
20
47.7787805
40
0.8867498
50
241.6337352
51
249.0064643
0
ARC
8
DEFAULT_255_1_388
10
20.6124789
20
47.4636764
40
0.5277799
50
230.4982261
51
241.8087583
0
ARC
8
DEFAULT_255_1_388
10
20.524256
20
47.3512686
40
0.3849419
50
227.4062979
51
229.9877433
0
ARC
8
DEFAULT_255_1_388
10
20.4693906
20
47.2977155
40
0.3084129
50
200.6782127
51
228.1765252
0
ARC
8
DEFAULT_255_1_388
10
20.4775275
20
47.2960277
40
0.315461
50
179.506278
51
199.8695278
0
ARC
8
DEFAULT_255_1_388
10
20.4764864
20
47.3043671
40
0.3144584
50
132.4834401
51
181.0242352
0
ARC
8
DEFAULT_255_1_388
10
20.5434068
20
47.2411788
40
0.4063094
50
129.2526113
51
133.4249077
0
ARC
8
DEFAULT_255_1_388
10
20.5599661
20
47.2163619
40
0.436014
50
101.9878945
51
128.8741833
0
ARC
8
DEFAULT_255_1_388
10
20.6048076
20
47.022736
40
0.6347415
50
89.5906376
51
102.3170567
0
ARC
8
DEFAULT_255_1_388
10
20.6127388
20
47.0585586
40
0.5989122
50
77.2359491
51
90.3248968
0
ARC
8
DEFAULT_255_1_388
10
20.6360319
20
47.1673554
40
0.4876594
50
63.8379856
51
77.0808925
0
ARC
8
DEFAULT_255_1_388
10
20.6672852
20
47.2255882
40
0.4216191
50
45.9863127
51
64.1608798
0
ARC
8
DEFAULT_255_1_388
10
20.6966246
20
47.259099
40
0.3771394
50
32.2747934
51
45.6544796
0
ARC
8
DEFAULT_255_1_388
10
20.7041052
20
47.2612426
40
0.3696765
50
359.6507495
51
32.6129943
0
ARC
8
DEFAULT_255_1_388
10
20.5980235
20
47.2617788
40
0.3013762
50
359.469654
51
14.983205
0
ARC
8
DEFAULT_255_1_388
10
20.6773487
20
47.2830288
40
0.2192542
50
14.9781954
51
48.2004799
0
ARC
8
DEFAULT_255_1_388
10
20.6588598
20
47.2597937
40
0.2489048
50
48.5926661
51
74.1242559
0
ARC
8
DEFAULT_255_1_388
10
20.62134
20
47.1359607
40
0.3782845
50
73.7889321
51
86.6653996
0
ARC
8
DEFAULT_255_1_388
10
20.6098215
20
47.0001955
40
0.5145025
50
86.2642725
51
90.0533288
0
ARC
8
DEFAULT_255_1_388
10
20.6066308
20
47.0446376
40
0.4700681
50
89.669455
51
99.2313411
0
ARC
8
DEFAULT_255_1_388
10
20.5793468
20
47.2071401
40
0.3052945
50
99.0695987
51
113.7659242
0
ARC
8
DEFAULT_255_1_388
10
20.5485462
20
47.2797772
40
0.226407
50
114.0402885
51
127.9848946
0
ARC
8
DEFAULT_255_1_388
10
20.5214938
20
47.3130884
40
0.1835045
50
127.7287217
51
176.7106493
0
ARC
8
DEFAULT_255_1_388
10
20.5978603
20
47.301721
40
0.2604907
50
175.1780759
51
180.0581213
0
ARC
8
DEFAULT_255_1_388
10
20.5029947
20
47.3003411
40
0.1656287
50
179.6140658
51
228.124674
0
ARC
8
DEFAULT_255_1_388
10
20.5527304
20
47.346394
40
0.2332038
50
226.5785315
51
230.8792476
0
ARC
8
DEFAULT_255_1_388
10
20.6056791
20
47.4166908
40
0.3211664
50
231.4636401
51
241.9261664
0
ARC
8
DEFAULT_255_1_388
10
20.7403574
20
47.6645349
40
0.6032345
50
241.7177136
51
248.3259138
0
ARC
8
DEFAULT_255_1_388
10
20.8962169
20
48.0506771
40
1.0196417
50
248.2007377
51
252.4527713
0
ARC
8
DEFAULT_255_1_388
10
21.0315696
20
48.4691092
40
1.4594143
50
252.3388938
51
254.347037
0
ARC
8
DEFAULT_255_1_388
10
20.1830996
20
45.4343095
40
1.6917621
50
71.0197462
51
74.4085467
0
ARC
8
DEFAULT_255_1_388
10
20.3738084
20
45.9848144
40
1.1091618
50
66.1845203
51
71.086519
0
ARC
8
DEFAULT_255_1_388
10
20.5488633
20
46.3789439
40
0.6779073
50
59.3537334
51
66.269255
0
ARC
8
DEFAULT_255_1_388
10
20.6488359
20
46.5480777
40
0.4814366
50
49.1021732
51
59.3294421
0
ARC
8
DEFAULT_255_1_388
10
20.7409347
20
46.6530575
40
0.3417875
50
32.7924183
51
49.2503526
0
ARC
8
DEFAULT_255_1_388
10
20.7758961
20
46.6780311
40
0.2988789
50
31.121225
51
32.3977355
0
ARC
8
DEFAULT_255_1_388
10
20.7671139
20
46.6747728
40
0.3080861
50
8.1116803
51
30.7958224
0
ARC
8
DEFAULT_255_1_388
10
20.6759485
20
46.6592437
40
0.4005385
50
359.8390945
51
8.4707348
0
ARC
8
DEFAULT_255_1_388
10
20.7463533
20
46.6537751
40
0.3301608
50
337.4732479
51
0.7538283
0
ARC
8
DEFAULT_255_1_388
10
20.7664558
20
46.6515554
40
0.3107929
50
307.5917028
51
336.4313755
0
ARC
8
DEFAULT_255_1_388
10
20.7153615
20
46.7083509
40
0.3870096
50
307.6560665
51
308.4561779
0
ARC
8
DEFAULT_255_1_388
10
20.6887832
20
46.7491832
40
0.435591
50
284.3733666
51
307.1426212
0
ARC
8
DEFAULT_255_1_388
10
20.6330726
20
46.9541391
40
0.6479685
50
272.4384566
51
284.6464689
0
ARC
8
DEFAULT_255_1_388
10
20.6188111
20
47.1565434
40
0.8508149
50
269.9708517
51
272.8180721
0
ARC
8
DEFAULT_255_1_388
10
20.6139794
20
46.9273283
40
0.6216151
50
248.2707343
51
270.4054609
0
ARC
8
DEFAULT_255_1_388
10
20.6078665
20
46.9058673
40
0.5994203
50
246.1380358
51
248.054058
0
ARC
8
DEFAULT_255_1_388
10
20.5607808
20
46.8069705
40
0.4899388
50
233.1671897
51
246.4951656
0
ARC
8
DEFAULT_255_1_388
10
20.4984443
20
46.7228137
40
0.3852115
50
215.3403381
51
233.084328
0
ARC
8
DEFAULT_255_1_388
10
20.4677807
20
46.7005093
40
0.3472969
50
179.2419235
51
215.2648426
0
ARC
8
DEFAULT_255_1_388
10
20.5541358
20
46.7020979
40
0.259251
50
179.3355796
51
199.1045873
0
ARC
8
DEFAULT_255_1_388
10
20.51675
20
46.6923223
40
0.2207454
50
199.8830064
51
232.7061328
0
ARC
8
DEFAULT_255_1_388
10
20.5698774
20
46.7591456
40
0.306101
50
232.3736206
51
255.5136621
0
ARC
8
DEFAULT_255_1_388
10
20.608228
20
46.8991177
40
0.4512213
50
255.2447928
51
267.5318292
0
ARC
8
DEFAULT_255_1_388
10
20.6180747
20
47.0377709
40
0.5901825
50
267.1564563
51
270.0294721
0
ARC
8
DEFAULT_255_1_388
10
20.6212072
20
46.9878623
40
0.5402814
50
269.6999944
51
278.1662446
0
ARC
8
DEFAULT_255_1_388
10
20.65001
20
46.7931974
40
0.3435003
50
278.0229022
51
290.6255326
0
ARC
8
DEFAULT_255_1_388
10
20.6891266
20
46.6888547
40
0.2320666
50
290.6616368
51
307.0374127
0
ARC
8
DEFAULT_255_1_388
10
20.7229166
20
46.647404
40
0.1786372
50
306.3942078
51
355.303191
0
ARC
8
DEFAULT_255_1_388
10
20.6653459
20
46.6560186
40
0.2367516
50
354.3662092
51
0.0709489
0
ARC
8
DEFAULT_255_1_388
10
20.6813328
20
46.6585561
40
0.2207761
50
359.4175379
51
16.1975911
0
ARC
8
DEFAULT_255_1_388
10
20.7325446
20
46.6725954
40
0.1676828
50
16.4721294
51
52.6261798
0
ARC
8
DEFAULT_255_1_388
10
20.6401953
20
46.5506606
40
0.3206412
50
52.7381828
51
62.4979144
0
ARC
8
DEFAULT_255_1_388
10
20.4843706
20
46.2574236
40
0.6527035
50
62.2517425
51
68.1219454
0
ARC
8
DEFAULT_255_1_388
10
20.2909194
20
45.7819951
40
1.1659797
50
68.006043
51
71.8055127
0
ARC
8
DEFAULT_255_1_388
10
20.0889102
20
45.1761723
40
1.8045908
50
71.718361
51
73.9260743
0
LINE
8
DEFAULT_255_2_778
10
19.9760417
20
28.9718583
11
18.6531417
21
28.9718583
0
LINE
8
DEFAULT_255_2_778
10
18.6531417
20
28.9718583
11
18.6531417
21
27.6489583
0
LINE
8
DEFAULT_255_2_778
10
17.3301834
20
27.6489333
11
19.9759834
21
27.6489333
0
LINE
8
DEFAULT_255_2_778
10
19.9759834
20
27.6489333
11
19.9759834
21
22.3572333
0
LINE
8
DEFAULT_255_2_778
10
19.9759834
20
22.3572333
11
17.3301834
21
22.3572333
0
LINE
8
DEFAULT_255_2_778
10
17.3301834
20
22.3572333
11
17.3301834
21
27.6489333
0
LINE
8
DEFAULT_255_2_778
10
18.124
20
22.8864666
11
18.124
21
27.1197666
0
LINE
8
DEFAULT_255_2_778
10
17.8594167
20
26.326075
11
18.1240167
21
27.119775
0
LINE
8
DEFAULT_255_2_778
10
18.1240167
20
27.119775
11
18.3886167
21
26.326075
0
LINE
8
DEFAULT_255_2_778
10
18.3886167
20
26.326075
11
17.8594167
21
26.326075
0
LINE
8
DEFAULT_255_2_778
10
19.1823
20
27.1197666
11
19.1823
21
22.8864666
0
LINE
8
DEFAULT_255_2_778
10
18.9177167
20
23.680175
11
19.1823167
21
22.886475
0
LINE
8
DEFAULT_255_2_778
10
19.1823167
20
22.886475
11
19.4469167
21
23.680175
0
LINE
8
DEFAULT_255_2_778
10
19.4469167
20
23.680175
11
18.9177167
21
23.680175
0
LINE
8
DEFAULT_255_2_778
10
18.6531417
20
22.3572583
11
18.6531417
21
21.0343583
0
LINE
8
DEFAULT_255_2_778
10
18.6531417
20
21.0343583
11
19.9760417
21
21.0343583
0
LINE
8
DEFAULT_255_1_388
10
4.1680903
20
45.6549898
11
4.1680903
21
44.4812596
0
LINE
8
DEFAULT_255_1_388
10
4.1680903
20
44.4812596
11
4.7915498
21
44.4812596
0
LINE
8
DEFAULT_255_1_388
10
4.7915498
20
44.4812596
11
4.7915498
21
44.3394
0
LINE
8
DEFAULT_255_1_388
10
4.7915498
20
44.3394
11
3.9937024
21
44.3394
0
LINE
8
DEFAULT_255_1_388
10
3.9937024
20
44.3394
11
3.9937024
21
45.6549898
0
LINE
8
DEFAULT_255_1_388
10
3.9937024
20
45.6549898
11
4.1680903
21
45.6549898
0
LINE
8
DEFAULT_255_1_388
10
5.4421162
20
45.4290987
11
5.4421162
21
45.0450838
0
LINE
8
DEFAULT_255_1_388
10
5.4421162
20
45.0450838
11
5.8089634
21
45.0450838
0
LINE
8
DEFAULT_255_1_388
10
5.8089634
20
45.0450838
11
5.8089634
21
44.8869601
0
LINE
8
DEFAULT_255_1_388
10
5.8089634
20
44.8869601
11
5.4421162
21
44.8869601
0
LINE
8
DEFAULT_255_1_388
10
5.4421162
20
44.8869601
11
5.4421162
21
44.4713204
0
LINE
8
DEFAULT_255_1_388
10
5.4421162
20
44.4713204
11
5.2740532
21
44.4713204
0
LINE
8
DEFAULT_255_1_388
10
5.2740532
20
44.4713204
11
5.2740532
21
44.8869601
0
LINE
8
DEFAULT_255_1_388
10
5.2740532
20
44.8869601
11
4.9072061
21
44.8869601
0
LINE
8
DEFAULT_255_1_388
10
4.9072061
20
44.8869601
11
4.9072061
21
45.0450838
0
LINE
8
DEFAULT_255_1_388
10
4.9072061
20
45.0450838
11
5.2740532
21
45.0450838
0
LINE
8
DEFAULT_255_1_388
10
5.2740532
20
45.0450838
11
5.2740532
21
45.4290987
0
LINE
8
DEFAULT_255_1_388
10
5.2740532
20
45.4290987
11
5.4421162
21
45.4290987
0
LINE
8
DEFAULT_255_1_388
10
4.9766637
20
4.6519
11
4.8510682
21
4.9952545
0
LINE
8
DEFAULT_255_1_388
10
4.8510682
20
4.9952545
11
4.2998939
21
4.9952545
0
LINE
8
DEFAULT_255_1_388
10
4.2998939
20
4.9952545
11
4.1761056
21
4.6519
0
LINE
8
DEFAULT_255_1_388
10
4.1761056
20
4.6519
11
3.9971998
21
4.6519
0
LINE
8
DEFAULT_255_1_388
10
3.9971998
20
4.6519
11
4.4995816
21
5.9674898
0
LINE
8
DEFAULT_255_1_388
10
4.4995816
20
5.9674898
11
4.6513805
21
5.9674898
0
LINE
8
DEFAULT_255_1_388
10
4.6513805
20
5.9674898
11
5.1546659
21
4.6519
0
LINE
8
DEFAULT_255_1_388
10
5.1546659
20
4.6519
11
4.9766637
21
4.6519
0
LINE
8
DEFAULT_255_1_388
10
4.5754811
20
5.7533451
11
4.3523006
21
5.1380177
0
LINE
8
DEFAULT_255_1_388
10
4.3523006
20
5.1380177
11
4.799565
21
5.1380177
0
LINE
8
DEFAULT_255_1_388
10
4.799565
20
5.1380177
11
4.5754811
21
5.7533451
0
LINE
8
DEFAULT_255_1_388
10
6.0681695
20
5.9674898
11
6.2425575
21
5.9674898
0
LINE
8
DEFAULT_255_1_388
10
6.2425575
20
5.9674898
11
6.2425575
21
5.072961
0
LINE
8
DEFAULT_255_1_388
10
5.8106537
20
4.6356358
11
5.7645719
21
4.6338287
0
LINE
8
DEFAULT_255_1_388
10
5.2902005
20
5.0711539
11
5.2902005
21
5.9674898
0
LINE
8
DEFAULT_255_1_388
10
5.2902005
20
5.9674898
11
5.4618778
21
5.9674898
0
LINE
8
DEFAULT_255_1_388
10
5.4618778
20
5.9674898
11
5.4618778
21
5.0765753
0
LINE
8
DEFAULT_255_1_388
10
6.0681695
20
5.0756717
11
6.0681695
21
5.9674898
0
ARC
8
DEFAULT_255_1_388
10
5.7528373
20
5.070727
40
0.4897252
50
343.0897723
51
0.2613727
0
ARC
8
DEFAULT_255_1_388
10
5.8460344
20
5.044727
40
0.3930016
50
315.3344451
51
342.7642569
0
ARC
8
DEFAULT_255_1_388
10
5.820884
20
5.0708085
40
0.4292244
50
284.6605441
51
315.2183439
0
ARC
8
DEFAULT_255_1_388
10
5.769662
20
5.2447508
40
0.6104926
50
273.8500371
51
285.1796441
0
ARC
8
DEFAULT_255_1_388
10
5.7597685
20
5.2831762
40
0.6493653
50
257.6315393
51
270.4238259
0
ARC
8
DEFAULT_255_1_388
10
5.7119768
20
5.0782915
40
0.4390079
50
230.6086859
51
257.9965362
0
ARC
8
DEFAULT_255_1_388
10
5.6973826
20
5.0553643
40
0.4120404
50
227.745033
51
230.1538266
0
ARC
8
DEFAULT_255_1_388
10
5.6820355
20
5.0369253
40
0.3880742
50
189.2524335
51
227.5915299
0
ARC
8
DEFAULT_255_1_388
10
5.8532226
20
5.0737735
40
0.5630282
50
180.2665782
51
190.1525221
0
ARC
8
DEFAULT_255_1_388
10
5.8781954
20
5.0734254
40
0.4163296
50
179.566507
51
191.9954402
0
ARC
8
DEFAULT_255_1_388
10
5.7400643
20
5.0426151
40
0.274815
50
191.6974619
51
215.1403758
0
ARC
8
DEFAULT_255_1_388
10
5.7133035
20
5.0266689
40
0.2437647
50
215.6958251
51
224.8509274
0
ARC
8
DEFAULT_255_1_388
10
5.7195512
20
5.0356016
40
0.2545012
50
225.2846515
51
255.0110023
0
ARC
8
DEFAULT_255_1_388
10
5.7559958
20
5.1609017
40
0.384974
50
254.5945979
51
267.9129427
0
ARC
8
DEFAULT_255_1_388
10
5.7643651
20
5.2826444
40
0.506956
50
267.4687563
51
270.0233681
0
ARC
8
DEFAULT_255_1_388
10
5.7677646
20
5.2166288
40
0.440952
50
269.5851384
51
281.1845308
0
ARC
8
DEFAULT_255_1_388
10
5.7991251
20
5.0644469
40
0.2855802
50
280.9345159
51
300.9740496
0
ARC
8
DEFAULT_255_1_388
10
5.823043
20
5.0204128
40
0.2355257
50
301.4982546
51
315.1468616
0
ARC
8
DEFAULT_255_1_388
10
5.8067927
20
5.0337488
40
0.2564594
50
315.5952932
51
345.6679188
0
ARC
8
DEFAULT_255_1_388
10
5.6808484
20
5.0688235
40
0.3871766
50
345.2525685
51
358.6303941
0
ARC
8
DEFAULT_255_1_388
10
5.5664874
20
5.0755695
40
0.5016822
50
358.1723541
51
0.0116795
0
LINE
8
DEFAULT_255_1_388
10
6.6283795
20
5.9674898
11
6.9455306
21
5.4633009
0
LINE
8
DEFAULT_255_1_388
10
6.9455306
20
5.4633009
11
7.2608746
21
5.9674898
0
LINE
8
DEFAULT_255_1_388
10
7.2608746
20
5.9674898
11
7.4650802
21
5.9674898
0
LINE
8
DEFAULT_255_1_388
10
7.4650802
20
5.9674898
11
7.0494405
21
5.3151163
0
LINE
8
DEFAULT_255_1_388
10
7.0494405
20
5.3151163
11
7.4750194
21
4.6519
0
LINE
8
DEFAULT_255_1_388
10
7.4750194
20
4.6519
11
7.2690067
21
4.6519
0
LINE
8
DEFAULT_255_1_388
10
7.2690067
20
4.6519
11
6.9455306
21
5.1651246
0
LINE
8
DEFAULT_255_1_388
10
6.9455306
20
5.1651246
11
6.6202474
21
4.6519
0
LINE
8
DEFAULT_255_1_388
10
6.6202474
20
4.6519
11
6.4151383
21
4.6519
0
LINE
8
DEFAULT_255_1_388
10
6.4151383
20
4.6519
11
6.8416207
21
5.3151163
0
LINE
8
DEFAULT_255_1_388
10
6.8416207
20
5.3151163
11
6.4250775
21
5.9674898
0
LINE
8
DEFAULT_255_1_388
10
6.4250775
20
5.9674898
11
6.6283795
21
5.9674898
0
LINE
8
DEFAULT_255_1_388
10
8.1825104
20
5.9738148
11
8.1825104
21
4.6519
0
LINE
8
DEFAULT_255_1_388
10
8.1825104
20
4.6519
11
8.0144474
21
4.6519
0
LINE
8
DEFAULT_255_1_388
10
8.0144474
20
4.6519
11
8.0144474
21
5.765995
0
LINE
8
DEFAULT_255_1_388
10
8.0144474
20
5.765995
11
7.6774178
21
5.6422066
0
LINE
8
DEFAULT_255_1_388
10
7.6774178
20
5.6422066
11
7.6774178
21
5.7940055
0
LINE
8
DEFAULT_255_1_388
10
7.6774178
20
5.7940055
11
8.156307
21
5.9738148
0
LINE
8
DEFAULT_255_1_388
10
8.156307
20
5.9738148
11
8.1825104
21
5.9738148
0
LINE
8
DEFAULT_255_1_388
10
4.9766637
20
12.5894
11
4.8510682
21
12.9327545
0
LINE
8
DEFAULT_255_1_388
10
4.8510682
20
12.9327545
11
4.2998939
21
12.9327545
0
LINE
8
DEFAULT_255_1_388
10
4.2998939
20
12.9327545
11
4.1761056
21
12.5894
0
LINE
8
DEFAULT_255_1_388
10
4.1761056
20
12.5894
11
3.9971998
21
12.5894
0
LINE
8
DEFAULT_255_1_388
10
3.9971998
20
12.5894
11
4.4995816
21
13.9049898
0
LINE
8
DEFAULT_255_1_388
10
4.4995816
20
13.9049898
11
4.6513805
21
13.9049898
0
LINE
8
DEFAULT_255_1_388
10
4.6513805
20
13.9049898
11
5.1546659
21
12.5894
0
LINE
8
DEFAULT_255_1_388
10
5.1546659
20
12.5894
11
4.9766637
21
12.5894
0
LINE
8
DEFAULT_255_1_388
10
4.5754811
20
13.6908451
11
4.3523006
21
13.0755177
0
LINE
8
DEFAULT_255_1_388
10
4.3523006
20
13.0755177
11
4.799565
21
13.0755177
0
LINE
8
DEFAULT_255_1_388
10
4.799565
20
13.0755177
11
4.5754811
21
13.6908451
0
LINE
8
DEFAULT_255_1_388
10
6.0681695
20
13.9049898
11
6.2425575
21
13.9049898
0
LINE
8
DEFAULT_255_1_388
10
6.2425575
20
13.9049898
11
6.2425575
21
13.010461
0
LINE
8
DEFAULT_255_1_388
10
5.8106537
20
12.5731358
11
5.7645719
21
12.5713287
0
LINE
8
DEFAULT_255_1_388
10
5.2902005
20
13.0086539
11
5.2902005
21
13.9049898
0
LINE
8
DEFAULT_255_1_388
10
5.2902005
20
13.9049898
11
5.4618778
21
13.9049898
0
LINE
8
DEFAULT_255_1_388
10
5.4618778
20
13.9049898
11
5.4618778
21
13.0140753
0
LINE
8
DEFAULT_255_1_388
10
6.0681695
20
13.0131717
11
6.0681695
21
13.9049898
0
ARC
8
DEFAULT_255_1_388
10
5.7528373
20
13.008227
40
0.4897252
50
343.0897723
51
0.2613727
0
ARC
8
DEFAULT_255_1_388
10
5.8460344
20
12.982227
40
0.3930016
50
315.3344451
51
342.7642569
0
ARC
8
DEFAULT_255_1_388
10
5.820884
20
13.0083085
40
0.4292244
50
284.6605441
51
315.2183439
0
ARC
8
DEFAULT_255_1_388
10
5.769662
20
13.1822508
40
0.6104926
50
273.8500371
51
285.1796441
0
ARC
8
DEFAULT_255_1_388
10
5.7597685
20
13.2206762
40
0.6493653
50
257.6315393
51
270.4238259
0
ARC
8
DEFAULT_255_1_388
10
5.7119768
20
13.0157915
40
0.4390079
50
230.6086859
51
257.9965362
0
ARC
8
DEFAULT_255_1_388
10
5.6973826
20
12.9928643
40
0.4120404
50
227.745033
51
230.1538266
0
ARC
8
DEFAULT_255_1_388
10
5.6820355
20
12.9744253
40
0.3880742
50
189.2524335
51
227.5915299
0
ARC
8
DEFAULT_255_1_388
10
5.8532226
20
13.0112735
40
0.5630282
50
180.2665782
51
190.1525221
0
ARC
8
DEFAULT_255_1_388
10
5.8781954
20
13.0109254
40
0.4163296
50
179.566507
51
191.9954402
0
ARC
8
DEFAULT_255_1_388
10
5.7400643
20
12.9801151
40
0.274815
50
191.6974619
51
215.1403758
0
ARC
8
DEFAULT_255_1_388
10
5.7133035
20
12.9641689
40
0.2437647
50
215.6958251
51
224.8509274
0
ARC
8
DEFAULT_255_1_388
10
5.7195512
20
12.9731016
40
0.2545012
50
225.2846515
51
255.0110023
0
ARC
8
DEFAULT_255_1_388
10
5.7559958
20
13.0984017
40
0.384974
50
254.5945979
51
267.9129427
0
ARC
8
DEFAULT_255_1_388
10
5.7643651
20
13.2201444
40
0.506956
50
267.4687563
51
270.0233681
0
ARC
8
DEFAULT_255_1_388
10
5.7677646
20
13.1541288
40
0.440952
50
269.5851384
51
281.1845308
0
ARC
8
DEFAULT_255_1_388
10
5.7991251
20
13.0019469
40
0.2855802
50
280.9345159
51
300.9740496
0
ARC
8
DEFAULT_255_1_388
10
5.823043
20
12.9579128
40
0.2355257
50
301.4982546
51
315.1468616
0
ARC
8
DEFAULT_255_1_388
10
5.8067927
20
12.9712488
40
0.2564594
50
315.5952932
51
345.6679188
0
ARC
8
DEFAULT_255_1_388
10
5.6808484
20
13.0063235
40
0.3871766
50
345.2525685
51
358.6303941
0
ARC
8
DEFAULT_255_1_388
10
5.5664874
20
13.0130695
40
0.5016822
50
358.1723541
51
0.0116795
0
LINE
8
DEFAULT_255_1_388
10
6.6283795
20
13.9049898
11
6.9455306
21
13.4008009
0
LINE
8
DEFAULT_255_1_388
10
6.9455306
20
13.4008009
11
7.2608746
21
13.9049898
0
LINE
8
DEFAULT_255_1_388
10
7.2608746
20
13.9049898
11
7.4650802
21
13.9049898
0
LINE
8
DEFAULT_255_1_388
10
7.4650802
20
13.9049898
11
7.0494405
21
13.2526163
0
LINE
8
DEFAULT_255_1_388
10
7.0494405
20
13.2526163
11
7.4750194
21
12.5894
0
LINE
8
DEFAULT_255_1_388
10
7.4750194
20
12.5894
11
7.2690067
21
12.5894
0
LINE
8
DEFAULT_255_1_388
10
7.2690067
20
12.5894
11
6.9455306
21
13.1026246
0
LINE
8
DEFAULT_255_1_388
10
6.9455306
20
13.1026246
11
6.6202474
21
12.5894
0
LINE
8
DEFAULT_255_1_388
10
6.6202474
20
12.5894
11
6.4151383
21
12.5894
0
LINE
8
DEFAULT_255_1_388
10
6.4151383
20
12.5894
11
6.8416207
21
13.2526163
0
LINE
8
DEFAULT_255_1_388
10
6.8416207
20
13.2526163
11
6.4250775
21
13.9049898
0
LINE
8
DEFAULT_255_1_388
10
6.4250775
20
13.9049898
11
6.6283795
21
13.9049898
0
LINE
8
DEFAULT_255_1_388
10
8.1825104
20
13.9113148
11
8.1825104
21
12.5894
0
LINE
8
DEFAULT_255_1_388
10
8.1825104
20
12.5894
11
8.0144474
21
12.5894
0
LINE
8
DEFAULT_255_1_388
10
8.0144474
20
12.5894
11
8.0144474
21
13.703495
0
LINE
8
DEFAULT_255_1_388
10
8.0144474
20
13.703495
11
7.6774178
21
13.5797066
0
LINE
8
DEFAULT_255_1_388
10
7.6774178
20
13.5797066
11
7.6774178
21
13.7315055
0
LINE
8
DEFAULT_255_1_388
10
7.6774178
20
13.7315055
11
8.156307
21
13.9113148
0
LINE
8
DEFAULT_255_1_388
10
8.156307
20
13.9113148
11
8.1825104
21
13.9113148
0
LINE
8
DEFAULT_255_1_388
10
4.9766637
20
20.5269
11
4.8510682
21
20.8702545
0
LINE
8
DEFAULT_255_1_388
10
4.8510682
20
20.8702545
11
4.2998939
21
20.8702545
0
LINE
8
DEFAULT_255_1_388
10
4.2998939
20
20.8702545
11
4.1761056
21
20.5269
0
LINE
8
DEFAULT_255_1_388
10
4.1761056
20
20.5269
11
3.9971998
21
20.5269
0
LINE
8
DEFAULT_255_1_388
10
3.9971998
20
20.5269
11
4.4995816
21
21.8424898
0
LINE
8
DEFAULT_255_1_388
10
4.4995816
20
21.8424898
11
4.6513805
21
21.8424898
0
LINE
8
DEFAULT_255_1_388
10
4.6513805
20
21.8424898
11
5.1546659
21
20.5269
0
LINE
8
DEFAULT_255_1_388
10
5.1546659
20
20.5269
11
4.9766637
21
20.5269
0
LINE
8
DEFAULT_255_1_388
10
4.5754811
20
21.6283451
11
4.3523006
21
21.0130177
0
LINE
8
DEFAULT_255_1_388
10
4.3523006
20
21.0130177
11
4.799565
21
21.0130177
0
LINE
8
DEFAULT_255_1_388
10
4.799565
20
21.0130177
11
4.5754811
21
21.6283451
0
LINE
8
DEFAULT_255_1_388
10
6.0681695
20
21.8424898
11
6.2425575
21
21.8424898
0
LINE
8
DEFAULT_255_1_388
10
6.2425575
20
21.8424898
11
6.2425575
21
20.947961
0
LINE
8
DEFAULT_255_1_388
10
5.8106537
20
20.5106358
11
5.7645719
21
20.5088287
0
LINE
8
DEFAULT_255_1_388
10
5.2902005
20
20.9461539
11
5.2902005
21
21.8424898
0
LINE
8
DEFAULT_255_1_388
10
5.2902005
20
21.8424898
11
5.4618778
21
21.8424898
0
LINE
8
DEFAULT_255_1_388
10
5.4618778
20
21.8424898
11
5.4618778
21
20.9515753
0
LINE
8
DEFAULT_255_1_388
10
6.0681695
20
20.9506717
11
6.0681695
21
21.8424898
0
ARC
8
DEFAULT_255_1_388
10
5.7528373
20
20.945727
40
0.4897252
50
343.0897723
51
0.2613727
0
ARC
8
DEFAULT_255_1_388
10
5.8460344
20
20.919727
40
0.3930016
50
315.3344451
51
342.7642569
0
ARC
8
DEFAULT_255_1_388
10
5.820884
20
20.9458085
40
0.4292244
50
284.6605441
51
315.2183439
0
ARC
8
DEFAULT_255_1_388
10
5.769662
20
21.1197508
40
0.6104926
50
273.8500371
51
285.1796441
0
ARC
8
DEFAULT_255_1_388
10
5.7597685
20
21.1581762
40
0.6493653
50
257.6315393
51
270.4238259
0
ARC
8
DEFAULT_255_1_388
10
5.7119768
20
20.9532915
40
0.4390079
50
230.6086859
51
257.9965362
0
ARC
8
DEFAULT_255_1_388
10
5.6973826
20
20.9303643
40
0.4120404
50
227.745033
51
230.1538266
0
ARC
8
DEFAULT_255_1_388
10
5.6820355
20
20.9119253
40
0.3880742
50
189.2524335
51
227.5915299
0
ARC
8
DEFAULT_255_1_388
10
5.8532226
20
20.9487735
40
0.5630282
50
180.2665782
51
190.1525221
0
ARC
8
DEFAULT_255_1_388
10
5.8781954
20
20.9484254
40
0.4163296
50
179.566507
51
191.9954402
0
ARC
8
DEFAULT_255_1_388
10
5.7400643
20
20.9176151
40
0.274815
50
191.6974619
51
215.1403758
0
ARC
8
DEFAULT_255_1_388
10
5.7133035
20
20.9016689
40
0.2437647
50
215.6958251
51
224.8509274
0
ARC
8
DEFAULT_255_1_388
10
5.7195512
20
20.9106016
40
0.2545012
50
225.2846515
51
255.0110023
0
ARC
8
DEFAULT_255_1_388
10
5.7559958
20
21.0359017
40
0.384974
50
254.5945979
51
267.9129427
0
ARC
8
DEFAULT_255_1_388
10
5.7643651
20
21.1576444
40
0.506956
50
267.4687563
51
270.0233681
0
ARC
8
DEFAULT_255_1_388
10
5.7677646
20
21.0916288
40
0.440952
50
269.5851384
51
281.1845308
0
ARC
8
DEFAULT_255_1_388
10
5.7991251
20
20.9394469
40
0.2855802
50
280.9345159
51
300.9740496
0
ARC
8
DEFAULT_255_1_388
10
5.823043
20
20.8954128
40
0.2355257
50
301.4982546
51
315.1468616
0
ARC
8
DEFAULT_255_1_388
10
5.8067927
20
20.9087488
40
0.2564594
50
315.5952932
51
345.6679188
0
ARC
8
DEFAULT_255_1_388
10
5.6808484
20
20.9438235
40
0.3871766
50
345.2525685
51
358.6303941
0
ARC
8
DEFAULT_255_1_388
10
5.5664874
20
20.9505695
40
0.5016822
50
358.1723541
51
0.0116795
0
LINE
8
DEFAULT_255_1_388
10
6.6283795
20
21.8424898
11
6.9455306
21
21.3383009
0
LINE
8
DEFAULT_255_1_388
10
6.9455306
20
21.3383009
11
7.2608746
21
21.8424898
0
LINE
8
DEFAULT_255_1_388
10
7.2608746
20
21.8424898
11
7.4650802
21
21.8424898
0
LINE
8
DEFAULT_255_1_388
10
7.4650802
20
21.8424898
11
7.0494405
21
21.1901163
0
LINE
8
DEFAULT_255_1_388
10
7.0494405
20
21.1901163
11
7.4750194
21
20.5269
0
LINE
8
DEFAULT_255_1_388
10
7.4750194
20
20.5269
11
7.2690067
21
20.5269
0
LINE
8
DEFAULT_255_1_388
10
7.2690067
20
20.5269
11
6.9455306
21
21.0401246
0
LINE
8
DEFAULT_255_1_388
10
6.9455306
20
21.0401246
11
6.6202474
21
20.5269
0
LINE
8
DEFAULT_255_1_388
10
6.6202474
20
20.5269
11
6.4151383
21
20.5269
0
LINE
8
DEFAULT_255_1_388
10
6.4151383
20
20.5269
11
6.8416207
21
21.1901163
0
LINE
8
DEFAULT_255_1_388
10
6.8416207
20
21.1901163
11
6.4250775
21
21.8424898
0
LINE
8
DEFAULT_255_1_388
10
6.4250775
20
21.8424898
11
6.6283795
21
21.8424898
0
LINE
8
DEFAULT_255_1_388
10
8.1825104
20
21.8488148
11
8.1825104
21
20.5269
0
LINE
8
DEFAULT_255_1_388
10
8.1825104
20
20.5269
11
8.0144474
21
20.5269
0
LINE
8
DEFAULT_255_1_388
10
8.0144474
20
20.5269
11
8.0144474
21
21.640995
0
LINE
8
DEFAULT_255_1_388
10
8.0144474
20
21.640995
11
7.6774178
21
21.5172066
0
LINE
8
DEFAULT_255_1_388
10
7.6774178
20
21.5172066
11
7.6774178
21
21.6690055
0
LINE
8
DEFAULT_255_1_388
10
7.6774178
20
21.6690055
11
8.156307
21
21.8488148
0
LINE
8
DEFAULT_255_1_388
10
8.156307
20
21.8488148
11
8.1825104
21
21.8488148
0
LINE
8
DEFAULT_255_1_388
10
4.9766637
20
28.4644
11
4.8510682
21
28.8077545
0
LINE
8
DEFAULT_255_1_388
10
4.8510682
20
28.8077545
11
4.2998939
21
28.8077545
0
LINE
8
DEFAULT_255_1_388
10
4.2998939
20
28.8077545
11
4.1761056
21
28.4644
0
LINE
8
DEFAULT_255_1_388
10
4.1761056
20
28.4644
11
3.9971998
21
28.4644
0
LINE
8
DEFAULT_255_1_388
10
3.9971998
20
28.4644
11
4.4995816
21
29.7799898
0
LINE
8
DEFAULT_255_1_388
10
4.4995816
20
29.7799898
11
4.6513805
21
29.7799898
0
LINE
8
DEFAULT_255_1_388
10
4.6513805
20
29.7799898
11
5.1546659
21
28.4644
0
LINE
8
DEFAULT_255_1_388
10
5.1546659
20
28.4644
11
4.9766637
21
28.4644
0
LINE
8
DEFAULT_255_1_388
10
4.5754811
20
29.5658451
11
4.3523006
21
28.9505177
0
LINE
8
DEFAULT_255_1_388
10
4.3523006
20
28.9505177
11
4.799565
21
28.9505177
0
LINE
8
DEFAULT_255_1_388
10
4.799565
20
28.9505177
11
4.5754811
21
29.5658451
0
LINE
8
DEFAULT_255_1_388
10
6.0681695
20
29.7799898
11
6.2425575
21
29.7799898
0
LINE
8
DEFAULT_255_1_388
10
6.2425575
20
29.7799898
11
6.2425575
21
28.885461
0
LINE
8
DEFAULT_255_1_388
10
5.8106537
20
28.4481358
11
5.7645719
21
28.4463287
0
LINE
8
DEFAULT_255_1_388
10
5.2902005
20
28.8836539
11
5.2902005
21
29.7799898
0
LINE
8
DEFAULT_255_1_388
10
5.2902005
20
29.7799898
11
5.4618778
21
29.7799898
0
LINE
8
DEFAULT_255_1_388
10
5.4618778
20
29.7799898
11
5.4618778
21
28.8890753
0
LINE
8
DEFAULT_255_1_388
10
6.0681695
20
28.8881717
11
6.0681695
21
29.7799898
0
ARC
8
DEFAULT_255_1_388
10
5.7528373
20
28.883227
40
0.4897252
50
343.0897723
51
0.2613727
0
ARC
8
DEFAULT_255_1_388
10
5.8460344
20
28.857227
40
0.3930016
50
315.3344451
51
342.7642569
0
ARC
8
DEFAULT_255_1_388
10
5.820884
20
28.8833085
40
0.4292244
50
284.6605441
51
315.2183439
0
ARC
8
DEFAULT_255_1_388
10
5.769662
20
29.0572508
40
0.6104926
50
273.8500371
51
285.1796441
0
ARC
8
DEFAULT_255_1_388
10
5.7597685
20
29.0956762
40
0.6493653
50
257.6315393
51
270.4238259
0
ARC
8
DEFAULT_255_1_388
10
5.7119768
20
28.8907915
40
0.4390079
50
230.6086859
51
257.9965362
0
ARC
8
DEFAULT_255_1_388
10
5.6973826
20
28.8678643
40
0.4120404
50
227.745033
51
230.1538266
0
ARC
8
DEFAULT_255_1_388
10
5.6820355
20
28.8494253
40
0.3880742
50
189.2524335
51
227.5915299
0
ARC
8
DEFAULT_255_1_388
10
5.8532226
20
28.8862735
40
0.5630282
50
180.2665782
51
190.1525221
0
ARC
8
DEFAULT_255_1_388
10
5.8781954
20
28.8859254
40
0.4163296
50
179.566507
51
191.9954402
0
ARC
8
DEFAULT_255_1_388
10
5.7400643
20
28.8551151
40
0.274815
50
191.6974619
51
215.1403758
0
ARC
8
DEFAULT_255_1_388
10
5.7133035
20
28.8391689
40
0.2437647
50
215.6958251
51
224.8509274
0
ARC
8
DEFAULT_255_1_388
10
5.7195512
20
28.8481016
40
0.2545012
50
225.2846515
51
255.0110023
0
ARC
8
DEFAULT_255_1_388
10
5.7559958
20
28.9734017
40
0.384974
50
254.5945979
51
267.9129427
0
ARC
8
DEFAULT_255_1_388
10
5.7643651
20
29.0951444
40
0.506956
50
267.4687563
51
270.0233681
0
ARC
8
DEFAULT_255_1_388
10
5.7677646
20
29.0291288
40
0.440952
50
269.5851384
51
281.1845308
0
ARC
8
DEFAULT_255_1_388
10
5.7991251
20
28.8769469
40
0.2855802
50
280.9345159
51
300.9740496
0
ARC
8
DEFAULT_255_1_388
10
5.823043
20
28.8329128
40
0.2355257
50
301.4982546
51
315.1468616
0
ARC
8
DEFAULT_255_1_388
10
5.8067927
20
28.8462488
40
0.2564594
50
315.5952932
51
345.6679188
0
ARC
8
DEFAULT_255_1_388
10
5.6808484
20
28.8813235
40
0.3871766
50
345.2525685
51
358.6303941
0
ARC
8
DEFAULT_255_1_388
10
5.5664874
20
28.8880695
40
0.5016822
50
358.1723541
51
0.0116795
0
LINE
8
DEFAULT_255_1_388
10
6.6283795
20
29.7799898
11
6.9455306
21
29.2758009
0
LINE
8
DEFAULT_255_1_388
10
6.9455306
20
29.2758009
11
7.2608746
21
29.7799898
0
LINE
8
DEFAULT_255_1_388
10
7.2608746
20
29.7799898
11
7.4650802
21
29.7799898
0
LINE
8
DEFAULT_255_1_388
10
7.4650802
20
29.7799898
11
7.0494405
21
29.1276163
0
LINE
8
DEFAULT_255_1_388
10
7.0494405
20
29.1276163
11
7.4750194
21
28.4644
0
LINE
8
DEFAULT_255_1_388
10
7.4750194
20
28.4644
11
7.2690067
21
28.4644
0
LINE
8
DEFAULT_255_1_388
10
7.2690067
20
28.4644
11
6.9455306
21
28.9776246
0
LINE
8
DEFAULT_255_1_388
10
6.9455306
20
28.9776246
11
6.6202474
21
28.4644
0
LINE
8
DEFAULT_255_1_388
10
6.6202474
20
28.4644
11
6.4151383
21
28.4644
0
LINE
8
DEFAULT_255_1_388
10
6.4151383
20
28.4644
11
6.8416207
21
29.1276163
0
LINE
8
DEFAULT_255_1_388
10
6.8416207
20
29.1276163
11
6.4250775
21
29.7799898
0
LINE
8
DEFAULT_255_1_388
10
6.4250775
20
29.7799898
11
6.6283795
21
29.7799898
0
LINE
8
DEFAULT_255_1_388
10
8.1825104
20
29.7863148
11
8.1825104
21
28.4644
0
LINE
8
DEFAULT_255_1_388
10
8.1825104
20
28.4644
11
8.0144474
21
28.4644
0
LINE
8
DEFAULT_255_1_388
10
8.0144474
20
28.4644
11
8.0144474
21
29.578495
0
LINE
8
DEFAULT_255_1_388
10
8.0144474
20
29.578495
11
7.6774178
21
29.4547066
0
LINE
8
DEFAULT_255_1_388
10
7.6774178
20
29.4547066
11
7.6774178
21
29.6065055
0
LINE
8
DEFAULT_255_1_388
10
7.6774178
20
29.6065055
11
8.156307
21
29.7863148
0
LINE
8
DEFAULT_255_1_388
10
8.156307
20
29.7863148
11
8.1825104
21
29.7863148
0
LINE
8
DEFAULT_255_1_388
10
4.1680903
20
37.7174898
11
4.1680903
21
36.5437596
0
LINE
8
DEFAULT_255_1_388
10
4.1680903
20
36.5437596
11
4.7915498
21
36.5437596
0
LINE
8
DEFAULT_255_1_388
10
4.7915498
20
36.5437596
11
4.7915498
21
36.4019
0
LINE
8
DEFAULT_255_1_388
10
4.7915498
20
36.4019
11
3.9937024
21
36.4019
0
LINE
8
DEFAULT_255_1_388
10
3.9937024
20
36.4019
11
3.9937024
21
37.7174898
0
LINE
8
DEFAULT_255_1_388
10
3.9937024
20
37.7174898
11
4.1680903
21
37.7174898
0
LINE
8
DEFAULT_255_1_388
10
5.4421162
20
37.4915987
11
5.4421162
21
37.1075838
0
LINE
8
DEFAULT_255_1_388
10
5.4421162
20
37.1075838
11
5.8089634
21
37.1075838
0
LINE
8
DEFAULT_255_1_388
10
5.8089634
20
37.1075838
11
5.8089634
21
36.9494601
0
LINE
8
DEFAULT_255_1_388
10
5.8089634
20
36.9494601
11
5.4421162
21
36.9494601
0
LINE
8
DEFAULT_255_1_388
10
5.4421162
20
36.9494601
11
5.4421162
21
36.5338204
0
LINE
8
DEFAULT_255_1_388
10
5.4421162
20
36.5338204
11
5.2740532
21
36.5338204
0
LINE
8
DEFAULT_255_1_388
10
5.2740532
20
36.5338204
11
5.2740532
21
36.9494601
0
LINE
8
DEFAULT_255_1_388
10
5.2740532
20
36.9494601
11
4.9072061
21
36.9494601
0
LINE
8
DEFAULT_255_1_388
10
4.9072061
20
36.9494601
11
4.9072061
21
37.1075838
0
LINE
8
DEFAULT_255_1_388
10
4.9072061
20
37.1075838
11
5.2740532
21
37.1075838
0
LINE
8
DEFAULT_255_1_388
10
5.2740532
20
37.1075838
11
5.2740532
21
37.4915987
0
LINE
8
DEFAULT_255_1_388
10
5.2740532
20
37.4915987
11
5.4421162
21
37.4915987
0
LINE
8
DEFAULT_255_1_388
10
23.0074024
20
45.6549898
11
23.2314864
21
45.6549898
0
LINE
8
DEFAULT_255_1_388
10
23.2314864
20
45.6549898
11
23.6615831
21
44.5815553
0
LINE
8
DEFAULT_255_1_388
10
23.6615831
20
44.5815553
11
24.0916797
21
45.6549898
0
LINE
8
DEFAULT_255_1_388
10
24.0916797
20
45.6549898
11
24.3166673
21
45.6549898
0
LINE
8
DEFAULT_255_1_388
10
24.3166673
20
45.6549898
11
24.3166673
21
44.3394
0
LINE
8
DEFAULT_255_1_388
10
24.3166673
20
44.3394
11
24.1431829
21
44.3394
0
LINE
8
DEFAULT_255_1_388
10
24.1431829
20
44.3394
11
24.1431829
21
44.851721
0
LINE
8
DEFAULT_255_1_388
10
24.1431829
20
44.851721
11
24.1594471
21
45.4047025
0
LINE
8
DEFAULT_255_1_388
10
24.1594471
20
45.4047025
11
23.7275433
21
44.3394
0
LINE
8
DEFAULT_255_1_388
10
23.7275433
20
44.3394
11
23.5947193
21
44.3394
0
LINE
8
DEFAULT_255_1_388
10
23.5947193
20
44.3394
11
23.163719
21
45.4019918
0
LINE
8
DEFAULT_255_1_388
10
23.163719
20
45.4019918
11
23.1808868
21
44.851721
0
LINE
8
DEFAULT_255_1_388
10
23.1808868
20
44.851721
11
23.1808868
21
44.3394
0
LINE
8
DEFAULT_255_1_388
10
23.1808868
20
44.3394
11
23.0074024
21
44.3394
0
LINE
8
DEFAULT_255_1_388
10
23.0074024
20
44.3394
11
23.0074024
21
45.6549898
0
LINE
8
DEFAULT_255_1_388
10
21.4618389
20
20.5269
11
21.0977024
21
20.5269
0
LINE
8
DEFAULT_255_1_388
10
21.0977024
20
20.5269
11
21.0977024
21
21.8424898
0
LINE
8
DEFAULT_255_1_388
10
21.0977024
20
21.8424898
11
21.4690674
21
21.8424898
0
LINE
8
DEFAULT_255_1_388
10
22.0491558
20
21.2289696
11
22.0491558
21
21.1449381
0
LINE
8
DEFAULT_255_1_388
10
21.4735852
20
21.6997267
11
21.2711868
21
21.6997267
0
LINE
8
DEFAULT_255_1_388
10
21.2711868
20
21.6997267
11
21.2711868
21
20.6687596
0
LINE
8
DEFAULT_255_1_388
10
21.2711868
20
20.6687596
11
21.4537068
21
20.6687596
0
LINE
8
DEFAULT_255_1_388
10
21.8774785
20
21.1485523
11
21.8774785
21
21.2253553
0
ARC
8
DEFAULT_255_1_388
10
21.4734469
20
21.1826436
40
0.6598608
50
75.4100343
51
90.3802731
0
ARC
8
DEFAULT_255_1_388
10
21.4992714
20
21.2902691
40
0.5492049
50
60.1455157
51
75.1889627
0
ARC
8
DEFAULT_255_1_388
10
21.5171306
20
21.3213914
40
0.5133226
50
26.525419
51
60.1451222
0
ARC
8
DEFAULT_255_1_388
10
21.3911092
20
21.2545642
40
0.6559324
50
7.4029944
51
26.832209
0
ARC
8
DEFAULT_255_1_388
10
21.2117489
20
21.2266229
40
0.8374103
50
0.1605597
51
7.7176135
0
ARC
8
DEFAULT_255_1_388
10
21.2301889
20
21.1406321
40
0.8189782
50
348.7289744
51
0.30125
0
ARC
8
DEFAULT_255_1_388
10
21.4165353
20
21.1036156
40
0.628991
50
333.0706936
51
348.7181455
0
ARC
8
DEFAULT_255_1_388
10
21.5252981
20
21.0445449
40
0.5052808
50
299.2531435
51
333.4571133
0
ARC
8
DEFAULT_255_1_388
10
21.4847012
20
21.1216629
40
0.5924066
50
278.1072193
51
299.0340218
0
ARC
8
DEFAULT_255_1_388
10
21.4559061
20
21.2912979
40
0.7644209
50
270.4446841
51
278.4508355
0
ARC
8
DEFAULT_255_1_388
10
21.4582545
20
21.18673
40
0.5179903
50
269.4969684
51
284.0204874
0
ARC
8
DEFAULT_255_1_388
10
21.4982263
20
21.0331415
40
0.3592968
50
283.7699076
51
318.1557121
0
ARC
8
DEFAULT_255_1_388
10
21.4602808
20
21.0615399
40
0.4065308
50
318.7417595
51
343.687252
0
ARC
8
DEFAULT_255_1_388
10
21.2573387
20
21.1249275
40
0.6191194
50
343.3324891
51
355.8548594
0
ARC
8
DEFAULT_255_1_388
10
21.0212424
20
21.1473719
40
0.856237
50
355.4988754
51
0.0789913
0
ARC
8
DEFAULT_255_1_388
10
21.1093224
20
21.230108
40
0.7681709
50
359.6455047
51
9.8607559
0
ARC
8
DEFAULT_255_1_388
10
21.3748947
20
21.2780664
40
0.498312
50
9.6573037
51
26.1931522
0
ARC
8
DEFAULT_255_1_388
10
21.4793022
20
21.3265587
40
0.3832303
50
26.5777895
51
40.1533752
0
ARC
8
DEFAULT_255_1_388
10
21.5080687
20
21.349002
40
0.3467742
50
40.3839958
51
80.1430923
0
ARC
8
DEFAULT_255_1_388
10
21.4712942
20
21.1859486
40
0.5137832
50
79.2153636
51
89.7445174
0
LINE
8
DEFAULT_255_1_388
10
23.3231816
20
21.2253553
11
23.3231816
21
21.1422274
0
LINE
8
DEFAULT_255_1_388
10
22.2651077
20
21.1304811
11
22.2651077
21
21.2253553
0
LINE
8
DEFAULT_255_1_388
10
23.1506008
20
21.1295775
11
23.1506008
21
21.2271625
0
LINE
8
DEFAULT_255_1_388
10
22.4376885
20
21.2389088
11
22.4376885
21
21.1422274
0
ARC
8
DEFAULT_255_1_388
10
22.3509555
20
21.1377726
40
0.9722364
50
350.4878118
51
0.2625322
0
ARC
8
DEFAULT_255_1_388
10
22.6089515
20
21.0933994
40
0.7104556
50
336.0277991
51
350.5787241
0
ARC
8
DEFAULT_255_1_388
10
22.7602622
20
21.0250243
40
0.544417
50
319.887443
51
336.1331163
0
ARC
8
DEFAULT_255_1_388
10
22.8280434
20
20.9707733
40
0.4576311
50
302.4806296
51
319.6144102
0
ARC
8
DEFAULT_255_1_388
10
22.8151055
20
20.9957067
40
0.4856183
50
275.8196423
51
302.1885521
0
ARC
8
DEFAULT_255_1_388
10
22.7963916
20
21.1242466
40
0.6154183
50
269.9169897
51
276.339506
0
ARC
8
DEFAULT_255_1_388
10
22.7913517
20
21.047068
40
0.5382553
50
252.5221437
51
270.441579
0
ARC
8
DEFAULT_255_1_388
10
22.7751768
20
20.9864046
40
0.4755426
50
237.5349961
51
252.1858334
0
ARC
8
DEFAULT_255_1_388
10
22.7852144
20
20.999212
40
0.4917393
50
209.0632754
51
237.3492577
0
ARC
8
DEFAULT_255_1_388
10
22.8831469
20
21.0607104
40
0.6072464
50
205.118533
51
209.6465345
0
ARC
8
DEFAULT_255_1_388
10
22.9727472
20
21.0987174
40
0.7045164
50
188.7216633
51
204.8239753
0
ARC
8
DEFAULT_255_1_388
10
23.1974247
20
21.1365387
40
0.9323368
50
180.3722704
51
188.9253909
0
ARC
8
DEFAULT_255_1_388
10
23.1943808
20
21.2298416
40
0.929284
50
169.5253055
51
180.2766048
0
ARC
8
DEFAULT_255_1_388
10
22.9803607
20
21.2692024
40
0.7116745
50
155.8314601
51
169.5088611
0
ARC
8
DEFAULT_255_1_388
10
22.836307
20
21.3360312
40
0.5528904
50
139.6259579
51
156.0379072
0
ARC
8
DEFAULT_255_1_388
10
22.7699604
20
21.3894143
40
0.4677708
50
122.6414784
51
139.3431662
0
ARC
8
DEFAULT_255_1_388
10
22.7812859
20
21.3687787
40
0.4912586
50
93.0224537
51
122.4556091
0
ARC
8
DEFAULT_255_1_388
10
22.793438
20
21.2601776
40
0.6003837
50
89.9756766
51
93.6340839
0
ARC
8
DEFAULT_255_1_388
10
22.7977977
20
21.3050879
40
0.5554884
50
73.7463329
51
90.4234008
0
ARC
8
DEFAULT_255_1_388
10
22.8175451
20
21.3815772
40
0.4765353
50
57.663051
51
73.4516911
0
ARC
8
DEFAULT_255_1_388
10
22.8166488
20
21.3840108
40
0.4749629
50
29.1441355
51
57.4146687
0
ARC
8
DEFAULT_255_1_388
10
22.71143
20
21.3183046
40
0.5988917
50
24.0985653
51
29.732054
0
ARC
8
DEFAULT_255_1_388
10
22.5951931
20
21.2701154
40
0.7246823
50
8.6654943
51
23.8241215
0
ARC
8
DEFAULT_255_1_388
10
22.343835
20
21.2291037
40
0.9793537
50
359.7807044
51
8.8218476
0
ARC
8
DEFAULT_255_1_388
10
22.2148054
20
21.2319731
40
0.9358078
50
359.7054632
51
8.0359751
0
ARC
8
DEFAULT_255_1_388
10
22.5523106
20
21.2811252
40
0.5947474
50
7.8926278
51
20.2962188
0
ARC
8
DEFAULT_255_1_388
10
22.7353956
20
21.3486367
40
0.3996117
50
20.3231056
51
36.4990255
0
ARC
8
DEFAULT_255_1_388
10
22.8125253
20
21.4080399
40
0.3022818
50
36.1436715
51
85.6627846
0
ARC
8
DEFAULT_255_1_388
10
22.7942509
20
21.2910881
40
0.4203853
50
84.3845912
51
90.076054
0
ARC
8
DEFAULT_255_1_388
10
22.7894864
20
21.3653416
40
0.346157
50
89.3037228
51
109.9046209
0
ARC
8
DEFAULT_255_1_388
10
22.7790697
20
21.4083379
40
0.3022217
50
110.8229774
51
143.917961
0
ARC
8
DEFAULT_255_1_388
10
22.8841056
20
21.3281455
40
0.434348
50
143.5289166
51
163.2980252
0
ARC
8
DEFAULT_255_1_388
10
23.0987343
20
21.2606685
40
0.659321
50
163.0418884
51
174.3139873
0
ARC
8
DEFAULT_255_1_388
10
23.3692308
20
21.2294378
40
0.9315905
50
174.050934
51
179.4174954
0
ARC
8
DEFAULT_255_1_388
10
23.3124252
20
21.1375382
40
0.8747493
50
179.6928582
51
188.7908948
0
ARC
8
DEFAULT_255_1_388
10
23.0128052
20
21.0896086
40
0.5713262
50
188.6328449
51
202.5630732
0
ARC
8
DEFAULT_255_1_388
10
22.8716888
20
21.0329142
40
0.4192612
50
202.8078931
51
216.1195888
0
ARC
8
DEFAULT_255_1_388
10
22.7806405
20
20.9596479
40
0.3025752
50
215.0755613
51
264.6379773
0
ARC
8
DEFAULT_255_1_388
10
22.7949243
20
21.0531376
40
0.3970284
50
263.8464302
51
270.0830805
0
ARC
8
DEFAULT_255_1_388
10
22.7995788
20
21.0240808
40
0.3679937
50
269.3649295
51
287.5149684
0
ARC
8
DEFAULT_255_1_388
10
22.8196228
20
20.9512714
40
0.2925408
50
288.0629019
51
323.8115617
0
ARC
8
DEFAULT_255_1_388
10
22.7216205
20
21.0243754
40
0.4148018
50
323.6546541
51
342.6591359
0
ARC
8
DEFAULT_255_1_388
10
22.4930862
20
21.098728
40
0.6551163
50
342.4092446
51
353.6451501
0
ARC
8
DEFAULT_255_1_388
10
22.1745656
20
21.1383565
40
0.9760748
50
353.4027553
51
359.4846611
0
LINE
8
DEFAULT_255_1_388
10
24.0894043
20
21.8488148
11
24.0894043
21
20.5269
0
LINE
8
DEFAULT_255_1_388
10
24.0894043
20
20.5269
11
23.9213413
21
20.5269
0
LINE
8
DEFAULT_255_1_388
10
23.9213413
20
20.5269
11
23.9213413
21
21.640995
0
LINE
8
DEFAULT_255_1_388
10
23.9213413
20
21.640995
11
23.5843118
21
21.5172066
0
LINE
8
DEFAULT_255_1_388
10
23.5843118
20
21.5172066
11
23.5843118
21
21.6690055
0
LINE
8
DEFAULT_255_1_388
10
23.5843118
20
21.6690055
11
24.0632009
21
21.8488148
0
LINE
8
DEFAULT_255_1_388
10
24.0632009
20
21.8488148
11
24.0894043
21
21.8488148
0
LINE
8
DEFAULT_255_1_388
10
21.4540389
20
28.4644
11
21.0899024
21
28.4644
0
LINE
8
DEFAULT_255_1_388
10
21.0899024
20
28.4644
11
21.0899024
21
29.7799898
0
LINE
8
DEFAULT_255_1_388
10
21.0899024
20
29.7799898
11
21.4612674
21
29.7799898
0
LINE
8
DEFAULT_255_1_388
10
22.0413558
20
29.1664696
11
22.0413558
21
29.0824381
0
LINE
8
DEFAULT_255_1_388
10
21.4657852
20
29.6372267
11
21.2633868
21
29.6372267
0
LINE
8
DEFAULT_255_1_388
10
21.2633868
20
29.6372267
11
21.2633868
21
28.6062596
0
LINE
8
DEFAULT_255_1_388
10
21.2633868
20
28.6062596
11
21.4459068
21
28.6062596
0
LINE
8
DEFAULT_255_1_388
10
21.8696785
20
29.0860523
11
21.8696785
21
29.1628553
0
ARC
8
DEFAULT_255_1_388
10
21.4656469
20
29.1201436
40
0.6598608
50
75.4100343
51
90.3802731
0
ARC
8
DEFAULT_255_1_388
10
21.4914714
20
29.2277691
40
0.5492049
50
60.1455157
51
75.1889627
0
ARC
8
DEFAULT_255_1_388
10
21.5093306
20
29.2588914
40
0.5133226
50
26.525419
51
60.1451222
0
ARC
8
DEFAULT_255_1_388
10
21.3833092
20
29.1920642
40
0.6559324
50
7.4029944
51
26.832209
0
ARC
8
DEFAULT_255_1_388
10
21.2039489
20
29.1641229
40
0.8374103
50
0.1605597
51
7.7176135
0
ARC
8
DEFAULT_255_1_388
10
21.2223889
20
29.0781321
40
0.8189782
50
348.7289744
51
0.30125
0
ARC
8
DEFAULT_255_1_388
10
21.4087353
20
29.0411156
40
0.628991
50
333.0706936
51
348.7181455
0
ARC
8
DEFAULT_255_1_388
10
21.5174981
20
28.9820449
40
0.5052808
50
299.2531435
51
333.4571133
0
ARC
8
DEFAULT_255_1_388
10
21.4769012
20
29.0591629
40
0.5924066
50
278.1072193
51
299.0340218
0
ARC
8
DEFAULT_255_1_388
10
21.4481061
20
29.2287979
40
0.7644209
50
270.4446841
51
278.4508355
0
ARC
8
DEFAULT_255_1_388
10
21.4504545
20
29.12423
40
0.5179903
50
269.4969684
51
284.0204874
0
ARC
8
DEFAULT_255_1_388
10
21.4904263
20
28.9706415
40
0.3592968
50
283.7699076
51
318.1557121
0
ARC
8
DEFAULT_255_1_388
10
21.4524808
20
28.9990399
40
0.4065308
50
318.7417595
51
343.687252
0
ARC
8
DEFAULT_255_1_388
10
21.2495387
20
29.0624275
40
0.6191194
50
343.3324891
51
355.8548594
0
ARC
8
DEFAULT_255_1_388
10
21.0134424
20
29.0848719
40
0.856237
50
355.4988754
51
0.0789913
0
ARC
8
DEFAULT_255_1_388
10
21.1015224
20
29.167608
40
0.7681709
50
359.6455047
51
9.8607559
0
ARC
8
DEFAULT_255_1_388
10
21.3670947
20
29.2155664
40
0.498312
50
9.6573037
51
26.1931522
0
ARC
8
DEFAULT_255_1_388
10
21.4715022
20
29.2640587
40
0.3832303
50
26.5777895
51
40.1533752
0
ARC
8
DEFAULT_255_1_388
10
21.5002687
20
29.286502
40
0.3467742
50
40.3839958
51
80.1430923
0
ARC
8
DEFAULT_255_1_388
10
21.4634942
20
29.1234486
40
0.5137832
50
79.2153636
51
89.7445174
0
LINE
8
DEFAULT_255_1_388
10
23.3153816
20
29.1628553
11
23.3153816
21
29.0797274
0
LINE
8
DEFAULT_255_1_388
10
22.2573077
20
29.0679811
11
22.2573077
21
29.1628553
0
LINE
8
DEFAULT_255_1_388
10
23.1428008
20
29.0670775
11
23.1428008
21
29.1646625
0
LINE
8
DEFAULT_255_1_388
10
22.4298885
20
29.1764088
11
22.4298885
21
29.0797274
0
ARC
8
DEFAULT_255_1_388
10
22.3431555
20
29.0752726
40
0.9722364
50
350.4878118
51
0.2625322
0
ARC
8
DEFAULT_255_1_388
10
22.6011515
20
29.0308994
40
0.7104556
50
336.0277991
51
350.5787241
0
ARC
8
DEFAULT_255_1_388
10
22.7524622
20
28.9625243
40
0.544417
50
319.887443
51
336.1331163
0
ARC
8
DEFAULT_255_1_388
10
22.8202434
20
28.9082733
40
0.4576311
50
302.4806296
51
319.6144102
0
ARC
8
DEFAULT_255_1_388
10
22.8073055
20
28.9332067
40
0.4856183
50
275.8196423
51
302.1885521
0
ARC
8
DEFAULT_255_1_388
10
22.7885916
20
29.0617466
40
0.6154183
50
269.9169897
51
276.339506
0
ARC
8
DEFAULT_255_1_388
10
22.7835517
20
28.984568
40
0.5382553
50
252.5221437
51
270.441579
0
ARC
8
DEFAULT_255_1_388
10
22.7673768
20
28.9239046
40
0.4755426
50
237.5349961
51
252.1858334
0
ARC
8
DEFAULT_255_1_388
10
22.7774144
20
28.936712
40
0.4917393
50
209.0632754
51
237.3492577
0
ARC
8
DEFAULT_255_1_388
10
22.8753469
20
28.9982104
40
0.6072464
50
205.118533
51
209.6465345
0
ARC
8
DEFAULT_255_1_388
10
22.9649472
20
29.0362174
40
0.7045164
50
188.7216633
51
204.8239753
0
ARC
8
DEFAULT_255_1_388
10
23.1896247
20
29.0740387
40
0.9323368
50
180.3722704
51
188.9253909
0
ARC
8
DEFAULT_255_1_388
10
23.1865808
20
29.1673416
40
0.929284
50
169.5253055
51
180.2766048
0
ARC
8
DEFAULT_255_1_388
10
22.9725607
20
29.2067024
40
0.7116745
50
155.8314601
51
169.5088611
0
ARC
8
DEFAULT_255_1_388
10
22.828507
20
29.2735312
40
0.5528904
50
139.6259579
51
156.0379072
0
ARC
8
DEFAULT_255_1_388
10
22.7621604
20
29.3269143
40
0.4677708
50
122.6414784
51
139.3431662
0
ARC
8
DEFAULT_255_1_388
10
22.7734859
20
29.3062787
40
0.4912586
50
93.0224537
51
122.4556091
0
ARC
8
DEFAULT_255_1_388
10
22.785638
20
29.1976776
40
0.6003837
50
89.9756766
51
93.6340839
0
ARC
8
DEFAULT_255_1_388
10
22.7899977
20
29.2425879
40
0.5554884
50
73.7463329
51
90.4234008
0
ARC
8
DEFAULT_255_1_388
10
22.8097451
20
29.3190772
40
0.4765353
50
57.663051
51
73.4516911
0
ARC
8
DEFAULT_255_1_388
10
22.8088488
20
29.3215108
40
0.4749629
50
29.1441355
51
57.4146687
0
ARC
8
DEFAULT_255_1_388
10
22.70363
20
29.2558046
40
0.5988917
50
24.0985653
51
29.732054
0
ARC
8
DEFAULT_255_1_388
10
22.5873931
20
29.2076154
40
0.7246823
50
8.6654943
51
23.8241215
0
ARC
8
DEFAULT_255_1_388
10
22.336035
20
29.1666037
40
0.9793537
50
359.7807044
51
8.8218476
0
ARC
8
DEFAULT_255_1_388
10
22.2070054
20
29.1694731
40
0.9358078
50
359.7054632
51
8.0359751
0
ARC
8
DEFAULT_255_1_388
10
22.5445106
20
29.2186252
40
0.5947474
50
7.8926278
51
20.2962188
0
ARC
8
DEFAULT_255_1_388
10
22.7275956
20
29.2861367
40
0.3996117
50
20.3231056
51
36.4990255
0
ARC
8
DEFAULT_255_1_388
10
22.8047253
20
29.3455399
40
0.3022818
50
36.1436715
51
85.6627846
0
ARC
8
DEFAULT_255_1_388
10
22.7864509
20
29.2285881
40
0.4203853
50
84.3845912
51
90.076054
0
ARC
8
DEFAULT_255_1_388
10
22.7816864
20
29.3028416
40
0.346157
50
89.3037228
51
109.9046209
0
ARC
8
DEFAULT_255_1_388
10
22.7712697
20
29.3458379
40
0.3022217
50
110.8229774
51
143.917961
0
ARC
8
DEFAULT_255_1_388
10
22.8763056
20
29.2656455
40
0.434348
50
143.5289166
51
163.2980252
0
ARC
8
DEFAULT_255_1_388
10
23.0909343
20
29.1981685
40
0.659321
50
163.0418884
51
174.3139873
0
ARC
8
DEFAULT_255_1_388
10
23.3614308
20
29.1669378
40
0.9315905
50
174.050934
51
179.4174954
0
ARC
8
DEFAULT_255_1_388
10
23.3046252
20
29.0750382
40
0.8747493
50
179.6928582
51
188.7908948
0
ARC
8
DEFAULT_255_1_388
10
23.0050052
20
29.0271086
40
0.5713262
50
188.6328449
51
202.5630732
0
ARC
8
DEFAULT_255_1_388
10
22.8638888
20
28.9704142
40
0.4192612
50
202.8078931
51
216.1195888
0
ARC
8
DEFAULT_255_1_388
10
22.7728405
20
28.8971479
40
0.3025752
50
215.0755613
51
264.6379773
0
ARC
8
DEFAULT_255_1_388
10
22.7871243
20
28.9906376
40
0.3970284
50
263.8464302
51
270.0830805
0
ARC
8
DEFAULT_255_1_388
10
22.7917788
20
28.9615808
40
0.3679937
50
269.3649295
51
287.5149684
0
ARC
8
DEFAULT_255_1_388
10
22.8118228
20
28.8887714
40
0.2925408
50
288.0629019
51
323.8115617
0
ARC
8
DEFAULT_255_1_388
10
22.7138205
20
28.9618754
40
0.4148018
50
323.6546541
51
342.6591359
0
ARC
8
DEFAULT_255_1_388
10
22.4852862
20
29.036228
40
0.6551163
50
342.4092446
51
353.6451501
0
ARC
8
DEFAULT_255_1_388
10
22.1667656
20
29.0758565
40
0.9760748
50
353.4027553
51
359.4846611
0
LINE
8
DEFAULT_255_1_388
10
24.3571915
20
29.242369
11
24.3571915
21
29.0255135
0
LINE
8
DEFAULT_255_1_388
10
23.5268157
20
29.0029244
11
23.5268157
21
29.2261048
0
LINE
8
DEFAULT_255_1_388
10
24.190032
20
28.9803353
11
24.190032
21
29.2541153
0
LINE
8
DEFAULT_255_1_388
10
23.6939751
20
29.2667652
11
23.6939751
21
28.9993102
0
ARC
8
DEFAULT_255_1_388
10
22.9794249
20
29.0200118
40
1.3777776
50
353.8440855
51
0.2287917
0
ARC
8
DEFAULT_255_1_388
10
23.5013266
20
28.9617414
40
0.852639
50
344.4934746
51
353.9763743
0
ARC
8
DEFAULT_255_1_388
10
23.8380073
20
28.8660191
40
0.5026273
50
329.2803599
51
344.7473406
0
ARC
8
DEFAULT_255_1_388
10
23.9495569
20
28.8048038
40
0.3754848
50
324.9361395
51
328.6153007
0
ARC
8
DEFAULT_255_1_388
10
23.9921219
20
28.7750586
40
0.3235566
50
280.5801797
51
324.9173226
0
ARC
8
DEFAULT_255_1_388
10
23.9469847
20
28.9630236
40
0.5167077
50
269.5979457
51
281.6732777
0
ARC
8
DEFAULT_255_1_388
10
23.9388751
20
28.9495113
40
0.5032026
50
256.6228565
51
270.5105488
0
ARC
8
DEFAULT_255_1_388
10
23.8936494
20
28.7753345
40
0.3233092
50
215.8618351
51
257.2787793
0
ARC
8
DEFAULT_255_1_388
10
24.0085201
20
28.8524106
40
0.4615831
50
197.9695203
51
215.2622745
0
ARC
8
DEFAULT_255_1_388
10
24.2880876
20
28.9467641
40
0.7566307
50
187.8816486
51
198.2346584
0
ARC
8
DEFAULT_255_1_388
10
24.7334114
20
29.0110453
40
1.2065653
50
180.8977266
51
188.0054894
0
ARC
8
DEFAULT_255_1_388
10
25.0384328
20
29.02254
40
1.5117443
50
180.7434591
51
181.152202
0
ARC
8
DEFAULT_255_1_388
10
24.8709324
20
29.2315371
40
1.3441277
50
173.7674302
51
180.2315596
0
ARC
8
DEFAULT_255_1_388
10
24.3627193
20
29.2889779
40
0.8326847
50
164.3058537
51
173.9000553
0
ARC
8
DEFAULT_255_1_388
10
24.0351193
20
29.3833652
40
0.4917711
50
148.7922028
51
164.5682288
0
ARC
8
DEFAULT_255_1_388
10
23.928193
20
29.4430457
40
0.3694204
50
144.5883979
51
148.1161588
0
ARC
8
DEFAULT_255_1_388
10
23.8894676
20
29.4700667
40
0.322202
50
101.6440149
51
144.5142619
0
ARC
8
DEFAULT_255_1_388
10
23.9372868
20
29.2800337
40
0.5180451
50
89.528284
51
102.5820197
0
ARC
8
DEFAULT_255_1_388
10
23.946186
20
29.2756376
40
0.5224441
50
77.0437914
51
90.508231
0
ARC
8
DEFAULT_255_1_388
10
23.9914114
20
29.4604272
40
0.3322297
50
48.2777708
51
77.4996087
0
ARC
8
DEFAULT_255_1_388
10
23.9995854
20
29.4749557
40
0.315966
50
36.3141586
51
47.6307332
0
ARC
8
DEFAULT_255_1_388
10
23.9018576
20
29.4091159
40
0.4337313
50
18.2931065
51
35.6770203
0
ARC
8
DEFAULT_255_1_388
10
23.6157417
20
29.3109107
40
0.7362203
50
8.0246996
51
18.5605636
0
ARC
8
DEFAULT_255_1_388
10
23.1473772
20
29.2417432
40
1.2096583
50
1.127539
51
8.1718423
0
ARC
8
DEFAULT_255_1_388
10
22.7824905
20
29.2274374
40
1.5747719
50
0.5432713
51
1.38669
0
ARC
8
DEFAULT_255_1_388
10
22.9882284
20
29.2581163
40
1.2018103
50
359.8092569
51
4.9408001
0
ARC
8
DEFAULT_255_1_388
10
23.4618865
20
29.30039
40
0.7262727
50
4.8364937
51
12.2906017
0
ARC
8
DEFAULT_255_1_388
10
23.771833
20
29.3694485
40
0.4087324
50
12.0806994
51
23.8171225
0
ARC
8
DEFAULT_255_1_388
10
23.9038726
20
29.4253508
40
0.2653719
50
24.2874621
51
31.3934353
0
ARC
8
DEFAULT_255_1_388
10
23.9629162
20
29.4639822
40
0.1948607
50
30.7407708
51
82.4658033
0
ARC
8
DEFAULT_255_1_388
10
23.9426823
20
29.3646017
40
0.2961198
50
81.1057101
51
90.2187368
0
ARC
8
DEFAULT_255_1_388
10
23.9386635
20
29.3936421
40
0.2670929
50
89.380395
51
105.6763916
0
ARC
8
DEFAULT_255_1_388
10
23.9180357
20
29.468632
40
0.1893189
50
105.7980655
51
149.7387869
0
ARC
8
DEFAULT_255_1_388
10
24.0377497
20
29.3966719
40
0.3289892
50
149.4208441
51
163.628295
0
ARC
8
DEFAULT_255_1_388
10
24.2729727
20
29.3249345
40
0.5749004
50
163.3764549
51
172.141138
0
ARC
8
DEFAULT_255_1_388
10
24.6442448
20
29.2717582
40
0.9499585
50
172.0258462
51
178.0705453
0
ARC
8
DEFAULT_255_1_388
10
24.9864001
20
29.2555682
40
1.2924734
50
177.8639301
51
179.5036263
0
ARC
8
DEFAULT_255_1_388
10
24.8645019
20
28.9952151
40
1.170534
50
179.7995545
51
185.246089
0
ARC
8
DEFAULT_255_1_388
10
24.4096613
20
28.9521404
40
0.7136613
50
185.1411911
51
193.0082205
0
ARC
8
DEFAULT_255_1_388
10
24.1122873
20
28.8818441
40
0.4080987
50
192.7897338
51
205.2507384
0
ARC
8
DEFAULT_255_1_388
10
23.9945083
20
28.8292538
40
0.2791522
50
205.8001921
51
211.2545876
0
ARC
8
DEFAULT_255_1_388
10
23.9356622
20
28.7898132
40
0.2084074
50
210.3789935
51
238.4007996
0
ARC
8
DEFAULT_255_1_388
10
23.9334708
20
28.7950786
40
0.2117943
50
239.6521916
51
265.9793852
0
ARC
8
DEFAULT_255_1_388
10
23.9430557
20
28.8707358
40
0.2879689
50
265.1324455
51
270.0603288
0
ARC
8
DEFAULT_255_1_388
10
23.9462934
20
28.8342418
40
0.2514919
50
269.3314378
51
287.2180039
0
ARC
8
DEFAULT_255_1_388
10
23.9618017
20
28.7776291
40
0.1928357
50
287.7957942
51
329.0808983
0
ARC
8
DEFAULT_255_1_388
10
23.8540774
20
28.8448651
40
0.319808
50
328.6635261
51
343.3325043
0
ARC
8
DEFAULT_255_1_388
10
23.6096232
20
28.9210195
40
0.5758408
50
343.0498092
51
351.9392499
0
ARC
8
DEFAULT_255_1_388
10
23.2195554
20
28.9785205
40
0.9701202
50
351.8071632
51
357.7957897
0
ARC
8
DEFAULT_255_1_388
10
22.8561031
20
28.9973724
40
1.3340376
50
357.5870923
51
359.2682493
0
LINE
8
DEFAULT_255_1_388
10
23.0074024
20
37.7174898
11
23.2314864
21
37.7174898
0
LINE
8
DEFAULT_255_1_388
10
23.2314864
20
37.7174898
11
23.6615831
21
36.6440553
0
LINE
8
DEFAULT_255_1_388
10
23.6615831
20
36.6440553
11
24.0916797
21
37.7174898
0
LINE
8
DEFAULT_255_1_388
10
24.0916797
20
37.7174898
11
24.3166673
21
37.7174898
0
LINE
8
DEFAULT_255_1_388
10
24.3166673
20
37.7174898
11
24.3166673
21
36.4019
0
LINE
8
DEFAULT_255_1_388
10
24.3166673
20
36.4019
11
24.1431829
21
36.4019
0
LINE
8
DEFAULT_255_1_388
10
24.1431829
20
36.4019
11
24.1431829
21
36.914221
0
LINE
8
DEFAULT_255_1_388
10
24.1431829
20
36.914221
11
24.1594471
21
37.4672025
0
LINE
8
DEFAULT_255_1_388
10
24.1594471
20
37.4672025
11
23.7275433
21
36.4019
0
LINE
8
DEFAULT_255_1_388
10
23.7275433
20
36.4019
11
23.5947193
21
36.4019
0
LINE
8
DEFAULT_255_1_388
10
23.5947193
20
36.4019
11
23.163719
21
37.4644918
0
LINE
8
DEFAULT_255_1_388
10
23.163719
20
37.4644918
11
23.1808868
21
36.914221
0
LINE
8
DEFAULT_255_1_388
10
23.1808868
20
36.914221
11
23.1808868
21
36.4019
0
LINE
8
DEFAULT_255_1_388
10
23.1808868
20
36.4019
11
23.0074024
21
36.4019
0
LINE
8
DEFAULT_255_1_388
10
23.0074024
20
36.4019
11
23.0074024
21
37.7174898
0
ENDSEC
0
EOF