0
SECTION
2
HEADER
9
$MEASUREMENT
70
1
0
ENDSEC
0
SECTION
2
TABLES
0
TABLE
2
LTYPE
0
LTYPE
72
65
70
64
2
CONTINUOUS
3
______
73
0
40
0
0
ENDTAB
0
TABLE
2
LAYER
0
LAYER
2
DEFAULT_255_2_778
70
0
62
255
6
CONTINUOUS
0
ENDTAB
0
ENDSEC
0
SECTION
2
ENTITIES
0
LINE
8
DEFAULT_255_2_778
10
6.0998198
20
87.6319406
11
6.1382198
21
87.6436406
0
LINE
8
DEFAULT_255_2_778
10
6.1382198
20
87.6436406
11
6.1728198
21
87.6470406
0
LINE
8
DEFAULT_255_2_778
10
6.1728198
20
87.6470406
11
9.1729198
21
87.6470406
0
LINE
8
DEFAULT_255_2_778
10
9.1729198
20
87.6470406
11
9.2076198
21
87.6436406
0
LINE
8
DEFAULT_255_2_778
10
9.2076198
20
87.6436406
11
9.2460198
21
87.6319406
0
ARC
8
DEFAULT_255_2_778
10
9.1729793
20
87.1472808
40
0.4997474
50
44.9793514
51
90.0112208
0
ARC
8
DEFAULT_255_2_778
10
9.173234
20
87.1470261
40
0.4997474
50
359.9887792
51
45.0206486
0
ARC
8
DEFAULT_255_2_778
10
6.1724328
20
87.1471658
40
0.4996515
50
134.9909954
51
180.0272389
0
ARC
8
DEFAULT_255_2_778
10
6.1728278
20
87.1469326
40
0.5000956
50
90.0053149
51
135.0041129
0
LINE
8
DEFAULT_255_2_778
10
9.6729814
20
87.1469282
11
9.6729814
21
84.3469282
0
LINE
8
DEFAULT_255_2_778
10
5.6727814
20
84.3471282
11
5.6727814
21
87.1469282
0
LINE
8
DEFAULT_255_2_778
10
1.1729814
20
70.4470282
11
14.1729814
21
70.4470282
0
LINE
8
DEFAULT_255_2_778
10
14.1729814
20
70.4470282
11
14.1729814
21
67.4469282
0
LINE
8
DEFAULT_255_2_778
10
14.1729814
20
67.4469282
11
13.4728814
21
67.4469282
0
LINE
8
DEFAULT_255_2_778
10
13.4728814
20
67.4469282
11
13.4728814
21
19.4469282
0
LINE
8
DEFAULT_255_2_778
10
13.4728814
20
19.4469282
11
1.8730814
21
19.4469282
0
LINE
8
DEFAULT_255_2_778
10
1.8730814
20
19.4469282
11
1.8730814
21
67.4469282
0
LINE
8
DEFAULT_255_2_778
10
1.8730814
20
67.4469282
11
1.1729814
21
67.4469282
0
LINE
8
DEFAULT_255_2_778
10
1.1729814
20
67.4469282
11
1.1729814
21
70.4470282
0
ARC
8
DEFAULT_255_2_778
10
1.3945982
20
2.1466513
40
0.1781907
50
359.9696534
51
0.0910427
0
ARC
8
DEFAULT_255_2_778
10
1.1731571
20
2.1464676
40
0.3996318
50
315.0099835
51
0.0128069
0
ARC
8
DEFAULT_255_2_778
10
1.1731452
20
2.1464911
40
0.3996569
50
270.0029649
51
315.008803
0
LINE
8
DEFAULT_255_2_778
10
1.1731659
20
1.7468342
11
1.1727888
21
1.7468344
0
ARC
8
DEFAULT_255_2_778
10
0.6726362
20
83.8471323
40
0.4997474
50
134.9793514
51
180.0112208
0
ARC
8
DEFAULT_255_2_778
10
0.6728909
20
83.847387
40
0.4997474
50
89.9887792
51
135.0206486
0
ARC
8
DEFAULT_255_2_778
10
14.6729106
20
83.8474446
40
0.4996898
50
44.9766189
51
90.0025007
0
ARC
8
DEFAULT_255_2_778
10
14.6731413
20
83.8471323
40
0.4997474
50
359.9887792
51
45.0206486
0
LINE
8
DEFAULT_255_2_778
10
14.1727888
20
1.7471344
11
14.1724112
21
1.7471342
0
ARC
8
DEFAULT_255_2_778
10
14.1723219
20
2.1467661
40
0.3996318
50
225.0099835
51
270.0128069
0
ARC
8
DEFAULT_255_2_778
10
14.1723454
20
2.1467779
40
0.3996569
50
180.0029649
51
225.008803
0
ARC
8
DEFAULT_255_2_778
10
13.9505231
20
2.1468515
40
0.1778345
50
179.9088607
51
180.0303788
0
LINE
8
DEFAULT_255_2_778
10
7.6727888
20
64.4470344
11
7.6727888
21
19.4469344
0
LINE
8
DEFAULT_255_2_778
10
1.5727888
20
3.1470344
11
1.5727888
21
2.1469344
0
LINE
8
DEFAULT_255_2_778
10
1.1727888
20
1.7468344
11
0.1728888
21
1.7468344
0
LINE
8
DEFAULT_255_2_778
10
0.1728888
20
1.7468344
11
0.1728888
21
83.8470344
0
LINE
8
DEFAULT_255_2_778
10
0.6729888
20
84.3471344
11
14.6728888
21
84.3471344
0
LINE
8
DEFAULT_255_2_778
10
15.1728888
20
83.8470344
11
15.1728888
21
1.7471344
0
LINE
8
DEFAULT_255_2_778
10
15.1728888
20
1.7471344
11
14.1727888
21
1.7471344
0
LINE
8
DEFAULT_255_2_778
10
13.7726888
20
2.1471344
11
13.7726888
21
3.1473344
0
ARC
8
DEFAULT_255_2_778
10
0.6729857
20
3.6471282
40
0.5000969
50
179.9996485
51
270.0003515
0
ARC
8
DEFAULT_255_2_778
10
14.6728131
20
3.6471068
40
0.5000756
50
270.0086621
51
0.0028016
0
LINE
8
DEFAULT_255_2_778
10
0.6729888
20
3.1470312
11
14.6728888
21
3.1470312
0
ARC
8
DEFAULT_255_2_778
10
9.1726059
20
0.3470212
40
0.5000756
50
270.0086564
51
0.002804
0
ARC
8
DEFAULT_255_2_778
10
6.1728572
20
0.3470215
40
0.5000758
50
179.9972237
51
269.991324
0
LINE
8
DEFAULT_255_2_778
10
9.6726814
20
3.1471457
11
9.6726814
21
0.3470457
0
LINE
8
DEFAULT_255_2_778
10
9.1726814
20
-0.1530543
11
6.1727814
21
-0.1530543
0
LINE
8
DEFAULT_255_2_778
10
5.6727814
20
0.3470457
11
5.6727814
21
3.1471457
0
LINE
8
DEFAULT_255_2_778
10
14.1729814
20
69.5472457
11
1.1729814
21
69.5472457
0
LINE
8
DEFAULT_255_2_778
10
13.4728814
20
64.4470457
11
1.8727814
21
64.4470457
0
LINE
8
DEFAULT_255_2_778
10
12.0571814
20
83.2012457
11
12.2089814
21
83.1944457
0
LINE
8
DEFAULT_255_2_778
10
12.2089814
20
83.1944457
11
12.3822814
21
83.0793457
0
LINE
8
DEFAULT_255_2_778
10
12.3822814
20
83.0793457
11
12.4172814
21
82.9980457
0
LINE
8
DEFAULT_255_2_778
10
12.4172814
20
82.9980457
11
12.4240814
21
82.9549457
0
LINE
8
DEFAULT_255_2_778
10
12.4240814
20
82.9549457
11
12.4248814
21
82.9425457
0
LINE
8
DEFAULT_255_2_778
10
12.4248814
20
82.9425457
11
12.6280814
21
82.9425457
0
LINE
8
DEFAULT_255_2_778
10
12.6280814
20
82.9425457
11
12.6270814
21
83.0131457
0
LINE
8
DEFAULT_255_2_778
10
12.6270814
20
83.0131457
11
12.6230814
21
83.0409457
0
LINE
8
DEFAULT_255_2_778
10
12.6230814
20
83.0409457
11
12.6132814
21
83.0822457
0
LINE
8
DEFAULT_255_2_778
10
12.6132814
20
83.0822457
11
12.5878814
21
83.1481457
0
LINE
8
DEFAULT_255_2_778
10
12.5878814
20
83.1481457
11
12.5346814
21
83.2327457
0
LINE
8
DEFAULT_255_2_778
10
12.5346814
20
83.2327457
11
12.4402814
21
83.3214457
0
LINE
8
DEFAULT_255_2_778
10
12.4402814
20
83.3214457
11
12.3269814
21
83.3756457
0
LINE
8
DEFAULT_255_2_778
10
12.3269814
20
83.3756457
11
12.0994814
21
83.4010457
0
LINE
8
DEFAULT_255_2_778
10
12.0994814
20
83.4010457
11
11.9036814
21
83.3719457
0
LINE
8
DEFAULT_255_2_778
10
11.9036814
20
83.3719457
11
11.7565814
21
83.3018457
0
LINE
8
DEFAULT_255_2_778
10
11.7565814
20
83.3018457
11
11.6644814
21
83.2155457
0
LINE
8
DEFAULT_255_2_778
10
11.6644814
20
83.2155457
11
11.6242814
21
83.1528457
0
LINE
8
DEFAULT_255_2_778
10
11.6242814
20
83.1528457
11
11.5996814
21
83.0954457
0
LINE
8
DEFAULT_255_2_778
10
11.5996814
20
83.0954457
11
11.5861814
21
83.0488457
0
LINE
8
DEFAULT_255_2_778
10
11.5861814
20
83.0488457
11
11.5792814
21
83.0147457
0
LINE
8
DEFAULT_255_2_778
10
11.5792814
20
83.0147457
11
11.5808814
21
82.8038457
0
LINE
8
DEFAULT_255_2_778
10
11.5808814
20
82.8038457
11
11.5996814
21
82.7361457
0
LINE
8
DEFAULT_255_2_778
10
11.5996814
20
82.7361457
11
11.6488814
21
82.6446457
0
LINE
8
DEFAULT_255_2_778
10
11.6488814
20
82.6446457
11
11.7470814
21
82.5559457
0
LINE
8
DEFAULT_255_2_778
10
11.7470814
20
82.5559457
11
11.9422814
21
82.4734457
0
LINE
8
DEFAULT_255_2_778
10
11.9422814
20
82.4734457
11
12.3444814
21
82.3485457
0
LINE
8
DEFAULT_255_2_778
10
12.3444814
20
82.3485457
11
12.4275814
21
82.2771457
0
LINE
8
DEFAULT_255_2_778
10
12.4275814
20
82.2771457
11
12.4521814
21
82.2305457
0
LINE
8
DEFAULT_255_2_778
10
12.4521814
20
82.2305457
11
12.4616814
21
82.1953457
0
LINE
8
DEFAULT_255_2_778
10
12.4616814
20
82.1953457
11
12.4611814
21
82.0606457
0
LINE
8
DEFAULT_255_2_778
10
12.4611814
20
82.0606457
11
12.4481814
21
82.0135457
0
LINE
8
DEFAULT_255_2_778
10
12.4481814
20
82.0135457
11
12.4116814
21
81.9461457
0
LINE
8
DEFAULT_255_2_778
10
12.4116814
20
81.9461457
11
12.3089814
21
81.8622457
0
LINE
8
DEFAULT_255_2_778
10
12.3089814
20
81.8622457
11
12.0497814
21
81.8291457
0
LINE
8
DEFAULT_255_2_778
10
12.0497814
20
81.8291457
11
11.8454814
21
81.9175457
0
LINE
8
DEFAULT_255_2_778
10
11.8454814
20
81.9175457
11
11.7718814
21
82.0331457
0
LINE
8
DEFAULT_255_2_778
10
11.7718814
20
82.0331457
11
11.7573814
21
82.0895457
0
LINE
8
DEFAULT_255_2_778
10
11.7573814
20
82.0895457
11
11.7560814
21
82.1601457
0
LINE
8
DEFAULT_255_2_778
10
11.7560814
20
82.1601457
11
11.5549814
21
82.1601457
0
LINE
8
DEFAULT_255_2_778
10
11.5549814
20
82.1601457
11
11.5565814
21
82.0963457
0
LINE
8
DEFAULT_255_2_778
10
11.5565814
20
82.0963457
11
11.5604814
21
82.0643457
0
LINE
8
DEFAULT_255_2_778
10
11.5604814
20
82.0643457
11
11.5705814
21
82.0170457
0
LINE
8
DEFAULT_255_2_778
10
11.5705814
20
82.0170457
11
11.5909814
21
81.9551457
0
LINE
8
DEFAULT_255_2_778
10
11.5909814
20
81.9551457
11
11.6266814
21
81.8815457
0
LINE
8
DEFAULT_255_2_778
10
11.6266814
20
81.8815457
11
11.6941814
21
81.7897457
0
LINE
8
DEFAULT_255_2_778
10
11.6941814
20
81.7897457
11
11.7927814
21
81.7077457
0
LINE
8
DEFAULT_255_2_778
10
11.7927814
20
81.7077457
11
11.9354814
21
81.6510457
0
LINE
8
DEFAULT_255_2_778
10
11.9354814
20
81.6510457
11
12.1550814
21
81.6346457
0
LINE
8
DEFAULT_255_2_778
10
12.1550814
20
81.6346457
11
12.3444814
21
81.6690457
0
LINE
8
DEFAULT_255_2_778
10
12.3444814
20
81.6690457
11
12.4746814
21
81.7365457
0
LINE
8
DEFAULT_255_2_778
10
12.4746814
20
81.7365457
11
12.5558814
21
81.8124457
0
LINE
8
DEFAULT_255_2_778
10
12.5558814
20
81.8124457
11
12.6008814
21
81.8783457
0
LINE
8
DEFAULT_255_2_778
10
12.6008814
20
81.8783457
11
12.6286814
21
81.9384457
0
LINE
8
DEFAULT_255_2_778
10
12.6286814
20
81.9384457
11
12.6481814
21
82.0016457
0
LINE
8
DEFAULT_255_2_778
10
12.6481814
20
82.0016457
11
12.6561814
21
82.0381457
0
LINE
8
DEFAULT_255_2_778
10
12.6561814
20
82.0381457
11
12.6616814
21
82.0752457
0
LINE
8
DEFAULT_255_2_778
10
12.6616814
20
82.0752457
11
12.6608814
21
82.2540457
0
LINE
8
DEFAULT_255_2_778
10
12.6608814
20
82.2540457
11
12.6495814
21
82.3096457
0
LINE
8
DEFAULT_255_2_778
10
12.6495814
20
82.3096457
11
12.6209814
21
82.3842457
0
LINE
8
DEFAULT_255_2_778
10
12.6209814
20
82.3842457
11
12.5529814
21
82.4771457
0
LINE
8
DEFAULT_255_2_778
10
12.5529814
20
82.4771457
11
12.3923814
21
82.5776457
0
LINE
8
DEFAULT_255_2_778
10
12.3923814
20
82.5776457
11
11.8869814
21
82.7377457
0
LINE
8
DEFAULT_255_2_778
10
11.8869814
20
82.7377457
11
11.8062814
21
82.8120457
0
LINE
8
DEFAULT_255_2_778
10
11.8062814
20
82.8120457
11
11.7835814
21
82.8634457
0
LINE
8
DEFAULT_255_2_778
10
11.7835814
20
82.8634457
11
11.7771814
21
82.8951457
0
LINE
8
DEFAULT_255_2_778
10
11.7771814
20
82.8951457
11
11.7787814
21
82.9830457
0
LINE
8
DEFAULT_255_2_778
10
11.7787814
20
82.9830457
11
11.7901814
21
83.0269457
0
LINE
8
DEFAULT_255_2_778
10
11.7901814
20
83.0269457
11
11.8258814
21
83.0925457
0
LINE
8
DEFAULT_255_2_778
10
11.8258814
20
83.0925457
11
11.9264814
21
83.1674457
0
LINE
8
DEFAULT_255_2_778
10
11.9264814
20
83.1674457
11
12.0576814
21
83.2004457
0
LINE
8
DEFAULT_255_2_778
10
12.8580814
20
83.3682457
11
14.0380814
21
83.3682457
0
LINE
8
DEFAULT_255_2_778
10
14.0380814
20
83.3682457
11
14.0380814
21
83.1753457
0
LINE
8
DEFAULT_255_2_778
10
14.0380814
20
83.1753457
11
13.5480814
21
83.1753457
0
LINE
8
DEFAULT_255_2_778
10
13.5480814
20
83.1753457
11
13.5480814
21
81.6680457
0
LINE
8
DEFAULT_255_2_778
10
13.5480814
20
81.6680457
11
13.3480814
21
81.6680457
0
LINE
8
DEFAULT_255_2_778
10
13.3480814
20
81.6680457
11
13.3480814
21
83.1753457
0
LINE
8
DEFAULT_255_2_778
10
13.3480814
20
83.1753457
11
12.8580814
21
83.1753457
0
LINE
8
DEFAULT_255_2_778
10
12.8580814
20
83.1753457
11
12.8580814
21
83.3682457
0
LINE
8
DEFAULT_255_2_778
10
1.5276262
20
83.3708218
11
1.3656262
21
83.3420218
0
LINE
8
DEFAULT_255_2_778
10
1.3656262
20
83.3420218
11
1.2482262
21
83.2872218
0
LINE
8
DEFAULT_255_2_778
10
1.2482262
20
83.2872218
11
1.1116262
21
83.1515218
0
LINE
8
DEFAULT_255_2_778
10
1.1116262
20
83.1515218
11
1.0651262
21
83.0480218
0
LINE
8
DEFAULT_255_2_778
10
1.0651262
20
83.0480218
11
1.0503262
21
82.9837218
0
LINE
8
DEFAULT_255_2_778
10
1.0503262
20
82.9837218
11
1.0455262
21
82.9454218
0
LINE
8
DEFAULT_255_2_778
10
1.0455262
20
82.9454218
11
1.0434262
21
82.8879218
0
LINE
8
DEFAULT_255_2_778
10
1.0434262
20
82.8879218
11
1.2638262
21
82.8879218
0
LINE
8
DEFAULT_255_2_778
10
1.2638262
20
82.8879218
11
1.2659262
21
82.9313218
0
LINE
8
DEFAULT_255_2_778
10
1.2659262
20
82.9313218
11
1.2709262
21
82.9639218
0
LINE
8
DEFAULT_255_2_778
10
1.2709262
20
82.9639218
11
1.2868262
21
83.0165218
0
LINE
8
DEFAULT_255_2_778
10
1.2868262
20
83.0165218
11
1.3320262
21
83.0898218
0
LINE
8
DEFAULT_255_2_778
10
1.3320262
20
83.0898218
11
1.4318262
21
83.1618218
0
LINE
8
DEFAULT_255_2_778
10
1.4318262
20
83.1618218
11
1.6263262
21
83.1867218
0
LINE
8
DEFAULT_255_2_778
10
1.6263262
20
83.1867218
11
1.7842262
21
83.1314218
0
LINE
8
DEFAULT_255_2_778
10
1.7842262
20
83.1314218
11
1.8541262
21
83.0573218
0
LINE
8
DEFAULT_255_2_778
10
1.8541262
20
83.0573218
11
1.8803262
21
82.9951218
0
LINE
8
DEFAULT_255_2_778
10
1.8803262
20
82.9951218
11
1.8877262
21
82.9586218
0
LINE
8
DEFAULT_255_2_778
10
1.8877262
20
82.9586218
11
1.8850262
21
82.8636218
0
LINE
8
DEFAULT_255_2_778
10
1.8850262
20
82.8636218
11
1.8776262
21
82.8316218
0
LINE
8
DEFAULT_255_2_778
10
1.8776262
20
82.8316218
11
1.8556262
21
82.7694218
0
LINE
8
DEFAULT_255_2_778
10
1.8556262
20
82.7694218
11
1.8131262
21
82.6858218
0
LINE
8
DEFAULT_255_2_778
10
1.8131262
20
82.6858218
11
1.7252262
21
82.5591218
0
LINE
8
DEFAULT_255_2_778
10
1.7252262
20
82.5591218
11
1.5805262
21
82.3905218
0
LINE
8
DEFAULT_255_2_778
10
1.5805262
20
82.3905218
11
1.3503262
21
82.1638218
0
LINE
8
DEFAULT_255_2_778
10
1.3503262
20
82.1638218
11
1.0717262
21
81.9267218
0
LINE
8
DEFAULT_255_2_778
10
1.0717262
20
81.9267218
11
0.9733262
21
81.8505218
0
LINE
8
DEFAULT_255_2_778
10
0.9733262
20
81.8505218
11
0.9733262
21
81.6468218
0
LINE
8
DEFAULT_255_2_778
10
0.9733262
20
81.6468218
11
2.1456262
21
81.6468218
0
LINE
8
DEFAULT_255_2_778
10
2.1456262
20
81.6468218
11
2.1456262
21
81.8322218
0
LINE
8
DEFAULT_255_2_778
10
2.1456262
20
81.8322218
11
1.2500262
21
81.8322218
0
LINE
8
DEFAULT_255_2_778
10
1.2500262
20
81.8322218
11
1.6569262
21
82.1680218
0
LINE
8
DEFAULT_255_2_778
10
1.6569262
20
82.1680218
11
1.8210262
21
82.3286218
0
LINE
8
DEFAULT_255_2_778
10
1.8210262
20
82.3286218
11
1.9260262
21
82.4564218
0
LINE
8
DEFAULT_255_2_778
10
1.9260262
20
82.4564218
11
1.9985262
21
82.5675218
0
LINE
8
DEFAULT_255_2_778
10
1.9985262
20
82.5675218
11
2.0546262
21
82.6792218
0
LINE
8
DEFAULT_255_2_778
10
2.0546262
20
82.6792218
11
2.0790262
21
82.7435218
0
LINE
8
DEFAULT_255_2_778
10
2.0790262
20
82.7435218
11
2.0917262
21
82.7871218
0
LINE
8
DEFAULT_255_2_778
10
2.0917262
20
82.7871218
11
2.1014262
21
82.8313218
0
LINE
8
DEFAULT_255_2_778
10
2.1014262
20
82.8313218
11
2.1052262
21
82.8535218
0
LINE
8
DEFAULT_255_2_778
10
2.1052262
20
82.8535218
11
2.1052262
21
82.9996218
0
LINE
8
DEFAULT_255_2_778
10
2.1052262
20
82.9996218
11
2.0975262
21
83.0385218
0
LINE
8
DEFAULT_255_2_778
10
2.0975262
20
83.0385218
11
2.0869262
21
83.0750218
0
LINE
8
DEFAULT_255_2_778
10
2.0869262
20
83.0750218
11
2.0660262
21
83.1253218
0
LINE
8
DEFAULT_255_2_778
10
2.0660262
20
83.1253218
11
2.0276262
21
83.1867218
0
LINE
8
DEFAULT_255_2_778
10
2.0276262
20
83.1867218
11
1.9633262
21
83.2520218
0
LINE
8
DEFAULT_255_2_778
10
1.9633262
20
83.2520218
11
1.8623262
21
83.3155218
0
LINE
8
DEFAULT_255_2_778
10
1.8623262
20
83.3155218
11
1.7197262
21
83.3600218
0
LINE
8
DEFAULT_255_2_778
10
1.7197262
20
83.3600218
11
1.5273262
21
83.3705218
0
LINE
8
DEFAULT_255_2_778
10
5.1381262
20
83.3470218
11
5.3706262
21
83.3470218
0
LINE
8
DEFAULT_255_2_778
10
5.3706262
20
83.3470218
11
5.3706262
21
81.6470218
0
LINE
8
DEFAULT_255_2_778
10
5.3706262
20
81.6470218
11
5.1381262
21
81.6470218
0
LINE
8
DEFAULT_255_2_778
10
5.1381262
20
81.6470218
11
5.1381262
21
83.3470218
0
LINE
8
DEFAULT_255_2_778
10
4.1358262
20
81.6589218
11
3.9451262
21
81.6470218
0
LINE
8
DEFAULT_255_2_778
10
3.9451262
20
81.6470218
11
3.3606262
21
81.6470218
0
LINE
8
DEFAULT_255_2_778
10
3.3606262
20
81.6470218
11
3.3606262
21
83.3470218
0
LINE
8
DEFAULT_255_2_778
10
3.3606262
20
83.3470218
11
4.0623262
21
83.3391218
0
LINE
8
DEFAULT_255_2_778
10
4.0623262
20
83.3391218
11
4.2493262
21
83.3017218
0
LINE
8
DEFAULT_255_2_778
10
4.2493262
20
83.3017218
11
4.3943262
21
83.2385218
0
LINE
8
DEFAULT_255_2_778
10
4.3943262
20
83.2385218
11
4.5055262
21
83.1570218
0
LINE
8
DEFAULT_255_2_778
10
4.5055262
20
83.1570218
11
4.5846262
21
83.0731218
0
LINE
8
DEFAULT_255_2_778
10
4.5846262
20
83.0731218
11
4.6372262
21
82.9980218
0
LINE
8
DEFAULT_255_2_778
10
4.6372262
20
82.9980218
11
4.6724262
21
82.9321218
0
LINE
8
DEFAULT_255_2_778
10
4.6724262
20
82.9321218
11
4.6949262
21
82.8784218
0
LINE
8
DEFAULT_255_2_778
10
4.6949262
20
82.8784218
11
4.7131262
21
82.8234218
0
LINE
8
DEFAULT_255_2_778
10
4.7131262
20
82.8234218
11
4.7274262
21
82.7670218
0
LINE
8
DEFAULT_255_2_778
10
4.7274262
20
82.7670218
11
4.7383262
21
82.7093218
0
LINE
8
DEFAULT_255_2_778
10
4.7383262
20
82.7093218
11
4.7425262
21
82.6802218
0
LINE
8
DEFAULT_255_2_778
10
4.7425262
20
82.6802218
11
4.7460262
21
82.6509218
0
LINE
8
DEFAULT_255_2_778
10
4.7460262
20
82.6509218
11
4.7489262
21
82.6215218
0
LINE
8
DEFAULT_255_2_778
10
4.7489262
20
82.6215218
11
4.7489262
21
82.3318218
0
LINE
8
DEFAULT_255_2_778
10
4.7489262
20
82.3318218
11
4.7462262
21
82.3040218
0
LINE
8
DEFAULT_255_2_778
10
4.7462262
20
82.3040218
11
4.7388262
21
82.2487218
0
LINE
8
DEFAULT_255_2_778
10
4.7388262
20
82.2487218
11
4.7285262
21
82.1945218
0
LINE
8
DEFAULT_255_2_778
10
4.7285262
20
82.1945218
11
4.7150262
21
82.1413218
0
LINE
8
DEFAULT_255_2_778
10
4.7150262
20
82.1413218
11
4.6978262
21
82.0892218
0
LINE
8
DEFAULT_255_2_778
10
4.6978262
20
82.0892218
11
4.6766262
21
82.0386218
0
LINE
8
DEFAULT_255_2_778
10
4.6766262
20
82.0386218
11
4.6420262
21
81.9743218
0
LINE
8
DEFAULT_255_2_778
10
4.6420262
20
81.9743218
11
4.5885262
21
81.8995218
0
LINE
8
DEFAULT_255_2_778
10
4.5885262
20
81.8995218
11
4.5078262
21
81.8169218
0
LINE
8
DEFAULT_255_2_778
10
4.5078262
20
81.8169218
11
4.3946262
21
81.7389218
0
LINE
8
DEFAULT_255_2_778
10
4.3946262
20
81.7389218
11
4.2689262
21
81.6875218
0
LINE
8
DEFAULT_255_2_778
10
4.2689262
20
81.6875218
11
4.1358262
21
81.6589218
0
LINE
8
DEFAULT_255_2_778
10
4.0660262
20
81.8471218
11
3.9461262
21
81.8399218
0
LINE
8
DEFAULT_255_2_778
10
3.9461262
20
81.8399218
11
3.5932262
21
81.8399218
0
LINE
8
DEFAULT_255_2_778
10
3.5932262
20
81.8399218
11
3.5932262
21
83.1544218
0
LINE
8
DEFAULT_255_2_778
10
3.5932262
20
83.1544218
11
4.0461262
21
83.1448218
0
LINE
8
DEFAULT_255_2_778
10
4.0461262
20
83.1448218
11
4.1885262
21
83.1086218
0
LINE
8
DEFAULT_255_2_778
10
4.1885262
20
83.1086218
11
4.3152262
21
83.0353218
0
LINE
8
DEFAULT_255_2_778
10
4.3152262
20
83.0353218
11
4.3986262
21
82.9509218
0
LINE
8
DEFAULT_255_2_778
10
4.3986262
20
82.9509218
11
4.4531262
21
82.8657218
0
LINE
8
DEFAULT_255_2_778
10
4.4531262
20
82.8657218
11
4.4787262
21
82.8059218
0
LINE
8
DEFAULT_255_2_778
10
4.4787262
20
82.8059218
11
4.4975262
21
82.7437218
0
LINE
8
DEFAULT_255_2_778
10
4.4975262
20
82.7437218
11
4.5065262
21
82.7011218
0
LINE
8
DEFAULT_255_2_778
10
4.5065262
20
82.7011218
11
4.5131262
21
82.6580218
0
LINE
8
DEFAULT_255_2_778
10
4.5131262
20
82.6580218
11
4.5123262
21
82.3347218
0
LINE
8
DEFAULT_255_2_778
10
4.5123262
20
82.3347218
11
4.5047262
21
82.2831218
0
LINE
8
DEFAULT_255_2_778
10
4.5047262
20
82.2831218
11
4.4951262
21
82.2365218
0
LINE
8
DEFAULT_255_2_778
10
4.4951262
20
82.2365218
11
4.4830262
21
82.1905218
0
LINE
8
DEFAULT_255_2_778
10
4.4830262
20
82.1905218
11
4.4613262
21
82.1288218
0
LINE
8
DEFAULT_255_2_778
10
4.4613262
20
82.1288218
11
4.4298262
21
82.0651218
0
LINE
8
DEFAULT_255_2_778
10
4.4298262
20
82.0651218
11
4.3785262
21
81.9952218
0
LINE
8
DEFAULT_255_2_778
10
4.3785262
20
81.9952218
11
4.2880262
21
81.9206218
0
LINE
8
DEFAULT_255_2_778
10
4.2880262
20
81.9206218
11
4.1366262
21
81.8603218
0
LINE
8
DEFAULT_255_2_778
10
4.1366262
20
81.8603218
11
4.0660262
21
81.8471218
0
LINE
8
DEFAULT_255_2_778
10
4.9923262
20
80.6845218
11
5.2090262
21
80.6628218
0
LINE
8
DEFAULT_255_2_778
10
5.2090262
20
80.6628218
11
5.3159262
21
80.5853218
0
LINE
8
DEFAULT_255_2_778
10
5.3159262
20
80.5853218
11
5.3534262
21
80.5197218
0
LINE
8
DEFAULT_255_2_778
10
5.3534262
20
80.5197218
11
5.3656262
21
80.4773218
0
LINE
8
DEFAULT_255_2_778
10
5.3656262
20
80.4773218
11
5.3698262
21
80.4495218
0
LINE
8
DEFAULT_255_2_778
10
5.3698262
20
80.4495218
11
5.3688262
21
80.3800218
0
LINE
8
DEFAULT_255_2_778
10
5.3688262
20
80.3800218
11
5.3630262
21
80.3479218
0
LINE
8
DEFAULT_255_2_778
10
5.3630262
20
80.3479218
11
5.3489262
21
80.3006218
0
LINE
8
DEFAULT_255_2_778
10
5.3489262
20
80.3006218
11
5.3190262
21
80.2315218
0
LINE
8
DEFAULT_255_2_778
10
5.3190262
20
80.2315218
11
5.2669262
21
80.1429218
0
LINE
8
DEFAULT_255_2_778
10
5.2669262
20
80.1429218
11
5.1788262
21
80.0249218
0
LINE
8
DEFAULT_255_2_778
10
5.1788262
20
80.0249218
11
5.0002262
21
79.8270218
0
LINE
8
DEFAULT_255_2_778
10
5.0002262
20
79.8270218
11
4.7415262
21
79.5838218
0
LINE
8
DEFAULT_255_2_778
10
4.7415262
20
79.5838218
11
4.4544262
21
79.3510218
0
LINE
8
DEFAULT_255_2_778
10
4.4544262
20
79.3510218
11
4.4544262
21
79.1473218
0
LINE
8
DEFAULT_255_2_778
10
4.4544262
20
79.1473218
11
5.6268262
21
79.1473218
0
LINE
8
DEFAULT_255_2_778
10
5.6268262
20
79.1473218
11
5.6268262
21
79.3327218
0
LINE
8
DEFAULT_255_2_778
10
5.6268262
20
79.3327218
11
4.7317262
21
79.3327218
0
LINE
8
DEFAULT_255_2_778
10
4.7317262
20
79.3327218
11
5.1386262
21
79.6685218
0
LINE
8
DEFAULT_255_2_778
10
5.1386262
20
79.6685218
11
5.3026262
21
79.8291218
0
LINE
8
DEFAULT_255_2_778
10
5.3026262
20
79.8291218
11
5.4077262
21
79.9569218
0
LINE
8
DEFAULT_255_2_778
10
5.4077262
20
79.9569218
11
5.4802262
21
80.0680218
0
LINE
8
DEFAULT_255_2_778
10
5.4802262
20
80.0680218
11
5.5363262
21
80.1797218
0
LINE
8
DEFAULT_255_2_778
10
5.5363262
20
80.1797218
11
5.5606262
21
80.2440218
0
LINE
8
DEFAULT_255_2_778
10
5.5606262
20
80.2440218
11
5.5733262
21
80.2876218
0
LINE
8
DEFAULT_255_2_778
10
5.5733262
20
80.2876218
11
5.5831262
21
80.3318218
0
LINE
8
DEFAULT_255_2_778
10
5.5831262
20
80.3318218
11
5.5868262
21
80.3540218
0
LINE
8
DEFAULT_255_2_778
10
5.5868262
20
80.3540218
11
5.5868262
21
80.5001218
0
LINE
8
DEFAULT_255_2_778
10
5.5868262
20
80.5001218
11
5.5791262
21
80.5390218
0
LINE
8
DEFAULT_255_2_778
10
5.5791262
20
80.5390218
11
5.5685262
21
80.5755218
0
LINE
8
DEFAULT_255_2_778
10
5.5685262
20
80.5755218
11
5.5476262
21
80.6257218
0
LINE
8
DEFAULT_255_2_778
10
5.5476262
20
80.6257218
11
5.5093262
21
80.6871218
0
LINE
8
DEFAULT_255_2_778
10
5.5093262
20
80.6871218
11
5.4450262
21
80.7525218
0
LINE
8
DEFAULT_255_2_778
10
5.4450262
20
80.7525218
11
5.3439262
21
80.8160218
0
LINE
8
DEFAULT_255_2_778
10
5.3439262
20
80.8160218
11
5.2013262
21
80.8604218
0
LINE
8
DEFAULT_255_2_778
10
5.2013262
20
80.8604218
11
5.0090262
21
80.8710218
0
LINE
8
DEFAULT_255_2_778
10
5.0090262
20
80.8710218
11
4.8470262
21
80.8422218
0
LINE
8
DEFAULT_255_2_778
10
4.8470262
20
80.8422218
11
4.7296262
21
80.7874218
0
LINE
8
DEFAULT_255_2_778
10
4.7296262
20
80.7874218
11
4.5930262
21
80.6517218
0
LINE
8
DEFAULT_255_2_778
10
4.5930262
20
80.6517218
11
4.5465262
21
80.5482218
0
LINE
8
DEFAULT_255_2_778
10
4.5465262
20
80.5482218
11
4.5316262
21
80.4839218
0
LINE
8
DEFAULT_255_2_778
10
4.5316262
20
80.4839218
11
4.5269262
21
80.4456218
0
LINE
8
DEFAULT_255_2_778
10
4.5269262
20
80.4456218
11
4.5248262
21
80.3882218
0
LINE
8
DEFAULT_255_2_778
10
4.5248262
20
80.3882218
11
4.7452262
21
80.3882218
0
LINE
8
DEFAULT_255_2_778
10
4.7452262
20
80.3882218
11
4.7473262
21
80.4315218
0
LINE
8
DEFAULT_255_2_778
10
4.7473262
20
80.4315218
11
4.7523262
21
80.4641218
0
LINE
8
DEFAULT_255_2_778
10
4.7523262
20
80.4641218
11
4.7682262
21
80.5167218
0
LINE
8
DEFAULT_255_2_778
10
4.7682262
20
80.5167218
11
4.8134262
21
80.5900218
0
LINE
8
DEFAULT_255_2_778
10
4.8134262
20
80.5900218
11
4.9132262
21
80.6620218
0
LINE
8
DEFAULT_255_2_778
10
4.9132262
20
80.6620218
11
4.9923262
21
80.6845218
0
LINE
8
DEFAULT_255_2_778
10
3.3736262
20
80.6768218
11
3.5564262
21
80.6797218
0
LINE
8
DEFAULT_255_2_778
10
3.5564262
20
80.6797218
11
3.7138262
21
80.6332218
0
LINE
8
DEFAULT_255_2_778
10
3.7138262
20
80.6332218
11
3.8009262
21
80.5689218
0
LINE
8
DEFAULT_255_2_778
10
3.8009262
20
80.5689218
11
3.8427262
21
80.5059218
0
LINE
8
DEFAULT_255_2_778
10
3.8427262
20
80.5059218
11
3.8567262
21
80.4665218
0
LINE
8
DEFAULT_255_2_778
10
3.8567262
20
80.4665218
11
3.8628262
21
80.4366218
0
LINE
8
DEFAULT_255_2_778
10
3.8628262
20
80.4366218
11
3.8649262
21
80.3964218
0
LINE
8
DEFAULT_255_2_778
10
3.8649262
20
80.3964218
11
4.1035262
21
80.3964218
0
LINE
8
DEFAULT_255_2_778
10
4.1035262
20
80.3964218
11
4.1020262
21
80.4477218
0
LINE
8
DEFAULT_255_2_778
10
4.1020262
20
80.4477218
11
4.1001262
21
80.4649218
0
LINE
8
DEFAULT_255_2_778
10
4.1001262
20
80.4649218
11
4.0943262
21
80.4987218
0
LINE
8
DEFAULT_255_2_778
10
4.0943262
20
80.4987218
11
4.0803262
21
80.5485218
0
LINE
8
DEFAULT_255_2_778
10
4.0803262
20
80.5485218
11
4.0594262
21
80.5985218
0
LINE
8
DEFAULT_255_2_778
10
4.0594262
20
80.5985218
11
4.0215262
21
80.6599218
0
LINE
8
DEFAULT_255_2_778
10
4.0215262
20
80.6599218
11
3.9564262
21
80.7284218
0
LINE
8
DEFAULT_255_2_778
10
3.9564262
20
80.7284218
11
3.8533262
21
80.7961218
0
LINE
8
DEFAULT_255_2_778
10
3.8533262
20
80.7961218
11
3.6950262
21
80.8541218
0
LINE
8
DEFAULT_255_2_778
10
3.6950262
20
80.8541218
11
3.4820262
21
80.8803218
0
LINE
8
DEFAULT_255_2_778
10
3.4820262
20
80.8803218
11
3.2706262
21
80.8633218
0
LINE
8
DEFAULT_255_2_778
10
3.2706262
20
80.8633218
11
3.0992262
21
80.8065218
0
LINE
8
DEFAULT_255_2_778
10
3.0992262
20
80.8065218
11
2.9910262
21
80.7390218
0
LINE
8
DEFAULT_255_2_778
10
2.9910262
20
80.7390218
11
2.8992262
21
80.6511218
0
LINE
8
DEFAULT_255_2_778
10
2.8992262
20
80.6511218
11
2.8433262
21
80.5773218
0
LINE
8
DEFAULT_255_2_778
10
2.8433262
20
80.5773218
11
2.7939262
21
80.4903218
0
LINE
8
DEFAULT_255_2_778
10
2.7939262
20
80.4903218
11
2.7632262
21
80.4191218
0
LINE
8
DEFAULT_255_2_778
10
2.7632262
20
80.4191218
11
2.7378262
21
80.3413218
0
LINE
8
DEFAULT_255_2_778
10
2.7378262
20
80.3413218
11
2.7245262
21
80.2884218
0
LINE
8
DEFAULT_255_2_778
10
2.7245262
20
80.2884218
11
2.7140262
21
80.2350218
0
LINE
8
DEFAULT_255_2_778
10
2.7140262
20
80.2350218
11
2.7050262
21
80.1741218
0
LINE
8
DEFAULT_255_2_778
10
2.7050262
20
80.1741218
11
2.7015262
21
80.1434218
0
LINE
8
DEFAULT_255_2_778
10
2.7015262
20
80.1434218
11
2.6989262
21
80.1127218
0
LINE
8
DEFAULT_255_2_778
10
2.6989262
20
80.1127218
11
2.6989262
21
79.8672218
0
LINE
8
DEFAULT_255_2_778
10
2.6989262
20
79.8672218
11
2.7015262
21
79.8368218
0
LINE
8
DEFAULT_255_2_778
10
2.7015262
20
79.8368218
11
2.7050262
21
79.8063218
0
LINE
8
DEFAULT_255_2_778
10
2.7050262
20
79.8063218
11
2.7140262
21
79.7457218
0
LINE
8
DEFAULT_255_2_778
10
2.7140262
20
79.7457218
11
2.7248262
21
79.6926218
0
LINE
8
DEFAULT_255_2_778
10
2.7248262
20
79.6926218
11
2.7383262
21
79.6402218
0
LINE
8
DEFAULT_255_2_778
10
2.7383262
20
79.6402218
11
2.7640262
21
79.5632218
0
LINE
8
DEFAULT_255_2_778
10
2.7640262
20
79.5632218
11
2.7947262
21
79.4928218
0
LINE
8
DEFAULT_255_2_778
10
2.7947262
20
79.4928218
11
2.8444262
21
79.4068218
0
LINE
8
DEFAULT_255_2_778
10
2.8444262
20
79.4068218
11
2.9145262
21
79.3192218
0
LINE
8
DEFAULT_255_2_778
10
2.9145262
20
79.3192218
11
3.0087262
21
79.2377218
0
LINE
8
DEFAULT_255_2_778
10
3.0087262
20
79.2377218
11
3.1389262
21
79.1682218
0
LINE
8
DEFAULT_255_2_778
10
3.1389262
20
79.1682218
11
3.2968262
21
79.1256218
0
LINE
8
DEFAULT_255_2_778
10
3.2968262
20
79.1256218
11
3.5088262
21
79.1150218
0
LINE
8
DEFAULT_255_2_778
10
3.5088262
20
79.1150218
11
3.6900262
21
79.1414218
0
LINE
8
DEFAULT_255_2_778
10
3.6900262
20
79.1414218
11
3.8265262
21
79.1912218
0
LINE
8
DEFAULT_255_2_778
10
3.8265262
20
79.1912218
11
3.9506262
21
79.2711218
0
LINE
8
DEFAULT_255_2_778
10
3.9506262
20
79.2711218
11
4.0162262
21
79.3393218
0
LINE
8
DEFAULT_255_2_778
10
4.0162262
20
79.3393218
11
4.0549262
21
79.3999218
0
LINE
8
DEFAULT_255_2_778
10
4.0549262
20
79.3999218
11
4.0768262
21
79.4494218
0
LINE
8
DEFAULT_255_2_778
10
4.0768262
20
79.4494218
11
4.0916262
21
79.4978218
0
LINE
8
DEFAULT_255_2_778
10
4.0916262
20
79.4978218
11
4.0985262
21
79.5309218
0
LINE
8
DEFAULT_255_2_778
10
4.0985262
20
79.5309218
11
4.1009262
21
79.5476218
0
LINE
8
DEFAULT_255_2_778
10
4.1009262
20
79.5476218
11
4.1028262
21
79.5642218
0
LINE
8
DEFAULT_255_2_778
10
4.1028262
20
79.5642218
11
4.1041262
21
79.5978218
0
LINE
8
DEFAULT_255_2_778
10
4.1041262
20
79.5978218
11
3.8654262
21
79.5978218
0
LINE
8
DEFAULT_255_2_778
10
3.8654262
20
79.5978218
11
3.8615262
21
79.5716218
0
LINE
8
DEFAULT_255_2_778
10
3.8615262
20
79.5716218
11
3.8514262
21
79.5328218
0
LINE
8
DEFAULT_255_2_778
10
3.8514262
20
79.5328218
11
3.8252262
21
79.4740218
0
LINE
8
DEFAULT_255_2_778
10
3.8252262
20
79.4740218
11
3.7786262
21
79.4145218
0
LINE
8
DEFAULT_255_2_778
10
3.7786262
20
79.4145218
11
3.6786262
21
79.3478218
0
LINE
8
DEFAULT_255_2_778
10
3.6786262
20
79.3478218
11
3.5463262
21
79.3118218
0
LINE
8
DEFAULT_255_2_778
10
3.5463262
20
79.3118218
11
3.3455262
21
79.3187218
0
LINE
8
DEFAULT_255_2_778
10
3.3455262
20
79.3187218
11
3.2069262
21
79.3706218
0
LINE
8
DEFAULT_255_2_778
10
3.2069262
20
79.3706218
11
3.1172262
21
79.4399218
0
LINE
8
DEFAULT_255_2_778
10
3.1172262
20
79.4399218
11
3.0460262
21
79.5312218
0
LINE
8
DEFAULT_255_2_778
10
3.0460262
20
79.5312218
11
3.0031262
21
79.6142218
0
LINE
8
DEFAULT_255_2_778
10
3.0031262
20
79.6142218
11
2.9759262
21
79.6891218
0
LINE
8
DEFAULT_255_2_778
10
2.9759262
20
79.6891218
11
2.9579262
21
79.7582218
0
LINE
8
DEFAULT_255_2_778
10
2.9579262
20
79.7582218
11
2.9489262
21
79.8050218
0
LINE
8
DEFAULT_255_2_778
10
2.9489262
20
79.8050218
11
2.9418262
21
79.8553218
0
LINE
8
DEFAULT_255_2_778
10
2.9418262
20
79.8553218
11
2.9412262
21
80.1633218
0
LINE
8
DEFAULT_255_2_778
10
2.9412262
20
80.1633218
11
2.9497262
21
80.2193218
0
LINE
8
DEFAULT_255_2_778
10
2.9497262
20
80.2193218
11
2.9627262
21
80.2784218
0
LINE
8
DEFAULT_255_2_778
10
2.9627262
20
80.2784218
11
2.9801262
21
80.3363218
0
LINE
8
DEFAULT_255_2_778
10
2.9801262
20
80.3363218
11
3.0135262
21
80.4146218
0
LINE
8
DEFAULT_255_2_778
10
3.0135262
20
80.4146218
11
3.0725262
21
80.5070218
0
LINE
8
DEFAULT_255_2_778
10
3.0725262
20
80.5070218
11
3.1651262
21
80.5953218
0
LINE
8
DEFAULT_255_2_778
10
3.1651262
20
80.5953218
11
3.3061262
21
80.6620218
0
LINE
8
DEFAULT_255_2_778
10
3.3061262
20
80.6620218
11
3.3741262
21
80.6768218
0
LINE
8
DEFAULT_255_2_778
10
8.7827262
20
80.8469218
11
9.0346262
21
80.8469218
0
LINE
8
DEFAULT_255_2_778
10
9.0346262
20
80.8469218
11
8.3599262
21
79.1470218
0
LINE
8
DEFAULT_255_2_778
10
8.3599262
20
79.1470218
11
8.0996262
21
79.1470218
0
LINE
8
DEFAULT_255_2_778
10
8.0996262
20
79.1470218
11
7.4249262
21
80.8469218
0
LINE
8
DEFAULT_255_2_778
10
7.4249262
20
80.8469218
11
7.6767262
21
80.8469218
0
LINE
8
DEFAULT_255_2_778
10
7.6767262
20
80.8469218
11
8.2334262
21
79.3698218
0
LINE
8
DEFAULT_255_2_778
10
8.2334262
20
79.3698218
11
8.7827262
21
80.8469218
0
LINE
8
DEFAULT_255_2_778
10
1.7752262
20
79.1631218
11
1.5575262
21
79.1470218
0
LINE
8
DEFAULT_255_2_778
10
1.5575262
20
79.1470218
11
0.9730262
21
79.1470218
0
LINE
8
DEFAULT_255_2_778
10
0.9730262
20
79.1470218
11
0.9730262
21
80.8469218
0
LINE
8
DEFAULT_255_2_778
10
0.9730262
20
80.8469218
11
1.6747262
21
80.8390218
0
LINE
8
DEFAULT_255_2_778
10
1.6747262
20
80.8390218
11
1.8617262
21
80.8017218
0
LINE
8
DEFAULT_255_2_778
10
1.8617262
20
80.8017218
11
2.0067262
21
80.7385218
0
LINE
8
DEFAULT_255_2_778
10
2.0067262
20
80.7385218
11
2.1179262
21
80.6570218
0
LINE
8
DEFAULT_255_2_778
10
2.1179262
20
80.6570218
11
2.1970262
21
80.5731218
0
LINE
8
DEFAULT_255_2_778
10
2.1970262
20
80.5731218
11
2.2496262
21
80.4980218
0
LINE
8
DEFAULT_255_2_778
10
2.2496262
20
80.4980218
11
2.2848262
21
80.4321218
0
LINE
8
DEFAULT_255_2_778
10
2.2848262
20
80.4321218
11
2.3073262
21
80.3784218
0
LINE
8
DEFAULT_255_2_778
10
2.3073262
20
80.3784218
11
2.3255262
21
80.3233218
0
LINE
8
DEFAULT_255_2_778
10
2.3255262
20
80.3233218
11
2.3398262
21
80.2670218
0
LINE
8
DEFAULT_255_2_778
10
2.3398262
20
80.2670218
11
2.3507262
21
80.2093218
0
LINE
8
DEFAULT_255_2_778
10
2.3507262
20
80.2093218
11
2.3549262
21
80.1802218
0
LINE
8
DEFAULT_255_2_778
10
2.3549262
20
80.1802218
11
2.3584262
21
80.1508218
0
LINE
8
DEFAULT_255_2_778
10
2.3584262
20
80.1508218
11
2.3613262
21
80.1215218
0
LINE
8
DEFAULT_255_2_778
10
2.3613262
20
80.1215218
11
2.3613262
21
79.8317218
0
LINE
8
DEFAULT_255_2_778
10
2.3613262
20
79.8317218
11
2.3586262
21
79.8040218
0
LINE
8
DEFAULT_255_2_778
10
2.3586262
20
79.8040218
11
2.3512262
21
79.7487218
0
LINE
8
DEFAULT_255_2_778
10
2.3512262
20
79.7487218
11
2.3409262
21
79.6944218
0
LINE
8
DEFAULT_255_2_778
10
2.3409262
20
79.6944218
11
2.3274262
21
79.6412218
0
LINE
8
DEFAULT_255_2_778
10
2.3274262
20
79.6412218
11
2.3102262
21
79.5891218
0
LINE
8
DEFAULT_255_2_778
10
2.3102262
20
79.5891218
11
2.2890262
21
79.5386218
0
LINE
8
DEFAULT_255_2_778
10
2.2890262
20
79.5386218
11
2.2544262
21
79.4743218
0
LINE
8
DEFAULT_255_2_778
10
2.2544262
20
79.4743218
11
2.2009262
21
79.3994218
0
LINE
8
DEFAULT_255_2_778
10
2.2009262
20
79.3994218
11
2.1202262
21
79.3169218
0
LINE
8
DEFAULT_255_2_778
10
2.1202262
20
79.3169218
11
2.0070262
21
79.2388218
0
LINE
8
DEFAULT_255_2_778
10
2.0070262
20
79.2388218
11
1.8813262
21
79.1875218
0
LINE
8
DEFAULT_255_2_778
10
1.8813262
20
79.1875218
11
1.7752262
21
79.1631218
0
LINE
8
DEFAULT_255_2_778
10
1.7022262
20
79.3505218
11
1.5585262
21
79.3396218
0
LINE
8
DEFAULT_255_2_778
10
1.5585262
20
79.3396218
11
1.2056262
21
79.3396218
0
LINE
8
DEFAULT_255_2_778
10
1.2056262
20
79.3396218
11
1.2056262
21
80.6541218
0
LINE
8
DEFAULT_255_2_778
10
1.2056262
20
80.6541218
11
1.6585262
21
80.6445218
0
LINE
8
DEFAULT_255_2_778
10
1.6585262
20
80.6445218
11
1.8009262
21
80.6083218
0
LINE
8
DEFAULT_255_2_778
10
1.8009262
20
80.6083218
11
1.9276262
21
80.5350218
0
LINE
8
DEFAULT_255_2_778
10
1.9276262
20
80.5350218
11
2.0110262
21
80.4506218
0
LINE
8
DEFAULT_255_2_778
10
2.0110262
20
80.4506218
11
2.0655262
21
80.3654218
0
LINE
8
DEFAULT_255_2_778
10
2.0655262
20
80.3654218
11
2.0911262
21
80.3056218
0
LINE
8
DEFAULT_255_2_778
10
2.0911262
20
80.3056218
11
2.1099262
21
80.2434218
0
LINE
8
DEFAULT_255_2_778
10
2.1099262
20
80.2434218
11
2.1189262
21
80.2008218
0
LINE
8
DEFAULT_255_2_778
10
2.1189262
20
80.2008218
11
2.1255262
21
80.1577218
0
LINE
8
DEFAULT_255_2_778
10
2.1255262
20
80.1577218
11
2.1247262
21
79.8344218
0
LINE
8
DEFAULT_255_2_778
10
2.1247262
20
79.8344218
11
2.1171262
21
79.7828218
0
LINE
8
DEFAULT_255_2_778
10
2.1171262
20
79.7828218
11
2.1075262
21
79.7362218
0
LINE
8
DEFAULT_255_2_778
10
2.1075262
20
79.7362218
11
2.0954262
21
79.6902218
0
LINE
8
DEFAULT_255_2_778
10
2.0954262
20
79.6902218
11
2.0737262
21
79.6285218
0
LINE
8
DEFAULT_255_2_778
10
2.0737262
20
79.6285218
11
2.0422262
21
79.5648218
0
LINE
8
DEFAULT_255_2_778
10
2.0422262
20
79.5648218
11
1.9909262
21
79.4949218
0
LINE
8
DEFAULT_255_2_778
10
1.9909262
20
79.4949218
11
1.9004262
21
79.4203218
0
LINE
8
DEFAULT_255_2_778
10
1.9004262
20
79.4203218
11
1.7490262
21
79.3600218
0
LINE
8
DEFAULT_255_2_778
10
1.7490262
20
79.3600218
11
1.7022262
21
79.3505218
0
LINE
8
DEFAULT_255_2_778
10
6.6634262
20
80.8469218
11
6.9319262
21
80.8469218
0
LINE
8
DEFAULT_255_2_778
10
6.9319262
20
80.8469218
11
6.9319262
21
79.7579218
0
LINE
8
DEFAULT_255_2_778
10
6.9319262
20
79.7579218
11
7.2537262
21
79.7579218
0
LINE
8
DEFAULT_255_2_778
10
7.2537262
20
79.7579218
11
7.2537262
21
79.5724218
0
LINE
8
DEFAULT_255_2_778
10
7.2537262
20
79.5724218
11
6.9319262
21
79.5724218
0
LINE
8
DEFAULT_255_2_778
10
6.9319262
20
79.5724218
11
6.9319262
21
79.1473218
0
LINE
8
DEFAULT_255_2_778
10
6.9319262
20
79.1473218
11
6.7041262
21
79.1473218
0
LINE
8
DEFAULT_255_2_778
10
6.7041262
20
79.1473218
11
6.7041262
21
79.5724218
0
LINE
8
DEFAULT_255_2_778
10
6.7041262
20
79.5724218
11
5.9138262
21
79.5724218
0
LINE
8
DEFAULT_255_2_778
10
5.9138262
20
79.5724218
11
5.9138262
21
79.7772218
0
LINE
8
DEFAULT_255_2_778
10
5.9138262
20
79.7772218
11
6.6634262
21
80.8469218
0
LINE
8
DEFAULT_255_2_778
10
6.1128262
20
79.7577218
11
6.7044262
21
79.7577218
0
LINE
8
DEFAULT_255_2_778
10
6.7044262
20
79.7577218
11
6.7044262
21
80.6046218
0
LINE
8
DEFAULT_255_2_778
10
6.7044262
20
80.6046218
11
6.1128262
21
79.7577218
0
LINE
8
DEFAULT_255_2_778
10
4.4801262
20
16.9374218
11
4.6729262
21
16.9374218
0
LINE
8
DEFAULT_255_2_778
10
4.6729262
20
16.9374218
11
4.6729262
21
15.2469218
0
LINE
8
DEFAULT_255_2_778
10
4.6729262
20
15.2469218
11
4.4451262
21
15.2469218
0
LINE
8
DEFAULT_255_2_778
10
4.4451262
20
15.2469218
11
4.4451262
21
16.6746218
0
LINE
8
DEFAULT_255_2_778
10
4.4451262
20
16.6746218
11
4.1774262
21
16.5077218
0
LINE
8
DEFAULT_255_2_778
10
4.1774262
20
16.5077218
11
4.0729262
21
16.4640218
0
LINE
8
DEFAULT_255_2_778
10
4.0729262
20
16.4640218
11
4.0729262
21
16.6760218
0
LINE
8
DEFAULT_255_2_778
10
4.0729262
20
16.6760218
11
4.3816262
21
16.8516218
0
LINE
8
DEFAULT_255_2_778
10
4.3816262
20
16.8516218
11
4.4801262
21
16.9374218
0
LINE
8
DEFAULT_255_2_778
10
11.1513262
20
16.1822218
11
11.0290262
21
16.1201218
0
LINE
8
DEFAULT_255_2_778
10
11.0290262
20
16.1201218
11
10.9719262
21
16.0510218
0
LINE
8
DEFAULT_255_2_778
10
10.9719262
20
16.0510218
11
10.9488262
21
15.9949218
0
LINE
8
DEFAULT_255_2_778
10
10.9488262
20
15.9949218
11
10.9420262
21
15.9640218
0
LINE
8
DEFAULT_255_2_778
10
10.9420262
20
15.9640218
11
10.9393262
21
15.9431218
0
LINE
8
DEFAULT_255_2_778
10
10.9393262
20
15.9431218
11
10.7115262
21
15.9431218
0
LINE
8
DEFAULT_255_2_778
10
10.7115262
20
15.9431218
11
10.7261262
21
16.9371218
0
LINE
8
DEFAULT_255_2_778
10
10.7261262
20
16.9371218
11
11.7103262
21
16.9371218
0
LINE
8
DEFAULT_255_2_778
10
11.7103262
20
16.9371218
11
11.7103262
21
16.7516218
0
LINE
8
DEFAULT_255_2_778
10
11.7103262
20
16.7516218
11
10.9393262
21
16.7516218
0
LINE
8
DEFAULT_255_2_778
10
10.9393262
20
16.7516218
11
10.9261262
21
16.2047218
0
LINE
8
DEFAULT_255_2_778
10
10.9261262
20
16.2047218
11
11.0388262
21
16.3047218
0
LINE
8
DEFAULT_255_2_778
10
11.0388262
20
16.3047218
11
11.1944262
21
16.3651218
0
LINE
8
DEFAULT_255_2_778
10
11.1944262
20
16.3651218
11
11.4095262
21
16.3656218
0
LINE
8
DEFAULT_255_2_778
10
11.4095262
20
16.3656218
11
11.5680262
21
16.3061218
0
LINE
8
DEFAULT_255_2_778
10
11.5680262
20
16.3061218
11
11.6627262
21
16.2251218
0
LINE
8
DEFAULT_255_2_778
10
11.6627262
20
16.2251218
11
11.7209262
21
16.1423218
0
LINE
8
DEFAULT_255_2_778
10
11.7209262
20
16.1423218
11
11.7534262
21
16.0730218
0
LINE
8
DEFAULT_255_2_778
10
11.7534262
20
16.0730218
11
11.7751262
21
16.0058218
0
LINE
8
DEFAULT_255_2_778
10
11.7751262
20
16.0058218
11
11.7865262
21
15.9539218
0
LINE
8
DEFAULT_255_2_778
10
11.7865262
20
15.9539218
11
11.7915262
21
15.9230218
0
LINE
8
DEFAULT_255_2_778
10
11.7915262
20
15.9230218
11
11.7908262
21
15.6724218
0
LINE
8
DEFAULT_255_2_778
10
11.7908262
20
15.6724218
11
11.7833262
21
15.6311218
0
LINE
8
DEFAULT_255_2_778
10
11.7833262
20
15.6311218
11
11.7693262
21
15.5763218
0
LINE
8
DEFAULT_255_2_778
10
11.7693262
20
15.5763218
11
11.7503262
21
15.5232218
0
LINE
8
DEFAULT_255_2_778
10
11.7503262
20
15.5232218
11
11.7175262
21
15.4573218
0
LINE
8
DEFAULT_255_2_778
10
11.7175262
20
15.4573218
11
11.6651262
21
15.3843218
0
LINE
8
DEFAULT_255_2_778
10
11.6651262
20
15.3843218
11
11.5669262
21
15.2975218
0
LINE
8
DEFAULT_255_2_778
10
11.5669262
20
15.2975218
11
11.4365262
21
15.2361218
0
LINE
8
DEFAULT_255_2_778
10
11.4365262
20
15.2361218
11
11.2571262
21
15.2083218
0
LINE
8
DEFAULT_255_2_778
10
11.2571262
20
15.2083218
11
11.0560262
21
15.2305218
0
LINE
8
DEFAULT_255_2_778
10
11.0560262
20
15.2305218
11
10.9176262
21
15.2893218
0
LINE
8
DEFAULT_255_2_778
10
10.9176262
20
15.2893218
11
10.8081262
21
15.3771218
0
LINE
8
DEFAULT_255_2_778
10
10.8081262
20
15.3771218
11
10.7478262
21
15.4560218
0
LINE
8
DEFAULT_255_2_778
10
10.7478262
20
15.4560218
11
10.7107262
21
15.5300218
0
LINE
8
DEFAULT_255_2_778
10
10.7107262
20
15.5300218
11
10.6938262
21
15.5793218
0
LINE
8
DEFAULT_255_2_778
10
10.6938262
20
15.5793218
11
10.6814262
21
15.6311218
0
LINE
8
DEFAULT_255_2_778
10
10.6814262
20
15.6311218
11
10.6758262
21
15.6660218
0
LINE
8
DEFAULT_255_2_778
10
10.6758262
20
15.6660218
11
10.6739262
21
15.6835218
0
LINE
8
DEFAULT_255_2_778
10
10.6739262
20
15.6835218
11
10.9065262
21
15.6835218
0
LINE
8
DEFAULT_255_2_778
10
10.9065262
20
15.6835218
11
10.9113262
21
15.6544218
0
LINE
8
DEFAULT_255_2_778
10
10.9113262
20
15.6544218
11
10.9293262
21
15.5970218
0
LINE
8
DEFAULT_255_2_778
10
10.9293262
20
15.5970218
11
10.9811262
21
15.5107218
0
LINE
8
DEFAULT_255_2_778
10
10.9811262
20
15.5107218
11
11.0790262
21
15.4319218
0
LINE
8
DEFAULT_255_2_778
10
11.0790262
20
15.4319218
11
11.2708262
21
15.4020218
0
LINE
8
DEFAULT_255_2_778
10
11.2708262
20
15.4020218
11
11.4214262
21
15.4546218
0
LINE
8
DEFAULT_255_2_778
10
11.4214262
20
15.4546218
11
11.4949262
21
15.5316218
0
LINE
8
DEFAULT_255_2_778
10
11.4949262
20
15.5316218
11
11.5325262
21
15.6012218
0
LINE
8
DEFAULT_255_2_778
10
11.5325262
20
15.6012218
11
11.5513262
21
15.6584218
0
LINE
8
DEFAULT_255_2_778
10
11.5513262
20
15.6584218
11
11.5614262
21
15.7076218
0
LINE
8
DEFAULT_255_2_778
10
11.5614262
20
15.7076218
11
11.5590262
21
15.9042218
0
LINE
8
DEFAULT_255_2_778
10
11.5590262
20
15.9042218
11
11.5444262
21
15.9618218
0
LINE
8
DEFAULT_255_2_778
10
11.5444262
20
15.9618218
11
11.5119262
21
16.0354218
0
LINE
8
DEFAULT_255_2_778
10
11.5119262
20
16.0354218
11
11.4447262
21
16.1190218
0
LINE
8
DEFAULT_255_2_778
10
11.4447262
20
16.1190218
11
11.3365262
21
16.1777218
0
LINE
8
DEFAULT_255_2_778
10
11.3365262
20
16.1777218
11
11.1740262
21
16.1859218
0
LINE
8
DEFAULT_255_2_778
10
11.1740262
20
16.1859218
11
11.1520262
21
16.1815218
0
LINE
8
DEFAULT_255_2_778
10
8.4229262
20
17.1969218
11
9.7228262
21
17.1969218
0
LINE
8
DEFAULT_255_2_778
10
9.7228262
20
17.1969218
11
9.7228262
21
15.0969218
0
LINE
8
DEFAULT_255_2_778
10
9.7228262
20
15.0969218
11
8.4229262
21
15.0969218
0
LINE
8
DEFAULT_255_2_778
10
8.4229262
20
15.0969218
11
8.4229262
21
17.1969218
0
LINE
8
DEFAULT_255_2_778
10
5.6228262
20
17.1969218
11
6.9227262
21
17.1969218
0
LINE
8
DEFAULT_255_2_778
10
6.9227262
20
17.1969218
11
6.9227262
21
15.0969218
0
LINE
8
DEFAULT_255_2_778
10
6.9227262
20
15.0969218
11
5.6228262
21
15.0969218
0
LINE
8
DEFAULT_255_2_778
10
5.6228262
20
15.0969218
11
5.6228262
21
17.1969218
0
LINE
8
DEFAULT_255_2_778
10
8.7875262
20
8.3683218
11
8.5557262
21
8.2844218
0
LINE
8
DEFAULT_255_2_778
10
8.5557262
20
8.2844218
11
8.4448262
21
8.1664218
0
LINE
8
DEFAULT_255_2_778
10
8.4448262
20
8.1664218
11
8.4036262
21
8.0744218
0
LINE
8
DEFAULT_255_2_778
10
8.4036262
20
8.0744218
11
8.3890262
21
8.0148218
0
LINE
8
DEFAULT_255_2_778
10
8.3890262
20
8.0148218
11
8.3829262
21
7.9706218
0
LINE
8
DEFAULT_255_2_778
10
8.3829262
20
7.9706218
11
8.3805262
21
7.9376218
0
LINE
8
DEFAULT_255_2_778
10
8.3805262
20
7.9376218
11
8.3800262
21
7.9045218
0
LINE
8
DEFAULT_255_2_778
10
8.3800262
20
7.9045218
11
8.5697262
21
7.9045218
0
LINE
8
DEFAULT_255_2_778
10
8.5697262
20
7.9045218
11
8.5713262
21
7.9423218
0
LINE
8
DEFAULT_255_2_778
10
8.5713262
20
7.9423218
11
8.5753262
21
7.9706218
0
LINE
8
DEFAULT_255_2_778
10
8.5753262
20
7.9706218
11
8.5901262
21
8.0222218
0
LINE
8
DEFAULT_255_2_778
10
8.5901262
20
8.0222218
11
8.6345262
21
8.0950218
0
LINE
8
DEFAULT_255_2_778
10
8.6345262
20
8.0950218
11
8.7494262
21
8.1715218
0
LINE
8
DEFAULT_255_2_778
10
8.7494262
20
8.1715218
11
8.9637262
21
8.1744218
0
LINE
8
DEFAULT_255_2_778
10
8.9637262
20
8.1744218
11
9.0867262
21
8.0953218
0
LINE
8
DEFAULT_255_2_778
10
9.0867262
20
8.0953218
11
9.1269262
21
8.0302218
0
LINE
8
DEFAULT_255_2_778
10
9.1269262
20
8.0302218
11
9.1425262
21
7.9794218
0
LINE
8
DEFAULT_255_2_778
10
9.1425262
20
7.9794218
11
9.1399262
21
7.8241218
0
LINE
8
DEFAULT_255_2_778
10
9.1399262
20
7.8241218
11
9.1007262
21
7.7431218
0
LINE
8
DEFAULT_255_2_778
10
9.1007262
20
7.7431218
11
8.9645262
21
7.6389218
0
LINE
8
DEFAULT_255_2_778
10
8.9645262
20
7.6389218
11
8.8184262
21
7.6108218
0
LINE
8
DEFAULT_255_2_778
10
8.8184262
20
7.6108218
11
8.7531262
21
7.6108218
0
LINE
8
DEFAULT_255_2_778
10
8.7531262
20
7.6108218
11
8.7531262
21
7.4206218
0
LINE
8
DEFAULT_255_2_778
10
8.7531262
20
7.4206218
11
8.9962262
21
7.3938218
0
LINE
8
DEFAULT_255_2_778
10
8.9962262
20
7.3938218
11
9.1171262
21
7.3158218
0
LINE
8
DEFAULT_255_2_778
10
9.1171262
20
7.3158218
11
9.1616262
21
7.2444218
0
LINE
8
DEFAULT_255_2_778
10
9.1616262
20
7.2444218
11
9.1724262
21
7.2089218
0
LINE
8
DEFAULT_255_2_778
10
9.1724262
20
7.2089218
11
9.1775262
21
7.1790218
0
LINE
8
DEFAULT_255_2_778
10
9.1775262
20
7.1790218
11
9.1759262
21
7.0716218
0
LINE
8
DEFAULT_255_2_778
10
9.1759262
20
7.0716218
11
9.1674262
21
7.0290218
0
LINE
8
DEFAULT_255_2_778
10
9.1674262
20
7.0290218
11
9.1476262
21
6.9726218
0
LINE
8
DEFAULT_255_2_778
10
9.1476262
20
6.9726218
11
9.0936262
21
6.8935218
0
LINE
8
DEFAULT_255_2_778
10
9.0936262
20
6.8935218
11
8.9859262
21
6.8223218
0
LINE
8
DEFAULT_255_2_778
10
8.9859262
20
6.8223218
11
8.7605262
21
6.8173218
0
LINE
8
DEFAULT_255_2_778
10
8.7605262
20
6.8173218
11
8.6282262
21
6.9136218
0
LINE
8
DEFAULT_255_2_778
10
8.6282262
20
6.9136218
11
8.5650262
21
7.0232218
0
LINE
8
DEFAULT_255_2_778
10
8.5650262
20
7.0232218
11
8.5385262
21
7.1105218
0
LINE
8
DEFAULT_255_2_778
10
8.5385262
20
7.1105218
11
8.3385262
21
7.1105218
0
LINE
8
DEFAULT_255_2_778
10
8.3385262
20
7.1105218
11
8.3451262
21
7.0689218
0
LINE
8
DEFAULT_255_2_778
10
8.3451262
20
7.0689218
11
8.3538262
21
7.0277218
0
LINE
8
DEFAULT_255_2_778
10
8.3538262
20
7.0277218
11
8.3715262
21
6.9668218
0
LINE
8
DEFAULT_255_2_778
10
8.3715262
20
6.9668218
11
8.4044262
21
6.8888218
0
LINE
8
DEFAULT_255_2_778
10
8.4044262
20
6.8888218
11
8.4573262
21
6.8044218
0
LINE
8
DEFAULT_255_2_778
10
8.4573262
20
6.8044218
11
8.5475262
21
6.7123218
0
LINE
8
DEFAULT_255_2_778
10
8.5475262
20
6.7123218
11
8.6692262
21
6.6419218
0
LINE
8
DEFAULT_255_2_778
10
8.6692262
20
6.6419218
11
8.8197262
21
6.6094218
0
LINE
8
DEFAULT_255_2_778
10
8.8197262
20
6.6094218
11
9.0280262
21
6.6292218
0
LINE
8
DEFAULT_255_2_778
10
9.0280262
20
6.6292218
11
9.1716262
21
6.6932218
0
LINE
8
DEFAULT_255_2_778
10
9.1716262
20
6.6932218
11
9.2629262
21
6.7739218
0
LINE
8
DEFAULT_255_2_778
10
9.2629262
20
6.7739218
11
9.3145262
21
6.8488218
0
LINE
8
DEFAULT_255_2_778
10
9.3145262
20
6.8488218
11
9.3455262
21
6.9202218
0
LINE
8
DEFAULT_255_2_778
10
9.3455262
20
6.9202218
11
9.3584262
21
6.9652218
0
LINE
8
DEFAULT_255_2_778
10
9.3584262
20
6.9652218
11
9.3664262
21
7.0036218
0
LINE
8
DEFAULT_255_2_778
10
9.3664262
20
7.0036218
11
9.3717262
21
7.0425218
0
LINE
8
DEFAULT_255_2_778
10
9.3717262
20
7.0425218
11
9.3690262
21
7.2121218
0
LINE
8
DEFAULT_255_2_778
10
9.3690262
20
7.2121218
11
9.3563262
21
7.2700218
0
LINE
8
DEFAULT_255_2_778
10
9.3563262
20
7.2700218
11
9.3119262
21
7.3661218
0
LINE
8
DEFAULT_255_2_778
10
9.3119262
20
7.3661218
11
9.1679262
21
7.4933218
0
LINE
8
DEFAULT_255_2_778
10
9.1679262
20
7.4933218
11
9.1039262
21
7.5161218
0
LINE
8
DEFAULT_255_2_778
10
9.1039262
20
7.5161218
11
9.2105262
21
7.5907218
0
LINE
8
DEFAULT_255_2_778
10
9.2105262
20
7.5907218
11
9.2769262
21
7.6711218
0
LINE
8
DEFAULT_255_2_778
10
9.2769262
20
7.6711218
11
9.3108262
21
7.7378218
0
LINE
8
DEFAULT_255_2_778
10
9.3108262
20
7.7378218
11
9.3291262
21
7.7947218
0
LINE
8
DEFAULT_255_2_778
10
9.3291262
20
7.7947218
11
9.3357262
21
7.8264218
0
LINE
8
DEFAULT_255_2_778
10
9.3357262
20
7.8264218
11
9.3402262
21
7.8585218
0
LINE
8
DEFAULT_255_2_778
10
9.3402262
20
7.8585218
11
9.3389262
21
7.9992218
0
LINE
8
DEFAULT_255_2_778
10
9.3389262
20
7.9992218
11
9.3338262
21
8.0291218
0
LINE
8
DEFAULT_255_2_778
10
9.3338262
20
8.0291218
11
9.3230262
21
8.0720218
0
LINE
8
DEFAULT_255_2_778
10
9.3230262
20
8.0720218
11
9.2971262
21
8.1365218
0
LINE
8
DEFAULT_255_2_778
10
9.2971262
20
8.1365218
11
9.2513262
21
8.2064218
0
LINE
8
DEFAULT_255_2_778
10
9.2513262
20
8.2064218
11
9.1658262
21
8.2844218
0
LINE
8
DEFAULT_255_2_778
10
9.1658262
20
8.2844218
11
9.0343262
21
8.3474218
0
LINE
8
DEFAULT_255_2_778
10
9.0343262
20
8.3474218
11
8.8422262
21
8.3710218
0
LINE
8
DEFAULT_255_2_778
10
8.8422262
20
8.3710218
11
8.7867262
21
8.3672218
0
LINE
8
DEFAULT_255_2_778
10
7.0332313
20
5.8019114
11
7.1991313
21
5.8019114
0
LINE
8
DEFAULT_255_2_778
10
7.1991313
20
5.8019114
11
7.1991313
21
4.1115114
0
LINE
8
DEFAULT_255_2_778
10
7.1991313
20
4.1115114
11
7.0033313
21
4.1115114
0
LINE
8
DEFAULT_255_2_778
10
7.0033313
20
4.1115114
11
7.0033313
21
5.5392114
0
LINE
8
DEFAULT_255_2_778
10
7.0033313
20
5.5392114
11
6.7729313
21
5.3722114
0
LINE
8
DEFAULT_255_2_778
10
6.7729313
20
5.3722114
11
6.6832313
21
5.3286114
0
LINE
8
DEFAULT_255_2_778
10
6.6832313
20
5.3286114
11
6.6832313
21
5.5405114
0
LINE
8
DEFAULT_255_2_778
10
6.6832313
20
5.5405114
11
6.9488313
21
5.7162114
0
LINE
8
DEFAULT_255_2_778
10
6.9488313
20
5.7162114
11
7.0332313
21
5.8019114
0
LINE
8
DEFAULT_255_2_778
10
7.7230064
20
4.8663697
11
8.2266064
21
4.8663697
0
LINE
8
DEFAULT_255_2_778
10
8.2266064
20
4.8663697
11
8.2266064
21
4.7060697
0
LINE
8
DEFAULT_255_2_778
10
8.2266064
20
4.7060697
11
7.7230064
21
4.7060697
0
LINE
8
DEFAULT_255_2_778
10
7.7230064
20
4.7060697
11
7.7230064
21
4.8663697
0
LINE
8
DEFAULT_255_2_778
10
10.9486064
20
7.3663697
11
11.4521064
21
7.3663697
0
LINE
8
DEFAULT_255_2_778
10
11.4521064
20
7.3663697
11
11.4521064
21
7.2060697
0
LINE
8
DEFAULT_255_2_778
10
11.4521064
20
7.2060697
11
10.9486064
21
7.2060697
0
LINE
8
DEFAULT_255_2_778
10
10.9486064
20
7.2060697
11
10.9486064
21
7.3663697
0
LINE
8
DEFAULT_255_2_778
10
4.9957064
20
8.3472697
11
5.9895064
21
8.3472697
0
LINE
8
DEFAULT_255_2_778
10
5.9895064
20
8.3472697
11
5.9895064
21
8.1387697
0
LINE
8
DEFAULT_255_2_778
10
5.9895064
20
8.1387697
11
5.4288064
21
6.6472697
0
LINE
8
DEFAULT_255_2_778
10
5.4288064
20
6.6472697
11
5.1936064
21
6.6472697
0
LINE
8
DEFAULT_255_2_778
10
5.1936064
20
6.6472697
11
5.7831064
21
8.1569697
0
LINE
8
DEFAULT_255_2_778
10
5.7831064
20
8.1569697
11
4.9957064
21
8.1569697
0
LINE
8
DEFAULT_255_2_778
10
4.9957064
20
8.1569697
11
4.9957064
21
8.3472697
0
LINE
8
DEFAULT_255_2_778
10
2.4335064
20
8.3472697
11
3.3246064
21
8.3472697
0
LINE
8
DEFAULT_255_2_778
10
3.3246064
20
8.3472697
11
3.3246064
21
8.1543697
0
LINE
8
DEFAULT_255_2_778
10
3.3246064
20
8.1543697
11
2.6335064
21
8.1543697
0
LINE
8
DEFAULT_255_2_778
10
2.6335064
20
8.1543697
11
2.6335064
21
7.6182697
0
LINE
8
DEFAULT_255_2_778
10
2.6335064
20
7.6182697
11
3.2976064
21
7.6182697
0
LINE
8
DEFAULT_255_2_778
10
3.2976064
20
7.6182697
11
3.2976064
21
7.4253697
0
LINE
8
DEFAULT_255_2_778
10
3.2976064
20
7.4253697
11
2.6335064
21
7.4253697
0
LINE
8
DEFAULT_255_2_778
10
2.6335064
20
7.4253697
11
2.6335064
21
6.8398697
0
LINE
8
DEFAULT_255_2_778
10
2.6335064
20
6.8398697
11
3.3434064
21
6.8398697
0
LINE
8
DEFAULT_255_2_778
10
3.3434064
20
6.8398697
11
3.3434064
21
6.6469697
0
LINE
8
DEFAULT_255_2_778
10
3.3434064
20
6.6469697
11
2.4335064
21
6.6469697
0
LINE
8
DEFAULT_255_2_778
10
2.4335064
20
6.6469697
11
2.4335064
21
8.3469697
0
LINE
8
DEFAULT_255_2_778
10
4.0800064
20
8.3771697
11
3.9107064
21
8.3395697
0
LINE
8
DEFAULT_255_2_778
10
3.9107064
20
8.3395697
11
3.7649064
21
8.2551697
0
LINE
8
DEFAULT_255_2_778
10
3.7649064
20
8.2551697
11
3.6905064
21
8.1728697
0
LINE
8
DEFAULT_255_2_778
10
3.6905064
20
8.1728697
11
3.6535064
21
8.1043697
0
LINE
8
DEFAULT_255_2_778
10
3.6535064
20
8.1043697
11
3.6329064
21
8.0453697
0
LINE
8
DEFAULT_255_2_778
10
3.6329064
20
8.0453697
11
3.6249064
21
8.0114697
0
LINE
8
DEFAULT_255_2_778
10
3.6249064
20
8.0114697
11
3.6191064
21
7.9770697
0
LINE
8
DEFAULT_255_2_778
10
3.6191064
20
7.9770697
11
3.6212064
21
7.7950697
0
LINE
8
DEFAULT_255_2_778
10
3.6212064
20
7.7950697
11
3.6358064
21
7.7339697
0
LINE
8
DEFAULT_255_2_778
10
3.6358064
20
7.7339697
11
3.6755064
21
7.6468697
0
LINE
8
DEFAULT_255_2_778
10
3.6755064
20
7.6468697
11
3.7813064
21
7.5404697
0
LINE
8
DEFAULT_255_2_778
10
3.7813064
20
7.5404697
11
3.9848064
21
7.4526697
0
LINE
8
DEFAULT_255_2_778
10
3.9848064
20
7.4526697
11
4.3869064
21
7.3277697
0
LINE
8
DEFAULT_255_2_778
10
4.3869064
20
7.3277697
11
4.4700064
21
7.2563697
0
LINE
8
DEFAULT_255_2_778
10
4.4700064
20
7.2563697
11
4.4946064
21
7.2097697
0
LINE
8
DEFAULT_255_2_778
10
4.4946064
20
7.2097697
11
4.5041064
21
7.1745697
0
LINE
8
DEFAULT_255_2_778
10
4.5041064
20
7.1745697
11
4.5036064
21
7.0399697
0
LINE
8
DEFAULT_255_2_778
10
4.5036064
20
7.0399697
11
4.4906064
21
6.9928697
0
LINE
8
DEFAULT_255_2_778
10
4.4906064
20
6.9928697
11
4.4541064
21
6.9253697
0
LINE
8
DEFAULT_255_2_778
10
4.4541064
20
6.9253697
11
4.3515064
21
6.8414697
0
LINE
8
DEFAULT_255_2_778
10
4.3515064
20
6.8414697
11
4.0922064
21
6.8083697
0
LINE
8
DEFAULT_255_2_778
10
4.0922064
20
6.8083697
11
3.8879064
21
6.8967697
0
LINE
8
DEFAULT_255_2_778
10
3.8879064
20
6.8967697
11
3.8144064
21
7.0123697
0
LINE
8
DEFAULT_255_2_778
10
3.8144064
20
7.0123697
11
3.7998064
21
7.0687697
0
LINE
8
DEFAULT_255_2_778
10
3.7998064
20
7.0687697
11
3.7985064
21
7.1393697
0
LINE
8
DEFAULT_255_2_778
10
3.7985064
20
7.1393697
11
3.5974064
21
7.1393697
0
LINE
8
DEFAULT_255_2_778
10
3.5974064
20
7.1393697
11
3.5990064
21
7.0756697
0
LINE
8
DEFAULT_255_2_778
10
3.5990064
20
7.0756697
11
3.6030064
21
7.0436697
0
LINE
8
DEFAULT_255_2_778
10
3.6030064
20
7.0436697
11
3.6130064
21
6.9962697
0
LINE
8
DEFAULT_255_2_778
10
3.6130064
20
6.9962697
11
3.6334064
21
6.9343697
0
LINE
8
DEFAULT_255_2_778
10
3.6334064
20
6.9343697
11
3.6691064
21
6.8607697
0
LINE
8
DEFAULT_255_2_778
10
3.6691064
20
6.8607697
11
3.7366064
21
6.7689697
0
LINE
8
DEFAULT_255_2_778
10
3.7366064
20
6.7689697
11
3.8353064
21
6.6869697
0
LINE
8
DEFAULT_255_2_778
10
3.8353064
20
6.6869697
11
3.9779064
21
6.6303697
0
LINE
8
DEFAULT_255_2_778
10
3.9779064
20
6.6303697
11
4.1975064
21
6.6139697
0
LINE
8
DEFAULT_255_2_778
10
4.1975064
20
6.6139697
11
4.3869064
21
6.6483697
0
LINE
8
DEFAULT_255_2_778
10
4.3869064
20
6.6483697
11
4.5171064
21
6.7157697
0
LINE
8
DEFAULT_255_2_778
10
4.5171064
20
6.7157697
11
4.5983064
21
6.7917697
0
LINE
8
DEFAULT_255_2_778
10
4.5983064
20
6.7917697
11
4.6433064
21
6.8576697
0
LINE
8
DEFAULT_255_2_778
10
4.6433064
20
6.8576697
11
4.6711064
21
6.9176697
0
LINE
8
DEFAULT_255_2_778
10
4.6711064
20
6.9176697
11
4.6907064
21
6.9808697
0
LINE
8
DEFAULT_255_2_778
10
4.6907064
20
6.9808697
11
4.6986064
21
7.0174697
0
LINE
8
DEFAULT_255_2_778
10
4.6986064
20
7.0174697
11
4.7042064
21
7.0544697
0
LINE
8
DEFAULT_255_2_778
10
4.7042064
20
7.0544697
11
4.7034064
21
7.2333697
0
LINE
8
DEFAULT_255_2_778
10
4.7034064
20
7.2333697
11
4.6920064
21
7.2888697
0
LINE
8
DEFAULT_255_2_778
10
4.6920064
20
7.2888697
11
4.6634064
21
7.3634697
0
LINE
8
DEFAULT_255_2_778
10
4.6634064
20
7.3634697
11
4.5954064
21
7.4563697
0
LINE
8
DEFAULT_255_2_778
10
4.5954064
20
7.4563697
11
4.4348064
21
7.5568697
0
LINE
8
DEFAULT_255_2_778
10
4.4348064
20
7.5568697
11
3.9295064
21
7.7169697
0
LINE
8
DEFAULT_255_2_778
10
3.9295064
20
7.7169697
11
3.8488064
21
7.7913697
0
LINE
8
DEFAULT_255_2_778
10
3.8488064
20
7.7913697
11
3.8260064
21
7.8426697
0
LINE
8
DEFAULT_255_2_778
10
3.8260064
20
7.8426697
11
3.8197064
21
7.8743697
0
LINE
8
DEFAULT_255_2_778
10
3.8197064
20
7.8743697
11
3.8212064
21
7.9622697
0
LINE
8
DEFAULT_255_2_778
10
3.8212064
20
7.9622697
11
3.8326064
21
8.0061697
0
LINE
8
DEFAULT_255_2_778
10
3.8326064
20
8.0061697
11
3.8683064
21
8.0717697
0
LINE
8
DEFAULT_255_2_778
10
3.8683064
20
8.0717697
11
3.9689064
21
8.1466697
0
LINE
8
DEFAULT_255_2_778
10
3.9689064
20
8.1466697
11
4.2168064
21
8.1791697
0
LINE
8
DEFAULT_255_2_778
10
4.2168064
20
8.1791697
11
4.4150064
21
8.0720697
0
LINE
8
DEFAULT_255_2_778
10
4.4150064
20
8.0720697
11
4.4586064
21
7.9826697
0
LINE
8
DEFAULT_255_2_778
10
4.4586064
20
7.9826697
11
4.4666064
21
7.9397697
0
LINE
8
DEFAULT_255_2_778
10
4.4666064
20
7.9397697
11
4.4679064
21
7.9212697
0
LINE
8
DEFAULT_255_2_778
10
4.4679064
20
7.9212697
11
4.6711064
21
7.9212697
0
LINE
8
DEFAULT_255_2_778
10
4.6711064
20
7.9212697
11
4.6700064
21
7.9918697
0
LINE
8
DEFAULT_255_2_778
10
4.6700064
20
7.9918697
11
4.6661064
21
8.0196697
0
LINE
8
DEFAULT_255_2_778
10
4.6661064
20
8.0196697
11
4.6563064
21
8.0609697
0
LINE
8
DEFAULT_255_2_778
10
4.6563064
20
8.0609697
11
4.6309064
21
8.1268697
0
LINE
8
DEFAULT_255_2_778
10
4.6309064
20
8.1268697
11
4.5777064
21
8.2114697
0
LINE
8
DEFAULT_255_2_778
10
4.5777064
20
8.2114697
11
4.4832064
21
8.3001697
0
LINE
8
DEFAULT_255_2_778
10
4.4832064
20
8.3001697
11
4.3700064
21
8.3543697
0
LINE
8
DEFAULT_255_2_778
10
4.3700064
20
8.3543697
11
4.1424064
21
8.3797697
0
LINE
8
DEFAULT_255_2_778
10
4.1424064
20
8.3797697
11
4.0805064
21
8.3763697
0
LINE
8
DEFAULT_255_2_778
10
10.1921313
20
8.3374114
11
10.3580313
21
8.3374114
0
LINE
8
DEFAULT_255_2_778
10
10.3580313
20
8.3374114
11
10.3580313
21
6.6470114
0
LINE
8
DEFAULT_255_2_778
10
10.3580313
20
6.6470114
11
10.1622313
21
6.6470114
0
LINE
8
DEFAULT_255_2_778
10
10.1622313
20
6.6470114
11
10.1622313
21
8.0747114
0
LINE
8
DEFAULT_255_2_778
10
10.1622313
20
8.0747114
11
9.9318313
21
7.9077114
0
LINE
8
DEFAULT_255_2_778
10
9.9318313
20
7.9077114
11
9.8421313
21
7.8641114
0
LINE
8
DEFAULT_255_2_778
10
9.8421313
20
7.8641114
11
9.8421313
21
8.0760114
0
LINE
8
DEFAULT_255_2_778
10
9.8421313
20
8.0760114
11
10.1077313
21
8.2517114
0
LINE
8
DEFAULT_255_2_778
10
10.1077313
20
8.2517114
11
10.1921313
21
8.3374114
0
LINE
8
DEFAULT_255_2_778
10
7.5314313
20
8.3374114
11
7.6973313
21
8.3374114
0
LINE
8
DEFAULT_255_2_778
10
7.6973313
20
8.3374114
11
7.6973313
21
6.6470114
0
LINE
8
DEFAULT_255_2_778
10
7.6973313
20
6.6470114
11
7.5015313
21
6.6470114
0
LINE
8
DEFAULT_255_2_778
10
7.5015313
20
6.6470114
11
7.5015313
21
8.0747114
0
LINE
8
DEFAULT_255_2_778
10
7.5015313
20
8.0747114
11
7.2711313
21
7.9077114
0
LINE
8
DEFAULT_255_2_778
10
7.2711313
20
7.9077114
11
7.1814313
21
7.8641114
0
LINE
8
DEFAULT_255_2_778
10
7.1814313
20
7.8641114
11
7.1814313
21
8.0760114
0
LINE
8
DEFAULT_255_2_778
10
7.1814313
20
8.0760114
11
7.4470313
21
8.2517114
0
LINE
8
DEFAULT_255_2_778
10
7.4470313
20
8.2517114
11
7.5314313
21
8.3374114
0
LINE
8
DEFAULT_255_2_778
10
1.5783876
20
7.5672374
11
1.7404876
21
7.5524374
0
LINE
8
DEFAULT_255_2_778
10
1.7404876
20
7.5524374
11
1.8254876
21
7.4915374
0
LINE
8
DEFAULT_255_2_778
10
1.8254876
20
7.4915374
11
1.8751876
21
7.4159374
0
LINE
8
DEFAULT_255_2_778
10
1.8751876
20
7.4159374
11
1.8976876
21
7.3577374
0
LINE
8
DEFAULT_255_2_778
10
1.8976876
20
7.3577374
11
1.9098876
21
7.3063374
0
LINE
8
DEFAULT_255_2_778
10
1.9098876
20
7.3063374
11
1.9145876
21
7.2762374
0
LINE
8
DEFAULT_255_2_778
10
1.9145876
20
7.2762374
11
1.9132876
21
7.0965374
0
LINE
8
DEFAULT_255_2_778
10
1.9132876
20
7.0965374
11
1.9053876
21
7.0539374
0
LINE
8
DEFAULT_255_2_778
10
1.9053876
20
7.0539374
11
1.8894876
21
7.0007374
0
LINE
8
DEFAULT_255_2_778
10
1.8894876
20
7.0007374
11
1.8529876
21
6.9290374
0
LINE
8
DEFAULT_255_2_778
10
1.8529876
20
6.9290374
11
1.7857876
21
6.8560374
0
LINE
8
DEFAULT_255_2_778
10
1.7857876
20
6.8560374
11
1.6772876
21
6.8078374
0
LINE
8
DEFAULT_255_2_778
10
1.6772876
20
6.8078374
11
1.4986876
21
6.8195374
0
LINE
8
DEFAULT_255_2_778
10
1.4986876
20
6.8195374
11
1.4057876
21
6.8788374
0
LINE
8
DEFAULT_255_2_778
10
1.4057876
20
6.8788374
11
1.3465876
21
6.9592374
0
LINE
8
DEFAULT_255_2_778
10
1.3465876
20
6.9592374
11
1.3224876
21
7.0153374
0
LINE
8
DEFAULT_255_2_778
10
1.3224876
20
7.0153374
11
1.3081876
21
7.0687374
0
LINE
8
DEFAULT_255_2_778
10
1.3081876
20
7.0687374
11
1.3010876
21
7.1129374
0
LINE
8
DEFAULT_255_2_778
10
1.3010876
20
7.1129374
11
1.3023876
21
7.2732374
0
LINE
8
DEFAULT_255_2_778
10
1.3023876
20
7.2732374
11
1.3097876
21
7.3127374
0
LINE
8
DEFAULT_255_2_778
10
1.3097876
20
7.3127374
11
1.3285876
21
7.3717374
0
LINE
8
DEFAULT_255_2_778
10
1.3285876
20
7.3717374
11
1.3692876
21
7.4439374
0
LINE
8
DEFAULT_255_2_778
10
1.3692876
20
7.4439374
11
1.4507876
21
7.5206374
0
LINE
8
DEFAULT_255_2_778
10
1.4507876
20
7.5206374
11
1.5783876
21
7.5672374
0
LINE
8
DEFAULT_255_2_778
10
1.6153876
20
7.7619374
11
1.4669876
21
7.7177374
0
LINE
8
DEFAULT_255_2_778
10
1.4669876
20
7.7177374
11
1.3639876
21
7.6408374
0
LINE
8
DEFAULT_255_2_778
10
1.3639876
20
7.6408374
11
1.3113876
21
7.5810374
0
LINE
8
DEFAULT_255_2_778
10
1.3113876
20
7.5810374
11
1.2647876
21
7.5098374
0
LINE
8
DEFAULT_255_2_778
10
1.2647876
20
7.5098374
11
1.2687876
21
7.5656374
0
LINE
8
DEFAULT_255_2_778
10
1.2687876
20
7.5656374
11
1.2740876
21
7.6214374
0
LINE
8
DEFAULT_255_2_778
10
1.2740876
20
7.6214374
11
1.2811876
21
7.6770374
0
LINE
8
DEFAULT_255_2_778
10
1.2811876
20
7.6770374
11
1.2936876
21
7.7500374
0
LINE
8
DEFAULT_255_2_778
10
1.2936876
20
7.7500374
11
1.3147876
21
7.8403374
0
LINE
8
DEFAULT_255_2_778
10
1.3147876
20
7.8403374
11
1.3438876
21
7.9284374
0
LINE
8
DEFAULT_255_2_778
10
1.3438876
20
7.9284374
11
1.3878876
21
8.0207374
0
LINE
8
DEFAULT_255_2_778
10
1.3878876
20
8.0207374
11
1.4645876
21
8.1162374
0
LINE
8
DEFAULT_255_2_778
10
1.4645876
20
8.1162374
11
1.5732876
21
8.1749374
0
LINE
8
DEFAULT_255_2_778
10
1.5732876
20
8.1749374
11
1.7235876
21
8.1742374
0
LINE
8
DEFAULT_255_2_778
10
1.7235876
20
8.1742374
11
1.8129876
21
8.1249374
0
LINE
8
DEFAULT_255_2_778
10
1.8129876
20
8.1249374
11
1.8582876
21
8.0654374
0
LINE
8
DEFAULT_255_2_778
10
1.8582876
20
8.0654374
11
1.8762876
21
8.0194374
0
LINE
8
DEFAULT_255_2_778
10
1.8762876
20
8.0194374
11
1.8833876
21
7.9871374
0
LINE
8
DEFAULT_255_2_778
10
1.8833876
20
7.9871374
11
1.8868876
21
7.9609374
0
LINE
8
DEFAULT_255_2_778
10
1.8868876
20
7.9609374
11
1.8886876
21
7.9215374
0
LINE
8
DEFAULT_255_2_778
10
1.8886876
20
7.9215374
11
2.0802876
21
7.9215374
0
LINE
8
DEFAULT_255_2_778
10
2.0802876
20
7.9215374
11
2.0778876
21
7.9802374
0
LINE
8
DEFAULT_255_2_778
10
2.0778876
20
7.9802374
11
2.0759876
21
7.9998374
0
LINE
8
DEFAULT_255_2_778
10
2.0759876
20
7.9998374
11
2.0701876
21
8.0390374
0
LINE
8
DEFAULT_255_2_778
10
2.0701876
20
8.0390374
11
2.0622876
21
8.0752374
0
LINE
8
DEFAULT_255_2_778
10
2.0622876
20
8.0752374
11
2.0463876
21
8.1247374
0
LINE
8
DEFAULT_255_2_778
10
2.0463876
20
8.1247374
11
2.0164876
21
8.1861374
0
LINE
8
DEFAULT_255_2_778
10
2.0164876
20
8.1861374
11
1.9667876
21
8.2506374
0
LINE
8
DEFAULT_255_2_778
10
1.9667876
20
8.2506374
11
1.8825876
21
8.3160374
0
LINE
8
DEFAULT_255_2_778
10
1.8825876
20
8.3160374
11
1.7656876
21
8.3596374
0
LINE
8
DEFAULT_255_2_778
10
1.7656876
20
8.3596374
11
1.5738876
21
8.3673374
0
LINE
8
DEFAULT_255_2_778
10
1.5738876
20
8.3673374
11
1.4396876
21
8.3297374
0
LINE
8
DEFAULT_255_2_778
10
1.4396876
20
8.3297374
11
1.3272876
21
8.2546374
0
LINE
8
DEFAULT_255_2_778
10
1.3272876
20
8.2546374
11
1.2539876
21
8.1718374
0
LINE
8
DEFAULT_255_2_778
10
1.2539876
20
8.1718374
11
1.1954876
21
8.0723374
0
LINE
8
DEFAULT_255_2_778
10
1.1954876
20
8.0723374
11
1.1655876
21
8.0043374
0
LINE
8
DEFAULT_255_2_778
10
1.1655876
20
8.0043374
11
1.1385876
21
7.9265374
0
LINE
8
DEFAULT_255_2_778
10
1.1385876
20
7.9265374
11
1.1163876
21
7.8434374
0
LINE
8
DEFAULT_255_2_778
10
1.1163876
20
7.8434374
11
1.1036876
21
7.7826374
0
LINE
8
DEFAULT_255_2_778
10
1.1036876
20
7.7826374
11
1.0935876
21
7.7212374
0
LINE
8
DEFAULT_255_2_778
10
1.0935876
20
7.7212374
11
1.0856876
21
7.6593374
0
LINE
8
DEFAULT_255_2_778
10
1.0856876
20
7.6593374
11
1.0822876
21
7.6241374
0
LINE
8
DEFAULT_255_2_778
10
1.0822876
20
7.6241374
11
1.0814876
21
7.2312374
0
LINE
8
DEFAULT_255_2_778
10
1.0814876
20
7.2312374
11
1.0851876
21
7.1970374
0
LINE
8
DEFAULT_255_2_778
10
1.0851876
20
7.1970374
11
1.0925876
21
7.1441374
0
LINE
8
DEFAULT_255_2_778
10
1.0925876
20
7.1441374
11
1.1020876
21
7.0915374
0
LINE
8
DEFAULT_255_2_778
10
1.1020876
20
7.0915374
11
1.1139876
21
7.0394374
0
LINE
8
DEFAULT_255_2_778
10
1.1139876
20
7.0394374
11
1.1398876
21
6.9552374
0
LINE
8
DEFAULT_255_2_778
10
1.1398876
20
6.9552374
11
1.1716876
21
6.8798374
0
LINE
8
DEFAULT_255_2_778
10
1.1716876
20
6.8798374
11
1.2171876
21
6.8010374
0
LINE
8
DEFAULT_255_2_778
10
1.2171876
20
6.8010374
11
1.2965876
21
6.7110374
0
LINE
8
DEFAULT_255_2_778
10
1.2965876
20
6.7110374
11
1.4089876
21
6.6417374
0
LINE
8
DEFAULT_255_2_778
10
1.4089876
20
6.6417374
11
1.5748876
21
6.6086374
0
LINE
8
DEFAULT_255_2_778
10
1.5748876
20
6.6086374
11
1.7555876
21
6.6300374
0
LINE
8
DEFAULT_255_2_778
10
1.7555876
20
6.6300374
11
1.8793876
21
6.6864374
0
LINE
8
DEFAULT_255_2_778
10
1.8793876
20
6.6864374
11
1.9698876
21
6.7637374
0
LINE
8
DEFAULT_255_2_778
10
1.9698876
20
6.7637374
11
2.0228876
21
6.8340374
0
LINE
8
DEFAULT_255_2_778
10
2.0228876
20
6.8340374
11
2.0564876
21
6.8975374
0
LINE
8
DEFAULT_255_2_778
10
2.0564876
20
6.8975374
11
2.0765876
21
6.9505374
0
LINE
8
DEFAULT_255_2_778
10
2.0765876
20
6.9505374
11
2.0915876
21
7.0050374
0
LINE
8
DEFAULT_255_2_778
10
2.0915876
20
7.0050374
11
2.0995876
21
7.0444374
0
LINE
8
DEFAULT_255_2_778
10
2.0995876
20
7.0444374
11
2.1056876
21
7.0865374
0
LINE
8
DEFAULT_255_2_778
10
2.1056876
20
7.0865374
11
2.1045876
21
7.3082374
0
LINE
8
DEFAULT_255_2_778
10
2.1045876
20
7.3082374
11
2.0982876
21
7.3497374
0
LINE
8
DEFAULT_255_2_778
10
2.0982876
20
7.3497374
11
2.0868876
21
7.4016374
0
LINE
8
DEFAULT_255_2_778
10
2.0868876
20
7.4016374
11
2.0651876
21
7.4690374
0
LINE
8
DEFAULT_255_2_778
10
2.0651876
20
7.4690374
11
2.0251876
21
7.5511374
0
LINE
8
DEFAULT_255_2_778
10
2.0251876
20
7.5511374
11
1.9542876
21
7.6437374
0
LINE
8
DEFAULT_255_2_778
10
1.9542876
20
7.6437374
11
1.8452876
21
7.7225374
0
LINE
8
DEFAULT_255_2_778
10
1.8452876
20
7.7225374
11
1.6812876
21
7.7630374
0
LINE
8
DEFAULT_255_2_778
10
1.6812876
20
7.7630374
11
1.6153876
21
7.7619374
0
LINE
8
DEFAULT_255_2_778
10
1.7174876
20
5.8471374
11
1.9484876
21
5.8471374
0
LINE
8
DEFAULT_255_2_778
10
1.9484876
20
5.8471374
11
1.9484876
21
4.7581374
0
LINE
8
DEFAULT_255_2_778
10
1.9484876
20
4.7581374
11
2.2252876
21
4.7581374
0
LINE
8
DEFAULT_255_2_778
10
2.2252876
20
4.7581374
11
2.2252876
21
4.5726374
0
LINE
8
DEFAULT_255_2_778
10
2.2252876
20
4.5726374
11
1.9484876
21
4.5726374
0
LINE
8
DEFAULT_255_2_778
10
1.9484876
20
4.5726374
11
1.9484876
21
4.1475374
0
LINE
8
DEFAULT_255_2_778
10
1.9484876
20
4.1475374
11
1.7526876
21
4.1475374
0
LINE
8
DEFAULT_255_2_778
10
1.7526876
20
4.1475374
11
1.7526876
21
4.5726374
0
LINE
8
DEFAULT_255_2_778
10
1.7526876
20
4.5726374
11
1.0729876
21
4.5726374
0
LINE
8
DEFAULT_255_2_778
10
1.0729876
20
4.5726374
11
1.0729876
21
4.7774374
0
LINE
8
DEFAULT_255_2_778
10
1.0729876
20
4.7774374
11
1.7174876
21
5.8471374
0
LINE
8
DEFAULT_255_2_778
10
1.2438876
20
4.7579374
11
1.7526876
21
4.7579374
0
LINE
8
DEFAULT_255_2_778
10
1.7526876
20
4.7579374
11
1.7526876
21
5.6048374
0
LINE
8
DEFAULT_255_2_778
10
1.7526876
20
5.6048374
11
1.2438876
21
4.7579374
0
LINE
8
DEFAULT_255_2_778
10
3.0747876
20
5.1367374
11
2.9636876
21
5.1291374
0
LINE
8
DEFAULT_255_2_778
10
2.9636876
20
5.1291374
11
2.6903876
21
5.1291374
0
LINE
8
DEFAULT_255_2_778
10
2.6903876
20
5.1291374
11
2.6903876
21
5.6543374
0
LINE
8
DEFAULT_255_2_778
10
2.6903876
20
5.6543374
11
3.1187876
21
5.6357374
0
LINE
8
DEFAULT_255_2_778
10
3.1187876
20
5.6357374
11
3.2488876
21
5.5521374
0
LINE
8
DEFAULT_255_2_778
10
3.2488876
20
5.5521374
11
3.2835876
21
5.4902374
0
LINE
8
DEFAULT_255_2_778
10
3.2835876
20
5.4902374
11
3.2954876
21
5.4421374
0
LINE
8
DEFAULT_255_2_778
10
3.2954876
20
5.4421374
11
3.2941876
21
5.3249374
0
LINE
8
DEFAULT_255_2_778
10
3.2941876
20
5.3249374
11
3.2808876
21
5.2775374
0
LINE
8
DEFAULT_255_2_778
10
3.2808876
20
5.2775374
11
3.2427876
21
5.2177374
0
LINE
8
DEFAULT_255_2_778
10
3.2427876
20
5.2177374
11
3.1398876
21
5.1531374
0
LINE
8
DEFAULT_255_2_778
10
3.1398876
20
5.1531374
11
3.0747876
21
5.1367374
0
LINE
8
DEFAULT_255_2_778
10
3.2004876
20
4.1596374
11
3.0382876
21
4.1472374
0
LINE
8
DEFAULT_255_2_778
10
3.0382876
20
4.1472374
11
2.4903876
21
4.1472374
0
LINE
8
DEFAULT_255_2_778
10
2.4903876
20
4.1472374
11
2.4903876
21
5.8471374
0
LINE
8
DEFAULT_255_2_778
10
2.4903876
20
5.8471374
11
3.1411876
21
5.8344374
0
LINE
8
DEFAULT_255_2_778
10
3.1411876
20
5.8344374
11
3.3369876
21
5.7612374
0
LINE
8
DEFAULT_255_2_778
10
3.3369876
20
5.7612374
11
3.4261876
21
5.6810374
0
LINE
8
DEFAULT_255_2_778
10
3.4261876
20
5.6810374
11
3.4639876
21
5.6178374
0
LINE
8
DEFAULT_255_2_778
10
3.4639876
20
5.6178374
11
3.4843876
21
5.5580374
0
LINE
8
DEFAULT_255_2_778
10
3.4843876
20
5.5580374
11
3.4922876
21
5.5204374
0
LINE
8
DEFAULT_255_2_778
10
3.4922876
20
5.5204374
11
3.4970876
21
5.4820374
0
LINE
8
DEFAULT_255_2_778
10
3.4970876
20
5.4820374
11
3.4960876
21
5.3622374
0
LINE
8
DEFAULT_255_2_778
10
3.4960876
20
5.3622374
11
3.4896876
21
5.3222374
0
LINE
8
DEFAULT_255_2_778
10
3.4896876
20
5.3222374
11
3.4753876
21
5.2706374
0
LINE
8
DEFAULT_255_2_778
10
3.4753876
20
5.2706374
11
3.4441876
21
5.2045374
0
LINE
8
DEFAULT_255_2_778
10
3.4441876
20
5.2045374
11
3.3758876
21
5.1209374
0
LINE
8
DEFAULT_255_2_778
10
3.3758876
20
5.1209374
11
3.2642876
21
5.0515374
0
LINE
8
DEFAULT_255_2_778
10
3.2642876
20
5.0515374
11
3.2414876
21
5.0439374
0
LINE
8
DEFAULT_255_2_778
10
3.2414876
20
5.0439374
11
3.3740876
21
4.9859374
0
LINE
8
DEFAULT_255_2_778
10
3.3740876
20
4.9859374
11
3.4589876
21
4.9108374
0
LINE
8
DEFAULT_255_2_778
10
3.4589876
20
4.9108374
11
3.5039876
21
4.8423374
0
LINE
8
DEFAULT_255_2_778
10
3.5039876
20
4.8423374
11
3.5301876
21
4.7772374
0
LINE
8
DEFAULT_255_2_778
10
3.5301876
20
4.7772374
11
3.5412876
21
4.7346374
0
LINE
8
DEFAULT_255_2_778
10
3.5412876
20
4.7346374
11
3.5468876
21
4.7034374
0
LINE
8
DEFAULT_255_2_778
10
3.5468876
20
4.7034374
11
3.5444876
21
4.4896374
0
LINE
8
DEFAULT_255_2_778
10
3.5444876
20
4.4896374
11
3.5348876
21
4.4464374
0
LINE
8
DEFAULT_255_2_778
10
3.5348876
20
4.4464374
11
3.5158876
21
4.3911374
0
LINE
8
DEFAULT_255_2_778
10
3.5158876
20
4.3911374
11
3.4748876
21
4.3200374
0
LINE
8
DEFAULT_255_2_778
10
3.4748876
20
4.3200374
11
3.3809876
21
4.2311374
0
LINE
8
DEFAULT_255_2_778
10
3.3809876
20
4.2311374
11
3.2483876
21
4.1707374
0
LINE
8
DEFAULT_255_2_778
10
3.2483876
20
4.1707374
11
3.2004876
21
4.1596374
0
LINE
8
DEFAULT_255_2_778
10
3.1396876
20
4.3499374
11
3.0208876
21
4.3401374
0
LINE
8
DEFAULT_255_2_778
10
3.0208876
20
4.3401374
11
2.6903876
21
4.3401374
0
LINE
8
DEFAULT_255_2_778
10
2.6903876
20
4.3401374
11
2.6903876
21
4.9317374
0
LINE
8
DEFAULT_255_2_778
10
2.6903876
20
4.9317374
11
3.1451876
21
4.9150374
0
LINE
8
DEFAULT_255_2_778
10
3.1451876
20
4.9150374
11
3.2798876
21
4.8417374
0
LINE
8
DEFAULT_255_2_778
10
3.2798876
20
4.8417374
11
3.3261876
21
4.7772374
0
LINE
8
DEFAULT_255_2_778
10
3.3261876
20
4.7772374
11
3.3441876
21
4.7240374
0
LINE
8
DEFAULT_255_2_778
10
3.3441876
20
4.7240374
11
3.3504876
21
4.6864374
0
LINE
8
DEFAULT_255_2_778
10
3.3504876
20
4.6864374
11
3.3491876
21
4.5692374
0
LINE
8
DEFAULT_255_2_778
10
3.3491876
20
4.5692374
11
3.3380876
21
4.5181374
0
LINE
8
DEFAULT_255_2_778
10
3.3380876
20
4.5181374
11
3.3144876
21
4.4615374
0
LINE
8
DEFAULT_255_2_778
10
3.3144876
20
4.4615374
11
3.2560876
21
4.3954374
0
LINE
8
DEFAULT_255_2_778
10
3.2560876
20
4.3954374
11
3.1396876
21
4.3499374
0
LINE
8
DEFAULT_255_2_778
10
4.4053876
20
5.1367374
11
4.2942876
21
5.1291374
0
LINE
8
DEFAULT_255_2_778
10
4.2942876
20
5.1291374
11
4.0206876
21
5.1291374
0
LINE
8
DEFAULT_255_2_778
10
4.0206876
20
5.1291374
11
4.0206876
21
5.6543374
0
LINE
8
DEFAULT_255_2_778
10
4.0206876
20
5.6543374
11
4.4490876
21
5.6357374
0
LINE
8
DEFAULT_255_2_778
10
4.4490876
20
5.6357374
11
4.5792876
21
5.5521374
0
LINE
8
DEFAULT_255_2_778
10
4.5792876
20
5.5521374
11
4.6138876
21
5.4902374
0
LINE
8
DEFAULT_255_2_778
10
4.6138876
20
5.4902374
11
4.6257876
21
5.4421374
0
LINE
8
DEFAULT_255_2_778
10
4.6257876
20
5.4421374
11
4.6244876
21
5.3249374
0
LINE
8
DEFAULT_255_2_778
10
4.6244876
20
5.3249374
11
4.6112876
21
5.2775374
0
LINE
8
DEFAULT_255_2_778
10
4.6112876
20
5.2775374
11
4.5731876
21
5.2177374
0
LINE
8
DEFAULT_255_2_778
10
4.5731876
20
5.2177374
11
4.4701876
21
5.1531374
0
LINE
8
DEFAULT_255_2_778
10
4.4701876
20
5.1531374
11
4.4053876
21
5.1367374
0
LINE
8
DEFAULT_255_2_778
10
4.5471876
20
4.1628374
11
4.3688876
21
4.1472374
0
LINE
8
DEFAULT_255_2_778
10
4.3688876
20
4.1472374
11
3.8206876
21
4.1472374
0
LINE
8
DEFAULT_255_2_778
10
3.8206876
20
4.1472374
11
3.8206876
21
5.8471374
0
LINE
8
DEFAULT_255_2_778
10
3.8206876
20
5.8471374
11
4.4715876
21
5.8344374
0
LINE
8
DEFAULT_255_2_778
10
4.4715876
20
5.8344374
11
4.6673876
21
5.7612374
0
LINE
8
DEFAULT_255_2_778
10
4.6673876
20
5.7612374
11
4.7564876
21
5.6810374
0
LINE
8
DEFAULT_255_2_778
10
4.7564876
20
5.6810374
11
4.7943876
21
5.6178374
0
LINE
8
DEFAULT_255_2_778
10
4.7943876
20
5.6178374
11
4.8146876
21
5.5580374
0
LINE
8
DEFAULT_255_2_778
10
4.8146876
20
5.5580374
11
4.8226876
21
5.5204374
0
LINE
8
DEFAULT_255_2_778
10
4.8226876
20
5.5204374
11
4.8273876
21
5.4820374
0
LINE
8
DEFAULT_255_2_778
10
4.8273876
20
5.4820374
11
4.8263876
21
5.3622374
0
LINE
8
DEFAULT_255_2_778
10
4.8263876
20
5.3622374
11
4.8199876
21
5.3222374
0
LINE
8
DEFAULT_255_2_778
10
4.8199876
20
5.3222374
11
4.8056876
21
5.2706374
0
LINE
8
DEFAULT_255_2_778
10
4.8056876
20
5.2706374
11
4.7744876
21
5.2045374
0
LINE
8
DEFAULT_255_2_778
10
4.7744876
20
5.2045374
11
4.7062876
21
5.1209374
0
LINE
8
DEFAULT_255_2_778
10
4.7062876
20
5.1209374
11
4.5945876
21
5.0515374
0
LINE
8
DEFAULT_255_2_778
10
4.5945876
20
5.0515374
11
4.5717876
21
5.0439374
0
LINE
8
DEFAULT_255_2_778
10
4.5717876
20
5.0439374
11
4.7043876
21
4.9859374
0
LINE
8
DEFAULT_255_2_778
10
4.7043876
20
4.9859374
11
4.7892876
21
4.9108374
0
LINE
8
DEFAULT_255_2_778
10
4.7892876
20
4.9108374
11
4.8342876
21
4.8423374
0
LINE
8
DEFAULT_255_2_778
10
4.8342876
20
4.8423374
11
4.8604876
21
4.7772374
0
LINE
8
DEFAULT_255_2_778
10
4.8604876
20
4.7772374
11
4.8715876
21
4.7346374
0
LINE
8
DEFAULT_255_2_778
10
4.8715876
20
4.7346374
11
4.8771876
21
4.7034374
0
LINE
8
DEFAULT_255_2_778
10
4.8771876
20
4.7034374
11
4.8747876
21
4.4896374
0
LINE
8
DEFAULT_255_2_778
10
4.8747876
20
4.4896374
11
4.8652876
21
4.4464374
0
LINE
8
DEFAULT_255_2_778
10
4.8652876
20
4.4464374
11
4.8461876
21
4.3911374
0
LINE
8
DEFAULT_255_2_778
10
4.8461876
20
4.3911374
11
4.8051876
21
4.3200374
0
LINE
8
DEFAULT_255_2_778
10
4.8051876
20
4.3200374
11
4.7112876
21
4.2311374
0
LINE
8
DEFAULT_255_2_778
10
4.7112876
20
4.2311374
11
4.5786876
21
4.1707374
0
LINE
8
DEFAULT_255_2_778
10
4.5786876
20
4.1707374
11
4.5471876
21
4.1628374
0
LINE
8
DEFAULT_255_2_778
10
4.4701876
20
4.3499374
11
4.3514876
21
4.3401374
0
LINE
8
DEFAULT_255_2_778
10
4.3514876
20
4.3401374
11
4.0209876
21
4.3401374
0
LINE
8
DEFAULT_255_2_778
10
4.0209876
20
4.3401374
11
4.0209876
21
4.9317374
0
LINE
8
DEFAULT_255_2_778
10
4.0209876
20
4.9317374
11
4.4757876
21
4.9150374
0
LINE
8
DEFAULT_255_2_778
10
4.4757876
20
4.9150374
11
4.6104876
21
4.8417374
0
LINE
8
DEFAULT_255_2_778
10
4.6104876
20
4.8417374
11
4.6567876
21
4.7772374
0
LINE
8
DEFAULT_255_2_778
10
4.6567876
20
4.7772374
11
4.6747876
21
4.7240374
0
LINE
8
DEFAULT_255_2_778
10
4.6747876
20
4.7240374
11
4.6810876
21
4.6864374
0
LINE
8
DEFAULT_255_2_778
10
4.6810876
20
4.6864374
11
4.6797876
21
4.5692374
0
LINE
8
DEFAULT_255_2_778
10
4.6797876
20
4.5692374
11
4.6686876
21
4.5181374
0
LINE
8
DEFAULT_255_2_778
10
4.6686876
20
4.5181374
11
4.6450876
21
4.4615374
0
LINE
8
DEFAULT_255_2_778
10
4.6450876
20
4.4615374
11
4.5866876
21
4.3954374
0
LINE
8
DEFAULT_255_2_778
10
4.5866876
20
4.3954374
11
4.4701876
21
4.3499374
0
LINE
8
DEFAULT_255_2_778
10
5.5526876
20
5.8662374
11
5.4404876
21
5.8331374
0
LINE
8
DEFAULT_255_2_778
10
5.4404876
20
5.8331374
11
5.3422876
21
5.7717374
0
LINE
8
DEFAULT_255_2_778
10
5.3422876
20
5.7717374
11
5.2689876
21
5.6977374
0
LINE
8
DEFAULT_255_2_778
10
5.2689876
20
5.6977374
11
5.2075876
21
5.6072374
0
LINE
8
DEFAULT_255_2_778
10
5.2075876
20
5.6072374
11
5.1668876
21
5.5270374
0
LINE
8
DEFAULT_255_2_778
10
5.1668876
20
5.5270374
11
5.1340876
21
5.4439374
0
LINE
8
DEFAULT_255_2_778
10
5.1340876
20
5.4439374
11
5.1152876
21
5.3836374
0
LINE
8
DEFAULT_255_2_778
10
5.1152876
20
5.3836374
11
5.0991876
21
5.3185374
0
LINE
8
DEFAULT_255_2_778
10
5.0991876
20
5.3185374
11
5.0866876
21
5.2526374
0
LINE
8
DEFAULT_255_2_778
10
5.0866876
20
5.2526374
11
5.0816876
21
5.2196374
0
LINE
8
DEFAULT_255_2_778
10
5.0816876
20
5.2196374
11
5.0771876
21
5.1830374
0
LINE
8
DEFAULT_255_2_778
10
5.0771876
20
5.1830374
11
5.0734876
21
5.1465374
0
LINE
8
DEFAULT_255_2_778
10
5.0734876
20
5.1465374
11
5.0731876
21
4.8507374
0
LINE
8
DEFAULT_255_2_778
10
5.0731876
20
4.8507374
11
5.0768876
21
4.8137374
0
LINE
8
DEFAULT_255_2_778
10
5.0768876
20
4.8137374
11
5.0813876
21
4.7766374
0
LINE
8
DEFAULT_255_2_778
10
5.0813876
20
4.7766374
11
5.0919876
21
4.7094374
0
LINE
8
DEFAULT_255_2_778
10
5.0919876
20
4.7094374
11
5.1059876
21
4.6430374
0
LINE
8
DEFAULT_255_2_778
10
5.1059876
20
4.6430374
11
5.1237876
21
4.5774374
0
LINE
8
DEFAULT_255_2_778
10
5.1237876
20
4.5774374
11
5.1499876
21
4.5009374
0
LINE
8
DEFAULT_255_2_778
10
5.1499876
20
4.5009374
11
5.1821876
21
4.4266374
0
LINE
8
DEFAULT_255_2_778
10
5.1821876
20
4.4266374
11
5.2277876
21
4.3440374
0
LINE
8
DEFAULT_255_2_778
10
5.2277876
20
4.3440374
11
5.2806876
21
4.2718374
0
LINE
8
DEFAULT_255_2_778
10
5.2806876
20
4.2718374
11
5.3552876
21
4.2001374
0
LINE
8
DEFAULT_255_2_778
10
5.3552876
20
4.2001374
11
5.4563876
21
4.1408374
0
LINE
8
DEFAULT_255_2_778
10
5.4563876
20
4.1408374
11
5.5907876
21
4.1096374
0
LINE
8
DEFAULT_255_2_778
10
5.5907876
20
4.1096374
11
5.7293876
21
4.1178374
0
LINE
8
DEFAULT_255_2_778
10
5.7293876
20
4.1178374
11
5.8404876
21
4.1573374
0
LINE
8
DEFAULT_255_2_778
10
5.8404876
20
4.1573374
11
5.9362876
21
4.2252374
0
LINE
8
DEFAULT_255_2_778
10
5.9362876
20
4.2252374
11
6.0082876
21
4.3067374
0
LINE
8
DEFAULT_255_2_778
10
6.0082876
20
4.3067374
11
6.0664876
21
4.4020374
0
LINE
8
DEFAULT_255_2_778
10
6.0664876
20
4.4020374
11
6.1008876
21
4.4758374
0
LINE
8
DEFAULT_255_2_778
10
6.1008876
20
4.4758374
11
6.1291876
21
4.5520374
0
LINE
8
DEFAULT_255_2_778
10
6.1291876
20
4.5520374
11
6.1465876
21
4.6105374
0
LINE
8
DEFAULT_255_2_778
10
6.1465876
20
4.6105374
11
6.1624876
21
4.6766374
0
LINE
8
DEFAULT_255_2_778
10
6.1624876
20
4.6766374
11
6.1749876
21
4.7436374
0
LINE
8
DEFAULT_255_2_778
10
6.1749876
20
4.7436374
11
6.1799876
21
4.7772374
0
LINE
8
DEFAULT_255_2_778
10
6.1799876
20
4.7772374
11
6.1844876
21
4.8142374
0
LINE
8
DEFAULT_255_2_778
10
6.1844876
20
4.8142374
11
6.1881876
21
4.8513374
0
LINE
8
DEFAULT_255_2_778
10
6.1881876
20
4.8513374
11
6.1878876
21
5.1465374
0
LINE
8
DEFAULT_255_2_778
10
6.1878876
20
5.1465374
11
6.1841876
21
5.1830374
0
LINE
8
DEFAULT_255_2_778
10
6.1841876
20
5.1830374
11
6.1796876
21
5.2196374
0
LINE
8
DEFAULT_255_2_778
10
6.1796876
20
5.2196374
11
6.1688876
21
5.2857374
0
LINE
8
DEFAULT_255_2_778
10
6.1688876
20
5.2857374
11
6.1545876
21
5.3511374
0
LINE
8
DEFAULT_255_2_778
10
6.1545876
20
5.3511374
11
6.1365876
21
5.4156374
0
LINE
8
DEFAULT_255_2_778
10
6.1365876
20
5.4156374
11
6.1098876
21
5.4910374
0
LINE
8
DEFAULT_255_2_778
10
6.1098876
20
5.4910374
11
6.0770876
21
5.5640374
0
LINE
8
DEFAULT_255_2_778
10
6.0770876
20
5.5640374
11
6.0190876
21
5.6625374
0
LINE
8
DEFAULT_255_2_778
10
6.0190876
20
5.6625374
11
5.9640876
21
5.7302374
0
LINE
8
DEFAULT_255_2_778
10
5.9640876
20
5.7302374
11
5.8727876
21
5.8053374
0
LINE
8
DEFAULT_255_2_778
10
5.8727876
20
5.8053374
11
5.7669876
21
5.8532374
0
LINE
8
DEFAULT_255_2_778
10
5.7669876
20
5.8532374
11
5.6306876
21
5.8720374
0
LINE
8
DEFAULT_255_2_778
10
5.6306876
20
5.8720374
11
5.5526876
21
5.8662374
0
LINE
8
DEFAULT_255_2_778
10
5.5809876
20
5.6752374
11
5.7058876
21
5.6699374
0
LINE
8
DEFAULT_255_2_778
10
5.7058876
20
5.6699374
11
5.7962876
21
5.6260374
0
LINE
8
DEFAULT_255_2_778
10
5.7962876
20
5.6260374
11
5.8518876
21
5.5728374
0
LINE
8
DEFAULT_255_2_778
10
5.8518876
20
5.5728374
11
5.8994876
21
5.5016374
0
LINE
8
DEFAULT_255_2_778
10
5.8994876
20
5.5016374
11
5.9309876
21
5.4339374
0
LINE
8
DEFAULT_255_2_778
10
5.9309876
20
5.4339374
11
5.9590876
21
5.3516374
0
LINE
8
DEFAULT_255_2_778
10
5.9590876
20
5.3516374
11
5.9756876
21
5.2852374
0
LINE
8
DEFAULT_255_2_778
10
5.9756876
20
5.2852374
11
5.9849876
21
5.2362374
0
LINE
8
DEFAULT_255_2_778
10
5.9849876
20
5.2362374
11
5.9920876
21
5.1870374
0
LINE
8
DEFAULT_255_2_778
10
5.9920876
20
5.1870374
11
5.9949876
21
5.1621374
0
LINE
8
DEFAULT_255_2_778
10
5.9949876
20
5.1621374
11
5.9981876
21
5.1293374
0
LINE
8
DEFAULT_255_2_778
10
5.9981876
20
5.1293374
11
5.9981876
21
4.8637374
0
LINE
8
DEFAULT_255_2_778
10
5.9981876
20
4.8637374
11
5.9949876
21
4.8304374
0
LINE
8
DEFAULT_255_2_778
10
5.9949876
20
4.8304374
11
5.9889876
21
4.7801374
0
LINE
8
DEFAULT_255_2_778
10
5.9889876
20
4.7801374
11
5.9807876
21
4.7301374
0
LINE
8
DEFAULT_255_2_778
10
5.9807876
20
4.7301374
11
5.9650876
21
4.6581374
0
LINE
8
DEFAULT_255_2_778
10
5.9650876
20
4.6581374
11
5.9455876
21
4.5917374
0
LINE
8
DEFAULT_255_2_778
10
5.9455876
20
4.5917374
11
5.9084876
21
4.5002374
0
LINE
8
DEFAULT_255_2_778
10
5.9084876
20
4.5002374
11
5.8634876
21
4.4250374
0
LINE
8
DEFAULT_255_2_778
10
5.8634876
20
4.4250374
11
5.7970876
21
4.3562374
0
LINE
8
DEFAULT_255_2_778
10
5.7970876
20
4.3562374
11
5.7063876
21
4.3110374
0
LINE
8
DEFAULT_255_2_778
10
5.7063876
20
4.3110374
11
5.5809876
21
4.3054374
0
LINE
8
DEFAULT_255_2_778
10
5.5809876
20
4.3054374
11
5.4867876
21
4.3411374
0
LINE
8
DEFAULT_255_2_778
10
5.4867876
20
4.3411374
11
5.4097876
21
4.4107374
0
LINE
8
DEFAULT_255_2_778
10
5.4097876
20
4.4107374
11
5.3618876
21
4.4840374
0
LINE
8
DEFAULT_255_2_778
10
5.3618876
20
4.4840374
11
5.3327876
21
4.5478374
0
LINE
8
DEFAULT_255_2_778
10
5.3327876
20
4.5478374
11
5.3097876
21
4.6131374
0
LINE
8
DEFAULT_255_2_778
10
5.3097876
20
4.6131374
11
5.2917876
21
4.6801374
0
LINE
8
DEFAULT_255_2_778
10
5.2917876
20
4.6801374
11
5.2814876
21
4.7295374
0
LINE
8
DEFAULT_255_2_778
10
5.2814876
20
4.7295374
11
5.2732876
21
4.7796374
0
LINE
8
DEFAULT_255_2_778
10
5.2732876
20
4.7796374
11
5.2671876
21
4.8298374
0
LINE
8
DEFAULT_255_2_778
10
5.2671876
20
4.8298374
11
5.2639876
21
4.8632374
0
LINE
8
DEFAULT_255_2_778
10
5.2639876
20
4.8632374
11
5.2639876
21
5.1288374
0
LINE
8
DEFAULT_255_2_778
10
5.2639876
20
5.1288374
11
5.2671876
21
5.1616374
0
LINE
8
DEFAULT_255_2_778
10
5.2671876
20
5.1616374
11
5.2732876
21
5.2111374
0
LINE
8
DEFAULT_255_2_778
10
5.2732876
20
5.2111374
11
5.2814876
21
5.2603374
0
LINE
8
DEFAULT_255_2_778
10
5.2814876
20
5.2603374
11
5.2972876
21
5.3312374
0
LINE
8
DEFAULT_255_2_778
10
5.2972876
20
5.3312374
11
5.3171876
21
5.3966374
0
LINE
8
DEFAULT_255_2_778
10
5.3171876
20
5.3966374
11
5.3544876
21
5.4860374
0
LINE
8
DEFAULT_255_2_778
10
5.3544876
20
5.4860374
11
5.3994876
21
5.5587374
0
LINE
8
DEFAULT_255_2_778
10
5.3994876
20
5.5587374
11
5.4761876
21
5.6328374
0
LINE
8
DEFAULT_255_2_778
10
5.4761876
20
5.6328374
11
5.5809876
21
5.6752374
0
LINE
8
DEFAULT_255_2_778
10
8.9178876
20
5.8662374
11
8.8056876
21
5.8331374
0
LINE
8
DEFAULT_255_2_778
10
8.8056876
20
5.8331374
11
8.7075876
21
5.7717374
0
LINE
8
DEFAULT_255_2_778
10
8.7075876
20
5.7717374
11
8.6342876
21
5.6977374
0
LINE
8
DEFAULT_255_2_778
10
8.6342876
20
5.6977374
11
8.5728876
21
5.6072374
0
LINE
8
DEFAULT_255_2_778
10
8.5728876
20
5.6072374
11
8.5320876
21
5.5270374
0
LINE
8
DEFAULT_255_2_778
10
8.5320876
20
5.5270374
11
8.4992876
21
5.4439374
0
LINE
8
DEFAULT_255_2_778
10
8.4992876
20
5.4439374
11
8.4804876
21
5.3836374
0
LINE
8
DEFAULT_255_2_778
10
8.4804876
20
5.3836374
11
8.4643876
21
5.3185374
0
LINE
8
DEFAULT_255_2_778
10
8.4643876
20
5.3185374
11
8.4519876
21
5.2526374
0
LINE
8
DEFAULT_255_2_778
10
8.4519876
20
5.2526374
11
8.4468876
21
5.2196374
0
LINE
8
DEFAULT_255_2_778
10
8.4468876
20
5.2196374
11
8.4423876
21
5.1830374
0
LINE
8
DEFAULT_255_2_778
10
8.4423876
20
5.1830374
11
8.4386876
21
5.1465374
0
LINE
8
DEFAULT_255_2_778
10
8.4386876
20
5.1465374
11
8.4384876
21
4.8507374
0
LINE
8
DEFAULT_255_2_778
10
8.4384876
20
4.8507374
11
8.4421876
21
4.8137374
0
LINE
8
DEFAULT_255_2_778
10
8.4421876
20
4.8137374
11
8.4466876
21
4.7766374
0
LINE
8
DEFAULT_255_2_778
10
8.4466876
20
4.7766374
11
8.4572876
21
4.7094374
0
LINE
8
DEFAULT_255_2_778
10
8.4572876
20
4.7094374
11
8.4712876
21
4.6430374
0
LINE
8
DEFAULT_255_2_778
10
8.4712876
20
4.6430374
11
8.4889876
21
4.5774374
0
LINE
8
DEFAULT_255_2_778
10
8.4889876
20
4.5774374
11
8.5151876
21
4.5009374
0
LINE
8
DEFAULT_255_2_778
10
8.5151876
20
4.5009374
11
8.5474876
21
4.4266374
0
LINE
8
DEFAULT_255_2_778
10
8.5474876
20
4.4266374
11
8.5929876
21
4.3440374
0
LINE
8
DEFAULT_255_2_778
10
8.5929876
20
4.3440374
11
8.6458876
21
4.2718374
0
LINE
8
DEFAULT_255_2_778
10
8.6458876
20
4.2718374
11
8.7204876
21
4.2001374
0
LINE
8
DEFAULT_255_2_778
10
8.7204876
20
4.2001374
11
8.8215876
21
4.1408374
0
LINE
8
DEFAULT_255_2_778
10
8.8215876
20
4.1408374
11
8.9559876
21
4.1096374
0
LINE
8
DEFAULT_255_2_778
10
8.9559876
20
4.1096374
11
9.0945876
21
4.1178374
0
LINE
8
DEFAULT_255_2_778
10
9.0945876
20
4.1178374
11
9.2057876
21
4.1573374
0
LINE
8
DEFAULT_255_2_778
10
9.2057876
20
4.1573374
11
9.3014876
21
4.2252374
0
LINE
8
DEFAULT_255_2_778
10
9.3014876
20
4.2252374
11
9.3734876
21
4.3067374
0
LINE
8
DEFAULT_255_2_778
10
9.3734876
20
4.3067374
11
9.4316876
21
4.4020374
0
LINE
8
DEFAULT_255_2_778
10
9.4316876
20
4.4020374
11
9.4660876
21
4.4758374
0
LINE
8
DEFAULT_255_2_778
10
9.4660876
20
4.4758374
11
9.4943876
21
4.5520374
0
LINE
8
DEFAULT_255_2_778
10
9.4943876
20
4.5520374
11
9.5118876
21
4.6105374
0
LINE
8
DEFAULT_255_2_778
10
9.5118876
20
4.6105374
11
9.5277876
21
4.6766374
0
LINE
8
DEFAULT_255_2_778
10
9.5277876
20
4.6766374
11
9.5401876
21
4.7436374
0
LINE
8
DEFAULT_255_2_778
10
9.5401876
20
4.7436374
11
9.5451876
21
4.7772374
0
LINE
8
DEFAULT_255_2_778
10
9.5451876
20
4.7772374
11
9.5496876
21
4.8142374
0
LINE
8
DEFAULT_255_2_778
10
9.5496876
20
4.8142374
11
9.5533876
21
4.8513374
0
LINE
8
DEFAULT_255_2_778
10
9.5533876
20
4.8513374
11
9.5531876
21
5.1465374
0
LINE
8
DEFAULT_255_2_778
10
9.5531876
20
5.1465374
11
9.5494876
21
5.1830374
0
LINE
8
DEFAULT_255_2_778
10
9.5494876
20
5.1830374
11
9.5449876
21
5.2196374
0
LINE
8
DEFAULT_255_2_778
10
9.5449876
20
5.2196374
11
9.5340876
21
5.2857374
0
LINE
8
DEFAULT_255_2_778
10
9.5340876
20
5.2857374
11
9.5197876
21
5.3511374
0
LINE
8
DEFAULT_255_2_778
10
9.5197876
20
5.3511374
11
9.5017876
21
5.4156374
0
LINE
8
DEFAULT_255_2_778
10
9.5017876
20
5.4156374
11
9.4750876
21
5.4910374
0
LINE
8
DEFAULT_255_2_778
10
9.4750876
20
5.4910374
11
9.4422876
21
5.5640374
0
LINE
8
DEFAULT_255_2_778
10
9.4422876
20
5.5640374
11
9.3843876
21
5.6625374
0
LINE
8
DEFAULT_255_2_778
10
9.3843876
20
5.6625374
11
9.3292876
21
5.7302374
0
LINE
8
DEFAULT_255_2_778
10
9.3292876
20
5.7302374
11
9.2379876
21
5.8053374
0
LINE
8
DEFAULT_255_2_778
10
9.2379876
20
5.8053374
11
9.1321876
21
5.8532374
0
LINE
8
DEFAULT_255_2_778
10
9.1321876
20
5.8532374
11
8.9958876
21
5.8720374
0
LINE
8
DEFAULT_255_2_778
10
8.9958876
20
5.8720374
11
8.9178876
21
5.8662374
0
LINE
8
DEFAULT_255_2_778
10
8.9339876
20
5.6728374
11
9.0588876
21
5.6728374
0
LINE
8
DEFAULT_255_2_778
10
9.0588876
20
5.6728374
11
9.1509876
21
5.6334374
0
LINE
8
DEFAULT_255_2_778
10
9.1509876
20
5.6334374
11
9.2168876
21
5.5728374
0
LINE
8
DEFAULT_255_2_778
10
9.2168876
20
5.5728374
11
9.2644876
21
5.5016374
0
LINE
8
DEFAULT_255_2_778
10
9.2644876
20
5.5016374
11
9.2959876
21
5.4339374
0
LINE
8
DEFAULT_255_2_778
10
9.2959876
20
5.4339374
11
9.3239876
21
5.3516374
0
LINE
8
DEFAULT_255_2_778
10
9.3239876
20
5.3516374
11
9.3406876
21
5.2852374
0
LINE
8
DEFAULT_255_2_778
10
9.3406876
20
5.2852374
11
9.3499876
21
5.2362374
0
LINE
8
DEFAULT_255_2_778
10
9.3499876
20
5.2362374
11
9.3570876
21
5.1870374
0
LINE
8
DEFAULT_255_2_778
10
9.3570876
20
5.1870374
11
9.3599876
21
5.1621374
0
LINE
8
DEFAULT_255_2_778
10
9.3599876
20
5.1621374
11
9.3631876
21
5.1293374
0
LINE
8
DEFAULT_255_2_778
10
9.3631876
20
5.1293374
11
9.3631876
21
4.8637374
0
LINE
8
DEFAULT_255_2_778
10
9.3631876
20
4.8637374
11
9.3599876
21
4.8304374
0
LINE
8
DEFAULT_255_2_778
10
9.3599876
20
4.8304374
11
9.3538876
21
4.7801374
0
LINE
8
DEFAULT_255_2_778
10
9.3538876
20
4.7801374
11
9.3456876
21
4.7301374
0
LINE
8
DEFAULT_255_2_778
10
9.3456876
20
4.7301374
11
9.3300876
21
4.6581374
0
LINE
8
DEFAULT_255_2_778
10
9.3300876
20
4.6581374
11
9.3104876
21
4.5917374
0
LINE
8
DEFAULT_255_2_778
10
9.3104876
20
4.5917374
11
9.2734876
21
4.5002374
0
LINE
8
DEFAULT_255_2_778
10
9.2734876
20
4.5002374
11
9.2284876
21
4.4250374
0
LINE
8
DEFAULT_255_2_778
10
9.2284876
20
4.4250374
11
9.1620876
21
4.3562374
0
LINE
8
DEFAULT_255_2_778
10
9.1620876
20
4.3562374
11
9.0713876
21
4.3110374
0
LINE
8
DEFAULT_255_2_778
10
9.0713876
20
4.3110374
11
8.9458876
21
4.3054374
0
LINE
8
DEFAULT_255_2_778
10
8.9458876
20
4.3054374
11
8.8516876
21
4.3411374
0
LINE
8
DEFAULT_255_2_778
10
8.8516876
20
4.3411374
11
8.7747876
21
4.4107374
0
LINE
8
DEFAULT_255_2_778
10
8.7747876
20
4.4107374
11
8.7268876
21
4.4840374
0
LINE
8
DEFAULT_255_2_778
10
8.7268876
20
4.4840374
11
8.6977876
21
4.5478374
0
LINE
8
DEFAULT_255_2_778
10
8.6977876
20
4.5478374
11
8.6746876
21
4.6131374
0
LINE
8
DEFAULT_255_2_778
10
8.6746876
20
4.6131374
11
8.6567876
21
4.6801374
0
LINE
8
DEFAULT_255_2_778
10
8.6567876
20
4.6801374
11
8.6463876
21
4.7295374
0
LINE
8
DEFAULT_255_2_778
10
8.6463876
20
4.7295374
11
8.6381876
21
4.7796374
0
LINE
8
DEFAULT_255_2_778
10
8.6381876
20
4.7796374
11
8.6320876
21
4.8298374
0
LINE
8
DEFAULT_255_2_778
10
8.6320876
20
4.8298374
11
8.6289876
21
4.8632374
0
LINE
8
DEFAULT_255_2_778
10
8.6289876
20
4.8632374
11
8.6289876
21
5.1288374
0
LINE
8
DEFAULT_255_2_778
10
8.6289876
20
5.1288374
11
8.6320876
21
5.1616374
0
LINE
8
DEFAULT_255_2_778
10
8.6320876
20
5.1616374
11
8.6381876
21
5.2111374
0
LINE
8
DEFAULT_255_2_778
10
8.6381876
20
5.2111374
11
8.6463876
21
5.2603374
0
LINE
8
DEFAULT_255_2_778
10
8.6463876
20
5.2603374
11
8.6622876
21
5.3312374
0
LINE
8
DEFAULT_255_2_778
10
8.6622876
20
5.3312374
11
8.6821876
21
5.3966374
0
LINE
8
DEFAULT_255_2_778
10
8.6821876
20
5.3966374
11
8.7194876
21
5.4860374
0
LINE
8
DEFAULT_255_2_778
10
8.7194876
20
5.4860374
11
8.7643876
21
5.5587374
0
LINE
8
DEFAULT_255_2_778
10
8.7643876
20
5.5587374
11
8.8411876
21
5.6328374
0
LINE
8
DEFAULT_255_2_778
10
8.8411876
20
5.6328374
11
8.9339876
21
5.6728374
0
LINE
8
DEFAULT_255_2_778
10
10.1619875
20
4.7832739
11
10.7226875
21
4.7832739
0
LINE
8
DEFAULT_255_2_778
10
10.7226875
20
4.7832739
11
10.4418875
21
5.6278739
0
LINE
8
DEFAULT_255_2_778
10
10.4418875
20
5.6278739
11
10.1619875
21
4.7832739
0
LINE
8
DEFAULT_255_2_778
10
10.3307875
20
5.8471739
11
10.5503875
21
5.8471739
0
LINE
8
DEFAULT_255_2_778
10
10.5503875
20
5.8471739
11
11.1501875
21
4.1472739
0
LINE
8
DEFAULT_255_2_778
10
11.1501875
20
4.1472739
11
10.9326875
21
4.1472739
0
LINE
8
DEFAULT_255_2_778
10
10.9326875
20
4.1472739
11
10.7855875
21
4.5906739
0
LINE
8
DEFAULT_255_2_778
10
10.7855875
20
4.5906739
11
10.0976875
21
4.5906739
0
LINE
8
DEFAULT_255_2_778
10
10.0976875
20
4.5906739
11
9.9526875
21
4.1472739
0
LINE
8
DEFAULT_255_2_778
10
9.9526875
20
4.1472739
11
9.7309875
21
4.1472739
0
LINE
8
DEFAULT_255_2_778
10
9.7309875
20
4.1472739
11
10.3307875
21
5.8471739
0
LINE
8
DEFAULT_255_2_778
10
11.7277875
20
4.7832739
11
12.2884875
21
4.7832739
0
LINE
8
DEFAULT_255_2_778
10
12.2884875
20
4.7832739
11
12.0076875
21
5.6278739
0
LINE
8
DEFAULT_255_2_778
10
12.0076875
20
5.6278739
11
11.7277875
21
4.7832739
0
LINE
8
DEFAULT_255_2_778
10
11.8965875
20
5.8471739
11
12.1161875
21
5.8471739
0
LINE
8
DEFAULT_255_2_778
10
12.1161875
20
5.8471739
11
12.7159875
21
4.1472739
0
LINE
8
DEFAULT_255_2_778
10
12.7159875
20
4.1472739
11
12.4984875
21
4.1472739
0
LINE
8
DEFAULT_255_2_778
10
12.4984875
20
4.1472739
11
12.3513875
21
4.5906739
0
LINE
8
DEFAULT_255_2_778
10
12.3513875
20
4.5906739
11
11.6634875
21
4.5906739
0
LINE
8
DEFAULT_255_2_778
10
11.6634875
20
4.5906739
11
11.5184875
21
4.1472739
0
LINE
8
DEFAULT_255_2_778
10
11.5184875
20
4.1472739
11
11.2967875
21
4.1472739
0
LINE
8
DEFAULT_255_2_778
10
11.2967875
20
4.1472739
11
11.8965875
21
5.8471739
0
LINE
8
DEFAULT_255_2_778
10
13.3796229
20
5.8661948
11
13.2674229
21
5.8330948
0
LINE
8
DEFAULT_255_2_778
10
13.2674229
20
5.8330948
11
13.1692229
21
5.7716948
0
LINE
8
DEFAULT_255_2_778
10
13.1692229
20
5.7716948
11
13.0959229
21
5.6975948
0
LINE
8
DEFAULT_255_2_778
10
13.0959229
20
5.6975948
11
13.0345229
21
5.6071948
0
LINE
8
DEFAULT_255_2_778
10
13.0345229
20
5.6071948
11
12.9941229
21
5.5269948
0
LINE
8
DEFAULT_255_2_778
10
12.9941229
20
5.5269948
11
12.9613229
21
5.4438948
0
LINE
8
DEFAULT_255_2_778
10
12.9613229
20
5.4438948
11
12.9425229
21
5.3835948
0
LINE
8
DEFAULT_255_2_778
10
12.9425229
20
5.3835948
11
12.9263229
21
5.3184948
0
LINE
8
DEFAULT_255_2_778
10
12.9263229
20
5.3184948
11
12.9139229
21
5.2525948
0
LINE
8
DEFAULT_255_2_778
10
12.9139229
20
5.2525948
11
12.9089229
21
5.2194948
0
LINE
8
DEFAULT_255_2_778
10
12.9089229
20
5.2194948
11
12.9044229
21
5.1829948
0
LINE
8
DEFAULT_255_2_778
10
12.9044229
20
5.1829948
11
12.9007229
21
5.1464948
0
LINE
8
DEFAULT_255_2_778
10
12.9007229
20
5.1464948
11
12.9004229
21
4.8506948
0
LINE
8
DEFAULT_255_2_778
10
12.9004229
20
4.8506948
11
12.9041229
21
4.8136948
0
LINE
8
DEFAULT_255_2_778
10
12.9041229
20
4.8136948
11
12.9086229
21
4.7765948
0
LINE
8
DEFAULT_255_2_778
10
12.9086229
20
4.7765948
11
12.9192229
21
4.7093948
0
LINE
8
DEFAULT_255_2_778
10
12.9192229
20
4.7093948
11
12.9332229
21
4.6429948
0
LINE
8
DEFAULT_255_2_778
10
12.9332229
20
4.6429948
11
12.9509229
21
4.5773948
0
LINE
8
DEFAULT_255_2_778
10
12.9509229
20
4.5773948
11
12.9771229
21
4.5008948
0
LINE
8
DEFAULT_255_2_778
10
12.9771229
20
4.5008948
11
13.0094229
21
4.4265948
0
LINE
8
DEFAULT_255_2_778
10
13.0094229
20
4.4265948
11
13.0549229
21
4.3439948
0
LINE
8
DEFAULT_255_2_778
10
13.0549229
20
4.3439948
11
13.1078229
21
4.2717948
0
LINE
8
DEFAULT_255_2_778
10
13.1078229
20
4.2717948
11
13.1824229
21
4.2000948
0
LINE
8
DEFAULT_255_2_778
10
13.1824229
20
4.2000948
11
13.2835229
21
4.1407948
0
LINE
8
DEFAULT_255_2_778
10
13.2835229
20
4.1407948
11
13.4179229
21
4.1095948
0
LINE
8
DEFAULT_255_2_778
10
13.4179229
20
4.1095948
11
13.5566229
21
4.1177948
0
LINE
8
DEFAULT_255_2_778
10
13.5566229
20
4.1177948
11
13.6677229
21
4.1571948
0
LINE
8
DEFAULT_255_2_778
10
13.6677229
20
4.1571948
11
13.7635229
21
4.2251948
0
LINE
8
DEFAULT_255_2_778
10
13.7635229
20
4.2251948
11
13.8354229
21
4.3066948
0
LINE
8
DEFAULT_255_2_778
10
13.8354229
20
4.3066948
11
13.8936229
21
4.4019948
0
LINE
8
DEFAULT_255_2_778
10
13.8936229
20
4.4019948
11
13.9280229
21
4.4757948
0
LINE
8
DEFAULT_255_2_778
10
13.9280229
20
4.4757948
11
13.9564229
21
4.5519948
0
LINE
8
DEFAULT_255_2_778
10
13.9564229
20
4.5519948
11
13.9738229
21
4.6104948
0
LINE
8
DEFAULT_255_2_778
10
13.9738229
20
4.6104948
11
13.9897229
21
4.6765948
0
LINE
8
DEFAULT_255_2_778
10
13.9897229
20
4.6765948
11
14.0021229
21
4.7435948
0
LINE
8
DEFAULT_255_2_778
10
14.0021229
20
4.7435948
11
14.0072229
21
4.7771948
0
LINE
8
DEFAULT_255_2_778
10
14.0072229
20
4.7771948
11
14.0116229
21
4.8141948
0
LINE
8
DEFAULT_255_2_778
10
14.0116229
20
4.8141948
11
14.0154229
21
4.8511948
0
LINE
8
DEFAULT_255_2_778
10
14.0154229
20
4.8511948
11
14.0151229
21
5.1464948
0
LINE
8
DEFAULT_255_2_778
10
14.0151229
20
5.1464948
11
14.0114229
21
5.1829948
0
LINE
8
DEFAULT_255_2_778
10
14.0114229
20
5.1829948
11
14.0069229
21
5.2194948
0
LINE
8
DEFAULT_255_2_778
10
14.0069229
20
5.2194948
11
13.9960229
21
5.2856948
0
LINE
8
DEFAULT_255_2_778
10
13.9960229
20
5.2856948
11
13.9818229
21
5.3509948
0
LINE
8
DEFAULT_255_2_778
10
13.9818229
20
5.3509948
11
13.9638229
21
5.4155948
0
LINE
8
DEFAULT_255_2_778
10
13.9638229
20
5.4155948
11
13.9370229
21
5.4909948
0
LINE
8
DEFAULT_255_2_778
10
13.9370229
20
5.4909948
11
13.9042229
21
5.5639948
0
LINE
8
DEFAULT_255_2_778
10
13.9042229
20
5.5639948
11
13.8463229
21
5.6624948
0
LINE
8
DEFAULT_255_2_778
10
13.8463229
20
5.6624948
11
13.7913229
21
5.7301948
0
LINE
8
DEFAULT_255_2_778
10
13.7913229
20
5.7301948
11
13.7000229
21
5.8052948
0
LINE
8
DEFAULT_255_2_778
10
13.7000229
20
5.8052948
11
13.5941229
21
5.8531948
0
LINE
8
DEFAULT_255_2_778
10
13.5941229
20
5.8531948
11
13.4579229
21
5.8719948
0
LINE
8
DEFAULT_255_2_778
10
13.4579229
20
5.8719948
11
13.3796229
21
5.8661948
0
LINE
8
DEFAULT_255_2_778
10
13.3957229
20
5.6727948
11
13.5206229
21
5.6727948
0
LINE
8
DEFAULT_255_2_778
10
13.5206229
20
5.6727948
11
13.6127229
21
5.6332948
0
LINE
8
DEFAULT_255_2_778
10
13.6127229
20
5.6332948
11
13.6785229
21
5.5727948
0
LINE
8
DEFAULT_255_2_778
10
13.6785229
20
5.5727948
11
13.7262229
21
5.5015948
0
LINE
8
DEFAULT_255_2_778
10
13.7262229
20
5.5015948
11
13.7576229
21
5.4338948
0
LINE
8
DEFAULT_255_2_778
10
13.7576229
20
5.4338948
11
13.7857229
21
5.3515948
0
LINE
8
DEFAULT_255_2_778
10
13.7857229
20
5.3515948
11
13.8024229
21
5.2851948
0
LINE
8
DEFAULT_255_2_778
10
13.8024229
20
5.2851948
11
13.8116229
21
5.2361948
0
LINE
8
DEFAULT_255_2_778
10
13.8116229
20
5.2361948
11
13.8188229
21
5.1869948
0
LINE
8
DEFAULT_255_2_778
10
13.8188229
20
5.1869948
11
13.8217229
21
5.1620948
0
LINE
8
DEFAULT_255_2_778
10
13.8217229
20
5.1620948
11
13.8249229
21
5.1292948
0
LINE
8
DEFAULT_255_2_778
10
13.8249229
20
5.1292948
11
13.8249229
21
4.8636948
0
LINE
8
DEFAULT_255_2_778
10
13.8249229
20
4.8636948
11
13.8217229
21
4.8302948
0
LINE
8
DEFAULT_255_2_778
10
13.8217229
20
4.8302948
11
13.8156229
21
4.7800948
0
LINE
8
DEFAULT_255_2_778
10
13.8156229
20
4.7800948
11
13.8074229
21
4.7300948
0
LINE
8
DEFAULT_255_2_778
10
13.8074229
20
4.7300948
11
13.7918229
21
4.6580948
0
LINE
8
DEFAULT_255_2_778
10
13.7918229
20
4.6580948
11
13.7722229
21
4.5916948
0
LINE
8
DEFAULT_255_2_778
10
13.7722229
20
4.5916948
11
13.7352229
21
4.5000948
0
LINE
8
DEFAULT_255_2_778
10
13.7352229
20
4.5000948
11
13.6902229
21
4.4249948
0
LINE
8
DEFAULT_255_2_778
10
13.6902229
20
4.4249948
11
13.6238229
21
4.3561948
0
LINE
8
DEFAULT_255_2_778
10
13.6238229
20
4.3561948
11
13.5330229
21
4.3109948
0
LINE
8
DEFAULT_255_2_778
10
13.5330229
20
4.3109948
11
13.4076229
21
4.3053948
0
LINE
8
DEFAULT_255_2_778
10
13.4076229
20
4.3053948
11
13.3134229
21
4.3410948
0
LINE
8
DEFAULT_255_2_778
10
13.3134229
20
4.3410948
11
13.2364229
21
4.4106948
0
LINE
8
DEFAULT_255_2_778
10
13.2364229
20
4.4106948
11
13.1885229
21
4.4839948
0
LINE
8
DEFAULT_255_2_778
10
13.1885229
20
4.4839948
11
13.1594229
21
4.5477948
0
LINE
8
DEFAULT_255_2_778
10
13.1594229
20
4.5477948
11
13.1364229
21
4.6130948
0
LINE
8
DEFAULT_255_2_778
10
13.1364229
20
4.6130948
11
13.1184229
21
4.6800948
0
LINE
8
DEFAULT_255_2_778
10
13.1184229
20
4.6800948
11
13.1081229
21
4.7294948
0
LINE
8
DEFAULT_255_2_778
10
13.1081229
20
4.7294948
11
13.0999229
21
4.7794948
0
LINE
8
DEFAULT_255_2_778
10
13.0999229
20
4.7794948
11
13.0938229
21
4.8297948
0
LINE
8
DEFAULT_255_2_778
10
13.0938229
20
4.8297948
11
13.0906229
21
4.8630948
0
LINE
8
DEFAULT_255_2_778
10
13.0906229
20
4.8630948
11
13.0906229
21
5.1287948
0
LINE
8
DEFAULT_255_2_778
10
13.0906229
20
5.1287948
11
13.0938229
21
5.1615948
0
LINE
8
DEFAULT_255_2_778
10
13.0938229
20
5.1615948
11
13.0999229
21
5.2110948
0
LINE
8
DEFAULT_255_2_778
10
13.0999229
20
5.2110948
11
13.1081229
21
5.2602948
0
LINE
8
DEFAULT_255_2_778
10
13.1081229
20
5.2602948
11
13.1240229
21
5.3311948
0
LINE
8
DEFAULT_255_2_778
10
13.1240229
20
5.3311948
11
13.1438229
21
5.3964948
0
LINE
8
DEFAULT_255_2_778
10
13.1438229
20
5.3964948
11
13.1811229
21
5.4859948
0
LINE
8
DEFAULT_255_2_778
10
13.1811229
20
5.4859948
11
13.2261229
21
5.5586948
0
LINE
8
DEFAULT_255_2_778
10
13.2261229
20
5.5586948
11
13.3028229
21
5.6327948
0
LINE
8
DEFAULT_255_2_778
10
13.3028229
20
5.6327948
11
13.3957229
21
5.6727948
0
ENDSEC
0
EOF