0
SECTION
2
HEADER
9
$MEASUREMENT
70
1
0
ENDSEC
0
SECTION
2
TABLES
0
TABLE
2
LTYPE
0
LTYPE
72
65
70
64
2
CONTINUOUS
3
______
73
0
40
0
0
ENDTAB
0
TABLE
2
LAYER
0
LAYER
2
DEFAULT_255_2_778
70
0
62
255
6
CONTINUOUS
0
ENDTAB
0
ENDSEC
0
SECTION
2
ENTITIES
0
ARC
8
DEFAULT_255_2_778
10
5.6782688
20
2.2469913
40
0.5000757
50
180.008676
51
270.0027763
0
LINE
8
DEFAULT_255_2_778
10
5.1781931
20
77.7471155
11
0.5780931
21
77.7471155
0
LINE
8
DEFAULT_255_2_778
10
0.5780931
20
77.7471155
11
0.1780931
21
77.3471155
0
LINE
8
DEFAULT_255_2_778
10
0.1780931
20
77.3471155
11
0.1780931
21
55.5671155
0
LINE
8
DEFAULT_255_2_778
10
0.1780931
20
55.5671155
11
0.5780931
21
55.1670155
0
LINE
8
DEFAULT_255_2_778
10
0.5780931
20
55.1670155
11
5.1781931
21
55.1670155
0
LINE
8
DEFAULT_255_2_778
10
25.1782931
20
3.6468155
11
25.1782931
21
1.7469155
0
LINE
8
DEFAULT_255_2_778
10
25.1782931
20
1.7469155
11
5.6782931
21
1.7469155
0
LINE
8
DEFAULT_255_2_778
10
5.1781931
20
2.2469155
11
5.1781931
21
82.4083155
0
LINE
8
DEFAULT_255_2_778
10
5.1781931
20
82.4083155
11
5.1892931
21
82.4297155
0
LINE
8
DEFAULT_255_2_778
10
5.1892931
20
82.4297155
11
5.2006931
21
82.4427155
0
LINE
8
DEFAULT_255_2_778
10
5.2006931
20
82.4427155
11
5.2122931
21
82.4469155
0
ARC
8
DEFAULT_255_2_778
10
23.1807807
20
79.5493468
40
2.1943226
50
279.9540664
51
305.8837572
0
ARC
8
DEFAULT_255_2_778
10
23.1773644
20
79.5550154
40
2.2009179
50
305.8693159
51
352.1202242
0
ARC
8
DEFAULT_255_2_778
10
23.1667208
20
79.5543258
40
2.2113675
50
352.1757291
51
0.0111485
0
ARC
8
DEFAULT_255_2_778
10
55.8780788
20
84.0467467
40
0.3001094
50
0.0208901
51
89.9791099
0
ARC
8
DEFAULT_255_2_778
10
55.8780788
20
3.4468655
40
0.3001094
50
270.0208901
51
359.9791099
0
ARC
8
DEFAULT_255_2_778
10
33.2781557
20
0.8721197
40
0.4999675
50
180.0302043
51
225.5264099
0
ARC
8
DEFAULT_255_2_778
10
33.2782973
20
0.8718741
40
0.4998915
50
225.4951085
51
270.0108504
0
ARC
8
DEFAULT_255_2_778
10
33.2783999
20
0.8717345
40
0.4997521
50
269.9990843
51
270.9846837
0
ARC
8
DEFAULT_255_2_778
10
33.4254815
20
-7.6205061
40
7.9937621
50
89.9999474
51
90.992709
0
ARC
8
DEFAULT_255_2_778
10
33.4249993
20
-7.6277056
40
8.0009615
50
69.1065778
51
89.9964943
0
ARC
8
DEFAULT_255_2_778
10
36.2783766
20
0.3471677
40
0.5000116
50
270.0013268
51
0.0101312
0
LINE
8
DEFAULT_255_2_778
10
5.1781882
20
74.1468561
11
23.5600882
21
77.3880561
0
LINE
8
DEFAULT_255_2_778
10
25.3780882
20
79.5547561
11
25.3780882
21
84.3468561
0
LINE
8
DEFAULT_255_2_778
10
25.3780882
20
84.3468561
11
55.8781882
21
84.3468561
0
LINE
8
DEFAULT_255_2_778
10
56.1781882
20
84.0468561
11
56.1781882
21
3.4467561
0
LINE
8
DEFAULT_255_2_778
10
55.8781882
20
3.1467561
11
25.1782882
21
3.1467561
0
LINE
8
DEFAULT_255_2_778
10
32.7781882
20
3.1470561
11
32.7781882
21
0.8718561
0
LINE
8
DEFAULT_255_2_778
10
36.7783882
20
0.3472561
11
36.7783882
21
3.1470561
0
LINE
8
DEFAULT_255_2_778
10
36.3688422
20
0.3469597
11
36.2781422
21
-0.1530403
0
LINE
8
DEFAULT_255_2_778
10
5.1781422
20
50.3352597
11
0.5781422
21
50.3352597
0
LINE
8
DEFAULT_255_2_778
10
5.1781422
20
46.3588597
11
0.5781422
21
46.3588597
0
ARC
8
DEFAULT_255_2_778
10
29.8781119
20
87.1473878
40
0.4996897
50
44.9766167
51
90.0025073
0
ARC
8
DEFAULT_255_2_778
10
29.8783426
20
87.1470754
40
0.4997474
50
359.9887792
51
45.0206486
0
ARC
8
DEFAULT_255_2_778
10
27.0942741
20
95.145109
40
7.9981315
50
269.9986814
51
290.368597
0
ARC
8
DEFAULT_255_2_778
10
26.8777965
20
86.6469781
40
0.4999994
50
89.9892894
51
134.9924763
0
ARC
8
DEFAULT_255_2_778
10
26.8783102
20
86.6468967
40
0.5004203
50
135.0274793
51
179.9907452
0
LINE
8
DEFAULT_255_2_778
10
5.17809
20
43.5470775
11
0.57809
21
43.5470775
0
LINE
8
DEFAULT_255_2_778
10
0.57809
20
43.5470775
11
0.57809
21
53.1469775
0
LINE
8
DEFAULT_255_2_778
10
0.57809
20
53.1469775
11
5.17809
21
53.1469775
0
LINE
8
DEFAULT_255_2_778
10
5.17809
20
82.4469775
11
25.37799
21
82.4469775
0
LINE
8
DEFAULT_255_2_778
10
25.37799
20
79.5470775
11
5.17809
21
79.5470775
0
LINE
8
DEFAULT_255_2_778
10
29.96639
20
87.1469775
11
29.87809
21
87.6470775
0
LINE
8
DEFAULT_255_2_778
10
30.37809
20
87.1469775
11
30.37809
21
84.3469775
0
LINE
8
DEFAULT_255_2_778
10
27.09409
20
87.1469775
11
26.87789
21
87.1469775
0
LINE
8
DEFAULT_255_2_778
10
26.37789
20
86.6469775
11
26.37789
21
84.3469775
0
ENDSEC
0
EOF