0
SECTION
2
HEADER
9
$MEASUREMENT
70
1
0
ENDSEC
0
SECTION
2
TABLES
0
TABLE
2
LTYPE
0
LTYPE
72
65
70
64
2
CONTINUOUS
3
______
73
0
40
0
0
ENDTAB
0
TABLE
2
LAYER
0
LAYER
2
DEFAULT_255_2_778
70
0
62
255
6
CONTINUOUS
0
ENDTAB
0
ENDSEC
0
SECTION
2
ENTITIES
0
ARC
8
DEFAULT_255_2_778
10
6.2667639
20
84.9376908
40
0.2999538
50
89.9905029
51
177.0276508
0
ARC
8
DEFAULT_255_2_778
10
9.0791143
20
84.9378498
40
0.2997949
50
2.9435075
51
90.0192478
0
ARC
8
DEFAULT_255_2_778
10
9.0787803
20
0.1376912
40
0.3001466
50
270.044534
51
356.9927207
0
ARC
8
DEFAULT_255_2_778
10
6.2667637
20
0.1374983
40
0.2999536
50
182.9723147
51
270.0095376
0
LINE
8
DEFAULT_255_2_778
10
5.8720136
20
83.1376446
11
5.9672136
21
84.9532446
0
LINE
8
DEFAULT_255_2_778
10
6.2668136
20
85.2376446
11
9.0790136
21
85.2376446
0
LINE
8
DEFAULT_255_2_778
10
9.3785136
20
84.9532446
11
9.4738136
21
83.1376446
0
LINE
8
DEFAULT_255_2_778
10
9.4738136
20
1.9375446
11
9.3785136
21
0.1219446
0
LINE
8
DEFAULT_255_2_778
10
9.0790136
20
-0.1624554
11
6.2668136
21
-0.1624554
0
LINE
8
DEFAULT_255_2_778
10
5.9672136
20
0.1219446
11
5.8720136
21
1.9375446
0
ARC
8
DEFAULT_255_2_778
10
14.6728131
20
2.4376068
40
0.5000756
50
270.0086621
51
0.0028016
0
ARC
8
DEFAULT_255_2_778
10
0.6729857
20
2.4376282
40
0.5000969
50
179.9996485
51
270.0003515
0
LINE
8
DEFAULT_255_2_778
10
0.6729888
20
1.9375312
11
14.6728888
21
1.9375312
0
LINE
8
DEFAULT_255_2_778
10
5.6227511
20
72.6876989
11
6.9226511
21
72.6876989
0
LINE
8
DEFAULT_255_2_778
10
6.9226511
20
72.6876989
11
6.9226511
21
70.5876989
0
LINE
8
DEFAULT_255_2_778
10
6.9226511
20
70.5876989
11
5.6227511
21
70.5876989
0
LINE
8
DEFAULT_255_2_778
10
5.6227511
20
70.5876989
11
5.6227511
21
72.6876989
0
LINE
8
DEFAULT_255_2_778
10
1.1729814
20
69.2378118
11
14.1729814
21
69.2378118
0
LINE
8
DEFAULT_255_2_778
10
14.1729814
20
69.2378118
11
14.1729814
21
66.2377118
0
LINE
8
DEFAULT_255_2_778
10
14.1729814
20
66.2377118
11
13.4728814
21
66.2377118
0
LINE
8
DEFAULT_255_2_778
10
13.4728814
20
66.2377118
11
13.4728814
21
18.2378118
0
LINE
8
DEFAULT_255_2_778
10
13.4728814
20
18.2378118
11
1.8730814
21
18.2378118
0
LINE
8
DEFAULT_255_2_778
10
1.8730814
20
18.2378118
11
1.8730814
21
66.2377118
0
LINE
8
DEFAULT_255_2_778
10
1.8730814
20
66.2377118
11
1.1729814
21
66.2377118
0
LINE
8
DEFAULT_255_2_778
10
1.1729814
20
66.2377118
11
1.1729814
21
69.2378118
0
ARC
8
DEFAULT_255_2_778
10
1.3945982
20
0.9371513
40
0.1781907
50
359.9696534
51
0.0910427
0
ARC
8
DEFAULT_255_2_778
10
1.1731571
20
0.9369676
40
0.3996318
50
315.0099835
51
0.0128069
0
ARC
8
DEFAULT_255_2_778
10
1.1731452
20
0.9369911
40
0.3996569
50
270.0029649
51
315.008803
0
LINE
8
DEFAULT_255_2_778
10
1.1731659
20
0.5373342
11
1.1727888
21
0.5373344
0
ARC
8
DEFAULT_255_2_778
10
0.6729857
20
82.6375375
40
0.5000969
50
89.9996485
51
180.0003515
0
ARC
8
DEFAULT_255_2_778
10
14.6729106
20
82.6379446
40
0.4996898
50
44.9766189
51
90.0025007
0
ARC
8
DEFAULT_255_2_778
10
14.6731413
20
82.6376323
40
0.4997474
50
359.9887792
51
45.0206486
0
LINE
8
DEFAULT_255_2_778
10
14.1727888
20
0.5376344
11
14.1724112
21
0.5376342
0
ARC
8
DEFAULT_255_2_778
10
14.1723219
20
0.9372661
40
0.3996318
50
225.0099835
51
270.0128069
0
ARC
8
DEFAULT_255_2_778
10
14.1723454
20
0.9372779
40
0.3996569
50
180.0029649
51
225.008803
0
ARC
8
DEFAULT_255_2_778
10
13.9505231
20
0.9373515
40
0.1778345
50
179.9088607
51
180.0303788
0
LINE
8
DEFAULT_255_2_778
10
7.6727888
20
63.2375344
11
7.6727888
21
18.2374344
0
LINE
8
DEFAULT_255_2_778
10
1.5727888
20
1.9375344
11
1.5727888
21
0.9374344
0
LINE
8
DEFAULT_255_2_778
10
1.1727888
20
0.5373344
11
0.1728888
21
0.5373344
0
LINE
8
DEFAULT_255_2_778
10
0.1728888
20
0.5373344
11
0.1728888
21
82.6375344
0
LINE
8
DEFAULT_255_2_778
10
0.6729888
20
83.1376344
11
14.6728888
21
83.1376344
0
LINE
8
DEFAULT_255_2_778
10
15.1728888
20
82.6375344
11
15.1728888
21
0.5376344
0
LINE
8
DEFAULT_255_2_778
10
15.1728888
20
0.5376344
11
14.1727888
21
0.5376344
0
LINE
8
DEFAULT_255_2_778
10
13.7726888
20
0.9376344
11
13.7726888
21
1.9378344
0
LINE
8
DEFAULT_255_2_778
10
14.1730888
20
68.3376344
11
1.1729888
21
68.3376344
0
LINE
8
DEFAULT_255_2_778
10
13.4729366
20
63.2375706
11
1.8728366
21
63.2375706
0
LINE
8
DEFAULT_255_2_778
10
8.9769366
20
79.1376706
11
9.0935366
21
79.1376706
0
LINE
8
DEFAULT_255_2_778
10
9.0935366
20
79.1376706
11
8.6337366
21
77.3099706
0
LINE
8
DEFAULT_255_2_778
10
8.6337366
20
77.3099706
11
8.5170366
21
77.3099706
0
LINE
8
DEFAULT_255_2_778
10
8.5170366
20
77.3099706
11
8.9769366
21
79.1376706
0
LINE
8
DEFAULT_255_2_778
10
4.7044366
20
78.6783706
11
4.5170366
21
78.6783706
0
LINE
8
DEFAULT_255_2_778
10
4.5170366
20
78.6783706
11
4.5194366
21
78.7397706
0
LINE
8
DEFAULT_255_2_778
10
4.5194366
20
78.7397706
11
4.5242366
21
78.7807706
0
LINE
8
DEFAULT_255_2_778
10
4.5242366
20
78.7807706
11
4.5385366
21
78.8481706
0
LINE
8
DEFAULT_255_2_778
10
4.5385366
20
78.8481706
11
4.5755366
21
78.9418706
0
LINE
8
DEFAULT_255_2_778
10
4.5755366
20
78.9418706
11
4.6483366
21
79.0397706
0
LINE
8
DEFAULT_255_2_778
10
4.6483366
20
79.0397706
11
4.7232366
21
79.0987706
0
LINE
8
DEFAULT_255_2_778
10
4.7232366
20
79.0987706
11
4.8277366
21
79.1439706
0
LINE
8
DEFAULT_255_2_778
10
4.8277366
20
79.1439706
11
4.9914366
21
79.1622706
0
LINE
8
DEFAULT_255_2_778
10
4.9914366
20
79.1622706
11
5.1465366
21
79.1357706
0
LINE
8
DEFAULT_255_2_778
10
5.1465366
20
79.1357706
11
5.2446366
21
79.0873706
0
LINE
8
DEFAULT_255_2_778
10
5.2446366
20
79.0873706
11
5.3235366
21
79.0177706
0
LINE
8
DEFAULT_255_2_778
10
5.3235366
20
79.0177706
11
5.3637366
21
78.9624706
0
LINE
8
DEFAULT_255_2_778
10
5.3637366
20
78.9624706
11
5.3875366
21
78.9153706
0
LINE
8
DEFAULT_255_2_778
10
5.3875366
20
78.9153706
11
5.4050366
21
78.8653706
0
LINE
8
DEFAULT_255_2_778
10
5.4050366
20
78.8653706
11
5.4140366
21
78.8291706
0
LINE
8
DEFAULT_255_2_778
10
5.4140366
20
78.8291706
11
5.4203366
21
78.7902706
0
LINE
8
DEFAULT_255_2_778
10
5.4203366
20
78.7902706
11
5.4198366
21
78.6402706
0
LINE
8
DEFAULT_255_2_778
10
5.4198366
20
78.6402706
11
5.4121366
21
78.5928706
0
LINE
8
DEFAULT_255_2_778
10
5.4121366
20
78.5928706
11
5.4013366
21
78.5460706
0
LINE
8
DEFAULT_255_2_778
10
5.4013366
20
78.5460706
11
5.3799366
21
78.4767706
0
LINE
8
DEFAULT_255_2_778
10
5.3799366
20
78.4767706
11
5.3433366
21
78.3872706
0
LINE
8
DEFAULT_255_2_778
10
5.3433366
20
78.3872706
11
5.2970366
21
78.2970706
0
LINE
8
DEFAULT_255_2_778
10
5.2970366
20
78.2970706
11
5.2251366
21
78.1832706
0
LINE
8
DEFAULT_255_2_778
10
5.2251366
20
78.1832706
11
5.0997366
21
78.0242706
0
LINE
8
DEFAULT_255_2_778
10
5.0997366
20
78.0242706
11
4.7959366
21
77.7189706
0
LINE
8
DEFAULT_255_2_778
10
4.7959366
20
77.7189706
11
4.6933366
21
77.6226706
0
LINE
8
DEFAULT_255_2_778
10
4.6933366
20
77.6226706
11
5.4542366
21
77.6226706
0
LINE
8
DEFAULT_255_2_778
10
5.4542366
20
77.6226706
11
5.4542366
21
77.4371706
0
LINE
8
DEFAULT_255_2_778
10
5.4542366
20
77.4371706
11
4.4578366
21
77.4371706
0
LINE
8
DEFAULT_255_2_778
10
4.4578366
20
77.4371706
11
4.4578366
21
77.6408706
0
LINE
8
DEFAULT_255_2_778
10
4.4578366
20
77.6408706
11
4.7017366
21
77.8739706
0
LINE
8
DEFAULT_255_2_778
10
4.7017366
20
77.8739706
11
4.8864366
21
78.0756706
0
LINE
8
DEFAULT_255_2_778
10
4.8864366
20
78.0756706
11
5.0494366
21
78.2811706
0
LINE
8
DEFAULT_255_2_778
10
5.0494366
20
78.2811706
11
5.1483366
21
78.4335706
0
LINE
8
DEFAULT_255_2_778
10
5.1483366
20
78.4335706
11
5.1923366
21
78.5219706
0
LINE
8
DEFAULT_255_2_778
10
5.1923366
20
78.5219706
11
5.2177366
21
78.5910706
0
LINE
8
DEFAULT_255_2_778
10
5.2177366
20
78.5910706
11
5.2296366
21
78.6383706
0
LINE
8
DEFAULT_255_2_778
10
5.2296366
20
78.6383706
11
5.2346366
21
78.6703706
0
LINE
8
DEFAULT_255_2_778
10
5.2346366
20
78.6703706
11
5.2333366
21
78.7582706
0
LINE
8
DEFAULT_255_2_778
10
5.2333366
20
78.7582706
11
5.2216366
21
78.8095706
0
LINE
8
DEFAULT_255_2_778
10
5.2216366
20
78.8095706
11
5.1899366
21
78.8751706
0
LINE
8
DEFAULT_255_2_778
10
5.1899366
20
78.8751706
11
5.0989366
21
78.9529706
0
LINE
8
DEFAULT_255_2_778
10
5.0989366
20
78.9529706
11
4.9144366
21
78.9746706
0
LINE
8
DEFAULT_255_2_778
10
4.9144366
20
78.9746706
11
4.7830366
21
78.9045706
0
LINE
8
DEFAULT_255_2_778
10
4.7830366
20
78.9045706
11
4.7369366
21
78.8384706
0
LINE
8
DEFAULT_255_2_778
10
4.7369366
20
78.8384706
11
4.7168366
21
78.7838706
0
LINE
8
DEFAULT_255_2_778
10
4.7168366
20
78.7838706
11
4.7086366
21
78.7434706
0
LINE
8
DEFAULT_255_2_778
10
4.7086366
20
78.7434706
11
4.7060366
21
78.7217706
0
LINE
8
DEFAULT_255_2_778
10
4.7060366
20
78.7217706
11
4.7041366
21
78.6783706
0
LINE
8
DEFAULT_255_2_778
10
10.6779554
20
77.7242479
11
10.9012554
21
77.7242479
0
LINE
8
DEFAULT_255_2_778
10
10.9012554
20
77.7242479
11
10.9012554
21
77.4374479
0
LINE
8
DEFAULT_255_2_778
10
10.9012554
20
77.4374479
11
10.6779554
21
77.4374479
0
LINE
8
DEFAULT_255_2_778
10
10.6779554
20
77.4374479
11
10.6779554
21
77.7242479
0
LINE
8
DEFAULT_255_2_778
10
11.3597554
20
79.1278479
11
12.1963554
21
79.1278479
0
LINE
8
DEFAULT_255_2_778
10
12.1963554
20
79.1278479
11
12.1963554
21
78.9424479
0
LINE
8
DEFAULT_255_2_778
10
12.1963554
20
78.9424479
11
11.5410554
21
78.9424479
0
LINE
8
DEFAULT_255_2_778
10
11.5410554
20
78.9424479
11
11.5296554
21
78.3955479
0
LINE
8
DEFAULT_255_2_778
10
11.5296554
20
78.3955479
11
11.6396554
21
78.5058479
0
LINE
8
DEFAULT_255_2_778
10
11.6396554
20
78.5058479
11
11.7703554
21
78.5584479
0
LINE
8
DEFAULT_255_2_778
10
11.7703554
20
78.5584479
11
11.9529554
21
78.5534479
0
LINE
8
DEFAULT_255_2_778
10
11.9529554
20
78.5534479
11
12.0847554
21
78.4894479
0
LINE
8
DEFAULT_255_2_778
10
12.0847554
20
78.4894479
11
12.1704554
21
78.3944479
0
LINE
8
DEFAULT_255_2_778
10
12.1704554
20
78.3944479
11
12.2164554
21
78.3066479
0
LINE
8
DEFAULT_255_2_778
10
12.2164554
20
78.3066479
11
12.2424554
21
78.2301479
0
LINE
8
DEFAULT_255_2_778
10
12.2424554
20
78.2301479
11
12.2543554
21
78.1790479
0
LINE
8
DEFAULT_255_2_778
10
12.2543554
20
78.1790479
11
12.2604554
21
78.1446479
0
LINE
8
DEFAULT_255_2_778
10
12.2604554
20
78.1446479
11
12.2646554
21
78.1134479
0
LINE
8
DEFAULT_255_2_778
10
12.2646554
20
78.1134479
11
12.2646554
21
77.8689479
0
LINE
8
DEFAULT_255_2_778
10
12.2646554
20
77.8689479
11
12.2574554
21
77.8218479
0
LINE
8
DEFAULT_255_2_778
10
12.2574554
20
77.8218479
11
12.2455554
21
77.7676479
0
LINE
8
DEFAULT_255_2_778
10
12.2455554
20
77.7676479
11
12.2294554
21
77.7144479
0
LINE
8
DEFAULT_255_2_778
10
12.2294554
20
77.7144479
11
12.2016554
21
77.6488479
0
LINE
8
DEFAULT_255_2_778
10
12.2016554
20
77.6488479
11
12.1569554
21
77.5755479
0
LINE
8
DEFAULT_255_2_778
10
12.1569554
20
77.5755479
11
12.0736554
21
77.4887479
0
LINE
8
DEFAULT_255_2_778
10
12.0736554
20
77.4887479
11
11.9455554
21
77.4213479
0
LINE
8
DEFAULT_255_2_778
10
11.9455554
20
77.4213479
11
11.7746554
21
77.3993479
0
LINE
8
DEFAULT_255_2_778
10
11.7746554
20
77.3993479
11
11.6018554
21
77.4353479
0
LINE
8
DEFAULT_255_2_778
10
11.6018554
20
77.4353479
11
11.4804554
21
77.5131479
0
LINE
8
DEFAULT_255_2_778
10
11.4804554
20
77.5131479
11
11.4092554
21
77.5935479
0
LINE
8
DEFAULT_255_2_778
10
11.4092554
20
77.5935479
11
11.3695554
21
77.6618479
0
LINE
8
DEFAULT_255_2_778
10
11.3695554
20
77.6618479
11
11.3404554
21
77.7366479
0
LINE
8
DEFAULT_255_2_778
10
11.3404554
20
77.7366479
11
11.3256554
21
77.7954479
0
LINE
8
DEFAULT_255_2_778
10
11.3256554
20
77.7954479
11
11.3187554
21
77.8351479
0
LINE
8
DEFAULT_255_2_778
10
11.3187554
20
77.8351479
11
11.3142554
21
77.8748479
0
LINE
8
DEFAULT_255_2_778
10
11.3142554
20
77.8748479
11
11.5118554
21
77.8748479
0
LINE
8
DEFAULT_255_2_778
10
11.5118554
20
77.8748479
11
11.5193554
21
77.8308479
0
LINE
8
DEFAULT_255_2_778
10
11.5193554
20
77.8308479
11
11.5428554
21
77.7597479
0
LINE
8
DEFAULT_255_2_778
10
11.5428554
20
77.7597479
11
11.6060554
21
77.6636479
0
LINE
8
DEFAULT_255_2_778
10
11.6060554
20
77.6636479
11
11.7270554
21
77.5980479
0
LINE
8
DEFAULT_255_2_778
10
11.7270554
20
77.5980479
11
11.8934554
21
77.6110479
0
LINE
8
DEFAULT_255_2_778
10
11.8934554
20
77.6110479
11
11.9860554
21
77.6840479
0
LINE
8
DEFAULT_255_2_778
10
11.9860554
20
77.6840479
11
12.0360554
21
77.7716479
0
LINE
8
DEFAULT_255_2_778
10
12.0360554
20
77.7716479
11
12.0572554
21
77.8377479
0
LINE
8
DEFAULT_255_2_778
10
12.0572554
20
77.8377479
11
12.0662554
21
77.8846479
0
LINE
8
DEFAULT_255_2_778
10
12.0662554
20
77.8846479
11
12.0640554
21
78.1068479
0
LINE
8
DEFAULT_255_2_778
10
12.0640554
20
78.1068479
11
12.0505554
21
78.1640479
0
LINE
8
DEFAULT_255_2_778
10
12.0505554
20
78.1640479
11
12.0214554
21
78.2357479
0
LINE
8
DEFAULT_255_2_778
10
12.0214554
20
78.2357479
11
11.9627554
21
78.3164479
0
LINE
8
DEFAULT_255_2_778
10
11.9627554
20
78.3164479
11
11.8587554
21
78.3740479
0
LINE
8
DEFAULT_255_2_778
10
11.8587554
20
78.3740479
11
11.6957554
21
78.3640479
0
LINE
8
DEFAULT_255_2_778
10
11.6957554
20
78.3640479
11
11.6037554
21
78.2965479
0
LINE
8
DEFAULT_255_2_778
10
11.6037554
20
78.2965479
11
11.5640554
21
78.2325479
0
LINE
8
DEFAULT_255_2_778
10
11.5640554
20
78.2325479
11
11.5484554
21
78.1851479
0
LINE
8
DEFAULT_255_2_778
10
11.5484554
20
78.1851479
11
11.5425554
21
78.1542479
0
LINE
8
DEFAULT_255_2_778
10
11.5425554
20
78.1542479
11
11.5402554
21
78.1335479
0
LINE
8
DEFAULT_255_2_778
10
11.5402554
20
78.1335479
11
11.3465554
21
78.1335479
0
LINE
8
DEFAULT_255_2_778
10
11.3465554
20
78.1335479
11
11.3587554
21
79.1276479
0
LINE
8
DEFAULT_255_2_778
10
3.9559554
20
78.6868479
11
4.1585554
21
78.6868479
0
LINE
8
DEFAULT_255_2_778
10
4.1585554
20
78.6868479
11
4.1564554
21
78.7442479
0
LINE
8
DEFAULT_255_2_778
10
4.1564554
20
78.7442479
11
4.1543554
21
78.7632479
0
LINE
8
DEFAULT_255_2_778
10
4.1543554
20
78.7632479
11
4.1480554
21
78.8013479
0
LINE
8
DEFAULT_255_2_778
10
4.1480554
20
78.8013479
11
4.1387554
21
78.8389479
0
LINE
8
DEFAULT_255_2_778
10
4.1387554
20
78.8389479
11
4.1212554
21
78.8884479
0
LINE
8
DEFAULT_255_2_778
10
4.1212554
20
78.8884479
11
4.0890554
21
78.9500479
0
LINE
8
DEFAULT_255_2_778
10
4.0890554
20
78.9500479
11
4.0339554
21
79.0180479
0
LINE
8
DEFAULT_255_2_778
10
4.0339554
20
79.0180479
11
3.9360554
21
79.0924479
0
LINE
8
DEFAULT_255_2_778
10
3.9360554
20
79.0924479
11
3.8114554
21
79.1442479
0
LINE
8
DEFAULT_255_2_778
10
3.8114554
20
79.1442479
11
3.6302554
21
79.1704479
0
LINE
8
DEFAULT_255_2_778
10
3.6302554
20
79.1704479
11
3.4458554
21
79.1524479
0
LINE
8
DEFAULT_255_2_778
10
3.4458554
20
79.1524479
11
3.3039554
21
79.0961479
0
LINE
8
DEFAULT_255_2_778
10
3.3039554
20
79.0961479
11
3.2121554
21
79.0286479
0
LINE
8
DEFAULT_255_2_778
10
3.2121554
20
79.0286479
11
3.1341554
21
78.9405479
0
LINE
8
DEFAULT_255_2_778
10
3.1341554
20
78.9405479
11
3.0870554
21
78.8667479
0
LINE
8
DEFAULT_255_2_778
10
3.0870554
20
78.8667479
11
3.0449554
21
78.7796479
0
LINE
8
DEFAULT_255_2_778
10
3.0449554
20
78.7796479
11
3.0190554
21
78.7090479
0
LINE
8
DEFAULT_255_2_778
10
3.0190554
20
78.7090479
11
2.9973554
21
78.6309479
0
LINE
8
DEFAULT_255_2_778
10
2.9973554
20
78.6309479
11
2.9859554
21
78.5780479
0
LINE
8
DEFAULT_255_2_778
10
2.9859554
20
78.5780479
11
2.9769554
21
78.5248479
0
LINE
8
DEFAULT_255_2_778
10
2.9769554
20
78.5248479
11
2.9722554
21
78.4899479
0
LINE
8
DEFAULT_255_2_778
10
2.9722554
20
78.4899479
11
2.9682554
21
78.4550479
0
LINE
8
DEFAULT_255_2_778
10
2.9682554
20
78.4550479
11
2.9650554
21
78.4201479
0
LINE
8
DEFAULT_255_2_778
10
2.9650554
20
78.4201479
11
2.9650554
21
78.1399479
0
LINE
8
DEFAULT_255_2_778
10
2.9650554
20
78.1399479
11
2.9682554
21
78.1049479
0
LINE
8
DEFAULT_255_2_778
10
2.9682554
20
78.1049479
11
2.9722554
21
78.0703479
0
LINE
8
DEFAULT_255_2_778
10
2.9722554
20
78.0703479
11
2.9812554
21
78.0092479
0
LINE
8
DEFAULT_255_2_778
10
2.9812554
20
78.0092479
11
2.9912554
21
77.9565479
0
LINE
8
DEFAULT_255_2_778
10
2.9912554
20
77.9565479
11
3.0039554
21
77.9044479
0
LINE
8
DEFAULT_255_2_778
10
3.0039554
20
77.9044479
11
3.0277554
21
77.8277479
0
LINE
8
DEFAULT_255_2_778
10
3.0277554
20
77.8277479
11
3.0648554
21
77.7393479
0
LINE
8
DEFAULT_255_2_778
10
3.0648554
20
77.7393479
11
3.1232554
21
77.6403479
0
LINE
8
DEFAULT_255_2_778
10
3.1232554
20
77.6403479
11
3.1981554
21
77.5530479
0
LINE
8
DEFAULT_255_2_778
10
3.1981554
20
77.5530479
11
3.3039554
21
77.4750479
0
LINE
8
DEFAULT_255_2_778
10
3.3039554
20
77.4750479
11
3.4452554
21
77.4207479
0
LINE
8
DEFAULT_255_2_778
10
3.4452554
20
77.4207479
11
3.6289554
21
77.4035479
0
LINE
8
DEFAULT_255_2_778
10
3.6289554
20
77.4035479
11
3.8061554
21
77.4311479
0
LINE
8
DEFAULT_255_2_778
10
3.8061554
20
77.4311479
11
3.9450554
21
77.4948479
0
LINE
8
DEFAULT_255_2_778
10
3.9450554
20
77.4948479
11
4.0400554
21
77.5739479
0
LINE
8
DEFAULT_255_2_778
10
4.0400554
20
77.5739479
11
4.0924554
21
77.6438479
0
LINE
8
DEFAULT_255_2_778
10
4.0924554
20
77.6438479
11
4.1228554
21
77.7060479
0
LINE
8
DEFAULT_255_2_778
10
4.1228554
20
77.7060479
11
4.1398554
21
77.7570479
0
LINE
8
DEFAULT_255_2_778
10
4.1398554
20
77.7570479
11
4.1482554
21
77.7938479
0
LINE
8
DEFAULT_255_2_778
10
4.1482554
20
77.7938479
11
4.1541554
21
77.8311479
0
LINE
8
DEFAULT_255_2_778
10
4.1541554
20
77.8311479
11
4.1559554
21
77.8499479
0
LINE
8
DEFAULT_255_2_778
10
4.1559554
20
77.8499479
11
4.1575554
21
77.8872479
0
LINE
8
DEFAULT_255_2_778
10
4.1575554
20
77.8872479
11
3.9548554
21
77.8872479
0
LINE
8
DEFAULT_255_2_778
10
3.9548554
20
77.8872479
11
3.9514554
21
77.8613479
0
LINE
8
DEFAULT_255_2_778
10
3.9514554
20
77.8613479
11
3.9429554
21
77.8224479
0
LINE
8
DEFAULT_255_2_778
10
3.9429554
20
77.8224479
11
3.9260554
21
77.7747479
0
LINE
8
DEFAULT_255_2_778
10
3.9260554
20
77.7747479
11
3.8889554
21
77.7134479
0
LINE
8
DEFAULT_255_2_778
10
3.8889554
20
77.7134479
11
3.8072554
21
77.6435479
0
LINE
8
DEFAULT_255_2_778
10
3.8072554
20
77.6435479
11
3.7003554
21
77.6041479
0
LINE
8
DEFAULT_255_2_778
10
3.7003554
20
77.6041479
11
3.5275554
21
77.6052479
0
LINE
8
DEFAULT_255_2_778
10
3.5275554
20
77.6052479
11
3.4010554
21
77.6565479
0
LINE
8
DEFAULT_255_2_778
10
3.4010554
20
77.6565479
11
3.3185554
21
77.7300479
0
LINE
8
DEFAULT_255_2_778
10
3.3185554
20
77.7300479
11
3.2587554
21
77.8208479
0
LINE
8
DEFAULT_255_2_778
10
3.2587554
20
77.8208479
11
3.2248554
21
77.8970479
0
LINE
8
DEFAULT_255_2_778
10
3.2248554
20
77.8970479
11
3.2053554
21
77.9563479
0
LINE
8
DEFAULT_255_2_778
10
3.2053554
20
77.9563479
11
3.1883554
21
78.0250479
0
LINE
8
DEFAULT_255_2_778
10
3.1883554
20
78.0250479
11
3.1799554
21
78.0713479
0
LINE
8
DEFAULT_255_2_778
10
3.1799554
20
78.0713479
11
3.1732554
21
78.1182479
0
LINE
8
DEFAULT_255_2_778
10
3.1732554
20
78.1182479
11
3.1677554
21
78.1719479
0
LINE
8
DEFAULT_255_2_778
10
3.1677554
20
78.1719479
11
3.1698554
21
78.4529479
0
LINE
8
DEFAULT_255_2_778
10
3.1698554
20
78.4529479
11
3.1769554
21
78.5090479
0
LINE
8
DEFAULT_255_2_778
10
3.1769554
20
78.5090479
11
3.1881554
21
78.5680479
0
LINE
8
DEFAULT_255_2_778
10
3.1881554
20
78.5680479
11
3.2031554
21
78.6259479
0
LINE
8
DEFAULT_255_2_778
10
3.2031554
20
78.6259479
11
3.2312554
21
78.7040479
0
LINE
8
DEFAULT_255_2_778
10
3.2312554
20
78.7040479
11
3.2812554
21
78.7966479
0
LINE
8
DEFAULT_255_2_778
10
3.2812554
20
78.7966479
11
3.3600554
21
78.8852479
0
LINE
8
DEFAULT_255_2_778
10
3.3600554
20
78.8852479
11
3.4799554
21
78.9519479
0
LINE
8
DEFAULT_255_2_778
10
3.4799554
20
78.9519479
11
3.6683554
21
78.9723479
0
LINE
8
DEFAULT_255_2_778
10
3.6683554
20
78.9723479
11
3.8059554
21
78.9347479
0
LINE
8
DEFAULT_255_2_778
10
3.8059554
20
78.9347479
11
3.8945554
21
78.8664479
0
LINE
8
DEFAULT_255_2_778
10
3.8945554
20
78.8664479
11
3.9329554
21
78.8050479
0
LINE
8
DEFAULT_255_2_778
10
3.9329554
20
78.8050479
11
3.9464554
21
78.7648479
0
LINE
8
DEFAULT_255_2_778
10
3.9464554
20
78.7648479
11
3.9527554
21
78.7312479
0
LINE
8
DEFAULT_255_2_778
10
3.9527554
20
78.7312479
11
3.9551554
21
78.6862479
0
LINE
8
DEFAULT_255_2_778
10
8.1360554
20
79.1376479
11
8.3501554
21
79.1376479
0
LINE
8
DEFAULT_255_2_778
10
8.3501554
20
79.1376479
11
7.7765554
21
77.4377479
0
LINE
8
DEFAULT_255_2_778
10
7.7765554
20
77.4377479
11
7.5553554
21
77.4377479
0
LINE
8
DEFAULT_255_2_778
10
7.5553554
20
77.4377479
11
6.9817554
21
79.1376479
0
LINE
8
DEFAULT_255_2_778
10
6.9817554
20
79.1376479
11
7.1957554
21
79.1376479
0
LINE
8
DEFAULT_255_2_778
10
7.1957554
20
79.1376479
11
7.6688554
21
77.6604479
0
LINE
8
DEFAULT_255_2_778
10
7.6688554
20
77.6604479
11
8.1358554
21
79.1376479
0
LINE
8
DEFAULT_255_2_778
10
1.6670554
20
80.5484479
11
2.1697554
21
80.5484479
0
LINE
8
DEFAULT_255_2_778
10
2.1697554
20
80.5484479
11
2.1697554
21
81.3953479
0
LINE
8
DEFAULT_255_2_778
10
2.1697554
20
81.3953479
11
1.6670554
21
80.5484479
0
LINE
8
DEFAULT_255_2_778
10
2.1350554
20
81.6374479
11
2.3634554
21
81.6374479
0
LINE
8
DEFAULT_255_2_778
10
2.3634554
20
81.6374479
11
2.3634554
21
80.5484479
0
LINE
8
DEFAULT_255_2_778
10
2.3634554
20
80.5484479
11
2.6367554
21
80.5484479
0
LINE
8
DEFAULT_255_2_778
10
2.6367554
20
80.5484479
11
2.6367554
21
80.3629479
0
LINE
8
DEFAULT_255_2_778
10
2.6367554
20
80.3629479
11
2.3634554
21
80.3629479
0
LINE
8
DEFAULT_255_2_778
10
2.3634554
20
80.3629479
11
2.3634554
21
79.9377479
0
LINE
8
DEFAULT_255_2_778
10
2.3634554
20
79.9377479
11
2.1697554
21
79.9377479
0
LINE
8
DEFAULT_255_2_778
10
2.1697554
20
79.9377479
11
2.1697554
21
80.3629479
0
LINE
8
DEFAULT_255_2_778
10
2.1697554
20
80.3629479
11
1.4979554
21
80.3629479
0
LINE
8
DEFAULT_255_2_778
10
1.4979554
20
80.3629479
11
1.4979554
21
80.5677479
0
LINE
8
DEFAULT_255_2_778
10
1.4979554
20
80.5677479
11
2.1350554
21
81.6374479
0
LINE
8
DEFAULT_255_2_778
10
3.6024542
20
81.6374146
11
4.2004542
21
81.6284146
0
LINE
8
DEFAULT_255_2_778
10
4.2004542
20
81.6284146
11
4.3599542
21
81.5903146
0
LINE
8
DEFAULT_255_2_778
10
4.3599542
20
81.5903146
11
4.4819542
21
81.5287146
0
LINE
8
DEFAULT_255_2_778
10
4.4819542
20
81.5287146
11
4.5782542
21
81.4456146
0
LINE
8
DEFAULT_255_2_778
10
4.5782542
20
81.4456146
11
4.6446542
21
81.3615146
0
LINE
8
DEFAULT_255_2_778
10
4.6446542
20
81.3615146
11
4.6975542
21
81.2681146
0
LINE
8
DEFAULT_255_2_778
10
4.6975542
20
81.2681146
11
4.7184542
21
81.2199146
0
LINE
8
DEFAULT_255_2_778
10
4.7184542
20
81.2199146
11
4.7388542
21
81.1617146
0
LINE
8
DEFAULT_255_2_778
10
4.7388542
20
81.1617146
11
4.7549542
21
81.1022146
0
LINE
8
DEFAULT_255_2_778
10
4.7549542
20
81.1022146
11
4.7671542
21
81.0419146
0
LINE
8
DEFAULT_255_2_778
10
4.7671542
20
81.0419146
11
4.7719542
21
81.0114146
0
LINE
8
DEFAULT_255_2_778
10
4.7719542
20
81.0114146
11
4.7758542
21
80.9807146
0
LINE
8
DEFAULT_255_2_778
10
4.7758542
20
80.9807146
11
4.7793542
21
80.9498146
0
LINE
8
DEFAULT_255_2_778
10
4.7793542
20
80.9498146
11
4.7795542
21
80.5860146
0
LINE
8
DEFAULT_255_2_778
10
4.7795542
20
80.5860146
11
4.7764542
21
80.5569146
0
LINE
8
DEFAULT_255_2_778
10
4.7764542
20
80.5569146
11
4.7679542
21
80.4992146
0
LINE
8
DEFAULT_255_2_778
10
4.7679542
20
80.4992146
11
4.7562542
21
80.4423146
0
LINE
8
DEFAULT_255_2_778
10
4.7562542
20
80.4423146
11
4.7412542
21
80.3862146
0
LINE
8
DEFAULT_255_2_778
10
4.7412542
20
80.3862146
11
4.7219542
21
80.3312146
0
LINE
8
DEFAULT_255_2_778
10
4.7219542
20
80.3312146
11
4.6819542
21
80.2468146
0
LINE
8
DEFAULT_255_2_778
10
4.6819542
20
80.2468146
11
4.6224542
21
80.1573146
0
LINE
8
DEFAULT_255_2_778
10
4.6224542
20
80.1573146
11
4.5491542
21
80.0798146
0
LINE
8
DEFAULT_255_2_778
10
4.5491542
20
80.0798146
11
4.4612542
21
80.0176146
0
LINE
8
DEFAULT_255_2_778
10
4.4612542
20
80.0176146
11
4.3316542
21
79.9661146
0
LINE
8
DEFAULT_255_2_778
10
4.3316542
20
79.9661146
11
4.0990542
21
79.9377146
0
LINE
8
DEFAULT_255_2_778
10
4.0990542
20
79.9377146
11
3.6024542
21
79.9377146
0
LINE
8
DEFAULT_255_2_778
10
3.6024542
20
79.9377146
11
3.6024542
21
81.6374146
0
LINE
8
DEFAULT_255_2_778
10
4.1001542
20
80.1301146
11
4.2774542
21
80.1547146
0
LINE
8
DEFAULT_255_2_778
10
4.2774542
20
80.1547146
11
4.3909542
21
80.2105146
0
LINE
8
DEFAULT_255_2_778
10
4.3909542
20
80.2105146
11
4.4681542
21
80.2857146
0
LINE
8
DEFAULT_255_2_778
10
4.4681542
20
80.2857146
11
4.5115542
21
80.3555146
0
LINE
8
DEFAULT_255_2_778
10
4.5115542
20
80.3555146
11
4.5380542
21
80.4190146
0
LINE
8
DEFAULT_255_2_778
10
4.5380542
20
80.4190146
11
4.5565542
21
80.4807146
0
LINE
8
DEFAULT_255_2_778
10
4.5565542
20
80.4807146
11
4.5668542
21
80.5267146
0
LINE
8
DEFAULT_255_2_778
10
4.5668542
20
80.5267146
11
4.5747542
21
80.5733146
0
LINE
8
DEFAULT_255_2_778
10
4.5747542
20
80.5733146
11
4.5816542
21
80.6296146
0
LINE
8
DEFAULT_255_2_778
10
4.5816542
20
80.6296146
11
4.5814542
21
80.9561146
0
LINE
8
DEFAULT_255_2_778
10
4.5814542
20
80.9561146
11
4.5750542
21
81.0016146
0
LINE
8
DEFAULT_255_2_778
10
4.5750542
20
81.0016146
11
4.5660542
21
81.0466146
0
LINE
8
DEFAULT_255_2_778
10
4.5660542
20
81.0466146
11
4.5544542
21
81.0911146
0
LINE
8
DEFAULT_255_2_778
10
4.5544542
20
81.0911146
11
4.5308542
21
81.1559146
0
LINE
8
DEFAULT_255_2_778
10
4.5308542
20
81.1559146
11
4.4919542
21
81.2300146
0
LINE
8
DEFAULT_255_2_778
10
4.4919542
20
81.2300146
11
4.4305542
21
81.3093146
0
LINE
8
DEFAULT_255_2_778
10
4.4305542
20
81.3093146
11
4.3541542
21
81.3723146
0
LINE
8
DEFAULT_255_2_778
10
4.3541542
20
81.3723146
11
4.2128542
21
81.4287146
0
LINE
8
DEFAULT_255_2_778
10
4.2128542
20
81.4287146
11
4.0599542
21
81.4445146
0
LINE
8
DEFAULT_255_2_778
10
4.0599542
20
81.4445146
11
3.7998542
21
81.4445146
0
LINE
8
DEFAULT_255_2_778
10
3.7998542
20
81.4445146
11
3.7998542
21
80.1301146
0
LINE
8
DEFAULT_255_2_778
10
3.7998542
20
80.1301146
11
4.1001542
21
80.1301146
0
LINE
8
DEFAULT_255_2_778
10
5.2074542
20
81.4107146
11
5.1682542
21
81.3429146
0
LINE
8
DEFAULT_255_2_778
10
5.1682542
20
81.3429146
11
5.1362542
21
81.2718146
0
LINE
8
DEFAULT_255_2_778
10
5.1362542
20
81.2718146
11
5.1171542
21
81.2186146
0
LINE
8
DEFAULT_255_2_778
10
5.1171542
20
81.2186146
11
5.1002542
21
81.1601146
0
LINE
8
DEFAULT_255_2_778
10
5.1002542
20
81.1601146
11
5.0864542
21
81.1006146
0
LINE
8
DEFAULT_255_2_778
10
5.0864542
20
81.1006146
11
5.0759542
21
81.0405146
0
LINE
8
DEFAULT_255_2_778
10
5.0759542
20
81.0405146
11
5.0703542
21
81.0003146
0
LINE
8
DEFAULT_255_2_778
10
5.0703542
20
81.0003146
11
5.0661542
21
80.9598146
0
LINE
8
DEFAULT_255_2_778
10
5.0661542
20
80.9598146
11
5.0629542
21
80.9193146
0
LINE
8
DEFAULT_255_2_778
10
5.0629542
20
80.9193146
11
5.0626542
21
80.6738146
0
LINE
8
DEFAULT_255_2_778
10
5.0626542
20
80.6738146
11
5.0658542
21
80.6325146
0
LINE
8
DEFAULT_255_2_778
10
5.0658542
20
80.6325146
11
5.0700542
21
80.5915146
0
LINE
8
DEFAULT_255_2_778
10
5.0700542
20
80.5915146
11
5.0753542
21
80.5505146
0
LINE
8
DEFAULT_255_2_778
10
5.0753542
20
80.5505146
11
5.0857542
21
80.4894146
0
LINE
8
DEFAULT_255_2_778
10
5.0857542
20
80.4894146
11
5.0991542
21
80.4288146
0
LINE
8
DEFAULT_255_2_778
10
5.0991542
20
80.4288146
11
5.1158542
21
80.3690146
0
LINE
8
DEFAULT_255_2_778
10
5.1158542
20
80.3690146
11
5.1452542
21
80.2878146
0
LINE
8
DEFAULT_255_2_778
10
5.1452542
20
80.2878146
11
5.1809542
21
80.2126146
0
LINE
8
DEFAULT_255_2_778
10
5.1809542
20
80.2126146
11
5.2338542
21
80.1290146
0
LINE
8
DEFAULT_255_2_778
10
5.2338542
20
80.1290146
11
5.3061542
21
80.0478146
0
LINE
8
DEFAULT_255_2_778
10
5.3061542
20
80.0478146
11
5.3907542
21
79.9840146
0
LINE
8
DEFAULT_255_2_778
10
5.3907542
20
79.9840146
11
5.5048542
21
79.9325146
0
LINE
8
DEFAULT_255_2_778
10
5.5048542
20
79.9325146
11
5.6606542
21
79.9047146
0
LINE
8
DEFAULT_255_2_778
10
5.6606542
20
79.9047146
11
5.8413542
21
79.9158146
0
LINE
8
DEFAULT_255_2_778
10
5.8413542
20
79.9158146
11
5.9844542
21
79.9642146
0
LINE
8
DEFAULT_255_2_778
10
5.9844542
20
79.9642146
11
6.0725542
21
80.0200146
0
LINE
8
DEFAULT_255_2_778
10
6.0725542
20
80.0200146
11
6.1509542
21
80.0957146
0
LINE
8
DEFAULT_255_2_778
10
6.1509542
20
80.0957146
11
6.2030542
21
80.1658146
0
LINE
8
DEFAULT_255_2_778
10
6.2030542
20
80.1658146
11
6.2443542
21
80.2380146
0
LINE
8
DEFAULT_255_2_778
10
6.2443542
20
80.2380146
11
6.2779542
21
80.3140146
0
LINE
8
DEFAULT_255_2_778
10
6.2779542
20
80.3140146
11
6.2972542
21
80.3693146
0
LINE
8
DEFAULT_255_2_778
10
6.2972542
20
80.3693146
11
6.3141542
21
80.4288146
0
LINE
8
DEFAULT_255_2_778
10
6.3141542
20
80.4288146
11
6.3276542
21
80.4891146
0
LINE
8
DEFAULT_255_2_778
10
6.3276542
20
80.4891146
11
6.3379542
21
80.5503146
0
LINE
8
DEFAULT_255_2_778
10
6.3379542
20
80.5503146
11
6.3435542
21
80.5913146
0
LINE
8
DEFAULT_255_2_778
10
6.3435542
20
80.5913146
11
6.3477542
21
80.6323146
0
LINE
8
DEFAULT_255_2_778
10
6.3477542
20
80.6323146
11
6.3509542
21
80.6733146
0
LINE
8
DEFAULT_255_2_778
10
6.3509542
20
80.6733146
11
6.3506542
21
80.9183146
0
LINE
8
DEFAULT_255_2_778
10
6.3506542
20
80.9183146
11
6.3475542
21
80.9585146
0
LINE
8
DEFAULT_255_2_778
10
6.3475542
20
80.9585146
11
6.3430542
21
80.9987146
0
LINE
8
DEFAULT_255_2_778
10
6.3430542
20
80.9987146
11
6.3374542
21
81.0387146
0
LINE
8
DEFAULT_255_2_778
10
6.3374542
20
81.0387146
11
6.3265542
21
81.0987146
0
LINE
8
DEFAULT_255_2_778
10
6.3265542
20
81.0987146
11
6.3128542
21
81.1580146
0
LINE
8
DEFAULT_255_2_778
10
6.3128542
20
81.1580146
11
6.2956542
21
81.2165146
0
LINE
8
DEFAULT_255_2_778
10
6.2956542
20
81.2165146
11
6.2652542
21
81.2961146
0
LINE
8
DEFAULT_255_2_778
10
6.2652542
20
81.2961146
11
6.2281542
21
81.3697146
0
LINE
8
DEFAULT_255_2_778
10
6.2281542
20
81.3697146
11
6.1741542
21
81.4512146
0
LINE
8
DEFAULT_255_2_778
10
6.1741542
20
81.4512146
11
6.1019542
21
81.5300146
0
LINE
8
DEFAULT_255_2_778
10
6.1019542
20
81.5300146
11
5.9998542
21
81.6022146
0
LINE
8
DEFAULT_255_2_778
10
5.9998542
20
81.6022146
11
5.8834542
21
81.6485146
0
LINE
8
DEFAULT_255_2_778
10
5.8834542
20
81.6485146
11
5.7066542
21
81.6705146
0
LINE
8
DEFAULT_255_2_778
10
5.7066542
20
81.6705146
11
5.5508542
21
81.6541146
0
LINE
8
DEFAULT_255_2_778
10
5.5508542
20
81.6541146
11
5.4124542
21
81.6028146
0
LINE
8
DEFAULT_255_2_778
10
5.4124542
20
81.6028146
11
5.3103542
21
81.5311146
0
LINE
8
DEFAULT_255_2_778
10
5.3103542
20
81.5311146
11
5.2381542
21
81.4525146
0
LINE
8
DEFAULT_255_2_778
10
5.2381542
20
81.4525146
11
5.2074542
21
81.4107146
0
LINE
8
DEFAULT_255_2_778
10
5.3516542
20
80.3158146
11
5.3180542
21
80.3910146
0
LINE
8
DEFAULT_255_2_778
10
5.3180542
20
80.3910146
11
5.2986542
21
80.4494146
0
LINE
8
DEFAULT_255_2_778
10
5.2986542
20
80.4494146
11
5.2851542
21
80.5021146
0
LINE
8
DEFAULT_255_2_778
10
5.2851542
20
80.5021146
11
5.2746542
21
80.5555146
0
LINE
8
DEFAULT_255_2_778
10
5.2746542
20
80.5555146
11
5.2666542
21
80.6093146
0
LINE
8
DEFAULT_255_2_778
10
5.2666542
20
80.6093146
11
5.2632542
21
80.6402146
0
LINE
8
DEFAULT_255_2_778
10
5.2632542
20
80.6402146
11
5.2632542
21
80.9479146
0
LINE
8
DEFAULT_255_2_778
10
5.2632542
20
80.9479146
11
5.2666542
21
80.9784146
0
LINE
8
DEFAULT_255_2_778
10
5.2666542
20
80.9784146
11
5.2746542
21
81.0313146
0
LINE
8
DEFAULT_255_2_778
10
5.2746542
20
81.0313146
11
5.2851542
21
81.0837146
0
LINE
8
DEFAULT_255_2_778
10
5.2851542
20
81.0837146
11
5.3050542
21
81.1546146
0
LINE
8
DEFAULT_255_2_778
10
5.3050542
20
81.1546146
11
5.3346542
21
81.2300146
0
LINE
8
DEFAULT_255_2_778
10
5.3346542
20
81.2300146
11
5.3788542
21
81.3088146
0
LINE
8
DEFAULT_255_2_778
10
5.3788542
20
81.3088146
11
5.4315542
21
81.3728146
0
LINE
8
DEFAULT_255_2_778
10
5.4315542
20
81.3728146
11
5.5190542
21
81.4363146
0
LINE
8
DEFAULT_255_2_778
10
5.5190542
20
81.4363146
11
5.6400542
21
81.4739146
0
LINE
8
DEFAULT_255_2_778
10
5.6400542
20
81.4739146
11
5.8029542
21
81.4684146
0
LINE
8
DEFAULT_255_2_778
10
5.8029542
20
81.4684146
11
5.9188542
21
81.4210146
0
LINE
8
DEFAULT_255_2_778
10
5.9188542
20
81.4210146
11
5.9913542
21
81.3607146
0
LINE
8
DEFAULT_255_2_778
10
5.9913542
20
81.3607146
11
6.0503542
21
81.2805146
0
LINE
8
DEFAULT_255_2_778
10
6.0503542
20
81.2805146
11
6.0815542
21
81.2197146
0
LINE
8
DEFAULT_255_2_778
10
6.0815542
20
81.2197146
11
6.1059542
21
81.1564146
0
LINE
8
DEFAULT_255_2_778
10
6.1059542
20
81.1564146
11
6.1199542
21
81.1091146
0
LINE
8
DEFAULT_255_2_778
10
6.1199542
20
81.1091146
11
6.1321542
21
81.0569146
0
LINE
8
DEFAULT_255_2_778
10
6.1321542
20
81.0569146
11
6.1413542
21
81.0043146
0
LINE
8
DEFAULT_255_2_778
10
6.1413542
20
81.0043146
11
6.1450542
21
80.9778146
0
LINE
8
DEFAULT_255_2_778
10
6.1450542
20
80.9778146
11
6.1485542
21
80.9474146
0
LINE
8
DEFAULT_255_2_778
10
6.1485542
20
80.9474146
11
6.1487542
21
80.6392146
0
LINE
8
DEFAULT_255_2_778
10
6.1487542
20
80.6392146
11
6.1453542
21
80.6082146
0
LINE
8
DEFAULT_255_2_778
10
6.1453542
20
80.6082146
11
6.1374542
21
80.5545146
0
LINE
8
DEFAULT_255_2_778
10
6.1374542
20
80.5545146
11
6.1268542
21
80.5010146
0
LINE
8
DEFAULT_255_2_778
10
6.1268542
20
80.5010146
11
6.1075542
21
80.4288146
0
LINE
8
DEFAULT_255_2_778
10
6.1075542
20
80.4288146
11
6.0784542
21
80.3523146
0
LINE
8
DEFAULT_255_2_778
10
6.0784542
20
80.3523146
11
6.0344542
21
80.2716146
0
LINE
8
DEFAULT_255_2_778
10
6.0344542
20
80.2716146
11
5.9815542
21
80.2055146
0
LINE
8
DEFAULT_255_2_778
10
5.9815542
20
80.2055146
11
5.8934542
21
80.1396146
0
LINE
8
DEFAULT_255_2_778
10
5.8934542
20
80.1396146
11
5.7709542
21
80.1007146
0
LINE
8
DEFAULT_255_2_778
10
5.7709542
20
80.1007146
11
5.6225542
21
80.1034146
0
LINE
8
DEFAULT_255_2_778
10
5.6225542
20
80.1034146
11
5.5029542
21
80.1473146
0
LINE
8
DEFAULT_255_2_778
10
5.5029542
20
80.1473146
11
5.4286542
21
80.2055146
0
LINE
8
DEFAULT_255_2_778
10
5.4286542
20
80.2055146
11
5.3669542
21
80.2859146
0
LINE
8
DEFAULT_255_2_778
10
5.3669542
20
80.2859146
11
5.3516542
21
80.3158146
0
LINE
8
DEFAULT_255_2_778
10
12.9962094
20
81.6375062
11
13.9384094
21
81.6375062
0
LINE
8
DEFAULT_255_2_778
10
13.9384094
20
81.6375062
11
13.9384094
21
81.4446062
0
LINE
8
DEFAULT_255_2_778
10
13.9384094
20
81.4446062
11
13.2055094
21
81.4446062
0
LINE
8
DEFAULT_255_2_778
10
13.2055094
20
81.4446062
11
13.2055094
21
80.9086062
0
LINE
8
DEFAULT_255_2_778
10
13.2055094
20
80.9086062
11
13.9005094
21
80.9086062
0
LINE
8
DEFAULT_255_2_778
10
13.9005094
20
80.9086062
11
13.9005094
21
80.7157062
0
LINE
8
DEFAULT_255_2_778
10
13.9005094
20
80.7157062
11
13.2055094
21
80.7157062
0
LINE
8
DEFAULT_255_2_778
10
13.2055094
20
80.7157062
11
13.2055094
21
79.9373062
0
LINE
8
DEFAULT_255_2_778
10
13.2055094
20
79.9373062
11
12.9962094
21
79.9373062
0
LINE
8
DEFAULT_255_2_778
10
12.9962094
20
79.9373062
11
12.9962094
21
81.6372062
0
LINE
8
DEFAULT_255_2_778
10
12.3953325
20
81.637453
11
12.6046325
21
81.637453
0
LINE
8
DEFAULT_255_2_778
10
12.6046325
20
81.637453
11
12.6046325
21
79.937553
0
LINE
8
DEFAULT_255_2_778
10
12.6046325
20
79.937553
11
12.3953325
21
79.937553
0
LINE
8
DEFAULT_255_2_778
10
12.3953325
20
79.937553
11
12.3953325
21
80.713253
0
LINE
8
DEFAULT_255_2_778
10
12.3953325
20
80.713253
11
11.6071325
21
80.713253
0
LINE
8
DEFAULT_255_2_778
10
11.6071325
20
80.713253
11
11.6071325
21
79.937253
0
LINE
8
DEFAULT_255_2_778
10
11.6071325
20
79.937253
11
11.3978325
21
79.937253
0
LINE
8
DEFAULT_255_2_778
10
11.3978325
20
79.937253
11
11.3978325
21
81.637153
0
LINE
8
DEFAULT_255_2_778
10
11.3978325
20
81.637153
11
11.6071325
21
81.637153
0
LINE
8
DEFAULT_255_2_778
10
11.6071325
20
81.637153
11
11.6071325
21
80.910653
0
LINE
8
DEFAULT_255_2_778
10
11.6071325
20
80.910653
11
12.3953325
21
80.910653
0
LINE
8
DEFAULT_255_2_778
10
12.3953325
20
80.910653
11
12.3953325
21
81.637153
0
LINE
8
DEFAULT_255_2_778
10
1.4979325
20
79.137653
11
2.0959325
21
79.128653
0
LINE
8
DEFAULT_255_2_778
10
2.0959325
20
79.128653
11
2.2554325
21
79.090553
0
LINE
8
DEFAULT_255_2_778
10
2.2554325
20
79.090553
11
2.3774325
21
79.028953
0
LINE
8
DEFAULT_255_2_778
10
2.3774325
20
79.028953
11
2.4737325
21
78.945853
0
LINE
8
DEFAULT_255_2_778
10
2.4737325
20
78.945853
11
2.5401325
21
78.861753
0
LINE
8
DEFAULT_255_2_778
10
2.5401325
20
78.861753
11
2.5930325
21
78.768353
0
LINE
8
DEFAULT_255_2_778
10
2.5930325
20
78.768353
11
2.6139325
21
78.720153
0
LINE
8
DEFAULT_255_2_778
10
2.6139325
20
78.720153
11
2.6343325
21
78.661953
0
LINE
8
DEFAULT_255_2_778
10
2.6343325
20
78.661953
11
2.6504325
21
78.602453
0
LINE
8
DEFAULT_255_2_778
10
2.6504325
20
78.602453
11
2.6626325
21
78.542053
0
LINE
8
DEFAULT_255_2_778
10
2.6626325
20
78.542053
11
2.6674325
21
78.511653
0
LINE
8
DEFAULT_255_2_778
10
2.6674325
20
78.511653
11
2.6713325
21
78.480953
0
LINE
8
DEFAULT_255_2_778
10
2.6713325
20
78.480953
11
2.6748325
21
78.450053
0
LINE
8
DEFAULT_255_2_778
10
2.6748325
20
78.450053
11
2.6750325
21
78.086253
0
LINE
8
DEFAULT_255_2_778
10
2.6750325
20
78.086253
11
2.6719325
21
78.057153
0
LINE
8
DEFAULT_255_2_778
10
2.6719325
20
78.057153
11
2.6634325
21
77.999453
0
LINE
8
DEFAULT_255_2_778
10
2.6634325
20
77.999453
11
2.6517325
21
77.942553
0
LINE
8
DEFAULT_255_2_778
10
2.6517325
20
77.942553
11
2.6367325
21
77.886453
0
LINE
8
DEFAULT_255_2_778
10
2.6367325
20
77.886453
11
2.6174325
21
77.831453
0
LINE
8
DEFAULT_255_2_778
10
2.6174325
20
77.831453
11
2.5774325
21
77.747053
0
LINE
8
DEFAULT_255_2_778
10
2.5774325
20
77.747053
11
2.5179325
21
77.657553
0
LINE
8
DEFAULT_255_2_778
10
2.5179325
20
77.657553
11
2.4446325
21
77.579853
0
LINE
8
DEFAULT_255_2_778
10
2.4446325
20
77.579853
11
2.3567325
21
77.517653
0
LINE
8
DEFAULT_255_2_778
10
2.3567325
20
77.517653
11
2.2271325
21
77.466053
0
LINE
8
DEFAULT_255_2_778
10
2.2271325
20
77.466053
11
1.9945325
21
77.437753
0
LINE
8
DEFAULT_255_2_778
10
1.9945325
20
77.437753
11
1.4979325
21
77.437753
0
LINE
8
DEFAULT_255_2_778
10
1.4979325
20
77.437753
11
1.4979325
21
79.137653
0
LINE
8
DEFAULT_255_2_778
10
1.9956325
20
77.630353
11
2.1729325
21
77.654953
0
LINE
8
DEFAULT_255_2_778
10
2.1729325
20
77.654953
11
2.2864325
21
77.710753
0
LINE
8
DEFAULT_255_2_778
10
2.2864325
20
77.710753
11
2.3636325
21
77.785953
0
LINE
8
DEFAULT_255_2_778
10
2.3636325
20
77.785953
11
2.4070325
21
77.855753
0
LINE
8
DEFAULT_255_2_778
10
2.4070325
20
77.855753
11
2.4335325
21
77.919253
0
LINE
8
DEFAULT_255_2_778
10
2.4335325
20
77.919253
11
2.4520325
21
77.980953
0
LINE
8
DEFAULT_255_2_778
10
2.4520325
20
77.980953
11
2.4623325
21
78.026953
0
LINE
8
DEFAULT_255_2_778
10
2.4623325
20
78.026953
11
2.4702325
21
78.073553
0
LINE
8
DEFAULT_255_2_778
10
2.4702325
20
78.073553
11
2.4771325
21
78.129853
0
LINE
8
DEFAULT_255_2_778
10
2.4771325
20
78.129853
11
2.4769325
21
78.456353
0
LINE
8
DEFAULT_255_2_778
10
2.4769325
20
78.456353
11
2.4705325
21
78.501853
0
LINE
8
DEFAULT_255_2_778
10
2.4705325
20
78.501853
11
2.4615325
21
78.546853
0
LINE
8
DEFAULT_255_2_778
10
2.4615325
20
78.546853
11
2.4499325
21
78.591353
0
LINE
8
DEFAULT_255_2_778
10
2.4499325
20
78.591353
11
2.4263325
21
78.656153
0
LINE
8
DEFAULT_255_2_778
10
2.4263325
20
78.656153
11
2.3874325
21
78.730253
0
LINE
8
DEFAULT_255_2_778
10
2.3874325
20
78.730253
11
2.3260325
21
78.809553
0
LINE
8
DEFAULT_255_2_778
10
2.3260325
20
78.809553
11
2.2496325
21
78.872553
0
LINE
8
DEFAULT_255_2_778
10
2.2496325
20
78.872553
11
2.1083325
21
78.928953
0
LINE
8
DEFAULT_255_2_778
10
2.1083325
20
78.928953
11
1.9554325
21
78.944753
0
LINE
8
DEFAULT_255_2_778
10
1.9554325
20
78.944753
11
1.6953325
21
78.944753
0
LINE
8
DEFAULT_255_2_778
10
1.6953325
20
78.944753
11
1.6953325
21
77.630353
0
LINE
8
DEFAULT_255_2_778
10
1.6953325
20
77.630353
11
1.9956325
21
77.630353
0
LINE
8
DEFAULT_255_2_778
10
5.8667325
20
78.048653
11
6.3694325
21
78.048653
0
LINE
8
DEFAULT_255_2_778
10
6.3694325
20
78.048653
11
6.3694325
21
78.895553
0
LINE
8
DEFAULT_255_2_778
10
6.3694325
20
78.895553
11
5.8667325
21
78.048653
0
LINE
8
DEFAULT_255_2_778
10
6.3347325
20
79.137653
11
6.5631325
21
79.137653
0
LINE
8
DEFAULT_255_2_778
10
6.5631325
20
79.137653
11
6.5631325
21
78.048653
0
LINE
8
DEFAULT_255_2_778
10
6.5631325
20
78.048653
11
6.8364325
21
78.048653
0
LINE
8
DEFAULT_255_2_778
10
6.8364325
20
78.048653
11
6.8364325
21
77.863153
0
LINE
8
DEFAULT_255_2_778
10
6.8364325
20
77.863153
11
6.5631325
21
77.863153
0
LINE
8
DEFAULT_255_2_778
10
6.5631325
20
77.863153
11
6.5631325
21
77.437953
0
LINE
8
DEFAULT_255_2_778
10
6.5631325
20
77.437953
11
6.3694325
21
77.437953
0
LINE
8
DEFAULT_255_2_778
10
6.3694325
20
77.437953
11
6.3694325
21
77.863153
0
LINE
8
DEFAULT_255_2_778
10
6.3694325
20
77.863153
11
5.6976325
21
77.863153
0
LINE
8
DEFAULT_255_2_778
10
5.6976325
20
77.863153
11
5.6976325
21
78.067953
0
LINE
8
DEFAULT_255_2_778
10
5.6976325
20
78.067953
11
6.3347325
21
79.137653
0
LINE
8
DEFAULT_255_2_778
10
10.2090325
20
77.693053
11
10.2432325
21
77.766853
0
LINE
8
DEFAULT_255_2_778
10
10.2432325
20
77.766853
11
10.2712325
21
77.843053
0
LINE
8
DEFAULT_255_2_778
10
10.2712325
20
77.843053
11
10.2884325
21
77.901553
0
LINE
8
DEFAULT_255_2_778
10
10.2884325
20
77.901553
11
10.3040325
21
77.967653
0
LINE
8
DEFAULT_255_2_778
10
10.3040325
20
77.967653
11
10.3162325
21
78.034653
0
LINE
8
DEFAULT_255_2_778
10
10.3162325
20
78.034653
11
10.3210325
21
78.068253
0
LINE
8
DEFAULT_255_2_778
10
10.3210325
20
78.068253
11
10.3255325
21
78.105253
0
LINE
8
DEFAULT_255_2_778
10
10.3255325
20
78.105253
11
10.3289325
21
78.142353
0
LINE
8
DEFAULT_255_2_778
10
10.3289325
20
78.142353
11
10.3289325
21
78.437553
0
LINE
8
DEFAULT_255_2_778
10
10.3289325
20
78.437553
11
10.3252325
21
78.474053
0
LINE
8
DEFAULT_255_2_778
10
10.3252325
20
78.474053
11
10.3207325
21
78.510653
0
LINE
8
DEFAULT_255_2_778
10
10.3207325
20
78.510653
11
10.3101325
21
78.576753
0
LINE
8
DEFAULT_255_2_778
10
10.3101325
20
78.576753
11
10.2961325
21
78.642153
0
LINE
8
DEFAULT_255_2_778
10
10.2961325
20
78.642153
11
10.2784325
21
78.706653
0
LINE
8
DEFAULT_255_2_778
10
10.2784325
20
78.706653
11
10.2519325
21
78.782053
0
LINE
8
DEFAULT_255_2_778
10
10.2519325
20
78.782053
11
10.2194325
21
78.855353
0
LINE
8
DEFAULT_255_2_778
10
10.2194325
20
78.855353
11
10.1622325
21
78.953753
0
LINE
8
DEFAULT_255_2_778
10
10.1622325
20
78.953753
11
10.1080325
21
79.021553
0
LINE
8
DEFAULT_255_2_778
10
10.1080325
20
79.021553
11
10.0177325
21
79.096653
0
LINE
8
DEFAULT_255_2_778
10
10.0177325
20
79.096653
11
9.9130325
21
79.144553
0
LINE
8
DEFAULT_255_2_778
10
9.9130325
20
79.144553
11
9.7783325
21
79.163353
0
LINE
8
DEFAULT_255_2_778
10
9.7783325
20
79.163353
11
9.6439325
21
79.144553
0
LINE
8
DEFAULT_255_2_778
10
9.6439325
20
79.144553
11
9.5394325
21
79.096653
0
LINE
8
DEFAULT_255_2_778
10
9.5394325
20
79.096653
11
9.4642325
21
79.037153
0
LINE
8
DEFAULT_255_2_778
10
9.4642325
20
79.037153
11
9.3944325
21
78.953753
0
LINE
8
DEFAULT_255_2_778
10
9.3944325
20
78.953753
11
9.3454325
21
78.872053
0
LINE
8
DEFAULT_255_2_778
10
9.3454325
20
78.872053
11
9.3081325
21
78.790753
0
LINE
8
DEFAULT_255_2_778
10
9.3081325
20
78.790753
11
9.2782325
21
78.706653
0
LINE
8
DEFAULT_255_2_778
10
9.2782325
20
78.706653
11
9.2605325
21
78.642153
0
LINE
8
DEFAULT_255_2_778
10
9.2605325
20
78.642153
11
9.2465325
21
78.576753
0
LINE
8
DEFAULT_255_2_778
10
9.2465325
20
78.576753
11
9.2359325
21
78.510653
0
LINE
8
DEFAULT_255_2_778
10
9.2359325
20
78.510653
11
9.2314325
21
78.474053
0
LINE
8
DEFAULT_255_2_778
10
9.2314325
20
78.474053
11
9.2277325
21
78.437553
0
LINE
8
DEFAULT_255_2_778
10
9.2277325
20
78.437553
11
9.2274325
21
78.141753
0
LINE
8
DEFAULT_255_2_778
10
9.2274325
20
78.141753
11
9.2309325
21
78.104753
0
LINE
8
DEFAULT_255_2_778
10
9.2309325
20
78.104753
11
9.2354325
21
78.067653
0
LINE
8
DEFAULT_255_2_778
10
9.2354325
20
78.067653
11
9.2460325
21
78.000453
0
LINE
8
DEFAULT_255_2_778
10
9.2460325
20
78.000453
11
9.2600325
21
77.934053
0
LINE
8
DEFAULT_255_2_778
10
9.2600325
20
77.934053
11
9.2774325
21
77.868453
0
LINE
8
DEFAULT_255_2_778
10
9.2774325
20
77.868453
11
9.3034325
21
77.791953
0
LINE
8
DEFAULT_255_2_778
10
9.3034325
20
77.791953
11
9.3354325
21
77.717653
0
LINE
8
DEFAULT_255_2_778
10
9.3354325
20
77.717653
11
9.3804325
21
77.635053
0
LINE
8
DEFAULT_255_2_778
10
9.3804325
20
77.635053
11
9.4325325
21
77.562853
0
LINE
8
DEFAULT_255_2_778
10
9.4325325
20
77.562853
11
9.5063325
21
77.491153
0
LINE
8
DEFAULT_255_2_778
10
9.5063325
20
77.491153
11
9.6063325
21
77.431853
0
LINE
8
DEFAULT_255_2_778
10
9.6063325
20
77.431853
11
9.7391325
21
77.400653
0
LINE
8
DEFAULT_255_2_778
10
9.7391325
20
77.400653
11
9.8762325
21
77.408853
0
LINE
8
DEFAULT_255_2_778
10
9.8762325
20
77.408853
11
9.9860325
21
77.448353
0
LINE
8
DEFAULT_255_2_778
10
9.9860325
20
77.448353
11
10.0807325
21
77.516353
0
LINE
8
DEFAULT_255_2_778
10
10.0807325
20
77.516353
11
10.1519325
21
77.597753
0
LINE
8
DEFAULT_255_2_778
10
10.1519325
20
77.597753
11
10.2090325
21
77.693053
0
LINE
8
DEFAULT_255_2_778
10
9.4830325
20
77.838853
11
9.4603325
21
77.904453
0
LINE
8
DEFAULT_255_2_778
10
9.4603325
20
77.904453
11
9.4425325
21
77.971353
0
LINE
8
DEFAULT_255_2_778
10
9.4425325
20
77.971353
11
9.4306325
21
78.030953
0
LINE
8
DEFAULT_255_2_778
10
9.4306325
20
78.030953
11
9.4216325
21
78.090953
0
LINE
8
DEFAULT_255_2_778
10
9.4216325
20
78.090953
11
9.4182325
21
78.121153
0
LINE
8
DEFAULT_255_2_778
10
9.4182325
20
78.121153
11
9.4153325
21
78.154453
0
LINE
8
DEFAULT_255_2_778
10
9.4153325
20
78.154453
11
9.4153325
21
78.420153
0
LINE
8
DEFAULT_255_2_778
10
9.4153325
20
78.420153
11
9.4185325
21
78.452953
0
LINE
8
DEFAULT_255_2_778
10
9.4185325
20
78.452953
11
9.4246325
21
78.502453
0
LINE
8
DEFAULT_255_2_778
10
9.4246325
20
78.502453
11
9.4328325
21
78.551653
0
LINE
8
DEFAULT_255_2_778
10
9.4328325
20
78.551653
11
9.4486325
21
78.622553
0
LINE
8
DEFAULT_255_2_778
10
9.4486325
20
78.622553
11
9.4682325
21
78.687853
0
LINE
8
DEFAULT_255_2_778
10
9.4682325
20
78.687853
11
9.5050325
21
78.777353
0
LINE
8
DEFAULT_255_2_778
10
9.5050325
20
78.777353
11
9.5494325
21
78.850353
0
LINE
8
DEFAULT_255_2_778
10
9.5494325
20
78.850353
11
9.6251325
21
78.924453
0
LINE
8
DEFAULT_255_2_778
10
9.6251325
20
78.924453
11
9.7283325
21
78.966253
0
LINE
8
DEFAULT_255_2_778
10
9.7283325
20
78.966253
11
9.8516325
21
78.960953
0
LINE
8
DEFAULT_255_2_778
10
9.8516325
20
78.960953
11
9.9410325
21
78.917053
0
LINE
8
DEFAULT_255_2_778
10
9.9410325
20
78.917053
11
9.9958325
21
78.863853
0
LINE
8
DEFAULT_255_2_778
10
9.9958325
20
78.863853
11
10.0429325
21
78.792653
0
LINE
8
DEFAULT_255_2_778
10
10.0429325
20
78.792653
11
10.0738325
21
78.724953
0
LINE
8
DEFAULT_255_2_778
10
10.0738325
20
78.724953
11
10.1016325
21
78.642653
0
LINE
8
DEFAULT_255_2_778
10
10.1016325
20
78.642653
11
10.1180325
21
78.576253
0
LINE
8
DEFAULT_255_2_778
10
10.1180325
20
78.576253
11
10.1273325
21
78.527253
0
LINE
8
DEFAULT_255_2_778
10
10.1273325
20
78.527253
11
10.1344325
21
78.478053
0
LINE
8
DEFAULT_255_2_778
10
10.1344325
20
78.478053
11
10.1373325
21
78.453153
0
LINE
8
DEFAULT_255_2_778
10
10.1373325
20
78.453153
11
10.1405325
21
78.420353
0
LINE
8
DEFAULT_255_2_778
10
10.1405325
20
78.420353
11
10.1405325
21
78.154753
0
LINE
8
DEFAULT_255_2_778
10
10.1405325
20
78.154753
11
10.1376325
21
78.121453
0
LINE
8
DEFAULT_255_2_778
10
10.1376325
20
78.121453
11
10.1342325
21
78.091253
0
LINE
8
DEFAULT_255_2_778
10
10.1342325
20
78.091253
11
10.1252325
21
78.031153
0
LINE
8
DEFAULT_255_2_778
10
10.1252325
20
78.031153
11
10.1133325
21
77.971653
0
LINE
8
DEFAULT_255_2_778
10
10.1133325
20
77.971653
11
10.0955325
21
77.904753
0
LINE
8
DEFAULT_255_2_778
10
10.0955325
20
77.904753
11
10.0664325
21
77.822953
0
LINE
8
DEFAULT_255_2_778
10
10.0664325
20
77.822953
11
10.0270325
21
77.744953
0
LINE
8
DEFAULT_255_2_778
10
10.0270325
20
77.744953
11
9.9617325
21
77.663953
0
LINE
8
DEFAULT_255_2_778
10
9.9617325
20
77.663953
11
9.8759325
21
77.609653
0
LINE
8
DEFAULT_255_2_778
10
9.8759325
20
77.609653
11
9.7529325
21
77.593253
0
LINE
8
DEFAULT_255_2_778
10
9.7529325
20
77.593253
11
9.6460325
21
77.625853
0
LINE
8
DEFAULT_255_2_778
10
9.6460325
20
77.625853
11
9.5674325
21
77.692253
0
LINE
8
DEFAULT_255_2_778
10
9.5674325
20
77.692253
11
9.5201325
21
77.760253
0
LINE
8
DEFAULT_255_2_778
10
9.5201325
20
77.760253
11
9.4830325
21
77.838853
0
LINE
8
DEFAULT_255_2_778
10
13.1081325
20
79.137653
11
13.3253325
21
79.137653
0
LINE
8
DEFAULT_255_2_778
10
13.3253325
20
79.137653
11
13.9182325
21
77.437753
0
LINE
8
DEFAULT_255_2_778
10
13.9182325
20
77.437753
11
13.7031325
21
77.437753
0
LINE
8
DEFAULT_255_2_778
10
13.7031325
20
77.437753
11
13.5576325
21
77.881153
0
LINE
8
DEFAULT_255_2_778
10
13.5576325
20
77.881153
11
12.8776325
21
77.881153
0
LINE
8
DEFAULT_255_2_778
10
12.8776325
20
77.881153
11
12.7342325
21
77.437753
0
LINE
8
DEFAULT_255_2_778
10
12.7342325
20
77.437753
11
12.5151325
21
77.437753
0
LINE
8
DEFAULT_255_2_778
10
12.5151325
20
77.437753
11
13.1081325
21
79.137653
0
LINE
8
DEFAULT_255_2_778
10
12.9411325
20
78.073753
11
13.4952325
21
78.073753
0
LINE
8
DEFAULT_255_2_778
10
13.4952325
20
78.073753
11
13.2176325
21
78.918353
0
LINE
8
DEFAULT_255_2_778
10
13.2176325
20
78.918353
11
12.9411325
21
78.073753
0
LINE
8
DEFAULT_255_2_778
10
3.1089325
20
72.062153
11
3.3214325
21
72.062153
0
LINE
8
DEFAULT_255_2_778
10
3.3214325
20
72.062153
11
3.3201325
21
72.133853
0
LINE
8
DEFAULT_255_2_778
10
3.3201325
20
72.133853
11
3.3159325
21
72.161953
0
LINE
8
DEFAULT_255_2_778
10
3.3159325
20
72.161953
11
3.3055325
21
72.203253
0
LINE
8
DEFAULT_255_2_778
10
3.3055325
20
72.203253
11
3.2791325
21
72.268553
0
LINE
8
DEFAULT_255_2_778
10
3.2791325
20
72.268553
11
3.2235325
21
72.352953
0
LINE
8
DEFAULT_255_2_778
10
3.2235325
20
72.352953
11
3.1243325
21
72.441553
0
LINE
8
DEFAULT_255_2_778
10
3.1243325
20
72.441553
11
3.0060325
21
72.495853
0
LINE
8
DEFAULT_255_2_778
10
3.0060325
20
72.495853
11
2.7684325
21
72.521253
0
LINE
8
DEFAULT_255_2_778
10
2.7684325
20
72.521253
11
2.5636325
21
72.492153
0
LINE
8
DEFAULT_255_2_778
10
2.5636325
20
72.492153
11
2.4097325
21
72.422053
0
LINE
8
DEFAULT_255_2_778
10
2.4097325
20
72.422053
11
2.3133325
21
72.335753
0
LINE
8
DEFAULT_255_2_778
10
2.3133325
20
72.335753
11
2.2668325
21
72.264853
0
LINE
8
DEFAULT_255_2_778
10
2.2668325
20
72.264853
11
2.2398325
21
72.199453
0
LINE
8
DEFAULT_255_2_778
10
2.2398325
20
72.199453
11
2.2279325
21
72.155053
0
LINE
8
DEFAULT_255_2_778
10
2.2279325
20
72.155053
11
2.2221325
21
72.123553
0
LINE
8
DEFAULT_255_2_778
10
2.2221325
20
72.123553
11
2.2234325
21
71.935953
0
LINE
8
DEFAULT_255_2_778
10
2.2234325
20
71.935953
11
2.2366325
21
71.881453
0
LINE
8
DEFAULT_255_2_778
10
2.2366325
20
71.881453
11
2.2705325
21
71.803953
0
LINE
8
DEFAULT_255_2_778
10
2.2705325
20
71.803953
11
2.3366325
21
71.722453
0
LINE
8
DEFAULT_255_2_778
10
2.3366325
20
71.722453
11
2.4914325
21
71.630953
0
LINE
8
DEFAULT_255_2_778
10
2.4914325
20
71.630953
11
2.6039325
21
71.593853
0
LINE
8
DEFAULT_255_2_778
10
2.6039325
20
71.593853
11
3.0245325
21
71.468953
0
LINE
8
DEFAULT_255_2_778
10
3.0245325
20
71.468953
11
3.1113325
21
71.397553
0
LINE
8
DEFAULT_255_2_778
10
3.1113325
20
71.397553
11
3.1370325
21
71.350953
0
LINE
8
DEFAULT_255_2_778
10
3.1370325
20
71.350953
11
3.1468325
21
71.315753
0
LINE
8
DEFAULT_255_2_778
10
3.1468325
20
71.315753
11
3.1460325
21
71.180553
0
LINE
8
DEFAULT_255_2_778
10
3.1460325
20
71.180553
11
3.1325325
21
71.133453
0
LINE
8
DEFAULT_255_2_778
10
3.1325325
20
71.133453
11
3.0952325
21
71.067353
0
LINE
8
DEFAULT_255_2_778
10
3.0952325
20
71.067353
11
2.9870325
21
70.982453
0
LINE
8
DEFAULT_255_2_778
10
2.9870325
20
70.982453
11
2.7383325
21
70.947753
0
LINE
8
DEFAULT_255_2_778
10
2.7383325
20
70.947753
11
2.5147325
21
71.026053
0
LINE
8
DEFAULT_255_2_778
10
2.5147325
20
71.026053
11
2.4274325
21
71.146753
0
LINE
8
DEFAULT_255_2_778
10
2.4274325
20
71.146753
11
2.4099325
21
71.208853
0
LINE
8
DEFAULT_255_2_778
10
2.4099325
20
71.208853
11
2.4083325
21
71.280353
0
LINE
8
DEFAULT_255_2_778
10
2.4083325
20
71.280353
11
2.1980325
21
71.280353
0
LINE
8
DEFAULT_255_2_778
10
2.1980325
20
71.280353
11
2.1998325
21
71.215753
0
LINE
8
DEFAULT_255_2_778
10
2.1998325
20
71.215753
11
2.2041325
21
71.183753
0
LINE
8
DEFAULT_255_2_778
10
2.2041325
20
71.183753
11
2.2147325
21
71.136153
0
LINE
8
DEFAULT_255_2_778
10
2.2147325
20
71.136153
11
2.2361325
21
71.074453
0
LINE
8
DEFAULT_255_2_778
10
2.2361325
20
71.074453
11
2.2734325
21
71.001753
0
LINE
8
DEFAULT_255_2_778
10
2.2734325
20
71.001753
11
2.3446325
21
70.909953
0
LINE
8
DEFAULT_255_2_778
10
2.3446325
20
70.909953
11
2.4475325
21
70.828153
0
LINE
8
DEFAULT_255_2_778
10
2.4475325
20
70.828153
11
2.5790325
21
70.775253
0
LINE
8
DEFAULT_255_2_778
10
2.5790325
20
70.775253
11
2.8034325
21
70.754353
0
LINE
8
DEFAULT_255_2_778
10
2.8034325
20
70.754353
11
3.0243325
21
70.789553
0
LINE
8
DEFAULT_255_2_778
10
3.0243325
20
70.789553
11
3.1605325
21
70.857053
0
LINE
8
DEFAULT_255_2_778
10
3.1605325
20
70.857053
11
3.2455325
21
70.932953
0
LINE
8
DEFAULT_255_2_778
10
3.2455325
20
70.932953
11
3.2928325
21
70.999053
0
LINE
8
DEFAULT_255_2_778
10
3.2928325
20
70.999053
11
3.3217325
21
71.058853
0
LINE
8
DEFAULT_255_2_778
10
3.3217325
20
71.058853
11
3.3423325
21
71.122153
0
LINE
8
DEFAULT_255_2_778
10
3.3423325
20
71.122153
11
3.3502325
21
71.157353
0
LINE
8
DEFAULT_255_2_778
10
3.3502325
20
71.157353
11
3.3561325
21
71.193053
0
LINE
8
DEFAULT_255_2_778
10
3.3561325
20
71.193053
11
3.3534325
21
71.386653
0
LINE
8
DEFAULT_255_2_778
10
3.3534325
20
71.386653
11
3.3405325
21
71.439853
0
LINE
8
DEFAULT_255_2_778
10
3.3405325
20
71.439853
11
3.3037325
21
71.522153
0
LINE
8
DEFAULT_255_2_778
10
3.3037325
20
71.522153
11
3.2251325
21
71.612953
0
LINE
8
DEFAULT_255_2_778
10
3.2251325
20
71.612953
11
3.0740325
21
71.698353
0
LINE
8
DEFAULT_255_2_778
10
3.0740325
20
71.698353
11
2.5454325
21
71.858453
0
LINE
8
DEFAULT_255_2_778
10
2.5454325
20
71.858453
11
2.4610325
21
71.932753
0
LINE
8
DEFAULT_255_2_778
10
2.4610325
20
71.932753
11
2.4372325
21
71.984153
0
LINE
8
DEFAULT_255_2_778
10
2.4372325
20
71.984153
11
2.4303325
21
72.015853
0
LINE
8
DEFAULT_255_2_778
10
2.4303325
20
72.015853
11
2.4319325
21
72.103953
0
LINE
8
DEFAULT_255_2_778
10
2.4319325
20
72.103953
11
2.4438325
21
72.147953
0
LINE
8
DEFAULT_255_2_778
10
2.4438325
20
72.147953
11
2.4811325
21
72.213553
0
LINE
8
DEFAULT_255_2_778
10
2.4811325
20
72.213553
11
2.5864325
21
72.288353
0
LINE
8
DEFAULT_255_2_778
10
2.5864325
20
72.288353
11
2.8158325
21
72.323553
0
LINE
8
DEFAULT_255_2_778
10
2.8158325
20
72.323553
11
3.0452325
21
72.223053
0
LINE
8
DEFAULT_255_2_778
10
3.0452325
20
72.223053
11
3.0968325
21
72.130753
0
LINE
8
DEFAULT_255_2_778
10
3.0968325
20
72.130753
11
3.1068325
21
72.081753
0
LINE
8
DEFAULT_255_2_778
10
3.1068325
20
72.081753
11
3.1082325
21
72.063253
0
LINE
8
DEFAULT_255_2_778
10
3.6792094
20
72.4876062
11
4.6214094
21
72.4876062
0
LINE
8
DEFAULT_255_2_778
10
4.6214094
20
72.4876062
11
4.6214094
21
72.2947062
0
LINE
8
DEFAULT_255_2_778
10
4.6214094
20
72.2947062
11
3.8885094
21
72.2947062
0
LINE
8
DEFAULT_255_2_778
10
3.8885094
20
72.2947062
11
3.8885094
21
71.7587062
0
LINE
8
DEFAULT_255_2_778
10
3.8885094
20
71.7587062
11
4.5835094
21
71.7587062
0
LINE
8
DEFAULT_255_2_778
10
4.5835094
20
71.7587062
11
4.5835094
21
71.5658062
0
LINE
8
DEFAULT_255_2_778
10
4.5835094
20
71.5658062
11
3.8885094
21
71.5658062
0
LINE
8
DEFAULT_255_2_778
10
3.8885094
20
71.5658062
11
3.8885094
21
70.7874062
0
LINE
8
DEFAULT_255_2_778
10
3.8885094
20
70.7874062
11
3.6792094
21
70.7874062
0
LINE
8
DEFAULT_255_2_778
10
3.6792094
20
70.7874062
11
3.6792094
21
72.4873062
0
LINE
8
DEFAULT_255_2_778
10
4.1051366
20
15.7281354
11
4.2980366
21
15.7281354
0
LINE
8
DEFAULT_255_2_778
10
4.2980366
20
15.7281354
11
4.2980366
21
14.0377354
0
LINE
8
DEFAULT_255_2_778
10
4.2980366
20
14.0377354
11
4.0702366
21
14.0377354
0
LINE
8
DEFAULT_255_2_778
10
4.0702366
20
14.0377354
11
4.0702366
21
15.4654354
0
LINE
8
DEFAULT_255_2_778
10
4.0702366
20
15.4654354
11
3.8024366
21
15.2985354
0
LINE
8
DEFAULT_255_2_778
10
3.8024366
20
15.2985354
11
3.6979366
21
15.2548354
0
LINE
8
DEFAULT_255_2_778
10
3.6979366
20
15.2548354
11
3.6979366
21
15.4667354
0
LINE
8
DEFAULT_255_2_778
10
3.6979366
20
15.4667354
11
4.0067366
21
15.6424354
0
LINE
8
DEFAULT_255_2_778
10
4.0067366
20
15.6424354
11
4.1051366
21
15.7281354
0
LINE
8
DEFAULT_255_2_778
10
10.8009366
20
15.7281354
11
11.7852366
21
15.7281354
0
LINE
8
DEFAULT_255_2_778
10
11.7852366
20
15.7281354
11
11.7852366
21
15.5427354
0
LINE
8
DEFAULT_255_2_778
10
11.7852366
20
15.5427354
11
11.0142366
21
15.5427354
0
LINE
8
DEFAULT_255_2_778
10
11.0142366
20
15.5427354
11
11.0009366
21
14.9958354
0
LINE
8
DEFAULT_255_2_778
10
11.0009366
20
14.9958354
11
11.1136366
21
15.0958354
0
LINE
8
DEFAULT_255_2_778
10
11.1136366
20
15.0958354
11
11.2692366
21
15.1561354
0
LINE
8
DEFAULT_255_2_778
10
11.2692366
20
15.1561354
11
11.4843366
21
15.1566354
0
LINE
8
DEFAULT_255_2_778
10
11.4843366
20
15.1566354
11
11.6428366
21
15.0971354
0
LINE
8
DEFAULT_255_2_778
10
11.6428366
20
15.0971354
11
11.7375366
21
15.0161354
0
LINE
8
DEFAULT_255_2_778
10
11.7375366
20
15.0161354
11
11.7957366
21
14.9333354
0
LINE
8
DEFAULT_255_2_778
10
11.7957366
20
14.9333354
11
11.8283366
21
14.8640354
0
LINE
8
DEFAULT_255_2_778
10
11.8283366
20
14.8640354
11
11.8500366
21
14.7968354
0
LINE
8
DEFAULT_255_2_778
10
11.8500366
20
14.7968354
11
11.8614366
21
14.7449354
0
LINE
8
DEFAULT_255_2_778
10
11.8614366
20
14.7449354
11
11.8656366
21
14.7190354
0
LINE
8
DEFAULT_255_2_778
10
11.8656366
20
14.7190354
11
11.8690366
21
14.6931354
0
LINE
8
DEFAULT_255_2_778
10
11.8690366
20
14.6931354
11
11.8685366
21
14.4841354
0
LINE
8
DEFAULT_255_2_778
10
11.8685366
20
14.4841354
11
11.8624366
21
14.4428354
0
LINE
8
DEFAULT_255_2_778
10
11.8624366
20
14.4428354
11
11.8494366
21
14.3856354
0
LINE
8
DEFAULT_255_2_778
10
11.8494366
20
14.3856354
11
11.8320366
21
14.3319354
0
LINE
8
DEFAULT_255_2_778
10
11.8320366
20
14.3319354
11
11.8010366
21
14.2642354
0
LINE
8
DEFAULT_255_2_778
10
11.8010366
20
14.2642354
11
11.7513366
21
14.1893354
0
LINE
8
DEFAULT_255_2_778
10
11.7513366
20
14.1893354
11
11.6679366
21
14.1076354
0
LINE
8
DEFAULT_255_2_778
10
11.6679366
20
14.1076354
11
11.5465366
21
14.0396354
0
LINE
8
DEFAULT_255_2_778
10
11.5465366
20
14.0396354
11
11.3729366
21
14.0017354
0
LINE
8
DEFAULT_255_2_778
10
11.3729366
20
14.0017354
11
11.1877366
21
14.0094354
0
LINE
8
DEFAULT_255_2_778
10
11.1877366
20
14.0094354
11
11.0409366
21
14.0546354
0
LINE
8
DEFAULT_255_2_778
10
11.0409366
20
14.0546354
11
10.9184366
21
14.1343354
0
LINE
8
DEFAULT_255_2_778
10
10.9184366
20
14.1343354
11
10.8401366
21
14.2200354
0
LINE
8
DEFAULT_255_2_778
10
10.8401366
20
14.2200354
11
10.7983366
21
14.2914354
0
LINE
8
DEFAULT_255_2_778
10
10.7983366
20
14.2914354
11
10.7731366
21
14.3542354
0
LINE
8
DEFAULT_255_2_778
10
10.7731366
20
14.3542354
11
10.7591366
21
14.4055354
0
LINE
8
DEFAULT_255_2_778
10
10.7591366
20
14.4055354
11
10.7525366
21
14.4404354
0
LINE
8
DEFAULT_255_2_778
10
10.7525366
20
14.4404354
11
10.7480366
21
14.4753354
0
LINE
8
DEFAULT_255_2_778
10
10.7480366
20
14.4753354
11
10.9806366
21
14.4753354
0
LINE
8
DEFAULT_255_2_778
10
10.9806366
20
14.4753354
11
10.9853366
21
14.4462354
0
LINE
8
DEFAULT_255_2_778
10
10.9853366
20
14.4462354
11
11.0033366
21
14.3888354
0
LINE
8
DEFAULT_255_2_778
10
11.0033366
20
14.3888354
11
11.0552366
21
14.3026354
0
LINE
8
DEFAULT_255_2_778
10
11.0552366
20
14.3026354
11
11.1531366
21
14.2237354
0
LINE
8
DEFAULT_255_2_778
10
11.1531366
20
14.2237354
11
11.3449366
21
14.1938354
0
LINE
8
DEFAULT_255_2_778
10
11.3449366
20
14.1938354
11
11.4954366
21
14.2465354
0
LINE
8
DEFAULT_255_2_778
10
11.4954366
20
14.2465354
11
11.5690366
21
14.3235354
0
LINE
8
DEFAULT_255_2_778
10
11.5690366
20
14.3235354
11
11.6066366
21
14.3930354
0
LINE
8
DEFAULT_255_2_778
10
11.6066366
20
14.3930354
11
11.6253366
21
14.4502354
0
LINE
8
DEFAULT_255_2_778
10
11.6253366
20
14.4502354
11
11.6330366
21
14.4854354
0
LINE
8
DEFAULT_255_2_778
10
11.6330366
20
14.4854354
11
11.6380366
21
14.5203354
0
LINE
8
DEFAULT_255_2_778
10
11.6380366
20
14.5203354
11
11.6375366
21
14.6661354
0
LINE
8
DEFAULT_255_2_778
10
11.6375366
20
14.6661354
11
11.6306366
21
14.7076354
0
LINE
8
DEFAULT_255_2_778
10
11.6306366
20
14.7076354
11
11.6148366
21
14.7651354
0
LINE
8
DEFAULT_255_2_778
10
11.6148366
20
14.7651354
11
11.5804366
21
14.8370354
0
LINE
8
DEFAULT_255_2_778
10
11.5804366
20
14.8370354
11
11.5110366
21
14.9177354
0
LINE
8
DEFAULT_255_2_778
10
11.5110366
20
14.9177354
11
11.3999366
21
14.9725354
0
LINE
8
DEFAULT_255_2_778
10
11.3999366
20
14.9725354
11
11.2070366
21
14.9680354
0
LINE
8
DEFAULT_255_2_778
10
11.2070366
20
14.9680354
11
11.0893366
21
14.8976354
0
LINE
8
DEFAULT_255_2_778
10
11.0893366
20
14.8976354
11
11.0425366
21
14.8336354
0
LINE
8
DEFAULT_255_2_778
10
11.0425366
20
14.8336354
11
11.0239366
21
14.7862354
0
LINE
8
DEFAULT_255_2_778
10
11.0239366
20
14.7862354
11
11.0171366
21
14.7553354
0
LINE
8
DEFAULT_255_2_778
10
11.0171366
20
14.7553354
11
11.0144366
21
14.7344354
0
LINE
8
DEFAULT_255_2_778
10
11.0144366
20
14.7344354
11
10.7866366
21
14.7344354
0
LINE
8
DEFAULT_255_2_778
10
10.7866366
20
14.7344354
11
10.8012366
21
15.7284354
0
LINE
8
DEFAULT_255_2_778
10
8.4228511
20
15.9876989
11
9.7227511
21
15.9876989
0
LINE
8
DEFAULT_255_2_778
10
9.7227511
20
15.9876989
11
9.7227511
21
13.8876989
0
LINE
8
DEFAULT_255_2_778
10
9.7227511
20
13.8876989
11
8.4228511
21
13.8876989
0
LINE
8
DEFAULT_255_2_778
10
8.4228511
20
13.8876989
11
8.4228511
21
15.9876989
0
LINE
8
DEFAULT_255_2_778
10
5.6230511
20
15.9876989
11
6.9229511
21
15.9876989
0
LINE
8
DEFAULT_255_2_778
10
6.9229511
20
15.9876989
11
6.9229511
21
13.8876989
0
LINE
8
DEFAULT_255_2_778
10
6.9229511
20
13.8876989
11
5.6230511
21
13.8876989
0
LINE
8
DEFAULT_255_2_778
10
5.6230511
20
13.8876989
11
5.6230511
21
15.9876989
0
LINE
8
DEFAULT_255_2_778
10
3.7681156
20
10.2786125
11
3.5477156
21
10.2786125
0
LINE
8
DEFAULT_255_2_778
10
3.5477156
20
10.2786125
11
3.5498156
21
10.3360125
0
LINE
8
DEFAULT_255_2_778
10
3.5498156
20
10.3360125
11
3.5564156
21
10.3839125
0
LINE
8
DEFAULT_255_2_778
10
3.5564156
20
10.3839125
11
3.5778156
21
10.4635125
0
LINE
8
DEFAULT_255_2_778
10
3.5778156
20
10.4635125
11
3.6358156
21
10.5707125
0
LINE
8
DEFAULT_255_2_778
10
3.6358156
20
10.5707125
11
3.7215156
21
10.6559125
0
LINE
8
DEFAULT_255_2_778
10
3.7215156
20
10.6559125
11
3.8080156
21
10.7083125
0
LINE
8
DEFAULT_255_2_778
10
3.8080156
20
10.7083125
11
3.9345156
21
10.7493125
0
LINE
8
DEFAULT_255_2_778
10
3.9345156
20
10.7493125
11
4.1290156
21
10.7617125
0
LINE
8
DEFAULT_255_2_778
10
4.1290156
20
10.7617125
11
4.2872156
21
10.7363125
0
LINE
8
DEFAULT_255_2_778
10
4.2872156
20
10.7363125
11
4.4025156
21
10.6879125
0
LINE
8
DEFAULT_255_2_778
10
4.4025156
20
10.6879125
11
4.4952156
21
10.6186125
0
LINE
8
DEFAULT_255_2_778
10
4.4952156
20
10.6186125
11
4.5428156
21
10.5627125
0
LINE
8
DEFAULT_255_2_778
10
4.5428156
20
10.5627125
11
4.5703156
21
10.5162125
0
LINE
8
DEFAULT_255_2_778
10
4.5703156
20
10.5162125
11
4.5912156
21
10.4659125
0
LINE
8
DEFAULT_255_2_778
10
4.5912156
20
10.4659125
11
4.6018156
21
10.4294125
0
LINE
8
DEFAULT_255_2_778
10
4.6018156
20
10.4294125
11
4.6095156
21
10.3905125
0
LINE
8
DEFAULT_255_2_778
10
4.6095156
20
10.3905125
11
4.6095156
21
10.2444125
0
LINE
8
DEFAULT_255_2_778
10
4.6095156
20
10.2444125
11
4.6012156
21
10.2000125
0
LINE
8
DEFAULT_255_2_778
10
4.6012156
20
10.2000125
11
4.5899156
21
10.1561125
0
LINE
8
DEFAULT_255_2_778
10
4.5899156
20
10.1561125
11
4.5676156
21
10.0912125
0
LINE
8
DEFAULT_255_2_778
10
4.5676156
20
10.0912125
11
4.5192156
21
9.9875125
0
LINE
8
DEFAULT_255_2_778
10
4.5192156
20
9.9875125
11
4.4496156
21
9.8743125
0
LINE
8
DEFAULT_255_2_778
10
4.4496156
20
9.8743125
11
4.3475156
21
9.7441125
0
LINE
8
DEFAULT_255_2_778
10
4.3475156
20
9.7441125
11
4.2324156
21
9.6245125
0
LINE
8
DEFAULT_255_2_778
10
4.2324156
20
9.6245125
11
3.9387156
21
9.3726125
0
LINE
8
DEFAULT_255_2_778
10
3.9387156
20
9.3726125
11
3.7546156
21
9.2229125
0
LINE
8
DEFAULT_255_2_778
10
3.7546156
20
9.2229125
11
4.6497156
21
9.2229125
0
LINE
8
DEFAULT_255_2_778
10
4.6497156
20
9.2229125
11
4.6497156
21
9.0377125
0
LINE
8
DEFAULT_255_2_778
10
4.6497156
20
9.0377125
11
3.4773156
21
9.0377125
0
LINE
8
DEFAULT_255_2_778
10
3.4773156
20
9.0377125
11
3.4773156
21
9.2414125
0
LINE
8
DEFAULT_255_2_778
10
3.4773156
20
9.2414125
11
3.7644156
21
9.4742125
0
LINE
8
DEFAULT_255_2_778
10
3.7644156
20
9.4742125
11
3.9819156
21
9.6759125
0
LINE
8
DEFAULT_255_2_778
10
3.9819156
20
9.6759125
11
4.1734156
21
9.8812125
0
LINE
8
DEFAULT_255_2_778
10
4.1734156
20
9.8812125
11
4.2898156
21
10.0333125
0
LINE
8
DEFAULT_255_2_778
10
4.2898156
20
10.0333125
11
4.3420156
21
10.1219125
0
LINE
8
DEFAULT_255_2_778
10
4.3420156
20
10.1219125
11
4.3719156
21
10.1910125
0
LINE
8
DEFAULT_255_2_778
10
4.3719156
20
10.1910125
11
4.3859156
21
10.2384125
0
LINE
8
DEFAULT_255_2_778
10
4.3859156
20
10.2384125
11
4.3917156
21
10.2704125
0
LINE
8
DEFAULT_255_2_778
10
4.3917156
20
10.2704125
11
4.3901156
21
10.3585125
0
LINE
8
DEFAULT_255_2_778
10
4.3901156
20
10.3585125
11
4.3761156
21
10.4101125
0
LINE
8
DEFAULT_255_2_778
10
4.3761156
20
10.4101125
11
4.3385156
21
10.4757125
0
LINE
8
DEFAULT_255_2_778
10
4.3385156
20
10.4757125
11
4.2316156
21
10.5532125
0
LINE
8
DEFAULT_255_2_778
10
4.2316156
20
10.5532125
11
4.0149156
21
10.5749125
0
LINE
8
DEFAULT_255_2_778
10
4.0149156
20
10.5749125
11
3.8763156
21
10.5180125
0
LINE
8
DEFAULT_255_2_778
10
3.8763156
20
10.5180125
11
3.8062156
21
10.4386125
0
LINE
8
DEFAULT_255_2_778
10
3.8062156
20
10.4386125
11
3.7797156
21
10.3738125
0
LINE
8
DEFAULT_255_2_778
10
3.7797156
20
10.3738125
11
3.7715156
21
10.3331125
0
LINE
8
DEFAULT_255_2_778
10
3.7715156
20
10.3331125
11
3.7691156
21
10.3114125
0
LINE
8
DEFAULT_255_2_778
10
3.7691156
20
10.3114125
11
3.7681156
21
10.2788125
0
LINE
8
DEFAULT_255_2_778
10
8.4228511
20
10.9875989
11
9.7227511
21
10.9875989
0
LINE
8
DEFAULT_255_2_778
10
9.7227511
20
10.9875989
11
9.7227511
21
8.8875989
0
LINE
8
DEFAULT_255_2_778
10
9.7227511
20
8.8875989
11
8.4228511
21
8.8875989
0
LINE
8
DEFAULT_255_2_778
10
8.4228511
20
8.8875989
11
8.4228511
21
10.9875989
0
LINE
8
DEFAULT_255_2_778
10
5.6227511
20
10.9875989
11
6.9226511
21
10.9875989
0
LINE
8
DEFAULT_255_2_778
10
6.9226511
20
10.9875989
11
6.9226511
21
8.8875989
0
LINE
8
DEFAULT_255_2_778
10
6.9226511
20
8.8875989
11
5.6227511
21
8.8875989
0
LINE
8
DEFAULT_255_2_778
10
5.6227511
20
8.8875989
11
5.6227511
21
10.9875989
0
LINE
8
DEFAULT_255_2_778
10
11.1189501
20
9.8617614
11
11.2332501
21
9.9326614
0
LINE
8
DEFAULT_255_2_778
10
11.2332501
20
9.9326614
11
11.4431501
21
9.9599614
0
LINE
8
DEFAULT_255_2_778
10
11.4431501
20
9.9599614
11
11.5783501
21
9.9168614
0
LINE
8
DEFAULT_255_2_778
10
11.5783501
20
9.9168614
11
11.6526501
21
9.8482614
0
LINE
8
DEFAULT_255_2_778
10
11.6526501
20
9.8482614
11
11.6968501
21
9.7731614
0
LINE
8
DEFAULT_255_2_778
10
11.6968501
20
9.7731614
11
11.7143501
21
9.7228614
0
LINE
8
DEFAULT_255_2_778
10
11.7143501
20
9.7228614
11
11.7233501
21
9.6839614
0
LINE
8
DEFAULT_255_2_778
10
11.7233501
20
9.6839614
11
11.7277501
21
9.6546614
0
LINE
8
DEFAULT_255_2_778
10
11.7277501
20
9.6546614
11
11.7270501
21
9.5024614
0
LINE
8
DEFAULT_255_2_778
10
11.7270501
20
9.5024614
11
11.7190501
21
9.4596614
0
LINE
8
DEFAULT_255_2_778
10
11.7190501
20
9.4596614
11
11.7008501
21
9.4008614
0
LINE
8
DEFAULT_255_2_778
10
11.7008501
20
9.4008614
11
11.6611501
21
9.3286614
0
LINE
8
DEFAULT_255_2_778
10
11.6611501
20
9.3286614
11
11.5854501
21
9.2527614
0
LINE
8
DEFAULT_255_2_778
10
11.5854501
20
9.2527614
11
11.4634501
21
9.2008614
0
LINE
8
DEFAULT_255_2_778
10
11.4634501
20
9.2008614
11
11.2766501
21
9.2008614
0
LINE
8
DEFAULT_255_2_778
10
11.2766501
20
9.2008614
11
11.1541501
21
9.2540614
0
LINE
8
DEFAULT_255_2_778
10
11.1541501
20
9.2540614
11
11.0790501
21
9.3296614
0
LINE
8
DEFAULT_255_2_778
10
11.0790501
20
9.3296614
11
11.0393501
21
9.4021614
0
LINE
8
DEFAULT_255_2_778
10
11.0393501
20
9.4021614
11
11.0210501
21
9.4606614
0
LINE
8
DEFAULT_255_2_778
10
11.0210501
20
9.4606614
11
11.0131501
21
9.5032614
0
LINE
8
DEFAULT_255_2_778
10
11.0131501
20
9.5032614
11
11.0147501
21
9.6638614
0
LINE
8
DEFAULT_255_2_778
10
11.0147501
20
9.6638614
11
11.0234501
21
9.7032614
0
LINE
8
DEFAULT_255_2_778
10
11.0234501
20
9.7032614
11
11.0454501
21
9.7622614
0
LINE
8
DEFAULT_255_2_778
10
11.0454501
20
9.7622614
11
11.0930501
21
9.8347614
0
LINE
8
DEFAULT_255_2_778
10
11.0930501
20
9.8347614
11
11.1189501
21
9.8617614
0
LINE
8
DEFAULT_255_2_778
10
11.6960501
20
10.3123614
11
11.9188501
21
10.3123614
0
LINE
8
DEFAULT_255_2_778
10
11.9188501
20
10.3123614
11
11.9164501
21
10.3710614
0
LINE
8
DEFAULT_255_2_778
10
11.9164501
20
10.3710614
11
11.9140501
21
10.3906614
0
LINE
8
DEFAULT_255_2_778
10
11.9140501
20
10.3906614
11
11.9071501
21
10.4298614
0
LINE
8
DEFAULT_255_2_778
10
11.9071501
20
10.4298614
11
11.8936501
21
10.4790614
0
LINE
8
DEFAULT_255_2_778
10
11.8936501
20
10.4790614
11
11.8693501
21
10.5361614
0
LINE
8
DEFAULT_255_2_778
10
11.8693501
20
10.5361614
11
11.8270501
21
10.5996614
0
LINE
8
DEFAULT_255_2_778
10
11.8270501
20
10.5996614
11
11.7460501
21
10.6732614
0
LINE
8
DEFAULT_255_2_778
10
11.7460501
20
10.6732614
11
11.6537501
21
10.7221614
0
LINE
8
DEFAULT_255_2_778
10
11.6537501
20
10.7221614
11
11.5058501
21
10.7576614
0
LINE
8
DEFAULT_255_2_778
10
11.5058501
20
10.7576614
11
11.2896501
21
10.7528614
0
LINE
8
DEFAULT_255_2_778
10
11.2896501
20
10.7528614
11
11.1393501
21
10.7057614
0
LINE
8
DEFAULT_255_2_778
10
11.1393501
20
10.7057614
11
11.0285501
21
10.6343614
0
LINE
8
DEFAULT_255_2_778
10
11.0285501
20
10.6343614
11
10.9456501
21
10.5478614
0
LINE
8
DEFAULT_255_2_778
10
10.9456501
20
10.5478614
11
10.8798501
21
10.4459614
0
LINE
8
DEFAULT_255_2_778
10
10.8798501
20
10.4459614
11
10.8382501
21
10.3570614
0
LINE
8
DEFAULT_255_2_778
10
10.8382501
20
10.3570614
11
10.8062501
21
10.2647614
0
LINE
8
DEFAULT_255_2_778
10
10.8062501
20
10.2647614
11
10.7901501
21
10.2041614
0
LINE
8
DEFAULT_255_2_778
10
10.7901501
20
10.2041614
11
10.7768501
21
10.1430614
0
LINE
8
DEFAULT_255_2_778
10
10.7768501
20
10.1430614
11
10.7663501
21
10.0813614
0
LINE
8
DEFAULT_255_2_778
10
10.7663501
20
10.0813614
11
10.7578501
21
10.0152614
0
LINE
8
DEFAULT_255_2_778
10
10.7578501
20
10.0152614
11
10.7543501
21
9.9800614
0
LINE
8
DEFAULT_255_2_778
10
10.7543501
20
9.9800614
11
10.7541501
21
9.6493614
0
LINE
8
DEFAULT_255_2_778
10
10.7541501
20
9.6493614
11
10.7573501
21
9.6186614
0
LINE
8
DEFAULT_255_2_778
10
10.7573501
20
9.6186614
11
10.7652501
21
9.5614614
0
LINE
8
DEFAULT_255_2_778
10
10.7652501
20
9.5614614
11
10.7750501
21
9.5085614
0
LINE
8
DEFAULT_255_2_778
10
10.7750501
20
9.5085614
11
10.7874501
21
9.4561614
0
LINE
8
DEFAULT_255_2_778
10
10.7874501
20
9.4561614
11
10.8096501
21
9.3847614
0
LINE
8
DEFAULT_255_2_778
10
10.8096501
20
9.3847614
11
10.8422501
21
9.3074614
0
LINE
8
DEFAULT_255_2_778
10
10.8422501
20
9.3074614
11
10.8930501
21
9.2209614
0
LINE
8
DEFAULT_255_2_778
10
10.8930501
20
9.2209614
11
10.9660501
21
9.1360614
0
LINE
8
DEFAULT_255_2_778
10
10.9660501
20
9.1360614
11
11.0700501
21
9.0622614
0
LINE
8
DEFAULT_255_2_778
10
11.0700501
20
9.0622614
11
11.2115501
21
9.0124614
0
LINE
8
DEFAULT_255_2_778
10
11.2115501
20
9.0124614
11
11.4153501
21
9.0013614
0
LINE
8
DEFAULT_255_2_778
10
11.4153501
20
9.0013614
11
11.5965501
21
9.0375614
0
LINE
8
DEFAULT_255_2_778
10
11.5965501
20
9.0375614
11
11.7320501
21
9.1069614
0
LINE
8
DEFAULT_255_2_778
10
11.7320501
20
9.1069614
11
11.8159501
21
9.1809614
0
LINE
8
DEFAULT_255_2_778
10
11.8159501
20
9.1809614
11
11.8717501
21
9.2550614
0
LINE
8
DEFAULT_255_2_778
10
11.8717501
20
9.2550614
11
11.9063501
21
9.3228614
0
LINE
8
DEFAULT_255_2_778
10
11.9063501
20
9.3228614
11
11.9259501
21
9.3770614
0
LINE
8
DEFAULT_255_2_778
10
11.9259501
20
9.3770614
11
11.9360501
21
9.4140614
0
LINE
8
DEFAULT_255_2_778
10
11.9360501
20
9.4140614
11
11.9444501
21
9.4559614
0
LINE
8
DEFAULT_255_2_778
10
11.9444501
20
9.4559614
11
11.9500501
21
9.4982614
0
LINE
8
DEFAULT_255_2_778
10
11.9500501
20
9.4982614
11
11.9484501
21
9.6821614
0
LINE
8
DEFAULT_255_2_778
10
11.9484501
20
9.6821614
11
11.9426501
21
9.7212614
0
LINE
8
DEFAULT_255_2_778
10
11.9426501
20
9.7212614
11
11.9304501
21
9.7755614
0
LINE
8
DEFAULT_255_2_778
10
11.9304501
20
9.7755614
11
11.9140501
21
9.8268614
0
LINE
8
DEFAULT_255_2_778
10
11.9140501
20
9.8268614
11
11.8783501
21
9.9033614
0
LINE
8
DEFAULT_255_2_778
10
11.8783501
20
9.9033614
11
11.8156501
21
9.9906614
0
LINE
8
DEFAULT_255_2_778
10
11.8156501
20
9.9906614
11
11.7209501
21
10.0731614
0
LINE
8
DEFAULT_255_2_778
10
11.7209501
20
10.0731614
11
11.5767501
21
10.1361614
0
LINE
8
DEFAULT_255_2_778
10
11.5767501
20
10.1361614
11
11.3724501
21
10.1520614
0
LINE
8
DEFAULT_255_2_778
10
11.3724501
20
10.1520614
11
11.2126501
21
10.1118614
0
LINE
8
DEFAULT_255_2_778
10
11.2126501
20
10.1118614
11
11.0856501
21
10.0316614
0
LINE
8
DEFAULT_255_2_778
10
11.0856501
20
10.0316614
11
11.0240501
21
9.9713614
0
LINE
8
DEFAULT_255_2_778
10
11.0240501
20
9.9713614
11
10.9697501
21
9.9001614
0
LINE
8
DEFAULT_255_2_778
10
10.9697501
20
9.9001614
11
10.9745501
21
9.9559614
0
LINE
8
DEFAULT_255_2_778
10
10.9745501
20
9.9559614
11
10.9808501
21
10.0117614
0
LINE
8
DEFAULT_255_2_778
10
10.9808501
20
10.0117614
11
10.9890501
21
10.0673614
0
LINE
8
DEFAULT_255_2_778
10
10.9890501
20
10.0673614
11
11.0033501
21
10.1406614
0
LINE
8
DEFAULT_255_2_778
10
11.0033501
20
10.1406614
11
11.0279501
21
10.2308614
0
LINE
8
DEFAULT_255_2_778
10
11.0279501
20
10.2308614
11
11.0618501
21
10.3189614
0
LINE
8
DEFAULT_255_2_778
10
11.0618501
20
10.3189614
11
11.1134501
21
10.4121614
0
LINE
8
DEFAULT_255_2_778
10
11.1134501
20
10.4121614
11
11.2026501
21
10.5073614
0
LINE
8
DEFAULT_255_2_778
10
11.2026501
20
10.5073614
11
11.3089501
21
10.5608614
0
LINE
8
DEFAULT_255_2_778
10
11.3089501
20
10.5608614
11
11.4780501
21
10.5697614
0
LINE
8
DEFAULT_255_2_778
10
11.4780501
20
10.5697614
11
11.5888501
21
10.5287614
0
LINE
8
DEFAULT_255_2_778
10
11.5888501
20
10.5287614
11
11.6545501
21
10.4642614
0
LINE
8
DEFAULT_255_2_778
10
11.6545501
20
10.4642614
11
11.6807501
21
10.4099614
0
LINE
8
DEFAULT_255_2_778
10
11.6807501
20
10.4099614
11
11.6889501
21
10.3792614
0
LINE
8
DEFAULT_255_2_778
10
11.6889501
20
10.3792614
11
11.6926501
21
10.3568614
0
LINE
8
DEFAULT_255_2_778
10
11.6926501
20
10.3568614
11
11.6960501
21
10.3123614
0
LINE
8
DEFAULT_255_2_778
10
7.5807501
20
7.4278614
11
7.7368501
21
7.4278614
0
LINE
8
DEFAULT_255_2_778
10
7.7368501
20
7.4278614
11
7.7368501
21
5.7374614
0
LINE
8
DEFAULT_255_2_778
10
7.7368501
20
5.7374614
11
7.5524501
21
5.7374614
0
LINE
8
DEFAULT_255_2_778
10
7.5524501
20
5.7374614
11
7.5524501
21
7.1651614
0
LINE
8
DEFAULT_255_2_778
10
7.5524501
20
7.1651614
11
7.3354501
21
6.9981614
0
LINE
8
DEFAULT_255_2_778
10
7.3354501
20
6.9981614
11
7.2507501
21
6.9545614
0
LINE
8
DEFAULT_255_2_778
10
7.2507501
20
6.9545614
11
7.2507501
21
7.1664614
0
LINE
8
DEFAULT_255_2_778
10
7.2507501
20
7.1664614
11
7.5010501
21
7.3424614
0
LINE
8
DEFAULT_255_2_778
10
7.5010501
20
7.3424614
11
7.5807501
21
7.4281614
0
LINE
8
DEFAULT_255_2_778
10
7.9458501
20
3.9568614
11
8.4202501
21
3.9568614
0
LINE
8
DEFAULT_255_2_778
10
8.4202501
20
3.9568614
11
8.4202501
21
3.7964614
0
LINE
8
DEFAULT_255_2_778
10
8.4202501
20
3.7964614
11
7.9458501
21
3.7964614
0
LINE
8
DEFAULT_255_2_778
10
7.9458501
20
3.7964614
11
7.9458501
21
3.9568614
0
LINE
8
DEFAULT_255_2_778
10
9.8545501
20
6.9783614
11
9.6759501
21
6.9783614
0
LINE
8
DEFAULT_255_2_778
10
9.6759501
20
6.9783614
11
9.6778501
21
7.0333614
0
LINE
8
DEFAULT_255_2_778
10
9.6778501
20
7.0333614
11
9.6809501
21
7.0664614
0
LINE
8
DEFAULT_255_2_778
10
9.6809501
20
7.0664614
11
9.6918501
21
7.1302614
0
LINE
8
DEFAULT_255_2_778
10
9.6918501
20
7.1302614
11
9.7198501
21
7.2169614
0
LINE
8
DEFAULT_255_2_778
10
9.7198501
20
7.2169614
11
9.8008501
21
7.3397614
0
LINE
8
DEFAULT_255_2_778
10
9.8008501
20
7.3397614
11
9.8720501
21
7.3987614
0
LINE
8
DEFAULT_255_2_778
10
9.8720501
20
7.3987614
11
9.9717501
21
7.4440614
0
LINE
8
DEFAULT_255_2_778
10
9.9717501
20
7.4440614
11
10.1278501
21
7.4622614
0
LINE
8
DEFAULT_255_2_778
10
10.1278501
20
7.4622614
11
10.2757501
21
7.4355614
0
LINE
8
DEFAULT_255_2_778
10
10.2757501
20
7.4355614
11
10.3694501
21
7.3871614
0
LINE
8
DEFAULT_255_2_778
10
10.3694501
20
7.3871614
11
10.4445501
21
7.3175614
0
LINE
8
DEFAULT_255_2_778
10
10.4445501
20
7.3175614
11
10.4826501
21
7.2625614
0
LINE
8
DEFAULT_255_2_778
10
10.4826501
20
7.2625614
11
10.5054501
21
7.2151614
0
LINE
8
DEFAULT_255_2_778
10
10.5054501
20
7.2151614
11
10.5220501
21
7.1654614
0
LINE
8
DEFAULT_255_2_778
10
10.5220501
20
7.1654614
11
10.5305501
21
7.1291614
0
LINE
8
DEFAULT_255_2_778
10
10.5305501
20
7.1291614
11
10.5366501
21
7.0902614
0
LINE
8
DEFAULT_255_2_778
10
10.5366501
20
7.0902614
11
10.5361501
21
6.9405614
0
LINE
8
DEFAULT_255_2_778
10
10.5361501
20
6.9405614
11
10.5287501
21
6.8931614
0
LINE
8
DEFAULT_255_2_778
10
10.5287501
20
6.8931614
11
10.5183501
21
6.8463614
0
LINE
8
DEFAULT_255_2_778
10
10.5183501
20
6.8463614
11
10.4980501
21
6.7769614
0
LINE
8
DEFAULT_255_2_778
10
10.4980501
20
6.7769614
11
10.4630501
21
6.6873614
0
LINE
8
DEFAULT_255_2_778
10
10.4630501
20
6.6873614
11
10.4191501
21
6.5976614
0
LINE
8
DEFAULT_255_2_778
10
10.4191501
20
6.5976614
11
10.3506501
21
6.4838614
0
LINE
8
DEFAULT_255_2_778
10
10.3506501
20
6.4838614
11
10.2307501
21
6.3242614
0
LINE
8
DEFAULT_255_2_778
10
10.2307501
20
6.3242614
11
9.9508501
21
6.0279614
0
LINE
8
DEFAULT_255_2_778
10
9.9508501
20
6.0279614
11
9.8437501
21
5.9229614
0
LINE
8
DEFAULT_255_2_778
10
9.8437501
20
5.9229614
11
10.5689501
21
5.9229614
0
LINE
8
DEFAULT_255_2_778
10
10.5689501
20
5.9229614
11
10.5689501
21
5.7374614
0
LINE
8
DEFAULT_255_2_778
10
10.5689501
20
5.7374614
11
9.6193501
21
5.7374614
0
LINE
8
DEFAULT_255_2_778
10
9.6193501
20
5.7374614
11
9.6193501
21
5.9411614
0
LINE
8
DEFAULT_255_2_778
10
9.6193501
20
5.9411614
11
9.8519501
21
6.1742614
0
LINE
8
DEFAULT_255_2_778
10
9.8519501
20
6.1742614
11
10.0281501
21
6.3758614
0
LINE
8
DEFAULT_255_2_778
10
10.0281501
20
6.3758614
11
10.1834501
21
6.5814614
0
LINE
8
DEFAULT_255_2_778
10
10.1834501
20
6.5814614
11
10.2778501
21
6.7341614
0
LINE
8
DEFAULT_255_2_778
10
10.2778501
20
6.7341614
11
10.3196501
21
6.8222614
0
LINE
8
DEFAULT_255_2_778
10
10.3196501
20
6.8222614
11
10.3440501
21
6.8912614
0
LINE
8
DEFAULT_255_2_778
10
10.3440501
20
6.8912614
11
10.3554501
21
6.9386614
0
LINE
8
DEFAULT_255_2_778
10
10.3554501
20
6.9386614
11
10.3540501
21
7.0860614
0
LINE
8
DEFAULT_255_2_778
10
10.3540501
20
7.0860614
11
10.3366501
21
7.1407614
0
LINE
8
DEFAULT_255_2_778
10
10.3366501
20
7.1407614
11
10.2826501
21
7.2169614
0
LINE
8
DEFAULT_255_2_778
10
10.2826501
20
7.2169614
11
10.1609501
21
7.2759614
0
LINE
8
DEFAULT_255_2_778
10
10.1609501
20
7.2759614
11
9.9889501
21
7.2519614
0
LINE
8
DEFAULT_255_2_778
10
9.9889501
20
7.2519614
11
9.9011501
21
7.1672614
0
LINE
8
DEFAULT_255_2_778
10
9.9011501
20
7.1672614
11
9.8720501
21
7.1032614
0
LINE
8
DEFAULT_255_2_778
10
9.8720501
20
7.1032614
11
9.8606501
21
7.0550614
0
LINE
8
DEFAULT_255_2_778
10
9.8606501
20
7.0550614
11
9.8566501
21
7.0225614
0
LINE
8
DEFAULT_255_2_778
10
9.8566501
20
7.0225614
11
9.8548501
21
6.9791614
0
LINE
8
DEFAULT_255_2_778
10
10.7993501
20
6.4568614
11
11.2737501
21
6.4568614
0
LINE
8
DEFAULT_255_2_778
10
11.2737501
20
6.4568614
11
11.2737501
21
6.2965614
0
LINE
8
DEFAULT_255_2_778
10
11.2737501
20
6.2965614
11
10.7993501
21
6.2965614
0
LINE
8
DEFAULT_255_2_778
10
10.7993501
20
6.2965614
11
10.7993501
21
6.4568614
0
LINE
8
DEFAULT_255_2_778
10
8.8311501
20
5.8916614
11
8.6692501
21
5.9477614
0
LINE
8
DEFAULT_255_2_778
10
8.6692501
20
5.9477614
11
8.5808501
21
6.0554614
0
LINE
8
DEFAULT_255_2_778
10
8.5808501
20
6.0554614
11
8.5435501
21
6.1462614
0
LINE
8
DEFAULT_255_2_778
10
8.5435501
20
6.1462614
11
8.5295501
21
6.2012614
0
LINE
8
DEFAULT_255_2_778
10
8.5295501
20
6.2012614
11
8.3411501
21
6.2012614
0
LINE
8
DEFAULT_255_2_778
10
8.3411501
20
6.2012614
11
8.3472501
21
6.1597614
0
LINE
8
DEFAULT_255_2_778
10
8.3472501
20
6.1597614
11
8.3554501
21
6.1184614
0
LINE
8
DEFAULT_255_2_778
10
8.3554501
20
6.1184614
11
8.3720501
21
6.0575614
0
LINE
8
DEFAULT_255_2_778
10
8.3720501
20
6.0575614
11
8.4027501
21
5.9795614
0
LINE
8
DEFAULT_255_2_778
10
8.4027501
20
5.9795614
11
8.4525501
21
5.8951614
0
LINE
8
DEFAULT_255_2_778
10
8.4525501
20
5.8951614
11
8.5374501
21
5.8030614
0
LINE
8
DEFAULT_255_2_778
10
8.5374501
20
5.8030614
11
8.6520501
21
5.7324614
0
LINE
8
DEFAULT_255_2_778
10
8.6520501
20
5.7324614
11
8.8287501
21
5.6985614
0
LINE
8
DEFAULT_255_2_778
10
8.8287501
20
5.6985614
11
9.0189501
21
5.7289614
0
LINE
8
DEFAULT_255_2_778
10
9.0189501
20
5.7289614
11
9.1372501
21
5.7927614
0
LINE
8
DEFAULT_255_2_778
10
9.1372501
20
5.7927614
11
9.2203501
21
5.8763614
0
LINE
8
DEFAULT_255_2_778
10
9.2203501
20
5.8763614
11
9.2666501
21
5.9533614
0
LINE
8
DEFAULT_255_2_778
10
9.2666501
20
5.9533614
11
9.2891501
21
6.0110614
0
LINE
8
DEFAULT_255_2_778
10
9.2891501
20
6.0110614
11
9.3013501
21
6.0557614
0
LINE
8
DEFAULT_255_2_778
10
9.3013501
20
6.0557614
11
9.3087501
21
6.0941614
0
LINE
8
DEFAULT_255_2_778
10
9.3087501
20
6.0941614
11
9.3071501
21
6.3282614
0
LINE
8
DEFAULT_255_2_778
10
9.3071501
20
6.3282614
11
9.2835501
21
6.4063614
0
LINE
8
DEFAULT_255_2_778
10
9.2835501
20
6.4063614
11
9.1933501
21
6.5341614
0
LINE
8
DEFAULT_255_2_778
10
9.1933501
20
6.5341614
11
9.0618501
21
6.6066614
0
LINE
8
DEFAULT_255_2_778
10
9.0618501
20
6.6066614
11
9.1623501
21
6.6812614
0
LINE
8
DEFAULT_255_2_778
10
9.1623501
20
6.6812614
11
9.2251501
21
6.7616614
0
LINE
8
DEFAULT_255_2_778
10
9.2251501
20
6.7616614
11
9.2571501
21
6.8283614
0
LINE
8
DEFAULT_255_2_778
10
9.2571501
20
6.8283614
11
9.2743501
21
6.8852614
0
LINE
8
DEFAULT_255_2_778
10
9.2743501
20
6.8852614
11
9.2806501
21
6.9169614
0
LINE
8
DEFAULT_255_2_778
10
9.2806501
20
6.9169614
11
9.2796501
21
7.1159614
0
LINE
8
DEFAULT_255_2_778
10
9.2796501
20
7.1159614
11
9.2687501
21
7.1624614
0
LINE
8
DEFAULT_255_2_778
10
9.2687501
20
7.1624614
11
9.2444501
21
7.2270614
0
LINE
8
DEFAULT_255_2_778
10
9.2444501
20
7.2270614
11
9.2012501
21
7.2969614
0
LINE
8
DEFAULT_255_2_778
10
9.2012501
20
7.2969614
11
9.1208501
21
7.3752614
0
LINE
8
DEFAULT_255_2_778
10
9.1208501
20
7.3752614
11
8.9970501
21
7.4381614
0
LINE
8
DEFAULT_255_2_778
10
8.9970501
20
7.4381614
11
8.8160501
21
7.4617614
0
LINE
8
DEFAULT_255_2_778
10
8.8160501
20
7.4617614
11
8.6316501
21
7.4244614
0
LINE
8
DEFAULT_255_2_778
10
8.6316501
20
7.4244614
11
8.4755501
21
7.3066614
0
LINE
8
DEFAULT_255_2_778
10
8.4755501
20
7.3066614
11
8.4170501
21
7.2072614
0
LINE
8
DEFAULT_255_2_778
10
8.4170501
20
7.2072614
11
8.3951501
21
7.1373614
0
LINE
8
DEFAULT_255_2_778
10
8.3951501
20
7.1373614
11
8.3850501
21
7.0825614
0
LINE
8
DEFAULT_255_2_778
10
8.3850501
20
7.0825614
11
8.3816501
21
7.0495614
0
LINE
8
DEFAULT_255_2_778
10
8.3816501
20
7.0495614
11
8.3797501
21
6.9944614
0
LINE
8
DEFAULT_255_2_778
10
8.3797501
20
6.9944614
11
8.5583501
21
6.9944614
0
LINE
8
DEFAULT_255_2_778
10
8.5583501
20
6.9944614
11
8.5610501
21
7.0418614
0
LINE
8
DEFAULT_255_2_778
10
8.5610501
20
7.0418614
11
8.5676501
21
7.0794614
0
LINE
8
DEFAULT_255_2_778
10
8.5676501
20
7.0794614
11
8.5874501
21
7.1357614
0
LINE
8
DEFAULT_255_2_778
10
8.5874501
20
7.1357614
11
8.6546501
21
7.2199614
0
LINE
8
DEFAULT_255_2_778
10
8.6546501
20
7.2199614
11
8.7951501
21
7.2767614
0
LINE
8
DEFAULT_255_2_778
10
8.7951501
20
7.2767614
11
8.9684501
21
7.2476614
0
LINE
8
DEFAULT_255_2_778
10
8.9684501
20
7.2476614
11
9.0597501
21
7.1651614
0
LINE
8
DEFAULT_255_2_778
10
9.0597501
20
7.1651614
11
9.0888501
21
7.1037614
0
LINE
8
DEFAULT_255_2_778
10
9.0888501
20
7.1037614
11
9.0994501
21
7.0598614
0
LINE
8
DEFAULT_255_2_778
10
9.0994501
20
7.0598614
11
9.0970501
21
6.9217614
0
LINE
8
DEFAULT_255_2_778
10
9.0970501
20
6.9217614
11
9.0692501
21
6.8502614
0
LINE
8
DEFAULT_255_2_778
10
9.0692501
20
6.8502614
11
8.9441501
21
6.7354614
0
LINE
8
DEFAULT_255_2_778
10
8.9441501
20
6.7354614
11
8.7925501
21
6.7005614
0
LINE
8
DEFAULT_255_2_778
10
8.7925501
20
6.7005614
11
8.7311501
21
6.7005614
0
LINE
8
DEFAULT_255_2_778
10
8.7311501
20
6.7005614
11
8.7311501
21
6.5102614
0
LINE
8
DEFAULT_255_2_778
10
8.7311501
20
6.5102614
11
8.9602501
21
6.4835614
0
LINE
8
DEFAULT_255_2_778
10
8.9602501
20
6.4835614
11
9.0740501
21
6.4055614
0
LINE
8
DEFAULT_255_2_778
10
9.0740501
20
6.4055614
11
9.1158501
21
6.3340614
0
LINE
8
DEFAULT_255_2_778
10
9.1158501
20
6.3340614
11
9.1258501
21
6.2988614
0
LINE
8
DEFAULT_255_2_778
10
9.1258501
20
6.2988614
11
9.1306501
21
6.2689614
0
LINE
8
DEFAULT_255_2_778
10
9.1306501
20
6.2689614
11
9.1295501
21
6.1658614
0
LINE
8
DEFAULT_255_2_778
10
9.1295501
20
6.1658614
11
9.1211501
21
6.1189614
0
LINE
8
DEFAULT_255_2_778
10
9.1211501
20
6.1189614
11
9.1026501
21
6.0626614
0
LINE
8
DEFAULT_255_2_778
10
9.1026501
20
6.0626614
11
9.0518501
21
5.9835614
0
LINE
8
DEFAULT_255_2_778
10
9.0518501
20
5.9835614
11
8.9504501
21
5.9123614
0
LINE
8
DEFAULT_255_2_778
10
8.9504501
20
5.9123614
11
8.8308501
21
5.8911614
0
LINE
8
DEFAULT_255_2_778
10
5.1928501
20
7.4376614
11
6.1286501
21
7.4376614
0
LINE
8
DEFAULT_255_2_778
10
6.1286501
20
7.4376614
11
6.1286501
21
7.2291614
0
LINE
8
DEFAULT_255_2_778
10
6.1286501
20
7.2291614
11
5.6008501
21
5.7377614
0
LINE
8
DEFAULT_255_2_778
10
5.6008501
20
5.7377614
11
5.3793501
21
5.7377614
0
LINE
8
DEFAULT_255_2_778
10
5.3793501
20
5.7377614
11
5.9347501
21
7.2474614
0
LINE
8
DEFAULT_255_2_778
10
5.9347501
20
7.2474614
11
5.1931501
21
7.2474614
0
LINE
8
DEFAULT_255_2_778
10
5.1931501
20
7.2474614
11
5.1931501
21
7.4376614
0
LINE
8
DEFAULT_255_2_778
10
4.6949501
20
7.0122614
11
4.8862501
21
7.0122614
0
LINE
8
DEFAULT_255_2_778
10
4.8862501
20
7.0122614
11
4.8838501
21
7.0955614
0
LINE
8
DEFAULT_255_2_778
10
4.8838501
20
7.0955614
11
4.8761501
21
7.1368614
0
LINE
8
DEFAULT_255_2_778
10
4.8761501
20
7.1368614
11
4.8594501
21
7.1908614
0
LINE
8
DEFAULT_255_2_778
10
4.8594501
20
7.1908614
11
4.8221501
21
7.2672614
0
LINE
8
DEFAULT_255_2_778
10
4.8221501
20
7.2672614
11
4.7520501
21
7.3553614
0
LINE
8
DEFAULT_255_2_778
10
4.7520501
20
7.3553614
11
4.6626501
21
7.4204614
0
LINE
8
DEFAULT_255_2_778
10
4.6626501
20
7.4204614
11
4.4856501
21
7.4683614
0
LINE
8
DEFAULT_255_2_778
10
4.4856501
20
7.4683614
11
4.2422501
21
7.4530614
0
LINE
8
DEFAULT_255_2_778
10
4.2422501
20
7.4530614
11
4.0895501
21
7.3887614
0
LINE
8
DEFAULT_255_2_778
10
4.0895501
20
7.3887614
11
3.9953501
21
7.3066614
0
LINE
8
DEFAULT_255_2_778
10
3.9953501
20
7.3066614
11
3.9426501
21
7.2270614
0
LINE
8
DEFAULT_255_2_778
10
3.9426501
20
7.2270614
11
3.9165501
21
7.1627614
0
LINE
8
DEFAULT_255_2_778
10
3.9165501
20
7.1627614
11
3.9051501
21
7.1204614
0
LINE
8
DEFAULT_255_2_778
10
3.9051501
20
7.1204614
11
3.8966501
21
7.0733614
0
LINE
8
DEFAULT_255_2_778
10
3.8966501
20
7.0733614
11
3.8977501
21
6.8860614
0
LINE
8
DEFAULT_255_2_778
10
3.8977501
20
6.8860614
11
3.9093501
21
6.8314614
0
LINE
8
DEFAULT_255_2_778
10
3.9093501
20
6.8314614
11
3.9440501
21
6.7460614
0
LINE
8
DEFAULT_255_2_778
10
3.9440501
20
6.7460614
11
4.0144501
21
6.6581614
0
LINE
8
DEFAULT_255_2_778
10
4.0144501
20
6.6581614
11
4.1813501
21
6.5634614
0
LINE
8
DEFAULT_255_2_778
10
4.1813501
20
6.5634614
11
4.6187501
21
6.4190614
0
LINE
8
DEFAULT_255_2_778
10
4.6187501
20
6.4190614
11
4.7012501
21
6.3404614
0
LINE
8
DEFAULT_255_2_778
10
4.7012501
20
6.3404614
11
4.7224501
21
6.2922614
0
LINE
8
DEFAULT_255_2_778
10
4.7224501
20
6.2922614
11
4.7300501
21
6.2565614
0
LINE
8
DEFAULT_255_2_778
10
4.7300501
20
6.2565614
11
4.7290501
21
6.1367614
0
LINE
8
DEFAULT_255_2_778
10
4.7290501
20
6.1367614
11
4.7200501
21
6.0967614
0
LINE
8
DEFAULT_255_2_778
10
4.7200501
20
6.0967614
11
4.6919501
21
6.0327614
0
LINE
8
DEFAULT_255_2_778
10
4.6919501
20
6.0327614
11
4.6073501
21
5.9456614
0
LINE
8
DEFAULT_255_2_778
10
4.6073501
20
5.9456614
11
4.4218501
21
5.8969614
0
LINE
8
DEFAULT_255_2_778
10
4.4218501
20
5.8969614
11
4.1842501
21
5.9549614
0
LINE
8
DEFAULT_255_2_778
10
4.1842501
20
5.9549614
11
4.0874501
21
6.0811614
0
LINE
8
DEFAULT_255_2_778
10
4.0874501
20
6.0811614
11
4.0665501
21
6.1517614
0
LINE
8
DEFAULT_255_2_778
10
4.0665501
20
6.1517614
11
4.0641501
21
6.2303614
0
LINE
8
DEFAULT_255_2_778
10
4.0641501
20
6.2303614
11
3.8747501
21
6.2303614
0
LINE
8
DEFAULT_255_2_778
10
3.8747501
20
6.2303614
11
3.8760501
21
6.1679614
0
LINE
8
DEFAULT_255_2_778
10
3.8760501
20
6.1679614
11
3.8797501
21
6.1364614
0
LINE
8
DEFAULT_255_2_778
10
3.8797501
20
6.1364614
11
3.8889501
21
6.0890614
0
LINE
8
DEFAULT_255_2_778
10
3.8889501
20
6.0890614
11
3.9080501
21
6.0269614
0
LINE
8
DEFAULT_255_2_778
10
3.9080501
20
6.0269614
11
3.9419501
21
5.9522614
0
LINE
8
DEFAULT_255_2_778
10
3.9419501
20
5.9522614
11
4.0014501
21
5.8647614
0
LINE
8
DEFAULT_255_2_778
10
4.0014501
20
5.8647614
11
4.0995501
21
5.7771614
0
LINE
8
DEFAULT_255_2_778
10
4.0995501
20
5.7771614
11
4.2321501
21
5.7215614
0
LINE
8
DEFAULT_255_2_778
10
4.2321501
20
5.7215614
11
4.4393501
21
5.7046614
0
LINE
8
DEFAULT_255_2_778
10
4.4393501
20
5.7046614
11
4.6179501
21
5.7392614
0
LINE
8
DEFAULT_255_2_778
10
4.6179501
20
5.7392614
11
4.7406501
21
5.8067614
0
LINE
8
DEFAULT_255_2_778
10
4.7406501
20
5.8067614
11
4.8171501
21
5.8829614
0
LINE
8
DEFAULT_255_2_778
10
4.8171501
20
5.8829614
11
4.8594501
21
5.9488614
0
LINE
8
DEFAULT_255_2_778
10
4.8594501
20
5.9488614
11
4.8856501
21
6.0089614
0
LINE
8
DEFAULT_255_2_778
10
4.8856501
20
6.0089614
11
4.9041501
21
6.0718614
0
LINE
8
DEFAULT_255_2_778
10
4.9041501
20
6.0718614
11
4.9121501
21
6.1123614
0
LINE
8
DEFAULT_255_2_778
10
4.9121501
20
6.1123614
11
4.9176501
21
6.1531614
0
LINE
8
DEFAULT_255_2_778
10
4.9176501
20
6.1531614
11
4.9161501
21
6.3242614
0
LINE
8
DEFAULT_255_2_778
10
4.9161501
20
6.3242614
11
4.9052501
21
6.3798614
0
LINE
8
DEFAULT_255_2_778
10
4.9052501
20
6.3798614
11
4.8782501
21
6.4544614
0
LINE
8
DEFAULT_255_2_778
10
4.8782501
20
6.4544614
11
4.8142501
21
6.5473614
0
LINE
8
DEFAULT_255_2_778
10
4.8142501
20
6.5473614
11
4.6628501
21
6.6478614
0
LINE
8
DEFAULT_255_2_778
10
4.6628501
20
6.6478614
11
4.1781501
21
6.8135614
0
LINE
8
DEFAULT_255_2_778
10
4.1781501
20
6.8135614
11
4.1070501
21
6.8891614
0
LINE
8
DEFAULT_255_2_778
10
4.1070501
20
6.8891614
11
4.0895501
21
6.9336614
0
LINE
8
DEFAULT_255_2_778
10
4.0895501
20
6.9336614
11
4.0834501
21
6.9653614
0
LINE
8
DEFAULT_255_2_778
10
4.0834501
20
6.9653614
11
4.0850501
21
7.0532614
0
LINE
8
DEFAULT_255_2_778
10
4.0850501
20
7.0532614
11
4.0956501
21
7.0971614
0
LINE
8
DEFAULT_255_2_778
10
4.0956501
20
7.0971614
11
4.1292501
21
7.1627614
0
LINE
8
DEFAULT_255_2_778
10
4.1292501
20
7.1627614
11
4.2239501
21
7.2376614
0
LINE
8
DEFAULT_255_2_778
10
4.2239501
20
7.2376614
11
4.4575501
21
7.2701614
0
LINE
8
DEFAULT_255_2_778
10
4.4575501
20
7.2701614
11
4.6443501
21
7.1630614
0
LINE
8
DEFAULT_255_2_778
10
4.6443501
20
7.1630614
11
4.6853501
21
7.0735614
0
LINE
8
DEFAULT_255_2_778
10
4.6853501
20
7.0735614
11
4.6927501
21
7.0307614
0
LINE
8
DEFAULT_255_2_778
10
4.6927501
20
7.0307614
11
4.6941501
21
7.0122614
0
LINE
8
DEFAULT_255_2_778
10
2.7793501
20
7.4376614
11
3.6185501
21
7.4376614
0
LINE
8
DEFAULT_255_2_778
10
3.6185501
20
7.4376614
11
3.6185501
21
7.2447614
0
LINE
8
DEFAULT_255_2_778
10
3.6185501
20
7.2447614
11
2.9677501
21
7.2447614
0
LINE
8
DEFAULT_255_2_778
10
2.9677501
20
7.2447614
11
2.9677501
21
6.7087614
0
LINE
8
DEFAULT_255_2_778
10
2.9677501
20
6.7087614
11
3.5931501
21
6.7087614
0
LINE
8
DEFAULT_255_2_778
10
3.5931501
20
6.7087614
11
3.5931501
21
6.5158614
0
LINE
8
DEFAULT_255_2_778
10
3.5931501
20
6.5158614
11
2.9677501
21
6.5158614
0
LINE
8
DEFAULT_255_2_778
10
2.9677501
20
6.5158614
11
2.9677501
21
5.9303614
0
LINE
8
DEFAULT_255_2_778
10
2.9677501
20
5.9303614
11
3.6363501
21
5.9303614
0
LINE
8
DEFAULT_255_2_778
10
3.6363501
20
5.9303614
11
3.6363501
21
5.7374614
0
LINE
8
DEFAULT_255_2_778
10
3.6363501
20
5.7374614
11
2.7793501
21
5.7374614
0
LINE
8
DEFAULT_255_2_778
10
2.7793501
20
5.7374614
11
2.7793501
21
7.4373614
0
LINE
8
DEFAULT_255_2_778
10
1.7985501
20
6.5616614
11
1.8908501
21
6.6322614
0
LINE
8
DEFAULT_255_2_778
10
1.8908501
20
6.6322614
11
2.0612501
21
6.6597614
0
LINE
8
DEFAULT_255_2_778
10
2.0612501
20
6.6597614
11
2.1773501
21
6.6113614
0
LINE
8
DEFAULT_255_2_778
10
2.1773501
20
6.6113614
11
2.2308501
21
6.5483614
0
LINE
8
DEFAULT_255_2_778
10
2.2308501
20
6.5483614
11
2.2665501
21
6.4732614
0
LINE
8
DEFAULT_255_2_778
10
2.2665501
20
6.4732614
11
2.2808501
21
6.4227614
0
LINE
8
DEFAULT_255_2_778
10
2.2808501
20
6.4227614
11
2.2879501
21
6.3840614
0
LINE
8
DEFAULT_255_2_778
10
2.2879501
20
6.3840614
11
2.2922501
21
6.3499614
0
LINE
8
DEFAULT_255_2_778
10
2.2922501
20
6.3499614
11
2.2911501
21
6.2028614
0
LINE
8
DEFAULT_255_2_778
10
2.2911501
20
6.2028614
11
2.2845501
21
6.1581614
0
LINE
8
DEFAULT_255_2_778
10
2.2845501
20
6.1581614
11
2.2710501
21
6.1046614
0
LINE
8
DEFAULT_255_2_778
10
2.2710501
20
6.1046614
11
2.2432501
21
6.0388614
0
LINE
8
DEFAULT_255_2_778
10
2.2432501
20
6.0388614
11
2.1842501
21
5.9602614
0
LINE
8
DEFAULT_255_2_778
10
2.1842501
20
5.9602614
11
2.0882501
21
5.9041614
0
LINE
8
DEFAULT_255_2_778
10
2.0882501
20
5.9041614
11
1.9366501
21
5.8985614
0
LINE
8
DEFAULT_255_2_778
10
1.9366501
20
5.8985614
11
1.8347501
21
5.9477614
0
LINE
8
DEFAULT_255_2_778
10
1.8347501
20
5.9477614
11
1.7715501
21
6.0210614
0
LINE
8
DEFAULT_255_2_778
10
1.7715501
20
6.0210614
11
1.7418501
21
6.0800614
0
LINE
8
DEFAULT_255_2_778
10
1.7418501
20
6.0800614
11
1.7252501
21
6.1324614
0
LINE
8
DEFAULT_255_2_778
10
1.7252501
20
6.1324614
11
1.7167501
21
6.1729614
0
LINE
8
DEFAULT_255_2_778
10
1.7167501
20
6.1729614
11
1.7125501
21
6.2036614
0
LINE
8
DEFAULT_255_2_778
10
1.7125501
20
6.2036614
11
1.7133501
21
6.3600614
0
LINE
8
DEFAULT_255_2_778
10
1.7133501
20
6.3600614
11
1.7209501
21
6.4034614
0
LINE
8
DEFAULT_255_2_778
10
1.7209501
20
6.4034614
11
1.7387501
21
6.4624614
0
LINE
8
DEFAULT_255_2_778
10
1.7387501
20
6.4624614
11
1.7770501
21
6.5346614
0
LINE
8
DEFAULT_255_2_778
10
1.7770501
20
6.5346614
11
1.7985501
21
6.5616614
0
LINE
8
DEFAULT_255_2_778
10
2.2660501
20
7.0122614
11
2.4464501
21
7.0122614
0
LINE
8
DEFAULT_255_2_778
10
2.4464501
20
7.0122614
11
2.4443501
21
7.0709614
0
LINE
8
DEFAULT_255_2_778
10
2.4443501
20
7.0709614
11
2.4425501
21
7.0905614
0
LINE
8
DEFAULT_255_2_778
10
2.4425501
20
7.0905614
11
2.4372501
21
7.1296614
0
LINE
8
DEFAULT_255_2_778
10
2.4372501
20
7.1296614
11
2.4298501
21
7.1659614
0
LINE
8
DEFAULT_255_2_778
10
2.4298501
20
7.1659614
11
2.4149501
21
7.2154614
0
LINE
8
DEFAULT_255_2_778
10
2.4149501
20
7.2154614
11
2.3866501
21
7.2767614
0
LINE
8
DEFAULT_255_2_778
10
2.3866501
20
7.2767614
11
2.3398501
21
7.3416614
0
LINE
8
DEFAULT_255_2_778
10
2.3398501
20
7.3416614
11
2.2607501
21
7.4069614
0
LINE
8
DEFAULT_255_2_778
10
2.2607501
20
7.4069614
11
2.1345501
21
7.4540614
0
LINE
8
DEFAULT_255_2_778
10
2.1345501
20
7.4540614
11
1.9697501
21
7.4582614
0
LINE
8
DEFAULT_255_2_778
10
1.9697501
20
7.4582614
11
1.8434501
21
7.4209614
0
LINE
8
DEFAULT_255_2_778
10
1.8434501
20
7.4209614
11
1.7373501
21
7.3455614
0
LINE
8
DEFAULT_255_2_778
10
1.7373501
20
7.3455614
11
1.6683501
21
7.2625614
0
LINE
8
DEFAULT_255_2_778
10
1.6683501
20
7.2625614
11
1.6133501
21
7.1632614
0
LINE
8
DEFAULT_255_2_778
10
1.6133501
20
7.1632614
11
1.5852501
21
7.0952614
0
LINE
8
DEFAULT_255_2_778
10
1.5852501
20
7.0952614
11
1.5598501
21
7.0175614
0
LINE
8
DEFAULT_255_2_778
10
1.5598501
20
7.0175614
11
1.5389501
21
6.9344614
0
LINE
8
DEFAULT_255_2_778
10
1.5389501
20
6.9344614
11
1.5270501
21
6.8733614
0
LINE
8
DEFAULT_255_2_778
10
1.5270501
20
6.8733614
11
1.5175501
21
6.8119614
0
LINE
8
DEFAULT_255_2_778
10
1.5175501
20
6.8119614
11
1.5101501
21
6.7502614
0
LINE
8
DEFAULT_255_2_778
10
1.5101501
20
6.7502614
11
1.5061501
21
6.7089614
0
LINE
8
DEFAULT_255_2_778
10
1.5061501
20
6.7089614
11
1.5029501
21
6.6677614
0
LINE
8
DEFAULT_255_2_778
10
1.5029501
20
6.6677614
11
1.5029501
21
6.3563614
0
LINE
8
DEFAULT_255_2_778
10
1.5029501
20
6.3563614
11
1.5056501
21
6.3219614
0
LINE
8
DEFAULT_255_2_778
10
1.5056501
20
6.3219614
11
1.5090501
21
6.2875614
0
LINE
8
DEFAULT_255_2_778
10
1.5090501
20
6.2875614
11
1.5159501
21
6.2345614
0
LINE
8
DEFAULT_255_2_778
10
1.5159501
20
6.2345614
11
1.5249501
21
6.1819614
0
LINE
8
DEFAULT_255_2_778
10
1.5249501
20
6.1819614
11
1.5363501
21
6.1298614
0
LINE
8
DEFAULT_255_2_778
10
1.5363501
20
6.1298614
11
1.5606501
21
6.0456614
0
LINE
8
DEFAULT_255_2_778
10
1.5606501
20
6.0456614
11
1.5905501
21
5.9702614
0
LINE
8
DEFAULT_255_2_778
10
1.5905501
20
5.9702614
11
1.6331501
21
5.8916614
0
LINE
8
DEFAULT_255_2_778
10
1.6331501
20
5.8916614
11
1.6858501
21
5.8237614
0
LINE
8
DEFAULT_255_2_778
10
1.6858501
20
5.8237614
11
1.7887501
21
5.7445614
0
LINE
8
DEFAULT_255_2_778
10
1.7887501
20
5.7445614
11
1.9276501
21
5.7025614
0
LINE
8
DEFAULT_255_2_778
10
1.9276501
20
5.7025614
11
2.0914501
21
5.7083614
0
LINE
8
DEFAULT_255_2_778
10
2.0914501
20
5.7083614
11
2.2300501
21
5.7596614
0
LINE
8
DEFAULT_255_2_778
10
2.2300501
20
5.7596614
11
2.3205501
21
5.8300614
0
LINE
8
DEFAULT_255_2_778
10
2.3205501
20
5.8300614
11
2.3837501
21
5.9102614
0
LINE
8
DEFAULT_255_2_778
10
2.3837501
20
5.9102614
11
2.4168501
21
5.9710614
0
LINE
8
DEFAULT_255_2_778
10
2.4168501
20
5.9710614
11
2.4433501
21
6.0411614
0
LINE
8
DEFAULT_255_2_778
10
2.4433501
20
6.0411614
11
2.4575501
21
6.0956614
0
LINE
8
DEFAULT_255_2_778
10
2.4575501
20
6.0956614
11
2.4650501
21
6.1351614
0
LINE
8
DEFAULT_255_2_778
10
2.4650501
20
6.1351614
11
2.4705501
21
6.1771614
0
LINE
8
DEFAULT_255_2_778
10
2.4705501
20
6.1771614
11
2.4694501
21
6.3989614
0
LINE
8
DEFAULT_255_2_778
10
2.4694501
20
6.3989614
11
2.4634501
21
6.4404614
0
LINE
8
DEFAULT_255_2_778
10
2.4634501
20
6.4404614
11
2.4528501
21
6.4923614
0
LINE
8
DEFAULT_255_2_778
10
2.4528501
20
6.4923614
11
2.4324501
21
6.5597614
0
LINE
8
DEFAULT_255_2_778
10
2.4324501
20
6.5597614
11
2.3948501
21
6.6415614
0
LINE
8
DEFAULT_255_2_778
10
2.3948501
20
6.6415614
11
2.3234501
21
6.7394614
0
LINE
8
DEFAULT_255_2_778
10
2.3234501
20
6.7394614
11
2.2149501
21
6.8185614
0
LINE
8
DEFAULT_255_2_778
10
2.2149501
20
6.8185614
11
2.0456501
21
6.8542614
0
LINE
8
DEFAULT_255_2_778
10
2.0456501
20
6.8542614
11
1.9022501
21
6.8246614
0
LINE
8
DEFAULT_255_2_778
10
1.9022501
20
6.8246614
11
1.7940501
21
6.7523614
0
LINE
8
DEFAULT_255_2_778
10
1.7940501
20
6.7523614
11
1.7225501
21
6.6708614
0
LINE
8
DEFAULT_255_2_778
10
1.7225501
20
6.6708614
11
1.6786501
21
6.5997614
0
LINE
8
DEFAULT_255_2_778
10
1.6786501
20
6.5997614
11
1.6807501
21
6.6333614
0
LINE
8
DEFAULT_255_2_778
10
1.6807501
20
6.6333614
11
1.6834501
21
6.6669614
0
LINE
8
DEFAULT_255_2_778
10
1.6834501
20
6.6669614
11
1.6863501
21
6.7005614
0
LINE
8
DEFAULT_255_2_778
10
1.6863501
20
6.7005614
11
1.6940501
21
6.7674614
0
LINE
8
DEFAULT_255_2_778
10
1.6940501
20
6.7674614
11
1.7056501
21
6.8404614
0
LINE
8
DEFAULT_255_2_778
10
1.7056501
20
6.8404614
11
1.7209501
21
6.9127614
0
LINE
8
DEFAULT_255_2_778
10
1.7209501
20
6.9127614
11
1.7448501
21
6.9955614
0
LINE
8
DEFAULT_255_2_778
10
1.7448501
20
6.9955614
11
1.7876501
21
7.0989614
0
LINE
8
DEFAULT_255_2_778
10
1.7876501
20
7.0989614
11
1.8588501
21
7.1995614
0
LINE
8
DEFAULT_255_2_778
10
1.8588501
20
7.1995614
11
1.9503501
21
7.2595614
0
LINE
8
DEFAULT_255_2_778
10
1.9503501
20
7.2595614
11
2.0795501
21
7.2715614
0
LINE
8
DEFAULT_255_2_778
10
2.0795501
20
7.2715614
11
2.1726501
21
7.2344614
0
LINE
8
DEFAULT_255_2_778
10
2.1726501
20
7.2344614
11
2.2287501
21
7.1720614
0
LINE
8
DEFAULT_255_2_778
10
2.2287501
20
7.1720614
11
2.2517501
21
7.1193614
0
LINE
8
DEFAULT_255_2_778
10
2.2517501
20
7.1193614
11
2.2588501
21
7.0905614
0
LINE
8
DEFAULT_255_2_778
10
2.2588501
20
7.0905614
11
2.2631501
21
7.0643614
0
LINE
8
DEFAULT_255_2_778
10
2.2631501
20
7.0643614
11
2.2655501
21
7.0381614
0
LINE
8
DEFAULT_255_2_778
10
2.2655501
20
7.0381614
11
2.2660501
21
7.0122614
0
LINE
8
DEFAULT_255_2_778
10
2.1049501
20
4.9376614
11
2.3226501
21
4.9376614
0
LINE
8
DEFAULT_255_2_778
10
2.3226501
20
4.9376614
11
2.3226501
21
3.8485614
0
LINE
8
DEFAULT_255_2_778
10
2.3226501
20
3.8485614
11
2.5832501
21
3.8485614
0
LINE
8
DEFAULT_255_2_778
10
2.5832501
20
3.8485614
11
2.5832501
21
3.6631614
0
LINE
8
DEFAULT_255_2_778
10
2.5832501
20
3.6631614
11
2.3226501
21
3.6631614
0
LINE
8
DEFAULT_255_2_778
10
2.3226501
20
3.6631614
11
2.3226501
21
3.2379614
0
LINE
8
DEFAULT_255_2_778
10
2.3226501
20
3.2379614
11
2.1382501
21
3.2379614
0
LINE
8
DEFAULT_255_2_778
10
2.1382501
20
3.2379614
11
2.1382501
21
3.6631614
0
LINE
8
DEFAULT_255_2_778
10
2.1382501
20
3.6631614
11
1.4979501
21
3.6631614
0
LINE
8
DEFAULT_255_2_778
10
1.4979501
20
3.6631614
11
1.4979501
21
3.8679614
0
LINE
8
DEFAULT_255_2_778
10
1.4979501
20
3.8679614
11
2.1049501
21
4.9376614
0
LINE
8
DEFAULT_255_2_778
10
1.6588501
20
3.8483614
11
2.1379501
21
3.8483614
0
LINE
8
DEFAULT_255_2_778
10
2.1379501
20
3.8483614
11
2.1379501
21
4.6952614
0
LINE
8
DEFAULT_255_2_778
10
2.1379501
20
4.6952614
11
1.6588501
21
3.8483614
0
LINE
8
DEFAULT_255_2_778
10
2.8329865
20
4.9376416
11
3.4465865
21
4.9249416
0
LINE
8
DEFAULT_255_2_778
10
3.4465865
20
4.9249416
11
3.6211865
21
4.8580416
0
LINE
8
DEFAULT_255_2_778
10
3.6211865
20
4.8580416
11
3.7145865
21
4.7714416
0
LINE
8
DEFAULT_255_2_778
10
3.7145865
20
4.7714416
11
3.7502865
21
4.7082416
0
LINE
8
DEFAULT_255_2_778
10
3.7502865
20
4.7082416
11
3.7663865
21
4.6606416
0
LINE
8
DEFAULT_255_2_778
10
3.7663865
20
4.6606416
11
3.7767865
21
4.6106416
0
LINE
8
DEFAULT_255_2_778
10
3.7767865
20
4.6106416
11
3.7812865
21
4.5722416
0
LINE
8
DEFAULT_255_2_778
10
3.7812865
20
4.5722416
11
3.7793865
21
4.4471416
0
LINE
8
DEFAULT_255_2_778
10
3.7793865
20
4.4471416
11
3.7751865
21
4.4182416
0
LINE
8
DEFAULT_255_2_778
10
3.7751865
20
4.4182416
11
3.7653865
21
4.3759416
0
LINE
8
DEFAULT_255_2_778
10
3.7653865
20
4.3759416
11
3.7425865
21
4.3158416
0
LINE
8
DEFAULT_255_2_778
10
3.7425865
20
4.3158416
11
3.6912865
21
4.2367416
0
LINE
8
DEFAULT_255_2_778
10
3.6912865
20
4.2367416
11
3.5936865
21
4.1566416
0
LINE
8
DEFAULT_255_2_778
10
3.5936865
20
4.1566416
11
3.5404865
21
4.1341416
0
LINE
8
DEFAULT_255_2_778
10
3.5404865
20
4.1341416
11
3.6653865
21
4.0761416
0
LINE
8
DEFAULT_255_2_778
10
3.6653865
20
4.0761416
11
3.7454865
21
4.0007416
0
LINE
8
DEFAULT_255_2_778
10
3.7454865
20
4.0007416
11
3.7878865
21
3.9324416
0
LINE
8
DEFAULT_255_2_778
10
3.7878865
20
3.9324416
11
3.8124865
21
3.8674416
0
LINE
8
DEFAULT_255_2_778
10
3.8124865
20
3.8674416
11
3.8230865
21
3.8229416
0
LINE
8
DEFAULT_255_2_778
10
3.8230865
20
3.8229416
11
3.8285865
21
3.7877416
0
LINE
8
DEFAULT_255_2_778
10
3.8285865
20
3.7877416
11
3.8280865
21
3.5948416
0
LINE
8
DEFAULT_255_2_778
10
3.8280865
20
3.5948416
11
3.8203865
21
3.5514416
0
LINE
8
DEFAULT_255_2_778
10
3.8203865
20
3.5514416
11
3.8089865
21
3.5091416
0
LINE
8
DEFAULT_255_2_778
10
3.8089865
20
3.5091416
11
3.7870865
21
3.4554416
0
LINE
8
DEFAULT_255_2_778
10
3.7870865
20
3.4554416
11
3.7370865
21
3.3813416
0
LINE
8
DEFAULT_255_2_778
10
3.7370865
20
3.3813416
11
3.6296865
21
3.2951416
0
LINE
8
DEFAULT_255_2_778
10
3.6296865
20
3.2951416
11
3.4565865
21
3.2437416
0
LINE
8
DEFAULT_255_2_778
10
3.4565865
20
3.2437416
11
3.3491865
21
3.2379416
0
LINE
8
DEFAULT_255_2_778
10
3.3491865
20
3.2379416
11
2.8329865
21
3.2379416
0
LINE
8
DEFAULT_255_2_778
10
2.8329865
20
3.2379416
11
2.8329865
21
4.9376416
0
LINE
8
DEFAULT_255_2_778
10
3.3324865
20
3.4303416
11
3.5338865
21
3.4721416
0
LINE
8
DEFAULT_255_2_778
10
3.5338865
20
3.4721416
11
3.6050865
21
3.5443416
0
LINE
8
DEFAULT_255_2_778
10
3.6050865
20
3.5443416
11
3.6309865
21
3.6067416
0
LINE
8
DEFAULT_255_2_778
10
3.6309865
20
3.6067416
11
3.6399865
21
3.6480416
0
LINE
8
DEFAULT_255_2_778
10
3.6399865
20
3.6480416
11
3.6391865
21
3.8044416
0
LINE
8
DEFAULT_255_2_778
10
3.6391865
20
3.8044416
11
3.6272865
21
3.8496416
0
LINE
8
DEFAULT_255_2_778
10
3.6272865
20
3.8496416
11
3.5933865
21
3.9121416
0
LINE
8
DEFAULT_255_2_778
10
3.5933865
20
3.9121416
11
3.4930865
21
3.9891416
0
LINE
8
DEFAULT_255_2_778
10
3.4930865
20
3.9891416
11
3.3023865
21
4.0216416
0
LINE
8
DEFAULT_255_2_778
10
3.3023865
20
4.0216416
11
3.0213865
21
4.0216416
0
LINE
8
DEFAULT_255_2_778
10
3.0213865
20
4.0216416
11
3.0213865
21
3.4300416
0
LINE
8
DEFAULT_255_2_778
10
3.0213865
20
3.4300416
11
3.3324865
21
3.4303416
0
LINE
8
DEFAULT_255_2_778
10
3.2787865
20
4.2195416
11
3.4952865
21
4.2693416
0
LINE
8
DEFAULT_255_2_778
10
3.4952865
20
4.2693416
11
3.5639865
21
4.3391416
0
LINE
8
DEFAULT_255_2_778
10
3.5639865
20
4.3391416
11
3.5848865
21
4.3912416
0
LINE
8
DEFAULT_255_2_778
10
3.5848865
20
4.3912416
11
3.5923865
21
4.4317416
0
LINE
8
DEFAULT_255_2_778
10
3.5923865
20
4.4317416
11
3.5899865
21
4.5402416
0
LINE
8
DEFAULT_255_2_778
10
3.5899865
20
4.5402416
11
3.5772865
21
4.5876416
0
LINE
8
DEFAULT_255_2_778
10
3.5772865
20
4.5876416
11
3.5364865
21
4.6548416
0
LINE
8
DEFAULT_255_2_778
10
3.5364865
20
4.6548416
11
3.4356865
21
4.7220416
0
LINE
8
DEFAULT_255_2_778
10
3.4356865
20
4.7220416
11
3.2785865
21
4.7445416
0
LINE
8
DEFAULT_255_2_778
10
3.2785865
20
4.7445416
11
3.0208865
21
4.7445416
0
LINE
8
DEFAULT_255_2_778
10
3.0208865
20
4.7445416
11
3.0208865
21
4.2193416
0
LINE
8
DEFAULT_255_2_778
10
3.0208865
20
4.2193416
11
3.2787865
21
4.2195416
0
LINE
8
DEFAULT_255_2_778
10
4.0930136
20
4.9377041
11
4.6632136
21
4.9284041
0
LINE
8
DEFAULT_255_2_778
10
4.6632136
20
4.9284041
11
4.8153136
21
4.8901041
0
LINE
8
DEFAULT_255_2_778
10
4.8153136
20
4.8901041
11
4.9143136
21
4.8406041
0
LINE
8
DEFAULT_255_2_778
10
4.9143136
20
4.8406041
11
4.9995136
21
4.7713041
0
LINE
8
DEFAULT_255_2_778
10
4.9995136
20
4.7713041
11
5.0704136
21
4.6858041
0
LINE
8
DEFAULT_255_2_778
10
5.0704136
20
4.6858041
11
5.1167136
21
4.6093041
0
LINE
8
DEFAULT_255_2_778
10
5.1167136
20
4.6093041
11
5.1452136
21
4.5490041
0
LINE
8
DEFAULT_255_2_778
10
5.1452136
20
4.5490041
11
5.1669136
21
4.4911041
0
LINE
8
DEFAULT_255_2_778
10
5.1669136
20
4.4911041
11
5.1844136
21
4.4321041
0
LINE
8
DEFAULT_255_2_778
10
5.1844136
20
4.4321041
11
5.1979136
21
4.3720041
0
LINE
8
DEFAULT_255_2_778
10
5.1979136
20
4.3720041
11
5.2080136
21
4.3112041
0
LINE
8
DEFAULT_255_2_778
10
5.2080136
20
4.3112041
11
5.2064136
21
3.8140041
0
LINE
8
DEFAULT_255_2_778
10
5.2064136
20
3.8140041
11
5.1953136
21
3.7529041
0
LINE
8
DEFAULT_255_2_778
10
5.1953136
20
3.7529041
11
5.1802136
21
3.6928041
0
LINE
8
DEFAULT_255_2_778
10
5.1802136
20
3.6928041
11
5.1609136
21
3.6338041
0
LINE
8
DEFAULT_255_2_778
10
5.1609136
20
3.6338041
11
5.1225136
21
3.5478041
0
LINE
8
DEFAULT_255_2_778
10
5.1225136
20
3.5478041
11
5.0661136
21
3.4587041
0
LINE
8
DEFAULT_255_2_778
10
5.0661136
20
3.4587041
11
4.9963136
21
3.3809041
0
LINE
8
DEFAULT_255_2_778
10
4.9963136
20
3.3809041
11
4.9119136
21
3.3184041
0
LINE
8
DEFAULT_255_2_778
10
4.9119136
20
3.3184041
11
4.7889136
21
3.2671041
0
LINE
8
DEFAULT_255_2_778
10
4.7889136
20
3.2671041
11
4.5666136
21
3.2383041
0
LINE
8
DEFAULT_255_2_778
10
4.5666136
20
3.2383041
11
4.0933136
21
3.2383041
0
LINE
8
DEFAULT_255_2_778
10
4.0933136
20
3.2383041
11
4.0930136
21
4.9377041
0
LINE
8
DEFAULT_255_2_778
10
4.5674136
20
3.4304041
11
4.7365136
21
3.4550041
0
LINE
8
DEFAULT_255_2_778
10
4.7365136
20
3.4550041
11
4.8444136
21
3.5108041
0
LINE
8
DEFAULT_255_2_778
10
4.8444136
20
3.5108041
11
4.9182136
21
3.5862041
0
LINE
8
DEFAULT_255_2_778
10
4.9182136
20
3.5862041
11
4.9542136
21
3.6452041
0
LINE
8
DEFAULT_255_2_778
10
4.9542136
20
3.6452041
11
4.9839136
21
3.7172041
0
LINE
8
DEFAULT_255_2_778
10
4.9839136
20
3.7172041
11
5.0021136
21
3.7812041
0
LINE
8
DEFAULT_255_2_778
10
5.0021136
20
3.7812041
11
5.0119136
21
3.8272041
0
LINE
8
DEFAULT_255_2_778
10
5.0119136
20
3.8272041
11
5.0196136
21
3.8738041
0
LINE
8
DEFAULT_255_2_778
10
5.0196136
20
3.8738041
11
5.0262136
21
3.9302041
0
LINE
8
DEFAULT_255_2_778
10
5.0262136
20
3.9302041
11
5.0259136
21
4.2564041
0
LINE
8
DEFAULT_255_2_778
10
5.0259136
20
4.2564041
11
5.0198136
21
4.3019041
0
LINE
8
DEFAULT_255_2_778
10
5.0198136
20
4.3019041
11
5.0114136
21
4.3469041
0
LINE
8
DEFAULT_255_2_778
10
5.0114136
20
4.3469041
11
5.0003136
21
4.3913041
0
LINE
8
DEFAULT_255_2_778
10
5.0003136
20
4.3913041
11
4.9778136
21
4.4567041
0
LINE
8
DEFAULT_255_2_778
10
4.9778136
20
4.4567041
11
4.9413136
21
4.5305041
0
LINE
8
DEFAULT_255_2_778
10
4.9413136
20
4.5305041
11
4.8830136
21
4.6099041
0
LINE
8
DEFAULT_255_2_778
10
4.8830136
20
4.6099041
11
4.8095136
21
4.6731041
0
LINE
8
DEFAULT_255_2_778
10
4.8095136
20
4.6731041
11
4.6835136
21
4.7271041
0
LINE
8
DEFAULT_255_2_778
10
4.6835136
20
4.7271041
11
4.5290136
21
4.7453041
0
LINE
8
DEFAULT_255_2_778
10
4.5290136
20
4.7453041
11
4.2811136
21
4.7453041
0
LINE
8
DEFAULT_255_2_778
10
4.2811136
20
4.7453041
11
4.2811136
21
3.4309041
0
LINE
8
DEFAULT_255_2_778
10
4.2811136
20
3.4309041
11
4.5674136
21
3.4304041
0
LINE
8
DEFAULT_255_2_778
10
6.3864136
20
3.4931041
11
6.4237136
21
3.5796041
0
LINE
8
DEFAULT_255_2_778
10
6.4237136
20
3.5796041
11
6.4441136
21
3.6388041
0
LINE
8
DEFAULT_255_2_778
10
6.4441136
20
3.6388041
11
6.4618136
21
3.7016041
0
LINE
8
DEFAULT_255_2_778
10
6.4618136
20
3.7016041
11
6.4769136
21
3.7677041
0
LINE
8
DEFAULT_255_2_778
10
6.4769136
20
3.7677041
11
6.4885136
21
3.8344041
0
LINE
8
DEFAULT_255_2_778
10
6.4885136
20
3.8344041
11
6.4933136
21
3.8680041
0
LINE
8
DEFAULT_255_2_778
10
6.4933136
20
3.8680041
11
6.4975136
21
3.9050041
0
LINE
8
DEFAULT_255_2_778
10
6.4975136
20
3.9050041
11
6.5010136
21
3.9421041
0
LINE
8
DEFAULT_255_2_778
10
6.5010136
20
3.9421041
11
6.5010136
21
4.2373041
0
LINE
8
DEFAULT_255_2_778
10
6.5010136
20
4.2373041
11
6.4975136
21
4.2738041
0
LINE
8
DEFAULT_255_2_778
10
6.4975136
20
4.2738041
11
6.4933136
21
4.3104041
0
LINE
8
DEFAULT_255_2_778
10
6.4933136
20
4.3104041
11
6.4830136
21
4.3762041
0
LINE
8
DEFAULT_255_2_778
10
6.4830136
20
4.3762041
11
6.4695136
21
4.4416041
0
LINE
8
DEFAULT_255_2_778
10
6.4695136
20
4.4416041
11
6.4526136
21
4.5062041
0
LINE
8
DEFAULT_255_2_778
10
6.4526136
20
4.5062041
11
6.4335136
21
4.5649041
0
LINE
8
DEFAULT_255_2_778
10
6.4335136
20
4.5649041
11
6.3983136
21
4.6506041
0
LINE
8
DEFAULT_255_2_778
10
6.3983136
20
4.6506041
11
6.3536136
21
4.7348041
0
LINE
8
DEFAULT_255_2_778
10
6.3536136
20
4.7348041
11
6.3041136
21
4.8046041
0
LINE
8
DEFAULT_255_2_778
10
6.3041136
20
4.8046041
11
6.2343136
21
4.8739041
0
LINE
8
DEFAULT_255_2_778
10
6.2343136
20
4.8739041
11
6.1393136
21
4.9313041
0
LINE
8
DEFAULT_255_2_778
10
6.1393136
20
4.9313041
11
6.0133136
21
4.9615041
0
LINE
8
DEFAULT_255_2_778
10
6.0133136
20
4.9615041
11
5.8837136
21
4.9536041
0
LINE
8
DEFAULT_255_2_778
10
5.8837136
20
4.9536041
11
5.7797136
21
4.9155041
0
LINE
8
DEFAULT_255_2_778
10
5.7797136
20
4.9155041
11
5.6900136
21
4.8498041
0
LINE
8
DEFAULT_255_2_778
10
5.6900136
20
4.8498041
11
5.6220136
21
4.7710041
0
LINE
8
DEFAULT_255_2_778
10
5.6220136
20
4.7710041
11
5.5633136
21
4.6715041
0
LINE
8
DEFAULT_255_2_778
10
5.5633136
20
4.6715041
11
5.5276136
21
4.5903041
0
LINE
8
DEFAULT_255_2_778
10
5.5276136
20
4.5903041
11
5.4993136
21
4.5064041
0
LINE
8
DEFAULT_255_2_778
10
5.4993136
20
4.5064041
11
5.4823136
21
4.4419041
0
LINE
8
DEFAULT_255_2_778
10
5.4823136
20
4.4419041
11
5.4688136
21
4.3765041
0
LINE
8
DEFAULT_255_2_778
10
5.4688136
20
4.3765041
11
5.4585136
21
4.3106041
0
LINE
8
DEFAULT_255_2_778
10
5.4585136
20
4.3106041
11
5.4543136
21
4.2741041
0
LINE
8
DEFAULT_255_2_778
10
5.4543136
20
4.2741041
11
5.4508136
21
4.2376041
0
LINE
8
DEFAULT_255_2_778
10
5.4508136
20
4.2376041
11
5.4508136
21
3.9421041
0
LINE
8
DEFAULT_255_2_778
10
5.4508136
20
3.9421041
11
5.4543136
21
3.9050041
0
LINE
8
DEFAULT_255_2_778
10
5.4543136
20
3.9050041
11
5.4585136
21
3.8680041
0
LINE
8
DEFAULT_255_2_778
10
5.4585136
20
3.8680041
11
5.4686136
21
3.8010041
0
LINE
8
DEFAULT_255_2_778
10
5.4686136
20
3.8010041
11
5.4818136
21
3.7346041
0
LINE
8
DEFAULT_255_2_778
10
5.4818136
20
3.7346041
11
5.4985136
21
3.6690041
0
LINE
8
DEFAULT_255_2_778
10
5.4985136
20
3.6690041
11
5.5173136
21
3.6095041
0
LINE
8
DEFAULT_255_2_778
10
5.5173136
20
3.6095041
11
5.5519136
21
3.5224041
0
LINE
8
DEFAULT_255_2_778
10
5.5519136
20
3.5224041
11
5.5966136
21
3.4362041
0
LINE
8
DEFAULT_255_2_778
10
5.5966136
20
3.4362041
11
5.6464136
21
3.3639041
0
LINE
8
DEFAULT_255_2_778
10
5.6464136
20
3.3639041
11
5.7165136
21
3.2922041
0
LINE
8
DEFAULT_255_2_778
10
5.7165136
20
3.2922041
11
5.8120136
21
3.2330041
0
LINE
8
DEFAULT_255_2_778
10
5.8120136
20
3.2330041
11
5.9422136
21
3.2015041
0
LINE
8
DEFAULT_255_2_778
10
5.9422136
20
3.2015041
11
6.0766136
21
3.2118041
0
LINE
8
DEFAULT_255_2_778
10
6.0766136
20
3.2118041
11
6.1739136
21
3.2496041
0
LINE
8
DEFAULT_255_2_778
10
6.1739136
20
3.2496041
11
6.2642136
21
3.3176041
0
LINE
8
DEFAULT_255_2_778
10
6.2642136
20
3.3176041
11
6.3322136
21
3.3994041
0
LINE
8
DEFAULT_255_2_778
10
6.3322136
20
3.3994041
11
6.3864136
21
3.4931041
0
LINE
8
DEFAULT_255_2_778
10
5.6945136
20
3.6388041
11
5.6728136
21
3.7045041
0
LINE
8
DEFAULT_255_2_778
10
5.6728136
20
3.7045041
11
5.6559136
21
3.7714041
0
LINE
8
DEFAULT_255_2_778
10
5.6559136
20
3.7714041
11
5.6445136
21
3.8309041
0
LINE
8
DEFAULT_255_2_778
10
5.6445136
20
3.8309041
11
5.6360136
21
3.8910041
0
LINE
8
DEFAULT_255_2_778
10
5.6360136
20
3.8910041
11
5.6329136
21
3.9212041
0
LINE
8
DEFAULT_255_2_778
10
5.6329136
20
3.9212041
11
5.6300136
21
3.9545041
0
LINE
8
DEFAULT_255_2_778
10
5.6300136
20
3.9545041
11
5.6300136
21
4.2201041
0
LINE
8
DEFAULT_255_2_778
10
5.6300136
20
4.2201041
11
5.6329136
21
4.2529041
0
LINE
8
DEFAULT_255_2_778
10
5.6329136
20
4.2529041
11
5.6360136
21
4.2826041
0
LINE
8
DEFAULT_255_2_778
10
5.6360136
20
4.2826041
11
5.6445136
21
4.3416041
0
LINE
8
DEFAULT_255_2_778
10
5.6445136
20
4.3416041
11
5.6562136
21
4.4001041
0
LINE
8
DEFAULT_255_2_778
10
5.6562136
20
4.4001041
11
5.6734136
21
4.4657041
0
LINE
8
DEFAULT_255_2_778
10
5.6734136
20
4.4657041
11
5.7080136
21
4.5612041
0
LINE
8
DEFAULT_255_2_778
10
5.7080136
20
4.5612041
11
5.7477136
21
4.6355041
0
LINE
8
DEFAULT_255_2_778
10
5.7477136
20
4.6355041
11
5.8099136
21
4.7083041
0
LINE
8
DEFAULT_255_2_778
10
5.8099136
20
4.7083041
11
5.8932136
21
4.7567041
0
LINE
8
DEFAULT_255_2_778
10
5.8932136
20
4.7567041
11
6.0107136
21
4.7673041
0
LINE
8
DEFAULT_255_2_778
10
6.0107136
20
4.7673041
11
6.1107136
21
4.7308041
0
LINE
8
DEFAULT_255_2_778
10
6.1107136
20
4.7308041
11
6.1827136
21
4.6633041
0
LINE
8
DEFAULT_255_2_778
10
6.1827136
20
4.6633041
11
6.2277136
21
4.5919041
0
LINE
8
DEFAULT_255_2_778
10
6.2277136
20
4.5919041
11
6.2570136
21
4.5244041
0
LINE
8
DEFAULT_255_2_778
10
6.2570136
20
4.5244041
11
6.2811136
21
4.4503041
0
LINE
8
DEFAULT_255_2_778
10
6.2811136
20
4.4503041
11
6.2938136
21
4.4001041
0
LINE
8
DEFAULT_255_2_778
10
6.2938136
20
4.4001041
11
6.3054136
21
4.3416041
0
LINE
8
DEFAULT_255_2_778
10
6.3054136
20
4.3416041
11
6.3139136
21
4.2826041
0
LINE
8
DEFAULT_255_2_778
10
6.3139136
20
4.2826041
11
6.3171136
21
4.2529041
0
LINE
8
DEFAULT_255_2_778
10
6.3171136
20
4.2529041
11
6.3200136
21
4.2201041
0
LINE
8
DEFAULT_255_2_778
10
6.3200136
20
4.2201041
11
6.3200136
21
3.9545041
0
LINE
8
DEFAULT_255_2_778
10
6.3200136
20
3.9545041
11
6.3171136
21
3.9212041
0
LINE
8
DEFAULT_255_2_778
10
6.3171136
20
3.9212041
11
6.3139136
21
3.8910041
0
LINE
8
DEFAULT_255_2_778
10
6.3139136
20
3.8910041
11
6.3054136
21
3.8309041
0
LINE
8
DEFAULT_255_2_778
10
6.3054136
20
3.8309041
11
6.2941136
21
3.7714041
0
LINE
8
DEFAULT_255_2_778
10
6.2941136
20
3.7714041
11
6.2771136
21
3.7045041
0
LINE
8
DEFAULT_255_2_778
10
6.2771136
20
3.7045041
11
6.2494136
21
3.6227041
0
LINE
8
DEFAULT_255_2_778
10
6.2494136
20
3.6227041
11
6.2120136
21
3.5449041
0
LINE
8
DEFAULT_255_2_778
10
6.2120136
20
3.5449041
11
6.1499136
21
3.4640041
0
LINE
8
DEFAULT_255_2_778
10
6.1499136
20
3.4640041
11
6.0681136
21
3.4095041
0
LINE
8
DEFAULT_255_2_778
10
6.0681136
20
3.4095041
11
5.9506136
21
3.3931041
0
LINE
8
DEFAULT_255_2_778
10
5.9506136
20
3.3931041
11
5.8488136
21
3.4256041
0
LINE
8
DEFAULT_255_2_778
10
5.8488136
20
3.4256041
11
5.7739136
21
3.4920041
0
LINE
8
DEFAULT_255_2_778
10
5.7739136
20
3.4920041
11
5.7289136
21
3.5603041
0
LINE
8
DEFAULT_255_2_778
10
5.7289136
20
3.5603041
11
5.6945136
21
3.6388041
0
LINE
8
DEFAULT_255_2_778
10
6.8160021
20
4.6712656
11
6.7803021
21
4.5900656
0
LINE
8
DEFAULT_255_2_778
10
6.7803021
20
4.5900656
11
6.7520021
21
4.5061656
0
LINE
8
DEFAULT_255_2_778
10
6.7520021
20
4.5061656
11
6.7351021
21
4.4415656
0
LINE
8
DEFAULT_255_2_778
10
6.7351021
20
4.4415656
11
6.7216021
21
4.3762656
0
LINE
8
DEFAULT_255_2_778
10
6.7216021
20
4.3762656
11
6.7113021
21
4.3103656
0
LINE
8
DEFAULT_255_2_778
10
6.7113021
20
4.3103656
11
6.7070021
21
4.2738656
0
LINE
8
DEFAULT_255_2_778
10
6.7070021
20
4.2738656
11
6.7036021
21
4.2373656
0
LINE
8
DEFAULT_255_2_778
10
6.7036021
20
4.2373656
11
6.7036021
21
3.9417656
0
LINE
8
DEFAULT_255_2_778
10
6.7036021
20
3.9417656
11
6.7070021
21
3.9047656
0
LINE
8
DEFAULT_255_2_778
10
6.7070021
20
3.9047656
11
6.7113021
21
3.8677656
0
LINE
8
DEFAULT_255_2_778
10
6.7113021
20
3.8677656
11
6.7213021
21
3.8007656
0
LINE
8
DEFAULT_255_2_778
10
6.7213021
20
3.8007656
11
6.7346021
21
3.7343656
0
LINE
8
DEFAULT_255_2_778
10
6.7346021
20
3.7343656
11
6.7512021
21
3.6687656
0
LINE
8
DEFAULT_255_2_778
10
6.7512021
20
3.6687656
11
6.7700021
21
3.6092656
0
LINE
8
DEFAULT_255_2_778
10
6.7700021
20
3.6092656
11
6.8047021
21
3.5221656
0
LINE
8
DEFAULT_255_2_778
10
6.8047021
20
3.5221656
11
6.8494021
21
3.4359656
0
LINE
8
DEFAULT_255_2_778
10
6.8494021
20
3.4359656
11
6.8991021
21
3.3636656
0
LINE
8
DEFAULT_255_2_778
10
6.8991021
20
3.3636656
11
6.9692021
21
3.2919656
0
LINE
8
DEFAULT_255_2_778
10
6.9692021
20
3.2919656
11
7.0648021
21
3.2327656
0
LINE
8
DEFAULT_255_2_778
10
7.0648021
20
3.2327656
11
7.1949021
21
3.2012656
0
LINE
8
DEFAULT_255_2_778
10
7.1949021
20
3.2012656
11
7.3293021
21
3.2115656
0
LINE
8
DEFAULT_255_2_778
10
7.3293021
20
3.2115656
11
7.4267021
21
3.2493656
0
LINE
8
DEFAULT_255_2_778
10
7.4267021
20
3.2493656
11
7.5169021
21
3.3173656
0
LINE
8
DEFAULT_255_2_778
10
7.5169021
20
3.3173656
11
7.5849021
21
3.3991656
0
LINE
8
DEFAULT_255_2_778
10
7.5849021
20
3.3991656
11
7.6394021
21
3.4941656
0
LINE
8
DEFAULT_255_2_778
10
7.6394021
20
3.4941656
11
7.6767021
21
3.5806656
0
LINE
8
DEFAULT_255_2_778
10
7.6767021
20
3.5806656
11
7.6971021
21
3.6398656
0
LINE
8
DEFAULT_255_2_778
10
7.6971021
20
3.6398656
11
7.7148021
21
3.7026656
0
LINE
8
DEFAULT_255_2_778
10
7.7148021
20
3.7026656
11
7.7299021
21
3.7687656
0
LINE
8
DEFAULT_255_2_778
10
7.7299021
20
3.7687656
11
7.7416021
21
3.8354656
0
LINE
8
DEFAULT_255_2_778
10
7.7416021
20
3.8354656
11
7.7463021
21
3.8690656
0
LINE
8
DEFAULT_255_2_778
10
7.7463021
20
3.8690656
11
7.7506021
21
3.9060656
0
LINE
8
DEFAULT_255_2_778
10
7.7506021
20
3.9060656
11
7.7540021
21
3.9431656
0
LINE
8
DEFAULT_255_2_778
10
7.7540021
20
3.9431656
11
7.7540021
21
4.2383656
0
LINE
8
DEFAULT_255_2_778
10
7.7540021
20
4.2383656
11
7.7506021
21
4.2748656
0
LINE
8
DEFAULT_255_2_778
10
7.7506021
20
4.2748656
11
7.7463021
21
4.3114656
0
LINE
8
DEFAULT_255_2_778
10
7.7463021
20
4.3114656
11
7.7360021
21
4.3772656
0
LINE
8
DEFAULT_255_2_778
10
7.7360021
20
4.3772656
11
7.7225021
21
4.4426656
0
LINE
8
DEFAULT_255_2_778
10
7.7225021
20
4.4426656
11
7.7056021
21
4.5072656
0
LINE
8
DEFAULT_255_2_778
10
7.7056021
20
4.5072656
11
7.6865021
21
4.5659656
0
LINE
8
DEFAULT_255_2_778
10
7.6865021
20
4.5659656
11
7.6513021
21
4.6516656
0
LINE
8
DEFAULT_255_2_778
10
7.6513021
20
4.6516656
11
7.6066021
21
4.7358656
0
LINE
8
DEFAULT_255_2_778
10
7.6066021
20
4.7358656
11
7.5571021
21
4.8056656
0
LINE
8
DEFAULT_255_2_778
10
7.5571021
20
4.8056656
11
7.4873021
21
4.8749656
0
LINE
8
DEFAULT_255_2_778
10
7.4873021
20
4.8749656
11
7.3923021
21
4.9323656
0
LINE
8
DEFAULT_255_2_778
10
7.3923021
20
4.9323656
11
7.2664021
21
4.9625656
0
LINE
8
DEFAULT_255_2_778
10
7.2664021
20
4.9625656
11
7.1367021
21
4.9546656
0
LINE
8
DEFAULT_255_2_778
10
7.1367021
20
4.9546656
11
7.0327021
21
4.9165656
0
LINE
8
DEFAULT_255_2_778
10
7.0327021
20
4.9165656
11
6.9430021
21
4.8508656
0
LINE
8
DEFAULT_255_2_778
10
6.9430021
20
4.8508656
11
6.8750021
21
4.7720656
0
LINE
8
DEFAULT_255_2_778
10
6.8750021
20
4.7720656
11
6.8160021
21
4.6712656
0
LINE
8
DEFAULT_255_2_778
10
6.9475021
20
3.6388656
11
6.9258021
21
3.7044656
0
LINE
8
DEFAULT_255_2_778
10
6.9258021
20
3.7044656
11
6.9089021
21
3.7713656
0
LINE
8
DEFAULT_255_2_778
10
6.9089021
20
3.7713656
11
6.8975021
21
3.8309656
0
LINE
8
DEFAULT_255_2_778
10
6.8975021
20
3.8309656
11
6.8891021
21
3.8909656
0
LINE
8
DEFAULT_255_2_778
10
6.8891021
20
3.8909656
11
6.8859021
21
3.9211656
0
LINE
8
DEFAULT_255_2_778
10
6.8859021
20
3.9211656
11
6.8830021
21
3.9544656
0
LINE
8
DEFAULT_255_2_778
10
6.8830021
20
3.9544656
11
6.8830021
21
4.2201656
0
LINE
8
DEFAULT_255_2_778
10
6.8830021
20
4.2201656
11
6.8859021
21
4.2529656
0
LINE
8
DEFAULT_255_2_778
10
6.8859021
20
4.2529656
11
6.8891021
21
4.2825656
0
LINE
8
DEFAULT_255_2_778
10
6.8891021
20
4.2825656
11
6.8975021
21
4.3415656
0
LINE
8
DEFAULT_255_2_778
10
6.8975021
20
4.3415656
11
6.9092021
21
4.4000656
0
LINE
8
DEFAULT_255_2_778
10
6.9092021
20
4.4000656
11
6.9264021
21
4.4656656
0
LINE
8
DEFAULT_255_2_778
10
6.9264021
20
4.4656656
11
6.9610021
21
4.5611656
0
LINE
8
DEFAULT_255_2_778
10
6.9610021
20
4.5611656
11
7.0007021
21
4.6355656
0
LINE
8
DEFAULT_255_2_778
10
7.0007021
20
4.6355656
11
7.0629021
21
4.7082656
0
LINE
8
DEFAULT_255_2_778
10
7.0629021
20
4.7082656
11
7.1462021
21
4.7567656
0
LINE
8
DEFAULT_255_2_778
10
7.1462021
20
4.7567656
11
7.2637021
21
4.7672656
0
LINE
8
DEFAULT_255_2_778
10
7.2637021
20
4.7672656
11
7.3637021
21
4.7307656
0
LINE
8
DEFAULT_255_2_778
10
7.3637021
20
4.7307656
11
7.4357021
21
4.6633656
0
LINE
8
DEFAULT_255_2_778
10
7.4357021
20
4.6633656
11
7.4807021
21
4.5918656
0
LINE
8
DEFAULT_255_2_778
10
7.4807021
20
4.5918656
11
7.5100021
21
4.5244656
0
LINE
8
DEFAULT_255_2_778
10
7.5100021
20
4.5244656
11
7.5341021
21
4.4503656
0
LINE
8
DEFAULT_255_2_778
10
7.5341021
20
4.4503656
11
7.5468021
21
4.4000656
0
LINE
8
DEFAULT_255_2_778
10
7.5468021
20
4.4000656
11
7.5585021
21
4.3415656
0
LINE
8
DEFAULT_255_2_778
10
7.5585021
20
4.3415656
11
7.5669021
21
4.2825656
0
LINE
8
DEFAULT_255_2_778
10
7.5669021
20
4.2825656
11
7.5701021
21
4.2529656
0
LINE
8
DEFAULT_255_2_778
10
7.5701021
20
4.2529656
11
7.5730021
21
4.2201656
0
LINE
8
DEFAULT_255_2_778
10
7.5730021
20
4.2201656
11
7.5730021
21
3.9544656
0
LINE
8
DEFAULT_255_2_778
10
7.5730021
20
3.9544656
11
7.5701021
21
3.9211656
0
LINE
8
DEFAULT_255_2_778
10
7.5701021
20
3.9211656
11
7.5669021
21
3.8909656
0
LINE
8
DEFAULT_255_2_778
10
7.5669021
20
3.8909656
11
7.5585021
21
3.8309656
0
LINE
8
DEFAULT_255_2_778
10
7.5585021
20
3.8309656
11
7.5471021
21
3.7713656
0
LINE
8
DEFAULT_255_2_778
10
7.5471021
20
3.7713656
11
7.5302021
21
3.7044656
0
LINE
8
DEFAULT_255_2_778
10
7.5302021
20
3.7044656
11
7.5024021
21
3.6227656
0
LINE
8
DEFAULT_255_2_778
10
7.5024021
20
3.6227656
11
7.4651021
21
3.5449656
0
LINE
8
DEFAULT_255_2_778
10
7.4651021
20
3.5449656
11
7.4029021
21
3.4639656
0
LINE
8
DEFAULT_255_2_778
10
7.4029021
20
3.4639656
11
7.3211021
21
3.4094656
0
LINE
8
DEFAULT_255_2_778
10
7.3211021
20
3.4094656
11
7.2037021
21
3.3930656
0
LINE
8
DEFAULT_255_2_778
10
7.2037021
20
3.3930656
11
7.1018021
21
3.4255656
0
LINE
8
DEFAULT_255_2_778
10
7.1018021
20
3.4255656
11
7.0269021
21
3.4919656
0
LINE
8
DEFAULT_255_2_778
10
7.0269021
20
3.4919656
11
6.9819021
21
3.5602656
0
LINE
8
DEFAULT_255_2_778
10
6.9819021
20
3.5602656
11
6.9475021
21
3.6388656
0
LINE
8
DEFAULT_255_2_778
10
8.7327021
20
4.6712656
11
8.6970021
21
4.5900656
0
LINE
8
DEFAULT_255_2_778
10
8.6970021
20
4.5900656
11
8.6687021
21
4.5061656
0
LINE
8
DEFAULT_255_2_778
10
8.6687021
20
4.5061656
11
8.6518021
21
4.4415656
0
LINE
8
DEFAULT_255_2_778
10
8.6518021
20
4.4415656
11
8.6383021
21
4.3762656
0
LINE
8
DEFAULT_255_2_778
10
8.6383021
20
4.3762656
11
8.6280021
21
4.3103656
0
LINE
8
DEFAULT_255_2_778
10
8.6280021
20
4.3103656
11
8.6237021
21
4.2738656
0
LINE
8
DEFAULT_255_2_778
10
8.6237021
20
4.2738656
11
8.6203021
21
4.2373656
0
LINE
8
DEFAULT_255_2_778
10
8.6203021
20
4.2373656
11
8.6203021
21
3.9417656
0
LINE
8
DEFAULT_255_2_778
10
8.6203021
20
3.9417656
11
8.6237021
21
3.9047656
0
LINE
8
DEFAULT_255_2_778
10
8.6237021
20
3.9047656
11
8.6280021
21
3.8677656
0
LINE
8
DEFAULT_255_2_778
10
8.6280021
20
3.8677656
11
8.6380021
21
3.8007656
0
LINE
8
DEFAULT_255_2_778
10
8.6380021
20
3.8007656
11
8.6513021
21
3.7343656
0
LINE
8
DEFAULT_255_2_778
10
8.6513021
20
3.7343656
11
8.6679021
21
3.6687656
0
LINE
8
DEFAULT_255_2_778
10
8.6679021
20
3.6687656
11
8.6867021
21
3.6092656
0
LINE
8
DEFAULT_255_2_778
10
8.6867021
20
3.6092656
11
8.7214021
21
3.5221656
0
LINE
8
DEFAULT_255_2_778
10
8.7214021
20
3.5221656
11
8.7661021
21
3.4359656
0
LINE
8
DEFAULT_255_2_778
10
8.7661021
20
3.4359656
11
8.8158021
21
3.3636656
0
LINE
8
DEFAULT_255_2_778
10
8.8158021
20
3.3636656
11
8.8859021
21
3.2919656
0
LINE
8
DEFAULT_255_2_778
10
8.8859021
20
3.2919656
11
8.9815021
21
3.2327656
0
LINE
8
DEFAULT_255_2_778
10
8.9815021
20
3.2327656
11
9.1116021
21
3.2012656
0
LINE
8
DEFAULT_255_2_778
10
9.1116021
20
3.2012656
11
9.2460021
21
3.2115656
0
LINE
8
DEFAULT_255_2_778
10
9.2460021
20
3.2115656
11
9.3434021
21
3.2493656
0
LINE
8
DEFAULT_255_2_778
10
9.3434021
20
3.2493656
11
9.4336021
21
3.3173656
0
LINE
8
DEFAULT_255_2_778
10
9.4336021
20
3.3173656
11
9.5016021
21
3.3991656
0
LINE
8
DEFAULT_255_2_778
10
9.5016021
20
3.3991656
11
9.5561021
21
3.4941656
0
LINE
8
DEFAULT_255_2_778
10
9.5561021
20
3.4941656
11
9.5934021
21
3.5806656
0
LINE
8
DEFAULT_255_2_778
10
9.5934021
20
3.5806656
11
9.6138021
21
3.6398656
0
LINE
8
DEFAULT_255_2_778
10
9.6138021
20
3.6398656
11
9.6315021
21
3.7026656
0
LINE
8
DEFAULT_255_2_778
10
9.6315021
20
3.7026656
11
9.6466021
21
3.7687656
0
LINE
8
DEFAULT_255_2_778
10
9.6466021
20
3.7687656
11
9.6583021
21
3.8354656
0
LINE
8
DEFAULT_255_2_778
10
9.6583021
20
3.8354656
11
9.6630021
21
3.8690656
0
LINE
8
DEFAULT_255_2_778
10
9.6630021
20
3.8690656
11
9.6673021
21
3.9060656
0
LINE
8
DEFAULT_255_2_778
10
9.6673021
20
3.9060656
11
9.6707021
21
3.9431656
0
LINE
8
DEFAULT_255_2_778
10
9.6707021
20
3.9431656
11
9.6707021
21
4.2383656
0
LINE
8
DEFAULT_255_2_778
10
9.6707021
20
4.2383656
11
9.6673021
21
4.2748656
0
LINE
8
DEFAULT_255_2_778
10
9.6673021
20
4.2748656
11
9.6630021
21
4.3114656
0
LINE
8
DEFAULT_255_2_778
10
9.6630021
20
4.3114656
11
9.6527021
21
4.3772656
0
LINE
8
DEFAULT_255_2_778
10
9.6527021
20
4.3772656
11
9.6392021
21
4.4426656
0
LINE
8
DEFAULT_255_2_778
10
9.6392021
20
4.4426656
11
9.6223021
21
4.5072656
0
LINE
8
DEFAULT_255_2_778
10
9.6223021
20
4.5072656
11
9.6032021
21
4.5659656
0
LINE
8
DEFAULT_255_2_778
10
9.6032021
20
4.5659656
11
9.5680021
21
4.6516656
0
LINE
8
DEFAULT_255_2_778
10
9.5680021
20
4.6516656
11
9.5233021
21
4.7358656
0
LINE
8
DEFAULT_255_2_778
10
9.5233021
20
4.7358656
11
9.4738021
21
4.8056656
0
LINE
8
DEFAULT_255_2_778
10
9.4738021
20
4.8056656
11
9.4040021
21
4.8749656
0
LINE
8
DEFAULT_255_2_778
10
9.4040021
20
4.8749656
11
9.3090021
21
4.9323656
0
LINE
8
DEFAULT_255_2_778
10
9.3090021
20
4.9323656
11
9.1831021
21
4.9625656
0
LINE
8
DEFAULT_255_2_778
10
9.1831021
20
4.9625656
11
9.0534021
21
4.9546656
0
LINE
8
DEFAULT_255_2_778
10
9.0534021
20
4.9546656
11
8.9494021
21
4.9165656
0
LINE
8
DEFAULT_255_2_778
10
8.9494021
20
4.9165656
11
8.8597021
21
4.8508656
0
LINE
8
DEFAULT_255_2_778
10
8.8597021
20
4.8508656
11
8.7917021
21
4.7720656
0
LINE
8
DEFAULT_255_2_778
10
8.7917021
20
4.7720656
11
8.7327021
21
4.6712656
0
LINE
8
DEFAULT_255_2_778
10
8.8642021
20
3.6388656
11
8.8425021
21
3.7044656
0
LINE
8
DEFAULT_255_2_778
10
8.8425021
20
3.7044656
11
8.8256021
21
3.7713656
0
LINE
8
DEFAULT_255_2_778
10
8.8256021
20
3.7713656
11
8.8142021
21
3.8309656
0
LINE
8
DEFAULT_255_2_778
10
8.8142021
20
3.8309656
11
8.8058021
21
3.8909656
0
LINE
8
DEFAULT_255_2_778
10
8.8058021
20
3.8909656
11
8.8026021
21
3.9211656
0
LINE
8
DEFAULT_255_2_778
10
8.8026021
20
3.9211656
11
8.7997021
21
3.9544656
0
LINE
8
DEFAULT_255_2_778
10
8.7997021
20
3.9544656
11
8.7997021
21
4.2201656
0
LINE
8
DEFAULT_255_2_778
10
8.7997021
20
4.2201656
11
8.8026021
21
4.2529656
0
LINE
8
DEFAULT_255_2_778
10
8.8026021
20
4.2529656
11
8.8058021
21
4.2825656
0
LINE
8
DEFAULT_255_2_778
10
8.8058021
20
4.2825656
11
8.8142021
21
4.3415656
0
LINE
8
DEFAULT_255_2_778
10
8.8142021
20
4.3415656
11
8.8259021
21
4.4000656
0
LINE
8
DEFAULT_255_2_778
10
8.8259021
20
4.4000656
11
8.8431021
21
4.4656656
0
LINE
8
DEFAULT_255_2_778
10
8.8431021
20
4.4656656
11
8.8777021
21
4.5611656
0
LINE
8
DEFAULT_255_2_778
10
8.8777021
20
4.5611656
11
8.9174021
21
4.6355656
0
LINE
8
DEFAULT_255_2_778
10
8.9174021
20
4.6355656
11
8.9796021
21
4.7082656
0
LINE
8
DEFAULT_255_2_778
10
8.9796021
20
4.7082656
11
9.0629021
21
4.7567656
0
LINE
8
DEFAULT_255_2_778
10
9.0629021
20
4.7567656
11
9.1804021
21
4.7672656
0
LINE
8
DEFAULT_255_2_778
10
9.1804021
20
4.7672656
11
9.2804021
21
4.7307656
0
LINE
8
DEFAULT_255_2_778
10
9.2804021
20
4.7307656
11
9.3524021
21
4.6633656
0
LINE
8
DEFAULT_255_2_778
10
9.3524021
20
4.6633656
11
9.3974021
21
4.5918656
0
LINE
8
DEFAULT_255_2_778
10
9.3974021
20
4.5918656
11
9.4267021
21
4.5244656
0
LINE
8
DEFAULT_255_2_778
10
9.4267021
20
4.5244656
11
9.4508021
21
4.4503656
0
LINE
8
DEFAULT_255_2_778
10
9.4508021
20
4.4503656
11
9.4635021
21
4.4000656
0
LINE
8
DEFAULT_255_2_778
10
9.4635021
20
4.4000656
11
9.4752021
21
4.3415656
0
LINE
8
DEFAULT_255_2_778
10
9.4752021
20
4.3415656
11
9.4836021
21
4.2825656
0
LINE
8
DEFAULT_255_2_778
10
9.4836021
20
4.2825656
11
9.4868021
21
4.2529656
0
LINE
8
DEFAULT_255_2_778
10
9.4868021
20
4.2529656
11
9.4897021
21
4.2201656
0
LINE
8
DEFAULT_255_2_778
10
9.4897021
20
4.2201656
11
9.4897021
21
3.9544656
0
LINE
8
DEFAULT_255_2_778
10
9.4897021
20
3.9544656
11
9.4868021
21
3.9211656
0
LINE
8
DEFAULT_255_2_778
10
9.4868021
20
3.9211656
11
9.4836021
21
3.8909656
0
LINE
8
DEFAULT_255_2_778
10
9.4836021
20
3.8909656
11
9.4752021
21
3.8309656
0
LINE
8
DEFAULT_255_2_778
10
9.4752021
20
3.8309656
11
9.4638021
21
3.7713656
0
LINE
8
DEFAULT_255_2_778
10
9.4638021
20
3.7713656
11
9.4469021
21
3.7044656
0
LINE
8
DEFAULT_255_2_778
10
9.4469021
20
3.7044656
11
9.4191021
21
3.6227656
0
LINE
8
DEFAULT_255_2_778
10
9.4191021
20
3.6227656
11
9.3818021
21
3.5449656
0
LINE
8
DEFAULT_255_2_778
10
9.3818021
20
3.5449656
11
9.3196021
21
3.4639656
0
LINE
8
DEFAULT_255_2_778
10
9.3196021
20
3.4639656
11
9.2378021
21
3.4094656
0
LINE
8
DEFAULT_255_2_778
10
9.2378021
20
3.4094656
11
9.1204021
21
3.3930656
0
LINE
8
DEFAULT_255_2_778
10
9.1204021
20
3.3930656
11
9.0185021
21
3.4255656
0
LINE
8
DEFAULT_255_2_778
10
9.0185021
20
3.4255656
11
8.9436021
21
3.4919656
0
LINE
8
DEFAULT_255_2_778
10
8.9436021
20
3.4919656
11
8.8986021
21
3.5602656
0
LINE
8
DEFAULT_255_2_778
10
8.8986021
20
3.5602656
11
8.8642021
21
3.6388656
0
LINE
8
DEFAULT_255_2_778
10
10.4022302
20
4.9376739
11
10.6091302
21
4.9376739
0
LINE
8
DEFAULT_255_2_778
10
10.6091302
20
4.9376739
11
11.1742302
21
3.2377739
0
LINE
8
DEFAULT_255_2_778
10
11.1742302
20
3.2377739
11
10.9692302
21
3.2377739
0
LINE
8
DEFAULT_255_2_778
10
10.9692302
20
3.2377739
11
10.8305302
21
3.6811739
0
LINE
8
DEFAULT_255_2_778
10
10.8305302
20
3.6811739
11
10.1826302
21
3.6811739
0
LINE
8
DEFAULT_255_2_778
10
10.1826302
20
3.6811739
11
10.0461302
21
3.2377739
0
LINE
8
DEFAULT_255_2_778
10
10.0461302
20
3.2377739
11
9.8373302
21
3.2377739
0
LINE
8
DEFAULT_255_2_778
10
9.8373302
20
3.2377739
11
10.4022302
21
4.9376739
0
LINE
8
DEFAULT_255_2_778
10
10.2432302
20
3.8737739
11
10.7710302
21
3.8737739
0
LINE
8
DEFAULT_255_2_778
10
10.7710302
20
3.8737739
11
10.5065302
21
4.7183739
0
LINE
8
DEFAULT_255_2_778
10
10.5065302
20
4.7183739
11
10.2432302
21
3.8737739
0
LINE
8
DEFAULT_255_2_778
10
11.4208865
20
4.9376416
11
12.0344865
21
4.9249416
0
LINE
8
DEFAULT_255_2_778
10
12.0344865
20
4.9249416
11
12.2090865
21
4.8580416
0
LINE
8
DEFAULT_255_2_778
10
12.2090865
20
4.8580416
11
12.3024865
21
4.7714416
0
LINE
8
DEFAULT_255_2_778
10
12.3024865
20
4.7714416
11
12.3381865
21
4.7082416
0
LINE
8
DEFAULT_255_2_778
10
12.3381865
20
4.7082416
11
12.3542865
21
4.6606416
0
LINE
8
DEFAULT_255_2_778
10
12.3542865
20
4.6606416
11
12.3646865
21
4.6106416
0
LINE
8
DEFAULT_255_2_778
10
12.3646865
20
4.6106416
11
12.3691865
21
4.5722416
0
LINE
8
DEFAULT_255_2_778
10
12.3691865
20
4.5722416
11
12.3672865
21
4.4471416
0
LINE
8
DEFAULT_255_2_778
10
12.3672865
20
4.4471416
11
12.3630865
21
4.4182416
0
LINE
8
DEFAULT_255_2_778
10
12.3630865
20
4.4182416
11
12.3532865
21
4.3759416
0
LINE
8
DEFAULT_255_2_778
10
12.3532865
20
4.3759416
11
12.3304865
21
4.3158416
0
LINE
8
DEFAULT_255_2_778
10
12.3304865
20
4.3158416
11
12.2791865
21
4.2367416
0
LINE
8
DEFAULT_255_2_778
10
12.2791865
20
4.2367416
11
12.1815865
21
4.1566416
0
LINE
8
DEFAULT_255_2_778
10
12.1815865
20
4.1566416
11
12.1283865
21
4.1341416
0
LINE
8
DEFAULT_255_2_778
10
12.1283865
20
4.1341416
11
12.2532865
21
4.0761416
0
LINE
8
DEFAULT_255_2_778
10
12.2532865
20
4.0761416
11
12.3333865
21
4.0007416
0
LINE
8
DEFAULT_255_2_778
10
12.3333865
20
4.0007416
11
12.3757865
21
3.9324416
0
LINE
8
DEFAULT_255_2_778
10
12.3757865
20
3.9324416
11
12.4003865
21
3.8674416
0
LINE
8
DEFAULT_255_2_778
10
12.4003865
20
3.8674416
11
12.4109865
21
3.8229416
0
LINE
8
DEFAULT_255_2_778
10
12.4109865
20
3.8229416
11
12.4164865
21
3.7877416
0
LINE
8
DEFAULT_255_2_778
10
12.4164865
20
3.7877416
11
12.4159865
21
3.5948416
0
LINE
8
DEFAULT_255_2_778
10
12.4159865
20
3.5948416
11
12.4082865
21
3.5514416
0
LINE
8
DEFAULT_255_2_778
10
12.4082865
20
3.5514416
11
12.3968865
21
3.5091416
0
LINE
8
DEFAULT_255_2_778
10
12.3968865
20
3.5091416
11
12.3749865
21
3.4554416
0
LINE
8
DEFAULT_255_2_778
10
12.3749865
20
3.4554416
11
12.3249865
21
3.3813416
0
LINE
8
DEFAULT_255_2_778
10
12.3249865
20
3.3813416
11
12.2175865
21
3.2951416
0
LINE
8
DEFAULT_255_2_778
10
12.2175865
20
3.2951416
11
12.0444865
21
3.2437416
0
LINE
8
DEFAULT_255_2_778
10
12.0444865
20
3.2437416
11
11.9370865
21
3.2379416
0
LINE
8
DEFAULT_255_2_778
10
11.9370865
20
3.2379416
11
11.4208865
21
3.2379416
0
LINE
8
DEFAULT_255_2_778
10
11.4208865
20
3.2379416
11
11.4208865
21
4.9376416
0
LINE
8
DEFAULT_255_2_778
10
11.9203865
20
3.4303416
11
12.1217865
21
3.4721416
0
LINE
8
DEFAULT_255_2_778
10
12.1217865
20
3.4721416
11
12.1929865
21
3.5443416
0
LINE
8
DEFAULT_255_2_778
10
12.1929865
20
3.5443416
11
12.2188865
21
3.6067416
0
LINE
8
DEFAULT_255_2_778
10
12.2188865
20
3.6067416
11
12.2278865
21
3.6480416
0
LINE
8
DEFAULT_255_2_778
10
12.2278865
20
3.6480416
11
12.2270865
21
3.8044416
0
LINE
8
DEFAULT_255_2_778
10
12.2270865
20
3.8044416
11
12.2151865
21
3.8496416
0
LINE
8
DEFAULT_255_2_778
10
12.2151865
20
3.8496416
11
12.1812865
21
3.9121416
0
LINE
8
DEFAULT_255_2_778
10
12.1812865
20
3.9121416
11
12.0809865
21
3.9891416
0
LINE
8
DEFAULT_255_2_778
10
12.0809865
20
3.9891416
11
11.8902865
21
4.0216416
0
LINE
8
DEFAULT_255_2_778
10
11.8902865
20
4.0216416
11
11.6092865
21
4.0216416
0
LINE
8
DEFAULT_255_2_778
10
11.6092865
20
4.0216416
11
11.6092865
21
3.4300416
0
LINE
8
DEFAULT_255_2_778
10
11.6092865
20
3.4300416
11
11.9203865
21
3.4303416
0
LINE
8
DEFAULT_255_2_778
10
11.8666865
20
4.2195416
11
12.0831865
21
4.2693416
0
LINE
8
DEFAULT_255_2_778
10
12.0831865
20
4.2693416
11
12.1518865
21
4.3391416
0
LINE
8
DEFAULT_255_2_778
10
12.1518865
20
4.3391416
11
12.1727865
21
4.3912416
0
LINE
8
DEFAULT_255_2_778
10
12.1727865
20
4.3912416
11
12.1802865
21
4.4317416
0
LINE
8
DEFAULT_255_2_778
10
12.1802865
20
4.4317416
11
12.1778865
21
4.5402416
0
LINE
8
DEFAULT_255_2_778
10
12.1778865
20
4.5402416
11
12.1651865
21
4.5876416
0
LINE
8
DEFAULT_255_2_778
10
12.1651865
20
4.5876416
11
12.1243865
21
4.6548416
0
LINE
8
DEFAULT_255_2_778
10
12.1243865
20
4.6548416
11
12.0235865
21
4.7220416
0
LINE
8
DEFAULT_255_2_778
10
12.0235865
20
4.7220416
11
11.8664865
21
4.7445416
0
LINE
8
DEFAULT_255_2_778
10
11.8664865
20
4.7445416
11
11.6087865
21
4.7445416
0
LINE
8
DEFAULT_255_2_778
10
11.6087865
20
4.7445416
11
11.6087865
21
4.2193416
0
LINE
8
DEFAULT_255_2_778
10
11.6087865
20
4.2193416
11
11.8666865
21
4.2195416
0
LINE
8
DEFAULT_255_2_778
10
12.7133021
20
4.6712656
11
12.6776021
21
4.5900656
0
LINE
8
DEFAULT_255_2_778
10
12.6776021
20
4.5900656
11
12.6493021
21
4.5061656
0
LINE
8
DEFAULT_255_2_778
10
12.6493021
20
4.5061656
11
12.6324021
21
4.4415656
0
LINE
8
DEFAULT_255_2_778
10
12.6324021
20
4.4415656
11
12.6189021
21
4.3762656
0
LINE
8
DEFAULT_255_2_778
10
12.6189021
20
4.3762656
11
12.6086021
21
4.3103656
0
LINE
8
DEFAULT_255_2_778
10
12.6086021
20
4.3103656
11
12.6043021
21
4.2738656
0
LINE
8
DEFAULT_255_2_778
10
12.6043021
20
4.2738656
11
12.6009021
21
4.2373656
0
LINE
8
DEFAULT_255_2_778
10
12.6009021
20
4.2373656
11
12.6009021
21
3.9417656
0
LINE
8
DEFAULT_255_2_778
10
12.6009021
20
3.9417656
11
12.6043021
21
3.9047656
0
LINE
8
DEFAULT_255_2_778
10
12.6043021
20
3.9047656
11
12.6086021
21
3.8677656
0
LINE
8
DEFAULT_255_2_778
10
12.6086021
20
3.8677656
11
12.6186021
21
3.8007656
0
LINE
8
DEFAULT_255_2_778
10
12.6186021
20
3.8007656
11
12.6319021
21
3.7343656
0
LINE
8
DEFAULT_255_2_778
10
12.6319021
20
3.7343656
11
12.6485021
21
3.6687656
0
LINE
8
DEFAULT_255_2_778
10
12.6485021
20
3.6687656
11
12.6673021
21
3.6092656
0
LINE
8
DEFAULT_255_2_778
10
12.6673021
20
3.6092656
11
12.7020021
21
3.5221656
0
LINE
8
DEFAULT_255_2_778
10
12.7020021
20
3.5221656
11
12.7467021
21
3.4359656
0
LINE
8
DEFAULT_255_2_778
10
12.7467021
20
3.4359656
11
12.7964021
21
3.3636656
0
LINE
8
DEFAULT_255_2_778
10
12.7964021
20
3.3636656
11
12.8665021
21
3.2919656
0
LINE
8
DEFAULT_255_2_778
10
12.8665021
20
3.2919656
11
12.9621021
21
3.2327656
0
LINE
8
DEFAULT_255_2_778
10
12.9621021
20
3.2327656
11
13.0922021
21
3.2012656
0
LINE
8
DEFAULT_255_2_778
10
13.0922021
20
3.2012656
11
13.2266021
21
3.2115656
0
LINE
8
DEFAULT_255_2_778
10
13.2266021
20
3.2115656
11
13.3240021
21
3.2493656
0
LINE
8
DEFAULT_255_2_778
10
13.3240021
20
3.2493656
11
13.4142021
21
3.3173656
0
LINE
8
DEFAULT_255_2_778
10
13.4142021
20
3.3173656
11
13.4822021
21
3.3991656
0
LINE
8
DEFAULT_255_2_778
10
13.4822021
20
3.3991656
11
13.5367021
21
3.4941656
0
LINE
8
DEFAULT_255_2_778
10
13.5367021
20
3.4941656
11
13.5740021
21
3.5806656
0
LINE
8
DEFAULT_255_2_778
10
13.5740021
20
3.5806656
11
13.5944021
21
3.6398656
0
LINE
8
DEFAULT_255_2_778
10
13.5944021
20
3.6398656
11
13.6121021
21
3.7026656
0
LINE
8
DEFAULT_255_2_778
10
13.6121021
20
3.7026656
11
13.6272021
21
3.7687656
0
LINE
8
DEFAULT_255_2_778
10
13.6272021
20
3.7687656
11
13.6389021
21
3.8354656
0
LINE
8
DEFAULT_255_2_778
10
13.6389021
20
3.8354656
11
13.6436021
21
3.8690656
0
LINE
8
DEFAULT_255_2_778
10
13.6436021
20
3.8690656
11
13.6479021
21
3.9060656
0
LINE
8
DEFAULT_255_2_778
10
13.6479021
20
3.9060656
11
13.6513021
21
3.9431656
0
LINE
8
DEFAULT_255_2_778
10
13.6513021
20
3.9431656
11
13.6513021
21
4.2383656
0
LINE
8
DEFAULT_255_2_778
10
13.6513021
20
4.2383656
11
13.6479021
21
4.2748656
0
LINE
8
DEFAULT_255_2_778
10
13.6479021
20
4.2748656
11
13.6436021
21
4.3114656
0
LINE
8
DEFAULT_255_2_778
10
13.6436021
20
4.3114656
11
13.6333021
21
4.3772656
0
LINE
8
DEFAULT_255_2_778
10
13.6333021
20
4.3772656
11
13.6198021
21
4.4426656
0
LINE
8
DEFAULT_255_2_778
10
13.6198021
20
4.4426656
11
13.6029021
21
4.5072656
0
LINE
8
DEFAULT_255_2_778
10
13.6029021
20
4.5072656
11
13.5838021
21
4.5659656
0
LINE
8
DEFAULT_255_2_778
10
13.5838021
20
4.5659656
11
13.5486021
21
4.6516656
0
LINE
8
DEFAULT_255_2_778
10
13.5486021
20
4.6516656
11
13.5039021
21
4.7358656
0
LINE
8
DEFAULT_255_2_778
10
13.5039021
20
4.7358656
11
13.4544021
21
4.8056656
0
LINE
8
DEFAULT_255_2_778
10
13.4544021
20
4.8056656
11
13.3846021
21
4.8749656
0
LINE
8
DEFAULT_255_2_778
10
13.3846021
20
4.8749656
11
13.2896021
21
4.9323656
0
LINE
8
DEFAULT_255_2_778
10
13.2896021
20
4.9323656
11
13.1637021
21
4.9625656
0
LINE
8
DEFAULT_255_2_778
10
13.1637021
20
4.9625656
11
13.0340021
21
4.9546656
0
LINE
8
DEFAULT_255_2_778
10
13.0340021
20
4.9546656
11
12.9300021
21
4.9165656
0
LINE
8
DEFAULT_255_2_778
10
12.9300021
20
4.9165656
11
12.8403021
21
4.8508656
0
LINE
8
DEFAULT_255_2_778
10
12.8403021
20
4.8508656
11
12.7723021
21
4.7720656
0
LINE
8
DEFAULT_255_2_778
10
12.7723021
20
4.7720656
11
12.7133021
21
4.6712656
0
LINE
8
DEFAULT_255_2_778
10
12.8448021
20
3.6388656
11
12.8231021
21
3.7044656
0
LINE
8
DEFAULT_255_2_778
10
12.8231021
20
3.7044656
11
12.8062021
21
3.7713656
0
LINE
8
DEFAULT_255_2_778
10
12.8062021
20
3.7713656
11
12.7948021
21
3.8309656
0
LINE
8
DEFAULT_255_2_778
10
12.7948021
20
3.8309656
11
12.7864021
21
3.8909656
0
LINE
8
DEFAULT_255_2_778
10
12.7864021
20
3.8909656
11
12.7832021
21
3.9211656
0
LINE
8
DEFAULT_255_2_778
10
12.7832021
20
3.9211656
11
12.7803021
21
3.9544656
0
LINE
8
DEFAULT_255_2_778
10
12.7803021
20
3.9544656
11
12.7803021
21
4.2201656
0
LINE
8
DEFAULT_255_2_778
10
12.7803021
20
4.2201656
11
12.7832021
21
4.2529656
0
LINE
8
DEFAULT_255_2_778
10
12.7832021
20
4.2529656
11
12.7864021
21
4.2825656
0
LINE
8
DEFAULT_255_2_778
10
12.7864021
20
4.2825656
11
12.7948021
21
4.3415656
0
LINE
8
DEFAULT_255_2_778
10
12.7948021
20
4.3415656
11
12.8065021
21
4.4000656
0
LINE
8
DEFAULT_255_2_778
10
12.8065021
20
4.4000656
11
12.8237021
21
4.4656656
0
LINE
8
DEFAULT_255_2_778
10
12.8237021
20
4.4656656
11
12.8583021
21
4.5611656
0
LINE
8
DEFAULT_255_2_778
10
12.8583021
20
4.5611656
11
12.8980021
21
4.6355656
0
LINE
8
DEFAULT_255_2_778
10
12.8980021
20
4.6355656
11
12.9602021
21
4.7082656
0
LINE
8
DEFAULT_255_2_778
10
12.9602021
20
4.7082656
11
13.0435021
21
4.7567656
0
LINE
8
DEFAULT_255_2_778
10
13.0435021
20
4.7567656
11
13.1610021
21
4.7672656
0
LINE
8
DEFAULT_255_2_778
10
13.1610021
20
4.7672656
11
13.2610021
21
4.7307656
0
LINE
8
DEFAULT_255_2_778
10
13.2610021
20
4.7307656
11
13.3330021
21
4.6633656
0
LINE
8
DEFAULT_255_2_778
10
13.3330021
20
4.6633656
11
13.3780021
21
4.5918656
0
LINE
8
DEFAULT_255_2_778
10
13.3780021
20
4.5918656
11
13.4073021
21
4.5244656
0
LINE
8
DEFAULT_255_2_778
10
13.4073021
20
4.5244656
11
13.4314021
21
4.4503656
0
LINE
8
DEFAULT_255_2_778
10
13.4314021
20
4.4503656
11
13.4441021
21
4.4000656
0
LINE
8
DEFAULT_255_2_778
10
13.4441021
20
4.4000656
11
13.4558021
21
4.3415656
0
LINE
8
DEFAULT_255_2_778
10
13.4558021
20
4.3415656
11
13.4642021
21
4.2825656
0
LINE
8
DEFAULT_255_2_778
10
13.4642021
20
4.2825656
11
13.4674021
21
4.2529656
0
LINE
8
DEFAULT_255_2_778
10
13.4674021
20
4.2529656
11
13.4703021
21
4.2201656
0
LINE
8
DEFAULT_255_2_778
10
13.4703021
20
4.2201656
11
13.4703021
21
3.9544656
0
LINE
8
DEFAULT_255_2_778
10
13.4703021
20
3.9544656
11
13.4674021
21
3.9211656
0
LINE
8
DEFAULT_255_2_778
10
13.4674021
20
3.9211656
11
13.4642021
21
3.8909656
0
LINE
8
DEFAULT_255_2_778
10
13.4642021
20
3.8909656
11
13.4558021
21
3.8309656
0
LINE
8
DEFAULT_255_2_778
10
13.4558021
20
3.8309656
11
13.4444021
21
3.7713656
0
LINE
8
DEFAULT_255_2_778
10
13.4444021
20
3.7713656
11
13.4275021
21
3.7044656
0
LINE
8
DEFAULT_255_2_778
10
13.4275021
20
3.7044656
11
13.3997021
21
3.6227656
0
LINE
8
DEFAULT_255_2_778
10
13.3997021
20
3.6227656
11
13.3624021
21
3.5449656
0
LINE
8
DEFAULT_255_2_778
10
13.3624021
20
3.5449656
11
13.3002021
21
3.4639656
0
LINE
8
DEFAULT_255_2_778
10
13.3002021
20
3.4639656
11
13.2184021
21
3.4094656
0
LINE
8
DEFAULT_255_2_778
10
13.2184021
20
3.4094656
11
13.1010021
21
3.3930656
0
LINE
8
DEFAULT_255_2_778
10
13.1010021
20
3.3930656
11
12.9991021
21
3.4255656
0
LINE
8
DEFAULT_255_2_778
10
12.9991021
20
3.4255656
11
12.9242021
21
3.4919656
0
LINE
8
DEFAULT_255_2_778
10
12.9242021
20
3.4919656
11
12.8792021
21
3.5602656
0
LINE
8
DEFAULT_255_2_778
10
12.8792021
20
3.5602656
11
12.8448021
21
3.6388656
0
ENDSEC
0
EOF