0
SECTION
2
HEADER
9
$MEASUREMENT
70
1
0
ENDSEC
0
SECTION
2
TABLES
0
TABLE
2
LTYPE
0
LTYPE
72
65
70
64
2
CONTINUOUS
3
______
73
0
40
0
0
ENDTAB
0
TABLE
2
LAYER
0
LAYER
2
DEFAULT_255_2_778
70
0
62
255
6
CONTINUOUS
0
ENDTAB
0
ENDSEC
0
SECTION
2
ENTITIES
0
ARC
8
DEFAULT_255_2_778
10
0.6729857
20
3.6471853
40
0.5000969
50
179.9996485
51
270.0003515
0
ARC
8
DEFAULT_255_2_778
10
14.6728131
20
3.647164
40
0.5000756
50
270.0086621
51
0.0028016
0
LINE
8
DEFAULT_255_2_778
10
6.0997888
20
87.6319884
11
6.1381888
21
87.6436884
0
LINE
8
DEFAULT_255_2_778
10
6.1381888
20
87.6436884
11
6.1728888
21
87.6470884
0
LINE
8
DEFAULT_255_2_778
10
6.1728888
20
87.6470884
11
9.1729888
21
87.6470884
0
LINE
8
DEFAULT_255_2_778
10
9.1729888
20
87.6470884
11
9.2075888
21
87.6436884
0
LINE
8
DEFAULT_255_2_778
10
9.2075888
20
87.6436884
11
9.2459888
21
87.6319884
0
LINE
8
DEFAULT_255_2_778
10
0.6729888
20
3.1470884
11
14.6728888
21
3.1470884
0
ARC
8
DEFAULT_255_2_778
10
9.1729793
20
87.1472808
40
0.4997474
50
44.9793514
51
90.0112208
0
ARC
8
DEFAULT_255_2_778
10
9.173234
20
87.1470261
40
0.4997474
50
359.9887792
51
45.0206486
0
ARC
8
DEFAULT_255_2_778
10
6.1724328
20
87.1471658
40
0.4996515
50
134.9909954
51
180.0272389
0
ARC
8
DEFAULT_255_2_778
10
6.1728278
20
87.1469326
40
0.5000956
50
90.0053149
51
135.0041129
0
LINE
8
DEFAULT_255_2_778
10
9.6729814
20
87.1469282
11
9.6729814
21
84.3469282
0
LINE
8
DEFAULT_255_2_778
10
5.6727814
20
84.3471282
11
5.6727814
21
87.1469282
0
LINE
8
DEFAULT_255_2_778
10
1.1729814
20
70.4470282
11
14.1729814
21
70.4470282
0
LINE
8
DEFAULT_255_2_778
10
14.1729814
20
70.4470282
11
14.1729814
21
67.4469282
0
LINE
8
DEFAULT_255_2_778
10
14.1729814
20
67.4469282
11
13.4728814
21
67.4469282
0
LINE
8
DEFAULT_255_2_778
10
13.4728814
20
67.4469282
11
13.4728814
21
19.4469282
0
LINE
8
DEFAULT_255_2_778
10
13.4728814
20
19.4469282
11
1.8730814
21
19.4469282
0
LINE
8
DEFAULT_255_2_778
10
1.8730814
20
19.4469282
11
1.8730814
21
67.4469282
0
LINE
8
DEFAULT_255_2_778
10
1.8730814
20
67.4469282
11
1.1729814
21
67.4469282
0
LINE
8
DEFAULT_255_2_778
10
1.1729814
20
67.4469282
11
1.1729814
21
70.4470282
0
ARC
8
DEFAULT_255_2_778
10
1.3945982
20
2.1467053
40
0.1781907
50
359.9696534
51
0.0910427
0
ARC
8
DEFAULT_255_2_778
10
1.1731571
20
2.1465216
40
0.3996318
50
315.0099835
51
0.0128069
0
ARC
8
DEFAULT_255_2_778
10
1.1731452
20
2.1465451
40
0.3996569
50
270.0029649
51
315.008803
0
LINE
8
DEFAULT_255_2_778
10
1.1731659
20
1.7468882
11
1.1727888
21
1.7468884
0
ARC
8
DEFAULT_255_2_778
10
0.6726362
20
83.8471863
40
0.4997474
50
134.9793514
51
180.0112208
0
ARC
8
DEFAULT_255_2_778
10
0.6728909
20
83.847441
40
0.4997474
50
89.9887792
51
135.0206486
0
ARC
8
DEFAULT_255_2_778
10
14.6729106
20
83.8474986
40
0.4996898
50
44.9766189
51
90.0025007
0
ARC
8
DEFAULT_255_2_778
10
14.6731413
20
83.8471863
40
0.4997474
50
359.9887792
51
45.0206486
0
LINE
8
DEFAULT_255_2_778
10
14.1727888
20
1.7471884
11
14.1724112
21
1.7471882
0
ARC
8
DEFAULT_255_2_778
10
14.1723219
20
2.14682
40
0.3996318
50
225.0099835
51
270.0128069
0
ARC
8
DEFAULT_255_2_778
10
14.1723454
20
2.1468319
40
0.3996569
50
180.0029649
51
225.008803
0
ARC
8
DEFAULT_255_2_778
10
13.9505231
20
2.1469055
40
0.1778345
50
179.9088607
51
180.0303788
0
ARC
8
DEFAULT_255_2_778
10
6.1728857
20
0.3472853
40
0.5000969
50
179.9996485
51
270.0003515
0
LINE
8
DEFAULT_255_2_778
10
7.6727888
20
64.4470884
11
7.6727888
21
19.4469884
0
LINE
8
DEFAULT_255_2_778
10
1.5727888
20
3.1470884
11
1.5727888
21
2.1469884
0
LINE
8
DEFAULT_255_2_778
10
1.1727888
20
1.7468884
11
0.1728888
21
1.7468884
0
LINE
8
DEFAULT_255_2_778
10
0.1728888
20
1.7468884
11
0.1728888
21
83.8470884
0
LINE
8
DEFAULT_255_2_778
10
0.6729888
20
84.3471884
11
14.6728888
21
84.3471884
0
LINE
8
DEFAULT_255_2_778
10
15.1728888
20
83.8470884
11
15.1728888
21
1.7471884
0
LINE
8
DEFAULT_255_2_778
10
15.1728888
20
1.7471884
11
14.1727888
21
1.7471884
0
LINE
8
DEFAULT_255_2_778
10
13.7726888
20
2.1471884
11
13.7726888
21
3.1473884
0
LINE
8
DEFAULT_255_2_778
10
9.1726888
20
-0.1528116
11
6.1728888
21
-0.1528116
0
LINE
8
DEFAULT_255_2_778
10
5.6727888
20
0.3472884
11
5.6727888
21
3.1470884
0
ARC
8
DEFAULT_255_2_778
10
9.1728845
20
0.3469739
40
0.5000969
50
269.9996485
51
0.0003515
0
LINE
8
DEFAULT_255_2_778
10
9.6729814
20
3.147077
11
9.6729814
21
0.346977
0
LINE
8
DEFAULT_255_2_778
10
14.1729814
20
69.547177
11
1.1729814
21
69.547177
0
LINE
8
DEFAULT_255_2_778
10
13.4728814
20
64.447077
11
1.8727814
21
64.447077
0
LINE
8
DEFAULT_255_2_778
10
8.8919814
20
80.846977
11
9.0154814
21
80.846977
0
LINE
8
DEFAULT_255_2_778
10
9.0154814
20
80.846977
11
8.5286814
21
79.019277
0
LINE
8
DEFAULT_255_2_778
10
8.5286814
20
79.019277
11
8.4050814
21
79.019277
0
LINE
8
DEFAULT_255_2_778
10
8.4050814
20
79.019277
11
8.8919814
21
80.846977
0
LINE
8
DEFAULT_255_2_778
10
8.0015814
20
80.846977
11
8.2283814
21
80.846977
0
LINE
8
DEFAULT_255_2_778
10
8.2283814
20
80.846977
11
7.6211814
21
79.147077
0
LINE
8
DEFAULT_255_2_778
10
7.6211814
20
79.147077
11
7.3869814
21
79.147077
0
LINE
8
DEFAULT_255_2_778
10
7.3869814
20
79.147077
11
6.7797814
21
80.846977
0
LINE
8
DEFAULT_255_2_778
10
6.7797814
20
80.846977
11
7.0064814
21
80.846977
0
LINE
8
DEFAULT_255_2_778
10
7.0064814
20
80.846977
11
7.5073814
21
79.369777
0
LINE
8
DEFAULT_255_2_778
10
7.5073814
20
79.369777
11
8.0018814
21
80.846977
0
LINE
8
DEFAULT_255_2_778
10
3.0147814
20
80.857277
11
2.8683814
21
80.796477
0
LINE
8
DEFAULT_255_2_778
10
2.8683814
20
80.796477
11
2.7731814
21
80.724977
0
LINE
8
DEFAULT_255_2_778
10
2.7731814
20
80.724977
11
2.6932814
21
80.634277
0
LINE
8
DEFAULT_255_2_778
10
2.6932814
20
80.634277
11
2.6432814
21
80.555177
0
LINE
8
DEFAULT_255_2_778
10
2.6432814
20
80.555177
11
2.6014814
21
80.466777
0
LINE
8
DEFAULT_255_2_778
10
2.6014814
20
80.466777
11
2.5752814
21
80.392677
0
LINE
8
DEFAULT_255_2_778
10
2.5752814
20
80.392677
11
2.5606814
21
80.340577
0
LINE
8
DEFAULT_255_2_778
10
2.5606814
20
80.340577
11
2.5487814
21
80.287677
0
LINE
8
DEFAULT_255_2_778
10
2.5487814
20
80.287677
11
2.5392814
21
80.234177
0
LINE
8
DEFAULT_255_2_778
10
2.5392814
20
80.234177
11
2.5342814
21
80.199277
0
LINE
8
DEFAULT_255_2_778
10
2.5342814
20
80.199277
11
2.5299814
21
80.164377
0
LINE
8
DEFAULT_255_2_778
10
2.5299814
20
80.164377
11
2.5268814
21
80.129477
0
LINE
8
DEFAULT_255_2_778
10
2.5268814
20
80.129477
11
2.5268814
21
79.848977
0
LINE
8
DEFAULT_255_2_778
10
2.5268814
20
79.848977
11
2.5299814
21
79.814277
0
LINE
8
DEFAULT_255_2_778
10
2.5299814
20
79.814277
11
2.5342814
21
79.779677
0
LINE
8
DEFAULT_255_2_778
10
2.5342814
20
79.779677
11
2.5437814
21
79.718577
0
LINE
8
DEFAULT_255_2_778
10
2.5437814
20
79.718577
11
2.5546814
21
79.665877
0
LINE
8
DEFAULT_255_2_778
10
2.5546814
20
79.665877
11
2.5678814
21
79.613777
0
LINE
8
DEFAULT_255_2_778
10
2.5678814
20
79.613777
11
2.5929814
21
79.537277
0
LINE
8
DEFAULT_255_2_778
10
2.5929814
20
79.537277
11
2.6215814
21
79.470377
0
LINE
8
DEFAULT_255_2_778
10
2.6215814
20
79.470377
11
2.6691814
21
79.385977
0
LINE
8
DEFAULT_255_2_778
10
2.6691814
20
79.385977
11
2.7456814
21
79.289877
0
LINE
8
DEFAULT_255_2_778
10
2.7456814
20
79.289877
11
2.8358814
21
79.214277
0
LINE
8
DEFAULT_255_2_778
10
2.8358814
20
79.214277
11
2.9755814
21
79.146777
0
LINE
8
DEFAULT_255_2_778
10
2.9755814
20
79.146777
11
3.1343814
21
79.115777
0
LINE
8
DEFAULT_255_2_778
10
3.1343814
20
79.115777
11
3.3274814
21
79.121377
0
LINE
8
DEFAULT_255_2_778
10
3.3274814
20
79.121377
11
3.4817814
21
79.162677
0
LINE
8
DEFAULT_255_2_778
10
3.4817814
20
79.162677
11
3.6105814
21
79.235677
0
LINE
8
DEFAULT_255_2_778
10
3.6105814
20
79.235677
11
3.6896814
21
79.310577
0
LINE
8
DEFAULT_255_2_778
10
3.6896814
20
79.310577
11
3.7298814
21
79.368777
0
LINE
8
DEFAULT_255_2_778
10
3.7298814
20
79.368777
11
3.7597814
21
79.432277
0
LINE
8
DEFAULT_255_2_778
10
3.7597814
20
79.432277
11
3.7761814
21
79.485177
0
LINE
8
DEFAULT_255_2_778
10
3.7761814
20
79.485177
11
3.7838814
21
79.522177
0
LINE
8
DEFAULT_255_2_778
10
3.7838814
20
79.522177
11
3.7865814
21
79.540977
0
LINE
8
DEFAULT_255_2_778
10
3.7865814
20
79.540977
11
3.7883814
21
79.559777
0
LINE
8
DEFAULT_255_2_778
10
3.7883814
20
79.559777
11
3.7899814
21
79.597377
0
LINE
8
DEFAULT_255_2_778
10
3.7899814
20
79.597377
11
3.5753814
21
79.597377
0
LINE
8
DEFAULT_255_2_778
10
3.5753814
20
79.597377
11
3.5719814
21
79.571177
0
LINE
8
DEFAULT_255_2_778
10
3.5719814
20
79.571177
11
3.5629814
21
79.532277
0
LINE
8
DEFAULT_255_2_778
10
3.5629814
20
79.532277
11
3.5449814
21
79.484677
0
LINE
8
DEFAULT_255_2_778
10
3.5449814
20
79.484677
11
3.5057814
21
79.423277
0
LINE
8
DEFAULT_255_2_778
10
3.5057814
20
79.423277
11
3.4189814
21
79.353377
0
LINE
8
DEFAULT_255_2_778
10
3.4189814
20
79.353377
11
3.3057814
21
79.314277
0
LINE
8
DEFAULT_255_2_778
10
3.3057814
20
79.314277
11
3.1229814
21
79.315277
0
LINE
8
DEFAULT_255_2_778
10
3.1229814
20
79.315277
11
2.9948814
21
79.362977
0
LINE
8
DEFAULT_255_2_778
10
2.9948814
20
79.362977
11
2.9123814
21
79.428277
0
LINE
8
DEFAULT_255_2_778
10
2.9123814
20
79.428277
11
2.8459814
21
79.516977
0
LINE
8
DEFAULT_255_2_778
10
2.8459814
20
79.516977
11
2.8062814
21
79.596877
0
LINE
8
DEFAULT_255_2_778
10
2.8062814
20
79.596877
11
2.7816814
21
79.665877
0
LINE
8
DEFAULT_255_2_778
10
2.7816814
20
79.665877
11
2.7636814
21
79.734377
0
LINE
8
DEFAULT_255_2_778
10
2.7636814
20
79.734377
11
2.7546814
21
79.780977
0
LINE
8
DEFAULT_255_2_778
10
2.7546814
20
79.780977
11
2.7474814
21
79.827777
0
LINE
8
DEFAULT_255_2_778
10
2.7474814
20
79.827777
11
2.7416814
21
79.881577
0
LINE
8
DEFAULT_255_2_778
10
2.7416814
20
79.881577
11
2.7437814
21
80.162477
0
LINE
8
DEFAULT_255_2_778
10
2.7437814
20
80.162477
11
2.7514814
21
80.218577
0
LINE
8
DEFAULT_255_2_778
10
2.7514814
20
80.218577
11
2.7630814
21
80.277577
0
LINE
8
DEFAULT_255_2_778
10
2.7630814
20
80.277577
11
2.7789814
21
80.335577
0
LINE
8
DEFAULT_255_2_778
10
2.7789814
20
80.335577
11
2.8088814
21
80.413577
0
LINE
8
DEFAULT_255_2_778
10
2.8088814
20
80.413577
11
2.8620814
21
80.505977
0
LINE
8
DEFAULT_255_2_778
10
2.8620814
20
80.505977
11
2.9453814
21
80.594577
0
LINE
8
DEFAULT_255_2_778
10
2.9453814
20
80.594577
11
3.0721814
21
80.661277
0
LINE
8
DEFAULT_255_2_778
10
3.0721814
20
80.661277
11
3.2713814
21
80.681677
0
LINE
8
DEFAULT_255_2_778
10
3.2713814
20
80.681677
11
3.4168814
21
80.644077
0
LINE
8
DEFAULT_255_2_778
10
3.4168814
20
80.644077
11
3.5108814
21
80.575777
0
LINE
8
DEFAULT_255_2_778
10
3.5108814
20
80.575777
11
3.5512814
21
80.514377
0
LINE
8
DEFAULT_255_2_778
10
3.5512814
20
80.514377
11
3.5658814
21
80.473977
0
LINE
8
DEFAULT_255_2_778
10
3.5658814
20
80.473977
11
3.5727814
21
80.440377
0
LINE
8
DEFAULT_255_2_778
10
3.5727814
20
80.440377
11
3.5753814
21
80.395077
0
LINE
8
DEFAULT_255_2_778
10
3.5753814
20
80.395077
11
3.7899814
21
80.395077
0
LINE
8
DEFAULT_255_2_778
10
3.7899814
20
80.395077
11
3.7883814
21
80.446177
0
LINE
8
DEFAULT_255_2_778
10
3.7883814
20
80.446177
11
3.7843814
21
80.480277
0
LINE
8
DEFAULT_255_2_778
10
3.7843814
20
80.480277
11
3.7777814
21
80.514177
0
LINE
8
DEFAULT_255_2_778
10
3.7777814
20
80.514177
11
3.7632814
21
80.564177
0
LINE
8
DEFAULT_255_2_778
10
3.7632814
20
80.564177
11
3.7425814
21
80.613077
0
LINE
8
DEFAULT_255_2_778
10
3.7425814
20
80.613077
11
3.7058814
21
80.673177
0
LINE
8
DEFAULT_255_2_778
10
3.7058814
20
80.673177
11
3.6441814
21
80.739077
0
LINE
8
DEFAULT_255_2_778
10
3.6441814
20
80.739077
11
3.5457814
21
80.805477
0
LINE
8
DEFAULT_255_2_778
10
3.5457814
20
80.805477
11
3.3999814
21
80.858677
0
LINE
8
DEFAULT_255_2_778
10
3.3999814
20
80.858677
11
3.1623814
21
80.878477
0
LINE
8
DEFAULT_255_2_778
10
3.1623814
20
80.878477
11
3.0144814
21
80.856277
0
LINE
8
DEFAULT_255_2_778
10
4.6200208
20
80.6879802
11
4.8010208
21
80.6546802
0
LINE
8
DEFAULT_255_2_778
10
4.8010208
20
80.6546802
11
4.8910208
21
80.5715802
0
LINE
8
DEFAULT_255_2_778
10
4.8910208
20
80.5715802
11
4.9206208
21
80.5032802
0
LINE
8
DEFAULT_255_2_778
10
4.9206208
20
80.5032802
11
4.9283208
21
80.4678802
0
LINE
8
DEFAULT_255_2_778
10
4.9283208
20
80.4678802
11
4.9272208
21
80.3638802
0
LINE
8
DEFAULT_255_2_778
10
4.9272208
20
80.3638802
11
4.9206208
21
80.3320802
0
LINE
8
DEFAULT_255_2_778
10
4.9206208
20
80.3320802
11
4.9007208
21
80.2699802
0
LINE
8
DEFAULT_255_2_778
10
4.9007208
20
80.2699802
11
4.8626208
21
80.1868802
0
LINE
8
DEFAULT_255_2_778
10
4.8626208
20
80.1868802
11
4.7835208
21
80.0595802
0
LINE
8
DEFAULT_255_2_778
10
4.7835208
20
80.0595802
11
4.6536208
21
79.8912802
0
LINE
8
DEFAULT_255_2_778
10
4.6536208
20
79.8912802
11
4.4462208
21
79.6642802
0
LINE
8
DEFAULT_255_2_778
10
4.4462208
20
79.6642802
11
4.1956208
21
79.4272802
0
LINE
8
DEFAULT_255_2_778
10
4.1956208
20
79.4272802
11
4.1070208
21
79.3510802
0
LINE
8
DEFAULT_255_2_778
10
4.1070208
20
79.3510802
11
4.1070208
21
79.1472802
0
LINE
8
DEFAULT_255_2_778
10
4.1070208
20
79.1472802
11
5.1622208
21
79.1472802
0
LINE
8
DEFAULT_255_2_778
10
5.1622208
20
79.1472802
11
5.1622208
21
79.3327802
0
LINE
8
DEFAULT_255_2_778
10
5.1622208
20
79.3327802
11
4.3565208
21
79.3327802
0
LINE
8
DEFAULT_255_2_778
10
4.3565208
20
79.3327802
11
4.7179208
21
79.6632802
0
LINE
8
DEFAULT_255_2_778
10
4.7179208
20
79.6632802
11
4.8772208
21
79.8381802
0
LINE
8
DEFAULT_255_2_778
10
4.8772208
20
79.8381802
11
4.9590208
21
79.9484802
0
LINE
8
DEFAULT_255_2_778
10
4.9590208
20
79.9484802
11
5.0129208
21
80.0362802
0
LINE
8
DEFAULT_255_2_778
10
5.0129208
20
80.0362802
11
5.0651208
21
80.1415802
0
LINE
8
DEFAULT_255_2_778
10
5.0651208
20
80.1415802
11
5.0915208
21
80.2095802
0
LINE
8
DEFAULT_255_2_778
10
5.0915208
20
80.2095802
11
5.1122208
21
80.2791802
0
LINE
8
DEFAULT_255_2_778
10
5.1122208
20
80.2791802
11
5.1219208
21
80.3262802
0
LINE
8
DEFAULT_255_2_778
10
5.1219208
20
80.3262802
11
5.1196208
21
80.5392802
0
LINE
8
DEFAULT_255_2_778
10
5.1196208
20
80.5392802
11
5.1100208
21
80.5755802
0
LINE
8
DEFAULT_255_2_778
10
5.1100208
20
80.5755802
11
5.0915208
21
80.6255802
0
LINE
8
DEFAULT_255_2_778
10
5.0915208
20
80.6255802
11
5.0569208
21
80.6871802
0
LINE
8
DEFAULT_255_2_778
10
5.0569208
20
80.6871802
11
4.9989208
21
80.7525802
0
LINE
8
DEFAULT_255_2_778
10
4.9989208
20
80.7525802
11
4.9079208
21
80.8160802
0
LINE
8
DEFAULT_255_2_778
10
4.9079208
20
80.8160802
11
4.7793208
21
80.8604802
0
LINE
8
DEFAULT_255_2_778
10
4.7793208
20
80.8604802
11
4.6063208
21
80.8710802
0
LINE
8
DEFAULT_255_2_778
10
4.6063208
20
80.8710802
11
4.4602208
21
80.8419802
0
LINE
8
DEFAULT_255_2_778
10
4.4602208
20
80.8419802
11
4.3562208
21
80.7882802
0
LINE
8
DEFAULT_255_2_778
10
4.3562208
20
80.7882802
11
4.2316208
21
80.6514802
0
LINE
8
DEFAULT_255_2_778
10
4.2316208
20
80.6514802
11
4.1895208
21
80.5477802
0
LINE
8
DEFAULT_255_2_778
10
4.1895208
20
80.5477802
11
4.1774208
21
80.4903802
0
LINE
8
DEFAULT_255_2_778
10
4.1774208
20
80.4903802
11
4.1724208
21
80.4493802
0
LINE
8
DEFAULT_255_2_778
10
4.1724208
20
80.4493802
11
4.1700208
21
80.3879802
0
LINE
8
DEFAULT_255_2_778
10
4.1700208
20
80.3879802
11
4.3684208
21
80.3879802
0
LINE
8
DEFAULT_255_2_778
10
4.3684208
20
80.3879802
11
4.3703208
21
80.4313802
0
LINE
8
DEFAULT_255_2_778
10
4.3703208
20
80.4313802
11
4.3748208
21
80.4638802
0
LINE
8
DEFAULT_255_2_778
10
4.3748208
20
80.4638802
11
4.3875208
21
80.5122802
0
LINE
8
DEFAULT_255_2_778
10
4.3875208
20
80.5122802
11
4.4295208
21
80.5897802
0
LINE
8
DEFAULT_255_2_778
10
4.4295208
20
80.5897802
11
4.5399208
21
80.6707802
0
LINE
8
DEFAULT_255_2_778
10
4.5399208
20
80.6707802
11
4.6203208
21
80.6882802
0
LINE
8
DEFAULT_255_2_778
10
9.7391208
20
80.6879802
11
9.9201208
21
80.6546802
0
LINE
8
DEFAULT_255_2_778
10
9.9201208
20
80.6546802
11
10.0101208
21
80.5715802
0
LINE
8
DEFAULT_255_2_778
10
10.0101208
20
80.5715802
11
10.0397208
21
80.5032802
0
LINE
8
DEFAULT_255_2_778
10
10.0397208
20
80.5032802
11
10.0474208
21
80.4678802
0
LINE
8
DEFAULT_255_2_778
10
10.0474208
20
80.4678802
11
10.0463208
21
80.3638802
0
LINE
8
DEFAULT_255_2_778
10
10.0463208
20
80.3638802
11
10.0397208
21
80.3320802
0
LINE
8
DEFAULT_255_2_778
10
10.0397208
20
80.3320802
11
10.0198208
21
80.2699802
0
LINE
8
DEFAULT_255_2_778
10
10.0198208
20
80.2699802
11
9.9817208
21
80.1868802
0
LINE
8
DEFAULT_255_2_778
10
9.9817208
20
80.1868802
11
9.9026208
21
80.0595802
0
LINE
8
DEFAULT_255_2_778
10
9.9026208
20
80.0595802
11
9.7727208
21
79.8912802
0
LINE
8
DEFAULT_255_2_778
10
9.7727208
20
79.8912802
11
9.5653208
21
79.6642802
0
LINE
8
DEFAULT_255_2_778
10
9.5653208
20
79.6642802
11
9.3147208
21
79.4272802
0
LINE
8
DEFAULT_255_2_778
10
9.3147208
20
79.4272802
11
9.2261208
21
79.3510802
0
LINE
8
DEFAULT_255_2_778
10
9.2261208
20
79.3510802
11
9.2261208
21
79.1472802
0
LINE
8
DEFAULT_255_2_778
10
9.2261208
20
79.1472802
11
10.2813208
21
79.1472802
0
LINE
8
DEFAULT_255_2_778
10
10.2813208
20
79.1472802
11
10.2813208
21
79.3327802
0
LINE
8
DEFAULT_255_2_778
10
10.2813208
20
79.3327802
11
9.4756208
21
79.3327802
0
LINE
8
DEFAULT_255_2_778
10
9.4756208
20
79.3327802
11
9.8370208
21
79.6632802
0
LINE
8
DEFAULT_255_2_778
10
9.8370208
20
79.6632802
11
9.9963208
21
79.8381802
0
LINE
8
DEFAULT_255_2_778
10
9.9963208
20
79.8381802
11
10.0781208
21
79.9484802
0
LINE
8
DEFAULT_255_2_778
10
10.0781208
20
79.9484802
11
10.1320208
21
80.0362802
0
LINE
8
DEFAULT_255_2_778
10
10.1320208
20
80.0362802
11
10.1842208
21
80.1415802
0
LINE
8
DEFAULT_255_2_778
10
10.1842208
20
80.1415802
11
10.2106208
21
80.2095802
0
LINE
8
DEFAULT_255_2_778
10
10.2106208
20
80.2095802
11
10.2313208
21
80.2791802
0
LINE
8
DEFAULT_255_2_778
10
10.2313208
20
80.2791802
11
10.2410208
21
80.3262802
0
LINE
8
DEFAULT_255_2_778
10
10.2410208
20
80.3262802
11
10.2387208
21
80.5392802
0
LINE
8
DEFAULT_255_2_778
10
10.2387208
20
80.5392802
11
10.2291208
21
80.5755802
0
LINE
8
DEFAULT_255_2_778
10
10.2291208
20
80.5755802
11
10.2106208
21
80.6255802
0
LINE
8
DEFAULT_255_2_778
10
10.2106208
20
80.6255802
11
10.1760208
21
80.6871802
0
LINE
8
DEFAULT_255_2_778
10
10.1760208
20
80.6871802
11
10.1180208
21
80.7525802
0
LINE
8
DEFAULT_255_2_778
10
10.1180208
20
80.7525802
11
10.0270208
21
80.8160802
0
LINE
8
DEFAULT_255_2_778
10
10.0270208
20
80.8160802
11
9.8984208
21
80.8604802
0
LINE
8
DEFAULT_255_2_778
10
9.8984208
20
80.8604802
11
9.7254208
21
80.8710802
0
LINE
8
DEFAULT_255_2_778
10
9.7254208
20
80.8710802
11
9.5793208
21
80.8419802
0
LINE
8
DEFAULT_255_2_778
10
9.5793208
20
80.8419802
11
9.4753208
21
80.7882802
0
LINE
8
DEFAULT_255_2_778
10
9.4753208
20
80.7882802
11
9.3507208
21
80.6514802
0
LINE
8
DEFAULT_255_2_778
10
9.3507208
20
80.6514802
11
9.3086208
21
80.5477802
0
LINE
8
DEFAULT_255_2_778
10
9.3086208
20
80.5477802
11
9.2965208
21
80.4903802
0
LINE
8
DEFAULT_255_2_778
10
9.2965208
20
80.4903802
11
9.2915208
21
80.4493802
0
LINE
8
DEFAULT_255_2_778
10
9.2915208
20
80.4493802
11
9.2891208
21
80.3879802
0
LINE
8
DEFAULT_255_2_778
10
9.2891208
20
80.3879802
11
9.4875208
21
80.3879802
0
LINE
8
DEFAULT_255_2_778
10
9.4875208
20
80.3879802
11
9.4894208
21
80.4313802
0
LINE
8
DEFAULT_255_2_778
10
9.4894208
20
80.4313802
11
9.4939208
21
80.4638802
0
LINE
8
DEFAULT_255_2_778
10
9.4939208
20
80.4638802
11
9.5066208
21
80.5122802
0
LINE
8
DEFAULT_255_2_778
10
9.5066208
20
80.5122802
11
9.5486208
21
80.5897802
0
LINE
8
DEFAULT_255_2_778
10
9.5486208
20
80.5897802
11
9.6590208
21
80.6707802
0
LINE
8
DEFAULT_255_2_778
10
9.6590208
20
80.6707802
11
9.7394208
21
80.6882802
0
LINE
8
DEFAULT_255_2_778
10
1.5973908
20
79.1507824
11
1.4986908
21
79.1467824
0
LINE
8
DEFAULT_255_2_778
10
1.4986908
20
79.1467824
11
0.9729908
21
79.1467824
0
LINE
8
DEFAULT_255_2_778
10
0.9729908
20
79.1467824
11
0.9729908
21
80.8467824
0
LINE
8
DEFAULT_255_2_778
10
0.9729908
20
80.8467824
11
1.6053908
21
80.8382824
0
LINE
8
DEFAULT_255_2_778
10
1.6053908
20
80.8382824
11
1.7741908
21
80.8004824
0
LINE
8
DEFAULT_255_2_778
10
1.7741908
20
80.8004824
11
1.9037908
21
80.7382824
0
LINE
8
DEFAULT_255_2_778
10
1.9037908
20
80.7382824
11
2.0050908
21
80.6557824
0
LINE
8
DEFAULT_255_2_778
10
2.0050908
20
80.6557824
11
2.0757908
21
80.5715824
0
LINE
8
DEFAULT_255_2_778
10
2.0757908
20
80.5715824
11
2.1323908
21
80.4776824
0
LINE
8
DEFAULT_255_2_778
10
2.1323908
20
80.4776824
11
2.1646908
21
80.4043824
0
LINE
8
DEFAULT_255_2_778
10
2.1646908
20
80.4043824
11
2.1831908
21
80.3493824
0
LINE
8
DEFAULT_255_2_778
10
2.1831908
20
80.3493824
11
2.1977908
21
80.2932824
0
LINE
8
DEFAULT_255_2_778
10
2.1977908
20
80.2932824
11
2.2088908
21
80.2360824
0
LINE
8
DEFAULT_255_2_778
10
2.2088908
20
80.2360824
11
2.2170908
21
80.1781824
0
LINE
8
DEFAULT_255_2_778
10
2.2170908
20
80.1781824
11
2.2159908
21
79.7653824
0
LINE
8
DEFAULT_255_2_778
10
2.2159908
20
79.7653824
11
2.2069908
21
79.7074824
0
LINE
8
DEFAULT_255_2_778
10
2.2069908
20
79.7074824
11
2.1947908
21
79.6505824
0
LINE
8
DEFAULT_255_2_778
10
2.1947908
20
79.6505824
11
2.1786908
21
79.5947824
0
LINE
8
DEFAULT_255_2_778
10
2.1786908
20
79.5947824
11
2.1582908
21
79.5402824
0
LINE
8
DEFAULT_255_2_778
10
2.1582908
20
79.5402824
11
2.1156908
21
79.4555824
0
LINE
8
DEFAULT_255_2_778
10
2.1156908
20
79.4555824
11
2.0521908
21
79.3658824
0
LINE
8
DEFAULT_255_2_778
10
2.0521908
20
79.3658824
11
1.9746908
21
79.2886824
0
LINE
8
DEFAULT_255_2_778
10
1.9746908
20
79.2886824
11
1.8823908
21
79.2264824
0
LINE
8
DEFAULT_255_2_778
10
1.8823908
20
79.2264824
11
1.7444908
21
79.1743824
0
LINE
8
DEFAULT_255_2_778
10
1.7444908
20
79.1743824
11
1.5973908
21
79.1507824
0
LINE
8
DEFAULT_255_2_778
10
1.5862908
20
79.3441824
11
1.4997908
21
79.3396824
0
LINE
8
DEFAULT_255_2_778
10
1.4997908
20
79.3396824
11
1.1822908
21
79.3396824
0
LINE
8
DEFAULT_255_2_778
10
1.1822908
20
79.3396824
11
1.1822908
21
80.6541824
0
LINE
8
DEFAULT_255_2_778
10
1.1822908
20
80.6541824
11
1.6013908
21
80.6422824
0
LINE
8
DEFAULT_255_2_778
10
1.6013908
20
80.6422824
11
1.7378908
21
80.5990824
0
LINE
8
DEFAULT_255_2_778
10
1.7378908
20
80.5990824
11
1.8368908
21
80.5313824
0
LINE
8
DEFAULT_255_2_778
10
1.8368908
20
80.5313824
11
1.9045908
21
80.4543824
0
LINE
8
DEFAULT_255_2_778
10
1.9045908
20
80.4543824
11
1.9484908
21
80.3808824
0
LINE
8
DEFAULT_255_2_778
10
1.9484908
20
80.3808824
11
1.9733908
21
80.3228824
0
LINE
8
DEFAULT_255_2_778
10
1.9733908
20
80.3228824
11
1.9873908
21
80.2792824
0
LINE
8
DEFAULT_255_2_778
10
1.9873908
20
80.2792824
11
1.9982908
21
80.2344824
0
LINE
8
DEFAULT_255_2_778
10
1.9982908
20
80.2344824
11
2.0064908
21
80.1892824
0
LINE
8
DEFAULT_255_2_778
10
2.0064908
20
80.1892824
11
2.0122908
21
80.1434824
0
LINE
8
DEFAULT_255_2_778
10
2.0122908
20
80.1434824
11
2.0101908
21
79.8392824
0
LINE
8
DEFAULT_255_2_778
10
2.0101908
20
79.8392824
11
2.0027908
21
79.7828824
0
LINE
8
DEFAULT_255_2_778
10
2.0027908
20
79.7828824
11
1.9942908
21
79.7362824
0
LINE
8
DEFAULT_255_2_778
10
1.9942908
20
79.7362824
11
1.9833908
21
79.6902824
0
LINE
8
DEFAULT_255_2_778
10
1.9833908
20
79.6902824
11
1.9638908
21
79.6285824
0
LINE
8
DEFAULT_255_2_778
10
1.9638908
20
79.6285824
11
1.9357908
21
79.5650824
0
LINE
8
DEFAULT_255_2_778
10
1.9357908
20
79.5650824
11
1.8897908
21
79.4952824
0
LINE
8
DEFAULT_255_2_778
10
1.8897908
20
79.4952824
11
1.8209908
21
79.4293824
0
LINE
8
DEFAULT_255_2_778
10
1.8209908
20
79.4293824
11
1.7037908
21
79.3693824
0
LINE
8
DEFAULT_255_2_778
10
1.7037908
20
79.3693824
11
1.5862908
21
79.3441824
0
LINE
8
DEFAULT_255_2_778
10
5.5986908
20
79.7579824
11
6.1310908
21
79.7579824
0
LINE
8
DEFAULT_255_2_778
10
6.1310908
20
79.7579824
11
6.1310908
21
80.6049824
0
LINE
8
DEFAULT_255_2_778
10
6.1310908
20
80.6049824
11
5.5986908
21
79.7579824
0
LINE
8
DEFAULT_255_2_778
10
6.0942908
20
80.8470824
11
6.3360908
21
80.8470824
0
LINE
8
DEFAULT_255_2_778
10
6.3360908
20
80.8470824
11
6.3360908
21
79.7579824
0
LINE
8
DEFAULT_255_2_778
10
6.3360908
20
79.7579824
11
6.6255908
21
79.7579824
0
LINE
8
DEFAULT_255_2_778
10
6.6255908
20
79.7579824
11
6.6255908
21
79.5725824
0
LINE
8
DEFAULT_255_2_778
10
6.6255908
20
79.5725824
11
6.3360908
21
79.5725824
0
LINE
8
DEFAULT_255_2_778
10
6.3360908
20
79.5725824
11
6.3360908
21
79.1473824
0
LINE
8
DEFAULT_255_2_778
10
6.3360908
20
79.1473824
11
6.1310908
21
79.1473824
0
LINE
8
DEFAULT_255_2_778
10
6.1310908
20
79.1473824
11
6.1310908
21
79.5725824
0
LINE
8
DEFAULT_255_2_778
10
6.1310908
20
79.5725824
11
5.4198908
21
79.5725824
0
LINE
8
DEFAULT_255_2_778
10
5.4198908
20
79.5725824
11
5.4198908
21
79.7772824
0
LINE
8
DEFAULT_255_2_778
10
5.4198908
20
79.7772824
11
6.0942908
21
80.8470824
0
LINE
8
DEFAULT_255_2_778
10
11.1363908
20
80.8470824
11
11.3663908
21
80.8470824
0
LINE
8
DEFAULT_255_2_778
10
11.3663908
20
80.8470824
11
11.9941908
21
79.1470824
0
LINE
8
DEFAULT_255_2_778
10
11.9941908
20
79.1470824
11
11.7663908
21
79.1470824
0
LINE
8
DEFAULT_255_2_778
10
11.7663908
20
79.1470824
11
11.6123908
21
79.5904824
0
LINE
8
DEFAULT_255_2_778
10
11.6123908
20
79.5904824
11
10.8924908
21
79.5904824
0
LINE
8
DEFAULT_255_2_778
10
10.8924908
20
79.5904824
11
10.7405908
21
79.1470824
0
LINE
8
DEFAULT_255_2_778
10
10.7405908
20
79.1470824
11
10.5085908
21
79.1470824
0
LINE
8
DEFAULT_255_2_778
10
10.5085908
20
79.1470824
11
11.1363908
21
80.8470824
0
LINE
8
DEFAULT_255_2_778
10
10.9596908
20
79.7831824
11
11.5462908
21
79.7831824
0
LINE
8
DEFAULT_255_2_778
10
11.5462908
20
79.7831824
11
11.2522908
21
80.6276824
0
LINE
8
DEFAULT_255_2_778
10
11.2522908
20
80.6276824
11
10.9596908
21
79.7831824
0
LINE
8
DEFAULT_255_2_778
10
1.1518908
20
82.2580824
11
1.6841908
21
82.2580824
0
LINE
8
DEFAULT_255_2_778
10
1.6841908
20
82.2580824
11
1.6841908
21
83.1049824
0
LINE
8
DEFAULT_255_2_778
10
1.6841908
20
83.1049824
11
1.1518908
21
82.2580824
0
LINE
8
DEFAULT_255_2_778
10
1.6473908
20
83.3470824
11
1.8892908
21
83.3470824
0
LINE
8
DEFAULT_255_2_778
10
1.8892908
20
83.3470824
11
1.8892908
21
82.2580824
0
LINE
8
DEFAULT_255_2_778
10
1.8892908
20
82.2580824
11
2.1786908
21
82.2580824
0
LINE
8
DEFAULT_255_2_778
10
2.1786908
20
82.2580824
11
2.1786908
21
82.0725824
0
LINE
8
DEFAULT_255_2_778
10
2.1786908
20
82.0725824
11
1.8892908
21
82.0725824
0
LINE
8
DEFAULT_255_2_778
10
1.8892908
20
82.0725824
11
1.8892908
21
81.6473824
0
LINE
8
DEFAULT_255_2_778
10
1.8892908
20
81.6473824
11
1.6841908
21
81.6473824
0
LINE
8
DEFAULT_255_2_778
10
1.6841908
20
81.6473824
11
1.6841908
21
82.0722824
0
LINE
8
DEFAULT_255_2_778
10
1.6841908
20
82.0722824
11
0.9729908
21
82.0722824
0
LINE
8
DEFAULT_255_2_778
10
0.9729908
20
82.0722824
11
0.9729908
21
82.2770824
0
LINE
8
DEFAULT_255_2_778
10
0.9729908
20
82.2770824
11
1.6473908
21
83.3470824
0
LINE
8
DEFAULT_255_2_778
10
3.9159908
20
81.8643824
11
3.7283908
21
81.8397824
0
LINE
8
DEFAULT_255_2_778
10
3.7283908
20
81.8397824
11
3.4105908
21
81.8397824
0
LINE
8
DEFAULT_255_2_778
10
3.4105908
20
81.8397824
11
3.4105908
21
83.1541824
0
LINE
8
DEFAULT_255_2_778
10
3.4105908
20
83.1541824
11
3.8293908
21
83.1422824
0
LINE
8
DEFAULT_255_2_778
10
3.8293908
20
83.1422824
11
3.9659908
21
83.0991824
0
LINE
8
DEFAULT_255_2_778
10
3.9659908
20
83.0991824
11
4.0648908
21
83.0314824
0
LINE
8
DEFAULT_255_2_778
10
4.0648908
20
83.0314824
11
4.1326908
21
82.9544824
0
LINE
8
DEFAULT_255_2_778
10
4.1326908
20
82.9544824
11
4.1765908
21
82.8808824
0
LINE
8
DEFAULT_255_2_778
10
4.1765908
20
82.8808824
11
4.2013908
21
82.8226824
0
LINE
8
DEFAULT_255_2_778
10
4.2013908
20
82.8226824
11
4.2154908
21
82.7789824
0
LINE
8
DEFAULT_255_2_778
10
4.2154908
20
82.7789824
11
4.2262908
21
82.7342824
0
LINE
8
DEFAULT_255_2_778
10
4.2262908
20
82.7342824
11
4.2344908
21
82.6890824
0
LINE
8
DEFAULT_255_2_778
10
4.2344908
20
82.6890824
11
4.2402908
21
82.6432824
0
LINE
8
DEFAULT_255_2_778
10
4.2402908
20
82.6432824
11
4.2381908
21
82.3389824
0
LINE
8
DEFAULT_255_2_778
10
4.2381908
20
82.3389824
11
4.2307908
21
82.2826824
0
LINE
8
DEFAULT_255_2_778
10
4.2307908
20
82.2826824
11
4.2222908
21
82.2360824
0
LINE
8
DEFAULT_255_2_778
10
4.2222908
20
82.2360824
11
4.2114908
21
82.1900824
0
LINE
8
DEFAULT_255_2_778
10
4.2114908
20
82.1900824
11
4.1918908
21
82.1283824
0
LINE
8
DEFAULT_255_2_778
10
4.1918908
20
82.1283824
11
4.1638908
21
82.0648824
0
LINE
8
DEFAULT_255_2_778
10
4.1638908
20
82.0648824
11
4.1177908
21
81.9950824
0
LINE
8
DEFAULT_255_2_778
10
4.1177908
20
81.9950824
11
4.0489908
21
81.9291824
0
LINE
8
DEFAULT_255_2_778
10
4.0489908
20
81.9291824
11
3.9317908
21
81.8690824
0
LINE
8
DEFAULT_255_2_778
10
3.9317908
20
81.8690824
11
3.9159908
21
81.8643824
0
LINE
8
DEFAULT_255_2_778
10
3.9727908
20
81.6746824
11
4.0886908
21
81.7156824
0
LINE
8
DEFAULT_255_2_778
10
4.0886908
20
81.7156824
11
4.1860908
21
81.7748824
0
LINE
8
DEFAULT_255_2_778
10
4.1860908
20
81.7748824
11
4.2662908
21
81.8492824
0
LINE
8
DEFAULT_255_2_778
10
4.2662908
20
81.8492824
11
4.3326908
21
81.9368824
0
LINE
8
DEFAULT_255_2_778
10
4.3326908
20
81.9368824
11
4.3746908
21
82.0135824
0
LINE
8
DEFAULT_255_2_778
10
4.3746908
20
82.0135824
11
4.3971908
21
82.0675824
0
LINE
8
DEFAULT_255_2_778
10
4.3971908
20
82.0675824
11
4.4151908
21
82.1228824
0
LINE
8
DEFAULT_255_2_778
10
4.4151908
20
82.1228824
11
4.4292908
21
82.1791824
0
LINE
8
DEFAULT_255_2_778
10
4.4292908
20
82.1791824
11
4.4397908
21
82.2365824
0
LINE
8
DEFAULT_255_2_778
10
4.4397908
20
82.2365824
11
4.4413908
21
82.7072824
0
LINE
8
DEFAULT_255_2_778
10
4.4413908
20
82.7072824
11
4.4315908
21
82.7647824
0
LINE
8
DEFAULT_255_2_778
10
4.4315908
20
82.7647824
11
4.4186908
21
82.8213824
0
LINE
8
DEFAULT_255_2_778
10
4.4186908
20
82.8213824
11
4.4022908
21
82.8768824
0
LINE
8
DEFAULT_255_2_778
10
4.4022908
20
82.8768824
11
4.3818908
21
82.9313824
0
LINE
8
DEFAULT_255_2_778
10
4.3818908
20
82.9313824
11
4.3395908
21
83.0160824
0
LINE
8
DEFAULT_255_2_778
10
4.3395908
20
83.0160824
11
4.2770908
21
83.1065824
0
LINE
8
DEFAULT_255_2_778
10
4.2770908
20
83.1065824
11
4.2011908
21
83.1856824
0
LINE
8
DEFAULT_255_2_778
10
4.2011908
20
83.1856824
11
4.1132908
21
83.2496824
0
LINE
8
DEFAULT_255_2_778
10
4.1132908
20
83.2496824
11
3.9786908
21
83.3081824
0
LINE
8
DEFAULT_255_2_778
10
3.9786908
20
83.3081824
11
3.7592908
21
83.3449824
0
LINE
8
DEFAULT_255_2_778
10
3.7592908
20
83.3449824
11
3.2010908
21
83.3470824
0
LINE
8
DEFAULT_255_2_778
10
3.2010908
20
83.3470824
11
3.2010908
21
81.6471824
0
LINE
8
DEFAULT_255_2_778
10
3.2010908
20
81.6471824
11
3.8748908
21
81.6563824
0
LINE
8
DEFAULT_255_2_778
10
3.8748908
20
81.6563824
11
3.9727908
21
81.6746824
0
LINE
8
DEFAULT_255_2_778
10
5.2433908
20
83.3597824
11
5.0980908
21
83.3031824
0
LINE
8
DEFAULT_255_2_778
10
5.0980908
20
83.3031824
11
5.0089908
21
83.2414824
0
LINE
8
DEFAULT_255_2_778
10
5.0089908
20
83.2414824
11
4.9324908
21
83.1628824
0
LINE
8
DEFAULT_255_2_778
10
4.9324908
20
83.1628824
11
4.8723908
21
83.0761824
0
LINE
8
DEFAULT_255_2_778
10
4.8723908
20
83.0761824
11
4.8358908
21
83.0060824
0
LINE
8
DEFAULT_255_2_778
10
4.8358908
20
83.0060824
11
4.8049908
21
82.9287824
0
LINE
8
DEFAULT_255_2_778
10
4.8049908
20
82.9287824
11
4.7869908
21
82.8702824
0
LINE
8
DEFAULT_255_2_778
10
4.7869908
20
82.8702824
11
4.7723908
21
82.8107824
0
LINE
8
DEFAULT_255_2_778
10
4.7723908
20
82.8107824
11
4.7609908
21
82.7506824
0
LINE
8
DEFAULT_255_2_778
10
4.7609908
20
82.7506824
11
4.7559908
21
82.7162824
0
LINE
8
DEFAULT_255_2_778
10
4.7559908
20
82.7162824
11
4.7517908
21
82.6816824
0
LINE
8
DEFAULT_255_2_778
10
4.7517908
20
82.6816824
11
4.7485908
21
82.6469824
0
LINE
8
DEFAULT_255_2_778
10
4.7485908
20
82.6469824
11
4.7482908
21
82.3662824
0
LINE
8
DEFAULT_255_2_778
10
4.7482908
20
82.3662824
11
4.7514908
21
82.3310824
0
LINE
8
DEFAULT_255_2_778
10
4.7514908
20
82.3310824
11
4.7554908
21
82.2958824
0
LINE
8
DEFAULT_255_2_778
10
4.7554908
20
82.2958824
11
4.7604908
21
82.2606824
0
LINE
8
DEFAULT_255_2_778
10
4.7604908
20
82.2606824
11
4.7715908
21
82.1995824
0
LINE
8
DEFAULT_255_2_778
10
4.7715908
20
82.1995824
11
4.7858908
21
82.1389824
0
LINE
8
DEFAULT_255_2_778
10
4.7858908
20
82.1389824
11
4.8035908
21
82.0794824
0
LINE
8
DEFAULT_255_2_778
10
4.8035908
20
82.0794824
11
4.8348908
21
81.9979824
0
LINE
8
DEFAULT_255_2_778
10
4.8348908
20
81.9979824
11
4.8726908
21
81.9227824
0
LINE
8
DEFAULT_255_2_778
10
4.8726908
20
81.9227824
11
4.9287908
21
81.8391824
0
LINE
8
DEFAULT_255_2_778
10
4.9287908
20
81.8391824
11
5.0051908
21
81.7579824
0
LINE
8
DEFAULT_255_2_778
10
5.0051908
20
81.7579824
11
5.0946908
21
81.6941824
0
LINE
8
DEFAULT_255_2_778
10
5.0946908
20
81.6941824
11
5.2150908
21
81.6428824
0
LINE
8
DEFAULT_255_2_778
10
5.2150908
20
81.6428824
11
5.3801908
21
81.6150824
0
LINE
8
DEFAULT_255_2_778
10
5.3801908
20
81.6150824
11
5.5711908
21
81.6261824
0
LINE
8
DEFAULT_255_2_778
10
5.5711908
20
81.6261824
11
5.7224908
21
81.6743824
0
LINE
8
DEFAULT_255_2_778
10
5.7224908
20
81.6743824
11
5.8161908
21
81.7304824
0
LINE
8
DEFAULT_255_2_778
10
5.8161908
20
81.7304824
11
5.8986908
21
81.8058824
0
LINE
8
DEFAULT_255_2_778
10
5.8986908
20
81.8058824
11
5.9542908
21
81.8762824
0
LINE
8
DEFAULT_255_2_778
10
5.9542908
20
81.8762824
11
5.9976908
21
81.9481824
0
LINE
8
DEFAULT_255_2_778
10
5.9976908
20
81.9481824
11
6.0331908
21
82.0243824
0
LINE
8
DEFAULT_255_2_778
10
6.0331908
20
82.0243824
11
6.0534908
21
82.0796824
0
LINE
8
DEFAULT_255_2_778
10
6.0534908
20
82.0796824
11
6.0712908
21
82.1392824
0
LINE
8
DEFAULT_255_2_778
10
6.0712908
20
82.1392824
11
6.0854908
21
82.1998824
0
LINE
8
DEFAULT_255_2_778
10
6.0854908
20
82.1998824
11
6.0966908
21
82.2609824
0
LINE
8
DEFAULT_255_2_778
10
6.0966908
20
82.2609824
11
6.1016908
21
82.2961824
0
LINE
8
DEFAULT_255_2_778
10
6.1016908
20
82.2961824
11
6.1058908
21
82.3313824
0
LINE
8
DEFAULT_255_2_778
10
6.1058908
20
82.3313824
11
6.1090908
21
82.3665824
0
LINE
8
DEFAULT_255_2_778
10
6.1090908
20
82.3665824
11
6.1087908
21
82.6464824
0
LINE
8
DEFAULT_255_2_778
10
6.1087908
20
82.6464824
11
6.1053908
21
82.6808824
0
LINE
8
DEFAULT_255_2_778
10
6.1053908
20
82.6808824
11
6.1011908
21
82.7152824
0
LINE
8
DEFAULT_255_2_778
10
6.1011908
20
82.7152824
11
6.0960908
21
82.7496824
0
LINE
8
DEFAULT_255_2_778
10
6.0960908
20
82.7496824
11
6.0846908
21
82.8096824
0
LINE
8
DEFAULT_255_2_778
10
6.0846908
20
82.8096824
11
6.0698908
21
82.8689824
0
LINE
8
DEFAULT_255_2_778
10
6.0698908
20
82.8689824
11
6.0516908
21
82.9271824
0
LINE
8
DEFAULT_255_2_778
10
6.0516908
20
82.9271824
11
6.0193908
21
83.0067824
0
LINE
8
DEFAULT_255_2_778
10
6.0193908
20
83.0067824
11
5.9801908
21
83.0803824
0
LINE
8
DEFAULT_255_2_778
10
5.9801908
20
83.0803824
11
5.9230908
21
83.1618824
0
LINE
8
DEFAULT_255_2_778
10
5.9230908
20
83.1618824
11
5.8463908
21
83.2406824
0
LINE
8
DEFAULT_255_2_778
10
5.8463908
20
83.2406824
11
5.7380908
21
83.3129824
0
LINE
8
DEFAULT_255_2_778
10
5.7380908
20
83.3129824
11
5.6121908
21
83.3597824
0
LINE
8
DEFAULT_255_2_778
10
5.6121908
20
83.3597824
11
5.4547908
21
83.3806824
0
LINE
8
DEFAULT_255_2_778
10
5.4547908
20
83.3806824
11
5.2951908
21
83.3705824
0
LINE
8
DEFAULT_255_2_778
10
5.2951908
20
83.3705824
11
5.2433908
21
83.3597824
0
LINE
8
DEFAULT_255_2_778
10
5.2920908
20
83.1697824
11
5.4631908
21
83.1869824
0
LINE
8
DEFAULT_255_2_778
10
5.4631908
20
83.1869824
11
5.5968908
21
83.1589824
0
LINE
8
DEFAULT_255_2_778
10
5.5968908
20
83.1589824
11
5.6941908
21
83.1038824
0
LINE
8
DEFAULT_255_2_778
10
5.6941908
20
83.1038824
11
5.7648908
21
83.0324824
0
LINE
8
DEFAULT_255_2_778
10
5.7648908
20
83.0324824
11
5.8153908
21
82.9530824
0
LINE
8
DEFAULT_255_2_778
10
5.8153908
20
82.9530824
11
5.8471908
21
82.8819824
0
LINE
8
DEFAULT_255_2_778
10
5.8471908
20
82.8819824
11
5.8674908
21
82.8194824
0
LINE
8
DEFAULT_255_2_778
10
5.8674908
20
82.8194824
11
5.8804908
21
82.7673824
0
LINE
8
DEFAULT_255_2_778
10
5.8804908
20
82.7673824
11
5.8902908
21
82.7146824
0
LINE
8
DEFAULT_255_2_778
10
5.8902908
20
82.7146824
11
5.8941908
21
82.6882824
0
LINE
8
DEFAULT_255_2_778
10
5.8941908
20
82.6882824
11
5.8979908
21
82.6578824
0
LINE
8
DEFAULT_255_2_778
10
5.8979908
20
82.6578824
11
5.9008908
21
82.6273824
0
LINE
8
DEFAULT_255_2_778
10
5.9008908
20
82.6273824
11
5.9008908
21
82.3805824
0
LINE
8
DEFAULT_255_2_778
10
5.9008908
20
82.3805824
11
5.8979908
21
82.3495824
0
LINE
8
DEFAULT_255_2_778
10
5.8979908
20
82.3495824
11
5.8941908
21
82.3186824
0
LINE
8
DEFAULT_255_2_778
10
5.8941908
20
82.3186824
11
5.8859908
21
82.2646824
0
LINE
8
DEFAULT_255_2_778
10
5.8859908
20
82.2646824
11
5.8748908
21
82.2111824
0
LINE
8
DEFAULT_255_2_778
10
5.8748908
20
82.2111824
11
5.8542908
21
82.1389824
0
LINE
8
DEFAULT_255_2_778
10
5.8542908
20
82.1389824
11
5.8235908
21
82.0622824
0
LINE
8
DEFAULT_255_2_778
10
5.8235908
20
82.0622824
11
5.7769908
21
81.9812824
0
LINE
8
DEFAULT_255_2_778
10
5.7769908
20
81.9812824
11
5.7211908
21
81.9153824
0
LINE
8
DEFAULT_255_2_778
10
5.7211908
20
81.9153824
11
5.6277908
21
81.8495824
0
LINE
8
DEFAULT_255_2_778
10
5.6277908
20
81.8495824
11
5.4983908
21
81.8106824
0
LINE
8
DEFAULT_255_2_778
10
5.4983908
20
81.8106824
11
5.3414908
21
81.8132824
0
LINE
8
DEFAULT_255_2_778
10
5.3414908
20
81.8132824
11
5.2150908
21
81.8571824
0
LINE
8
DEFAULT_255_2_778
10
5.2150908
20
81.8571824
11
5.1361908
21
81.9153824
0
LINE
8
DEFAULT_255_2_778
10
5.1361908
20
81.9153824
11
5.0710908
21
81.9958824
0
LINE
8
DEFAULT_255_2_778
10
5.0710908
20
81.9958824
11
5.0343908
21
82.0624824
0
LINE
8
DEFAULT_255_2_778
10
5.0343908
20
82.0624824
11
5.0036908
21
82.1394824
0
LINE
8
DEFAULT_255_2_778
10
5.0036908
20
82.1394824
11
4.9898908
21
82.1855824
0
LINE
8
DEFAULT_255_2_778
10
4.9898908
20
82.1855824
11
4.9771908
21
82.2384824
0
LINE
8
DEFAULT_255_2_778
10
4.9771908
20
82.2384824
11
4.9676908
21
82.2921824
0
LINE
8
DEFAULT_255_2_778
10
4.9676908
20
82.2921824
11
4.9639908
21
82.3191824
0
LINE
8
DEFAULT_255_2_778
10
4.9639908
20
82.3191824
11
4.9602908
21
82.3500824
0
LINE
8
DEFAULT_255_2_778
10
4.9602908
20
82.3500824
11
4.9573908
21
82.3810824
0
LINE
8
DEFAULT_255_2_778
10
4.9573908
20
82.3810824
11
4.9573908
21
82.6273824
0
LINE
8
DEFAULT_255_2_778
10
4.9573908
20
82.6273824
11
4.9602908
21
82.6578824
0
LINE
8
DEFAULT_255_2_778
10
4.9602908
20
82.6578824
11
4.9639908
21
82.6882824
0
LINE
8
DEFAULT_255_2_778
10
4.9639908
20
82.6882824
11
4.9723908
21
82.7411824
0
LINE
8
DEFAULT_255_2_778
10
4.9723908
20
82.7411824
11
4.9837908
21
82.7935824
0
LINE
8
DEFAULT_255_2_778
10
4.9837908
20
82.7935824
11
5.0046908
21
82.8644824
0
LINE
8
DEFAULT_255_2_778
10
5.0046908
20
82.8644824
11
5.0361908
21
82.9398824
0
LINE
8
DEFAULT_255_2_778
10
5.0361908
20
82.9398824
11
5.0832908
21
83.0187824
0
LINE
8
DEFAULT_255_2_778
10
5.0832908
20
83.0187824
11
5.1515908
21
83.0938824
0
LINE
8
DEFAULT_255_2_778
10
5.1515908
20
83.0938824
11
5.2462908
21
83.1528824
0
LINE
8
DEFAULT_255_2_778
10
5.2462908
20
83.1528824
11
5.2920908
21
83.1697824
0
LINE
8
DEFAULT_255_2_778
10
4.4800908
20
16.9374824
11
4.6728908
21
16.9374824
0
LINE
8
DEFAULT_255_2_778
10
4.6728908
20
16.9374824
11
4.6728908
21
15.2470824
0
LINE
8
DEFAULT_255_2_778
10
4.6728908
20
15.2470824
11
4.4450908
21
15.2470824
0
LINE
8
DEFAULT_255_2_778
10
4.4450908
20
15.2470824
11
4.4450908
21
16.6746824
0
LINE
8
DEFAULT_255_2_778
10
4.4450908
20
16.6746824
11
4.1773908
21
16.5077824
0
LINE
8
DEFAULT_255_2_778
10
4.1773908
20
16.5077824
11
4.0728908
21
16.4640824
0
LINE
8
DEFAULT_255_2_778
10
4.0728908
20
16.4640824
11
4.0728908
21
16.6760824
0
LINE
8
DEFAULT_255_2_778
10
4.0728908
20
16.6760824
11
4.3815908
21
16.8517824
0
LINE
8
DEFAULT_255_2_778
10
4.3815908
20
16.8517824
11
4.4800908
21
16.9374824
0
LINE
8
DEFAULT_255_2_778
10
11.2247908
20
16.3701824
11
11.0615908
21
16.3188824
0
LINE
8
DEFAULT_255_2_778
10
11.0615908
20
16.3188824
11
10.9728908
21
16.2526824
0
LINE
8
DEFAULT_255_2_778
10
10.9728908
20
16.2526824
11
10.9255908
21
16.2050824
0
LINE
8
DEFAULT_255_2_778
10
10.9255908
20
16.2050824
11
10.9387908
21
16.7519824
0
LINE
8
DEFAULT_255_2_778
10
10.9387908
20
16.7519824
11
11.7097908
21
16.7519824
0
LINE
8
DEFAULT_255_2_778
10
11.7097908
20
16.7519824
11
11.7097908
21
16.9374824
0
LINE
8
DEFAULT_255_2_778
10
11.7097908
20
16.9374824
11
10.7254908
21
16.9374824
0
LINE
8
DEFAULT_255_2_778
10
10.7254908
20
16.9374824
11
10.7109908
21
15.9433824
0
LINE
8
DEFAULT_255_2_778
10
10.7109908
20
15.9433824
11
10.9387908
21
15.9433824
0
LINE
8
DEFAULT_255_2_778
10
10.9387908
20
15.9433824
11
10.9413908
21
15.9642824
0
LINE
8
DEFAULT_255_2_778
10
10.9413908
20
15.9642824
11
10.9514908
21
16.0052824
0
LINE
8
DEFAULT_255_2_778
10
10.9514908
20
16.0052824
11
10.9765908
21
16.0598824
0
LINE
8
DEFAULT_255_2_778
10
10.9765908
20
16.0598824
11
11.0522908
21
16.1383824
0
LINE
8
DEFAULT_255_2_778
10
11.0522908
20
16.1383824
11
11.1731908
21
16.1868824
0
LINE
8
DEFAULT_255_2_778
10
11.1731908
20
16.1868824
11
11.3551908
21
16.1722824
0
LINE
8
DEFAULT_255_2_778
10
11.3551908
20
16.1722824
11
11.4589908
21
16.1053824
0
LINE
8
DEFAULT_255_2_778
10
11.4589908
20
16.1053824
11
11.5216908
21
16.0164824
0
LINE
8
DEFAULT_255_2_778
10
11.5216908
20
16.0164824
11
11.5470908
21
15.9513824
0
LINE
8
DEFAULT_255_2_778
10
11.5470908
20
15.9513824
11
11.5578908
21
15.9050824
0
LINE
8
DEFAULT_255_2_778
10
11.5578908
20
15.9050824
11
11.5557908
21
15.6825824
0
LINE
8
DEFAULT_255_2_778
10
11.5557908
20
15.6825824
11
11.5401908
21
15.6245824
0
LINE
8
DEFAULT_255_2_778
10
11.5401908
20
15.6245824
11
11.5062908
21
15.5515824
0
LINE
8
DEFAULT_255_2_778
10
11.5062908
20
15.5515824
11
11.4279908
21
15.4613824
0
LINE
8
DEFAULT_255_2_778
10
11.4279908
20
15.4613824
11
11.3033908
21
15.4073824
0
LINE
8
DEFAULT_255_2_778
10
11.3033908
20
15.4073824
11
11.1056908
21
15.4213824
0
LINE
8
DEFAULT_255_2_778
10
11.1056908
20
15.4213824
11
10.9929908
21
15.4970824
0
LINE
8
DEFAULT_255_2_778
10
10.9929908
20
15.4970824
11
10.9366908
21
15.5795824
0
LINE
8
DEFAULT_255_2_778
10
10.9366908
20
15.5795824
11
10.9151908
21
15.6359824
0
LINE
8
DEFAULT_255_2_778
10
10.9151908
20
15.6359824
11
10.9069908
21
15.6748824
0
LINE
8
DEFAULT_255_2_778
10
10.9069908
20
15.6748824
11
10.9056908
21
15.6846824
0
LINE
8
DEFAULT_255_2_778
10
10.9056908
20
15.6846824
11
10.6731908
21
15.6846824
0
LINE
8
DEFAULT_255_2_778
10
10.6731908
20
15.6846824
11
10.6776908
21
15.6496824
0
LINE
8
DEFAULT_255_2_778
10
10.6776908
20
15.6496824
11
10.6842908
21
15.6147824
0
LINE
8
DEFAULT_255_2_778
10
10.6842908
20
15.6147824
11
10.6982908
21
15.5634824
0
LINE
8
DEFAULT_255_2_778
10
10.6982908
20
15.5634824
11
10.7233908
21
15.5007824
0
LINE
8
DEFAULT_255_2_778
10
10.7233908
20
15.5007824
11
10.7651908
21
15.4293824
0
LINE
8
DEFAULT_255_2_778
10
10.7651908
20
15.4293824
11
10.8434908
21
15.3435824
0
LINE
8
DEFAULT_255_2_778
10
10.8434908
20
15.3435824
11
10.9493908
21
15.2721824
0
LINE
8
DEFAULT_255_2_778
10
10.9493908
20
15.2721824
11
11.0924908
21
15.2226824
0
LINE
8
DEFAULT_255_2_778
10
11.0924908
20
15.2226824
11
11.2977908
21
15.2112824
0
LINE
8
DEFAULT_255_2_778
10
11.2977908
20
15.2112824
11
11.4713908
21
15.2491824
0
LINE
8
DEFAULT_255_2_778
10
11.4713908
20
15.2491824
11
11.5927908
21
15.3171824
0
LINE
8
DEFAULT_255_2_778
10
11.5927908
20
15.3171824
11
11.6761908
21
15.3988824
0
LINE
8
DEFAULT_255_2_778
10
11.6761908
20
15.3988824
11
11.7258908
21
15.4737824
0
LINE
8
DEFAULT_255_2_778
10
11.7258908
20
15.4737824
11
11.7568908
21
15.5414824
0
LINE
8
DEFAULT_255_2_778
10
11.7568908
20
15.5414824
11
11.7742908
21
15.5951824
0
LINE
8
DEFAULT_255_2_778
10
11.7742908
20
15.5951824
11
11.7832908
21
15.6317824
0
LINE
8
DEFAULT_255_2_778
10
11.7832908
20
15.6317824
11
11.7907908
21
15.6729824
0
LINE
8
DEFAULT_255_2_778
10
11.7907908
20
15.6729824
11
11.7957908
21
15.7145824
0
LINE
8
DEFAULT_255_2_778
10
11.7957908
20
15.7145824
11
11.7944908
21
15.8986824
0
LINE
8
DEFAULT_255_2_778
10
11.7944908
20
15.8986824
11
11.7912908
21
15.9235824
0
LINE
8
DEFAULT_255_2_778
10
11.7912908
20
15.9235824
11
11.7827908
21
15.9719824
0
LINE
8
DEFAULT_255_2_778
10
11.7827908
20
15.9719824
11
11.7700908
21
16.0232824
0
LINE
8
DEFAULT_255_2_778
10
11.7700908
20
16.0232824
11
11.7404908
21
16.1031824
0
LINE
8
DEFAULT_255_2_778
10
11.7404908
20
16.1031824
11
11.6888908
21
16.1920824
0
LINE
8
DEFAULT_255_2_778
10
11.6888908
20
16.1920824
11
11.6017908
21
16.2825824
0
LINE
8
DEFAULT_255_2_778
10
11.6017908
20
16.2825824
11
11.4668908
21
16.3519824
0
LINE
8
DEFAULT_255_2_778
10
11.4668908
20
16.3519824
11
11.2559908
21
16.3730824
0
LINE
8
DEFAULT_255_2_778
10
11.2559908
20
16.3730824
11
11.2247908
21
16.3698824
0
LINE
8
DEFAULT_255_2_778
10
8.4228511
20
17.1969989
11
9.7227511
21
17.1969989
0
LINE
8
DEFAULT_255_2_778
10
9.7227511
20
17.1969989
11
9.7227511
21
15.0969989
0
LINE
8
DEFAULT_255_2_778
10
9.7227511
20
15.0969989
11
8.4228511
21
15.0969989
0
LINE
8
DEFAULT_255_2_778
10
8.4228511
20
15.0969989
11
8.4228511
21
17.1969989
0
LINE
8
DEFAULT_255_2_778
10
5.6227511
20
17.1969989
11
6.9226511
21
17.1969989
0
LINE
8
DEFAULT_255_2_778
10
6.9226511
20
17.1969989
11
6.9226511
21
15.0969989
0
LINE
8
DEFAULT_255_2_778
10
6.9226511
20
15.0969989
11
5.6227511
21
15.0969989
0
LINE
8
DEFAULT_255_2_778
10
5.6227511
20
15.0969989
11
5.6227511
21
17.1969989
0
LINE
8
DEFAULT_255_2_778
10
4.2884156
20
11.7798802
11
4.5088156
21
11.7690802
0
LINE
8
DEFAULT_255_2_778
10
4.5088156
20
11.7690802
11
4.6284156
21
11.6912802
0
LINE
8
DEFAULT_255_2_778
10
4.6284156
20
11.6912802
11
4.6684156
21
11.6272802
0
LINE
8
DEFAULT_255_2_778
10
4.6684156
20
11.6272802
11
4.6837156
21
11.5769802
0
LINE
8
DEFAULT_255_2_778
10
4.6837156
20
11.5769802
11
4.6880156
21
11.5491802
0
LINE
8
DEFAULT_255_2_778
10
4.6880156
20
11.5491802
11
4.6869156
21
11.4795802
0
LINE
8
DEFAULT_255_2_778
10
4.6869156
20
11.4795802
11
4.6811156
21
11.4475802
0
LINE
8
DEFAULT_255_2_778
10
4.6811156
20
11.4475802
11
4.6671156
21
11.4002802
0
LINE
8
DEFAULT_255_2_778
10
4.6671156
20
11.4002802
11
4.6372156
21
11.3311802
0
LINE
8
DEFAULT_255_2_778
10
4.6372156
20
11.3311802
11
4.5850156
21
11.2425802
0
LINE
8
DEFAULT_255_2_778
10
4.5850156
20
11.2425802
11
4.4969156
21
11.1245802
0
LINE
8
DEFAULT_255_2_778
10
4.4969156
20
11.1245802
11
4.3183156
21
10.9266802
0
LINE
8
DEFAULT_255_2_778
10
4.3183156
20
10.9266802
11
4.0596156
21
10.6834802
0
LINE
8
DEFAULT_255_2_778
10
4.0596156
20
10.6834802
11
3.7725156
21
10.4506802
0
LINE
8
DEFAULT_255_2_778
10
3.7725156
20
10.4506802
11
3.7725156
21
10.2468802
0
LINE
8
DEFAULT_255_2_778
10
3.7725156
20
10.2468802
11
4.9449156
21
10.2468802
0
LINE
8
DEFAULT_255_2_778
10
4.9449156
20
10.2468802
11
4.9449156
21
10.4323802
0
LINE
8
DEFAULT_255_2_778
10
4.9449156
20
10.4323802
11
4.0498156
21
10.4323802
0
LINE
8
DEFAULT_255_2_778
10
4.0498156
20
10.4323802
11
4.4567156
21
10.7681802
0
LINE
8
DEFAULT_255_2_778
10
4.4567156
20
10.7681802
11
4.6208156
21
10.9287802
0
LINE
8
DEFAULT_255_2_778
10
4.6208156
20
10.9287802
11
4.7258156
21
11.0565802
0
LINE
8
DEFAULT_255_2_778
10
4.7258156
20
11.0565802
11
4.7983156
21
11.1676802
0
LINE
8
DEFAULT_255_2_778
10
4.7983156
20
11.1676802
11
4.8544156
21
11.2792802
0
LINE
8
DEFAULT_255_2_778
10
4.8544156
20
11.2792802
11
4.8787156
21
11.3435802
0
LINE
8
DEFAULT_255_2_778
10
4.8787156
20
11.3435802
11
4.8914156
21
11.3872802
0
LINE
8
DEFAULT_255_2_778
10
4.8914156
20
11.3872802
11
4.9012156
21
11.4314802
0
LINE
8
DEFAULT_255_2_778
10
4.9012156
20
11.4314802
11
4.9049156
21
11.4536802
0
LINE
8
DEFAULT_255_2_778
10
4.9049156
20
11.4536802
11
4.9049156
21
11.5997802
0
LINE
8
DEFAULT_255_2_778
10
4.9049156
20
11.5997802
11
4.8972156
21
11.6385802
0
LINE
8
DEFAULT_255_2_778
10
4.8972156
20
11.6385802
11
4.8867156
21
11.6751802
0
LINE
8
DEFAULT_255_2_778
10
4.8867156
20
11.6751802
11
4.8658156
21
11.7253802
0
LINE
8
DEFAULT_255_2_778
10
4.8658156
20
11.7253802
11
4.8274156
21
11.7867802
0
LINE
8
DEFAULT_255_2_778
10
4.8274156
20
11.7867802
11
4.7631156
21
11.8521802
0
LINE
8
DEFAULT_255_2_778
10
4.7631156
20
11.8521802
11
4.6620156
21
11.9156802
0
LINE
8
DEFAULT_255_2_778
10
4.6620156
20
11.9156802
11
4.5194156
21
11.9600802
0
LINE
8
DEFAULT_255_2_778
10
4.5194156
20
11.9600802
11
4.3271156
21
11.9706802
0
LINE
8
DEFAULT_255_2_778
10
4.3271156
20
11.9706802
11
4.1651156
21
11.9418802
0
LINE
8
DEFAULT_255_2_778
10
4.1651156
20
11.9418802
11
4.0477156
21
11.8870802
0
LINE
8
DEFAULT_255_2_778
10
4.0477156
20
11.8870802
11
3.9111156
21
11.7513802
0
LINE
8
DEFAULT_255_2_778
10
3.9111156
20
11.7513802
11
3.8646156
21
11.6478802
0
LINE
8
DEFAULT_255_2_778
10
3.8646156
20
11.6478802
11
3.8498156
21
11.5835802
0
LINE
8
DEFAULT_255_2_778
10
3.8498156
20
11.5835802
11
3.8450156
21
11.5452802
0
LINE
8
DEFAULT_255_2_778
10
3.8450156
20
11.5452802
11
3.8429156
21
11.4877802
0
LINE
8
DEFAULT_255_2_778
10
3.8429156
20
11.4877802
11
4.0633156
21
11.4877802
0
LINE
8
DEFAULT_255_2_778
10
4.0633156
20
11.4877802
11
4.0654156
21
11.5311802
0
LINE
8
DEFAULT_255_2_778
10
4.0654156
20
11.5311802
11
4.0704156
21
11.5637802
0
LINE
8
DEFAULT_255_2_778
10
4.0704156
20
11.5637802
11
4.0863156
21
11.6163802
0
LINE
8
DEFAULT_255_2_778
10
4.0863156
20
11.6163802
11
4.1315156
21
11.6896802
0
LINE
8
DEFAULT_255_2_778
10
4.1315156
20
11.6896802
11
4.2313156
21
11.7616802
0
LINE
8
DEFAULT_255_2_778
10
4.2313156
20
11.7616802
11
4.2887156
21
11.7798802
0
LINE
8
DEFAULT_255_2_778
10
8.4228511
20
12.1968989
11
9.7227511
21
12.1968989
0
LINE
8
DEFAULT_255_2_778
10
9.7227511
20
12.1968989
11
9.7227511
21
10.0968989
0
LINE
8
DEFAULT_255_2_778
10
9.7227511
20
10.0968989
11
8.4228511
21
10.0968989
0
LINE
8
DEFAULT_255_2_778
10
8.4228511
20
10.0968989
11
8.4228511
21
12.1968989
0
LINE
8
DEFAULT_255_2_778
10
5.6227511
20
12.1968989
11
6.9226511
21
12.1968989
0
LINE
8
DEFAULT_255_2_778
10
6.9226511
20
12.1968989
11
6.9226511
21
10.0968989
0
LINE
8
DEFAULT_255_2_778
10
6.9226511
20
10.0968989
11
5.6227511
21
10.0968989
0
LINE
8
DEFAULT_255_2_778
10
5.6227511
20
10.0968989
11
5.6227511
21
12.1968989
0
LINE
8
DEFAULT_255_2_778
10
11.2014699
20
10.4130363
11
11.0146699
21
10.4074363
0
LINE
8
DEFAULT_255_2_778
10
11.0146699
20
10.4074363
11
10.8890699
21
10.4564363
0
LINE
8
DEFAULT_255_2_778
10
10.8890699
20
10.4564363
11
10.8040699
21
10.5389363
0
LINE
8
DEFAULT_255_2_778
10
10.8040699
20
10.5389363
11
10.7643699
21
10.6114363
0
LINE
8
DEFAULT_255_2_778
10
10.7643699
20
10.6114363
11
10.7461699
21
10.6699363
0
LINE
8
DEFAULT_255_2_778
10
10.7461699
20
10.6699363
11
10.7381699
21
10.7125363
0
LINE
8
DEFAULT_255_2_778
10
10.7381699
20
10.7125363
11
10.7397699
21
10.8731363
0
LINE
8
DEFAULT_255_2_778
10
10.7397699
20
10.8731363
11
10.7485699
21
10.9125363
0
LINE
8
DEFAULT_255_2_778
10
10.7485699
20
10.9125363
11
10.7704699
21
10.9715363
0
LINE
8
DEFAULT_255_2_778
10
10.7704699
20
10.9715363
11
10.8180699
21
11.0440363
0
LINE
8
DEFAULT_255_2_778
10
10.8180699
20
11.0440363
11
10.9125699
21
11.1205363
0
LINE
8
DEFAULT_255_2_778
10
10.9125699
20
11.1205363
11
11.0744699
21
11.1681363
0
LINE
8
DEFAULT_255_2_778
10
11.0744699
20
11.1681363
11
11.2580699
21
11.1483363
0
LINE
8
DEFAULT_255_2_778
10
11.2580699
20
11.1483363
11
11.3469699
21
11.0914363
0
LINE
8
DEFAULT_255_2_778
10
11.3469699
20
11.0914363
11
11.4052699
21
11.0157363
0
LINE
8
DEFAULT_255_2_778
10
11.4052699
20
11.0157363
11
11.4313699
21
10.9572363
0
LINE
8
DEFAULT_255_2_778
10
11.4313699
20
10.9572363
11
11.4456699
21
10.9059363
0
LINE
8
DEFAULT_255_2_778
10
11.4456699
20
10.9059363
11
11.4528699
21
10.8636363
0
LINE
8
DEFAULT_255_2_778
10
11.4528699
20
10.8636363
11
11.4520699
21
10.7114363
0
LINE
8
DEFAULT_255_2_778
10
11.4520699
20
10.7114363
11
11.4440699
21
10.6686363
0
LINE
8
DEFAULT_255_2_778
10
11.4440699
20
10.6686363
11
11.4258699
21
10.6098363
0
LINE
8
DEFAULT_255_2_778
10
11.4258699
20
10.6098363
11
11.3861699
21
10.5376363
0
LINE
8
DEFAULT_255_2_778
10
11.3861699
20
10.5376363
11
11.3104699
21
10.4617363
0
LINE
8
DEFAULT_255_2_778
10
11.3104699
20
10.4617363
11
11.2014699
21
10.4130363
0
LINE
8
DEFAULT_255_2_778
10
10.9951699
20
11.9582363
11
10.8479699
21
11.9063363
0
LINE
8
DEFAULT_255_2_778
10
10.8479699
20
11.9063363
11
10.7397699
21
11.8309363
0
LINE
8
DEFAULT_255_2_778
10
10.7397699
20
11.8309363
11
10.6590699
21
11.7407363
0
LINE
8
DEFAULT_255_2_778
10
10.6590699
20
11.7407363
11
10.6053699
21
11.6550363
0
LINE
8
DEFAULT_255_2_778
10
10.6053699
20
11.6550363
11
10.5638699
21
11.5661363
0
LINE
8
DEFAULT_255_2_778
10
10.5638699
20
11.5661363
11
10.5318699
21
11.4737363
0
LINE
8
DEFAULT_255_2_778
10
10.5318699
20
11.4737363
11
10.5156699
21
11.4131363
0
LINE
8
DEFAULT_255_2_778
10
10.5156699
20
11.4131363
11
10.5024699
21
11.3520363
0
LINE
8
DEFAULT_255_2_778
10
10.5024699
20
11.3520363
11
10.4918699
21
11.2904363
0
LINE
8
DEFAULT_255_2_778
10
10.4918699
20
11.2904363
11
10.4833699
21
11.2242363
0
LINE
8
DEFAULT_255_2_778
10
10.4833699
20
11.2242363
11
10.4799699
21
11.1890363
0
LINE
8
DEFAULT_255_2_778
10
10.4799699
20
11.1890363
11
10.4796699
21
10.8583363
0
LINE
8
DEFAULT_255_2_778
10
10.4796699
20
10.8583363
11
10.4828699
21
10.8276363
0
LINE
8
DEFAULT_255_2_778
10
10.4828699
20
10.8276363
11
10.4908699
21
10.7704363
0
LINE
8
DEFAULT_255_2_778
10
10.4908699
20
10.7704363
11
10.5005699
21
10.7175363
0
LINE
8
DEFAULT_255_2_778
10
10.5005699
20
10.7175363
11
10.5130699
21
10.6651363
0
LINE
8
DEFAULT_255_2_778
10
10.5130699
20
10.6651363
11
10.5352699
21
10.5937363
0
LINE
8
DEFAULT_255_2_778
10
10.5352699
20
10.5937363
11
10.5677699
21
10.5164363
0
LINE
8
DEFAULT_255_2_778
10
10.5677699
20
10.5164363
11
10.6185699
21
10.4299363
0
LINE
8
DEFAULT_255_2_778
10
10.6185699
20
10.4299363
11
10.6916699
21
10.3450363
0
LINE
8
DEFAULT_255_2_778
10
10.6916699
20
10.3450363
11
10.7956699
21
10.2712363
0
LINE
8
DEFAULT_255_2_778
10
10.7956699
20
10.2712363
11
10.9371699
21
10.2214363
0
LINE
8
DEFAULT_255_2_778
10
10.9371699
20
10.2214363
11
11.1408699
21
10.2103363
0
LINE
8
DEFAULT_255_2_778
10
11.1408699
20
10.2103363
11
11.3221699
21
10.2466363
0
LINE
8
DEFAULT_255_2_778
10
11.3221699
20
10.2466363
11
11.4575699
21
10.3159363
0
LINE
8
DEFAULT_255_2_778
10
11.4575699
20
10.3159363
11
11.5414699
21
10.3900363
0
LINE
8
DEFAULT_255_2_778
10
11.5414699
20
10.3900363
11
11.5972699
21
10.4641363
0
LINE
8
DEFAULT_255_2_778
10
11.5972699
20
10.4641363
11
11.6319699
21
10.5318363
0
LINE
8
DEFAULT_255_2_778
10
11.6319699
20
10.5318363
11
11.6515699
21
10.5860363
0
LINE
8
DEFAULT_255_2_778
10
11.6515699
20
10.5860363
11
11.6615699
21
10.6231363
0
LINE
8
DEFAULT_255_2_778
10
11.6615699
20
10.6231363
11
11.6700699
21
10.6649363
0
LINE
8
DEFAULT_255_2_778
10
11.6700699
20
10.6649363
11
11.6756699
21
10.7072363
0
LINE
8
DEFAULT_255_2_778
10
11.6756699
20
10.7072363
11
11.6740699
21
10.8911363
0
LINE
8
DEFAULT_255_2_778
10
11.6740699
20
10.8911363
11
11.6682699
21
10.9303363
0
LINE
8
DEFAULT_255_2_778
10
11.6682699
20
10.9303363
11
11.6560699
21
10.9845363
0
LINE
8
DEFAULT_255_2_778
10
11.6560699
20
10.9845363
11
11.6396699
21
11.0358363
0
LINE
8
DEFAULT_255_2_778
10
11.6396699
20
11.0358363
11
11.6039699
21
11.1123363
0
LINE
8
DEFAULT_255_2_778
10
11.6039699
20
11.1123363
11
11.5412699
21
11.1996363
0
LINE
8
DEFAULT_255_2_778
10
11.5412699
20
11.1996363
11
11.4464699
21
11.2822363
0
LINE
8
DEFAULT_255_2_778
10
11.4464699
20
11.2822363
11
11.3022699
21
11.3451363
0
LINE
8
DEFAULT_255_2_778
10
11.3022699
20
11.3451363
11
11.0980699
21
11.3610363
0
LINE
8
DEFAULT_255_2_778
10
11.0980699
20
11.3610363
11
10.9382699
21
11.3208363
0
LINE
8
DEFAULT_255_2_778
10
10.9382699
20
11.3208363
11
10.8112699
21
11.2406363
0
LINE
8
DEFAULT_255_2_778
10
10.8112699
20
11.2406363
11
10.7495699
21
11.1803363
0
LINE
8
DEFAULT_255_2_778
10
10.7495699
20
11.1803363
11
10.6953699
21
11.1091363
0
LINE
8
DEFAULT_255_2_778
10
10.6953699
20
11.1091363
11
10.7000699
21
11.1649363
0
LINE
8
DEFAULT_255_2_778
10
10.7000699
20
11.1649363
11
10.7064699
21
11.2208363
0
LINE
8
DEFAULT_255_2_778
10
10.7064699
20
11.2208363
11
10.7146699
21
11.2763363
0
LINE
8
DEFAULT_255_2_778
10
10.7146699
20
11.2763363
11
10.7289699
21
11.3496363
0
LINE
8
DEFAULT_255_2_778
10
10.7289699
20
11.3496363
11
10.7535699
21
11.4398363
0
LINE
8
DEFAULT_255_2_778
10
10.7535699
20
11.4398363
11
10.7874699
21
11.5280363
0
LINE
8
DEFAULT_255_2_778
10
10.7874699
20
11.5280363
11
10.8389699
21
11.6211363
0
LINE
8
DEFAULT_255_2_778
10
10.8389699
20
11.6211363
11
10.9281699
21
11.7163363
0
LINE
8
DEFAULT_255_2_778
10
10.9281699
20
11.7163363
11
11.0345699
21
11.7698363
0
LINE
8
DEFAULT_255_2_778
10
11.0345699
20
11.7698363
11
11.2035699
21
11.7788363
0
LINE
8
DEFAULT_255_2_778
10
11.2035699
20
11.7788363
11
11.3144699
21
11.7378363
0
LINE
8
DEFAULT_255_2_778
10
11.3144699
20
11.7378363
11
11.3800699
21
11.6732363
0
LINE
8
DEFAULT_255_2_778
10
11.3800699
20
11.6732363
11
11.4062699
21
11.6190363
0
LINE
8
DEFAULT_255_2_778
10
11.4062699
20
11.6190363
11
11.4144699
21
11.5883363
0
LINE
8
DEFAULT_255_2_778
10
11.4144699
20
11.5883363
11
11.4181699
21
11.5658363
0
LINE
8
DEFAULT_255_2_778
10
11.4181699
20
11.5658363
11
11.4208699
21
11.5208363
0
LINE
8
DEFAULT_255_2_778
10
11.4208699
20
11.5208363
11
11.6435699
21
11.5208363
0
LINE
8
DEFAULT_255_2_778
10
11.6435699
20
11.5208363
11
11.6412699
21
11.5795363
0
LINE
8
DEFAULT_255_2_778
10
11.6412699
20
11.5795363
11
11.6388699
21
11.5991363
0
LINE
8
DEFAULT_255_2_778
10
11.6388699
20
11.5991363
11
11.6319699
21
11.6383363
0
LINE
8
DEFAULT_255_2_778
10
11.6319699
20
11.6383363
11
11.6184699
21
11.6875363
0
LINE
8
DEFAULT_255_2_778
10
11.6184699
20
11.6875363
11
11.5941699
21
11.7446363
0
LINE
8
DEFAULT_255_2_778
10
11.5941699
20
11.7446363
11
11.5517699
21
11.8081363
0
LINE
8
DEFAULT_255_2_778
10
11.5517699
20
11.8081363
11
11.4708699
21
11.8817363
0
LINE
8
DEFAULT_255_2_778
10
11.4708699
20
11.8817363
11
11.3784699
21
11.9306363
0
LINE
8
DEFAULT_255_2_778
10
11.3784699
20
11.9306363
11
11.2305699
21
11.9661363
0
LINE
8
DEFAULT_255_2_778
10
11.2305699
20
11.9661363
11
11.0144699
21
11.9613363
0
LINE
8
DEFAULT_255_2_778
10
11.0144699
20
11.9613363
11
10.9951699
21
11.9582363
0
LINE
8
DEFAULT_255_2_778
10
8.6178699
20
8.3567363
11
8.4125699
21
8.2492363
0
LINE
8
DEFAULT_255_2_778
10
8.4125699
20
8.2492363
11
8.3312699
21
8.1423363
0
LINE
8
DEFAULT_255_2_778
10
8.3312699
20
8.1423363
11
8.2984699
21
8.0564363
0
LINE
8
DEFAULT_255_2_778
10
8.2984699
20
8.0564363
11
8.2870699
21
8.0037363
0
LINE
8
DEFAULT_255_2_778
10
8.2870699
20
8.0037363
11
8.2828699
21
7.9706363
0
LINE
8
DEFAULT_255_2_778
10
8.2828699
20
7.9706363
11
8.2804699
21
7.9376363
0
LINE
8
DEFAULT_255_2_778
10
8.2804699
20
7.9376363
11
8.2799699
21
7.9045363
0
LINE
8
DEFAULT_255_2_778
10
8.2799699
20
7.9045363
11
8.4696699
21
7.9045363
0
LINE
8
DEFAULT_255_2_778
10
8.4696699
20
7.9045363
11
8.4712699
21
7.9423363
0
LINE
8
DEFAULT_255_2_778
10
8.4712699
20
7.9423363
11
8.4752699
21
7.9706363
0
LINE
8
DEFAULT_255_2_778
10
8.4752699
20
7.9706363
11
8.4900699
21
8.0222363
0
LINE
8
DEFAULT_255_2_778
10
8.4900699
20
8.0222363
11
8.5344699
21
8.0950363
0
LINE
8
DEFAULT_255_2_778
10
8.5344699
20
8.0950363
11
8.6493699
21
8.1714363
0
LINE
8
DEFAULT_255_2_778
10
8.6493699
20
8.1714363
11
8.8636699
21
8.1744363
0
LINE
8
DEFAULT_255_2_778
10
8.8636699
20
8.1744363
11
8.9866699
21
8.0952363
0
LINE
8
DEFAULT_255_2_778
10
8.9866699
20
8.0952363
11
9.0268699
21
8.0302363
0
LINE
8
DEFAULT_255_2_778
10
9.0268699
20
8.0302363
11
9.0424699
21
7.9794363
0
LINE
8
DEFAULT_255_2_778
10
9.0424699
20
7.9794363
11
9.0398699
21
7.8240363
0
LINE
8
DEFAULT_255_2_778
10
9.0398699
20
7.8240363
11
9.0006699
21
7.7431363
0
LINE
8
DEFAULT_255_2_778
10
9.0006699
20
7.7431363
11
8.8644699
21
7.6388363
0
LINE
8
DEFAULT_255_2_778
10
8.8644699
20
7.6388363
11
8.7183699
21
7.6108363
0
LINE
8
DEFAULT_255_2_778
10
8.7183699
20
7.6108363
11
8.6530699
21
7.6108363
0
LINE
8
DEFAULT_255_2_778
10
8.6530699
20
7.6108363
11
8.6530699
21
7.4206363
0
LINE
8
DEFAULT_255_2_778
10
8.6530699
20
7.4206363
11
8.8961699
21
7.3938363
0
LINE
8
DEFAULT_255_2_778
10
8.8961699
20
7.3938363
11
9.0170699
21
7.3158363
0
LINE
8
DEFAULT_255_2_778
10
9.0170699
20
7.3158363
11
9.0615699
21
7.2443363
0
LINE
8
DEFAULT_255_2_778
10
9.0615699
20
7.2443363
11
9.0723699
21
7.2089363
0
LINE
8
DEFAULT_255_2_778
10
9.0723699
20
7.2089363
11
9.0774699
21
7.1790363
0
LINE
8
DEFAULT_255_2_778
10
9.0774699
20
7.1790363
11
9.0758699
21
7.0716363
0
LINE
8
DEFAULT_255_2_778
10
9.0758699
20
7.0716363
11
9.0673699
21
7.0290363
0
LINE
8
DEFAULT_255_2_778
10
9.0673699
20
7.0290363
11
9.0475699
21
6.9726363
0
LINE
8
DEFAULT_255_2_778
10
9.0475699
20
6.9726363
11
8.9935699
21
6.8935363
0
LINE
8
DEFAULT_255_2_778
10
8.9935699
20
6.8935363
11
8.8858699
21
6.8223363
0
LINE
8
DEFAULT_255_2_778
10
8.8858699
20
6.8223363
11
8.6604699
21
6.8173363
0
LINE
8
DEFAULT_255_2_778
10
8.6604699
20
6.8173363
11
8.5281699
21
6.9136363
0
LINE
8
DEFAULT_255_2_778
10
8.5281699
20
6.9136363
11
8.4648699
21
7.0232363
0
LINE
8
DEFAULT_255_2_778
10
8.4648699
20
7.0232363
11
8.4384699
21
7.1105363
0
LINE
8
DEFAULT_255_2_778
10
8.4384699
20
7.1105363
11
8.2384699
21
7.1105363
0
LINE
8
DEFAULT_255_2_778
10
8.2384699
20
7.1105363
11
8.2450699
21
7.0689363
0
LINE
8
DEFAULT_255_2_778
10
8.2450699
20
7.0689363
11
8.2537699
21
7.0277363
0
LINE
8
DEFAULT_255_2_778
10
8.2537699
20
7.0277363
11
8.2714699
21
6.9668363
0
LINE
8
DEFAULT_255_2_778
10
8.2714699
20
6.9668363
11
8.3042699
21
6.8887363
0
LINE
8
DEFAULT_255_2_778
10
8.3042699
20
6.8887363
11
8.3572699
21
6.8043363
0
LINE
8
DEFAULT_255_2_778
10
8.3572699
20
6.8043363
11
8.4474699
21
6.7123363
0
LINE
8
DEFAULT_255_2_778
10
8.4474699
20
6.7123363
11
8.5691699
21
6.6419363
0
LINE
8
DEFAULT_255_2_778
10
8.5691699
20
6.6419363
11
8.7196699
21
6.6093363
0
LINE
8
DEFAULT_255_2_778
10
8.7196699
20
6.6093363
11
8.9279699
21
6.6292363
0
LINE
8
DEFAULT_255_2_778
10
8.9279699
20
6.6292363
11
9.0715699
21
6.6932363
0
LINE
8
DEFAULT_255_2_778
10
9.0715699
20
6.6932363
11
9.1628699
21
6.7739363
0
LINE
8
DEFAULT_255_2_778
10
9.1628699
20
6.7739363
11
9.2144699
21
6.8488363
0
LINE
8
DEFAULT_255_2_778
10
9.2144699
20
6.8488363
11
9.2454699
21
6.9202363
0
LINE
8
DEFAULT_255_2_778
10
9.2454699
20
6.9202363
11
9.2583699
21
6.9652363
0
LINE
8
DEFAULT_255_2_778
10
9.2583699
20
6.9652363
11
9.2663699
21
7.0036363
0
LINE
8
DEFAULT_255_2_778
10
9.2663699
20
7.0036363
11
9.2716699
21
7.0425363
0
LINE
8
DEFAULT_255_2_778
10
9.2716699
20
7.0425363
11
9.2689699
21
7.2121363
0
LINE
8
DEFAULT_255_2_778
10
9.2689699
20
7.2121363
11
9.2562699
21
7.2700363
0
LINE
8
DEFAULT_255_2_778
10
9.2562699
20
7.2700363
11
9.2118699
21
7.3661363
0
LINE
8
DEFAULT_255_2_778
10
9.2118699
20
7.3661363
11
9.0678699
21
7.4933363
0
LINE
8
DEFAULT_255_2_778
10
9.0678699
20
7.4933363
11
9.0038699
21
7.5161363
0
LINE
8
DEFAULT_255_2_778
10
9.0038699
20
7.5161363
11
9.1104699
21
7.5907363
0
LINE
8
DEFAULT_255_2_778
10
9.1104699
20
7.5907363
11
9.1768699
21
7.6711363
0
LINE
8
DEFAULT_255_2_778
10
9.1768699
20
7.6711363
11
9.2107699
21
7.7378363
0
LINE
8
DEFAULT_255_2_778
10
9.2107699
20
7.7378363
11
9.2290699
21
7.7947363
0
LINE
8
DEFAULT_255_2_778
10
9.2290699
20
7.7947363
11
9.2356699
21
7.8264363
0
LINE
8
DEFAULT_255_2_778
10
9.2356699
20
7.8264363
11
9.2401699
21
7.8584363
0
LINE
8
DEFAULT_255_2_778
10
9.2401699
20
7.8584363
11
9.2387699
21
7.9992363
0
LINE
8
DEFAULT_255_2_778
10
9.2387699
20
7.9992363
11
9.2337699
21
8.0291363
0
LINE
8
DEFAULT_255_2_778
10
9.2337699
20
8.0291363
11
9.2229699
21
8.0720363
0
LINE
8
DEFAULT_255_2_778
10
9.2229699
20
8.0720363
11
9.1969699
21
8.1365363
0
LINE
8
DEFAULT_255_2_778
10
9.1969699
20
8.1365363
11
9.1512699
21
8.2064363
0
LINE
8
DEFAULT_255_2_778
10
9.1512699
20
8.2064363
11
9.0657699
21
8.2844363
0
LINE
8
DEFAULT_255_2_778
10
9.0657699
20
8.2844363
11
8.9342699
21
8.3474363
0
LINE
8
DEFAULT_255_2_778
10
8.9342699
20
8.3474363
11
8.7421699
21
8.3709363
0
LINE
8
DEFAULT_255_2_778
10
8.7421699
20
8.3709363
11
8.6170699
21
8.3556363
0
LINE
8
DEFAULT_255_2_778
10
7.4314699
20
8.3373363
11
7.5973699
21
8.3373363
0
LINE
8
DEFAULT_255_2_778
10
7.5973699
20
8.3373363
11
7.5973699
21
6.6469363
0
LINE
8
DEFAULT_255_2_778
10
7.5973699
20
6.6469363
11
7.4015699
21
6.6469363
0
LINE
8
DEFAULT_255_2_778
10
7.4015699
20
6.6469363
11
7.4015699
21
8.0746363
0
LINE
8
DEFAULT_255_2_778
10
7.4015699
20
8.0746363
11
7.1710699
21
7.9077363
0
LINE
8
DEFAULT_255_2_778
10
7.1710699
20
7.9077363
11
7.0813699
21
7.8640363
0
LINE
8
DEFAULT_255_2_778
10
7.0813699
20
7.8640363
11
7.0813699
21
8.0759363
0
LINE
8
DEFAULT_255_2_778
10
7.0813699
20
8.0759363
11
7.3470699
21
8.2516363
0
LINE
8
DEFAULT_255_2_778
10
7.3470699
20
8.2516363
11
7.4314699
21
8.3373363
0
LINE
8
DEFAULT_255_2_778
10
7.8187699
20
4.8663363
11
8.3222699
21
4.8663363
0
LINE
8
DEFAULT_255_2_778
10
8.3222699
20
4.8663363
11
8.3222699
21
4.7059363
0
LINE
8
DEFAULT_255_2_778
10
8.3222699
20
4.7059363
11
7.8187699
21
4.7059363
0
LINE
8
DEFAULT_255_2_778
10
7.8187699
20
4.7059363
11
7.8187699
21
4.8663363
0
LINE
8
DEFAULT_255_2_778
10
10.8485699
20
7.3663363
11
11.3520699
21
7.3663363
0
LINE
8
DEFAULT_255_2_778
10
11.3520699
20
7.3663363
11
11.3520699
21
7.2060363
0
LINE
8
DEFAULT_255_2_778
10
11.3520699
20
7.2060363
11
10.8485699
21
7.2060363
0
LINE
8
DEFAULT_255_2_778
10
10.8485699
20
7.2060363
11
10.8485699
21
7.3663363
0
LINE
8
DEFAULT_255_2_778
10
7.0313699
20
5.8460363
11
6.8919699
21
5.8169363
0
LINE
8
DEFAULT_255_2_778
10
6.8919699
20
5.8169363
11
6.7927699
21
5.7632363
0
LINE
8
DEFAULT_255_2_778
10
6.7927699
20
5.7632363
11
6.6739699
21
5.6264363
0
LINE
8
DEFAULT_255_2_778
10
6.6739699
20
5.6264363
11
6.6363699
21
5.5328363
0
LINE
8
DEFAULT_255_2_778
10
6.6363699
20
5.5328363
11
6.6220699
21
5.4653363
0
LINE
8
DEFAULT_255_2_778
10
6.6220699
20
5.4653363
11
6.6173699
21
5.4243363
0
LINE
8
DEFAULT_255_2_778
10
6.6173699
20
5.4243363
11
6.6149699
21
5.3629363
0
LINE
8
DEFAULT_255_2_778
10
6.6149699
20
5.3629363
11
6.8046699
21
5.3629363
0
LINE
8
DEFAULT_255_2_778
10
6.8046699
20
5.3629363
11
6.8064699
21
5.4063363
0
LINE
8
DEFAULT_255_2_778
10
6.8064699
20
5.4063363
11
6.8107699
21
5.4388363
0
LINE
8
DEFAULT_255_2_778
10
6.8107699
20
5.4388363
11
6.8228699
21
5.4872363
0
LINE
8
DEFAULT_255_2_778
10
6.8228699
20
5.4872363
11
6.8631699
21
5.5648363
0
LINE
8
DEFAULT_255_2_778
10
6.8631699
20
5.5648363
11
6.9686699
21
5.6457363
0
LINE
8
DEFAULT_255_2_778
10
6.9686699
20
5.6457363
11
7.1724699
21
5.6500363
0
LINE
8
DEFAULT_255_2_778
10
7.1724699
20
5.6500363
11
7.2864699
21
5.5724363
0
LINE
8
DEFAULT_255_2_778
10
7.2864699
20
5.5724363
11
7.3255699
21
5.5021363
0
LINE
8
DEFAULT_255_2_778
10
7.3255699
20
5.5021363
11
7.3385699
21
5.4521363
0
LINE
8
DEFAULT_255_2_778
10
7.3385699
20
5.4521363
11
7.3422699
21
5.4243363
0
LINE
8
DEFAULT_255_2_778
10
7.3422699
20
5.4243363
11
7.3412699
21
5.3550363
0
LINE
8
DEFAULT_255_2_778
10
7.3412699
20
5.3550363
11
7.3361699
21
5.3229363
0
LINE
8
DEFAULT_255_2_778
10
7.3361699
20
5.3229363
11
7.3242699
21
5.2756363
0
LINE
8
DEFAULT_255_2_778
10
7.3242699
20
5.2756363
11
7.2986699
21
5.2065363
0
LINE
8
DEFAULT_255_2_778
10
7.2986699
20
5.2065363
11
7.2541699
21
5.1182363
0
LINE
8
DEFAULT_255_2_778
10
7.2541699
20
5.1182363
11
7.1782699
21
4.9996363
0
LINE
8
DEFAULT_255_2_778
10
7.1782699
20
4.9996363
11
7.0244699
21
4.8014363
0
LINE
8
DEFAULT_255_2_778
10
7.0244699
20
4.8014363
11
6.8019699
21
4.5586363
0
LINE
8
DEFAULT_255_2_778
10
6.8019699
20
4.5586363
11
6.5551699
21
4.3255363
0
LINE
8
DEFAULT_255_2_778
10
6.5551699
20
4.3255363
11
6.5551699
21
4.1217363
0
LINE
8
DEFAULT_255_2_778
10
6.5551699
20
4.1217363
11
7.5631699
21
4.1217363
0
LINE
8
DEFAULT_255_2_778
10
7.5631699
20
4.1217363
11
7.5631699
21
4.3072363
0
LINE
8
DEFAULT_255_2_778
10
7.5631699
20
4.3072363
11
6.7932699
21
4.3072363
0
LINE
8
DEFAULT_255_2_778
10
6.7932699
20
4.3072363
11
7.1387699
21
4.6379363
0
LINE
8
DEFAULT_255_2_778
10
7.1387699
20
4.6379363
11
7.2909699
21
4.8134363
0
LINE
8
DEFAULT_255_2_778
10
7.2909699
20
4.8134363
11
7.3689699
21
4.9237363
0
LINE
8
DEFAULT_255_2_778
10
7.3689699
20
4.9237363
11
7.4205699
21
5.0110363
0
LINE
8
DEFAULT_255_2_778
10
7.4205699
20
5.0110363
11
7.4703699
21
5.1160363
0
LINE
8
DEFAULT_255_2_778
10
7.4703699
20
5.1160363
11
7.4954699
21
5.1840363
0
LINE
8
DEFAULT_255_2_778
10
7.4954699
20
5.1840363
11
7.5150699
21
5.2536363
0
LINE
8
DEFAULT_255_2_778
10
7.5150699
20
5.2536363
11
7.5242699
21
5.3007363
0
LINE
8
DEFAULT_255_2_778
10
7.5242699
20
5.3007363
11
7.5219699
21
5.5134363
0
LINE
8
DEFAULT_255_2_778
10
7.5219699
20
5.5134363
11
7.5129699
21
5.5497363
0
LINE
8
DEFAULT_255_2_778
10
7.5129699
20
5.5497363
11
7.4951699
21
5.5997363
0
LINE
8
DEFAULT_255_2_778
10
7.4951699
20
5.5997363
11
7.4621699
21
5.6613363
0
LINE
8
DEFAULT_255_2_778
10
7.4621699
20
5.6613363
11
7.4068699
21
5.7270363
0
LINE
8
DEFAULT_255_2_778
10
7.4068699
20
5.7270363
11
7.3197699
21
5.7905363
0
LINE
8
DEFAULT_255_2_778
10
7.3197699
20
5.7905363
11
7.1970699
21
5.8349363
0
LINE
8
DEFAULT_255_2_778
10
7.1970699
20
5.8349363
11
7.0316699
21
5.8455363
0
LINE
8
DEFAULT_255_2_778
10
9.9888699
20
8.3588363
11
9.8801699
21
8.3178363
0
LINE
8
DEFAULT_255_2_778
10
9.8801699
20
8.3178363
11
9.7317699
21
8.1796363
0
LINE
8
DEFAULT_255_2_778
10
9.7317699
20
8.1796363
11
9.6827699
21
8.0754363
0
LINE
8
DEFAULT_255_2_778
10
9.6827699
20
8.0754363
11
9.6666699
21
8.0106363
0
LINE
8
DEFAULT_255_2_778
10
9.6666699
20
8.0106363
11
9.6594699
21
7.9595363
0
LINE
8
DEFAULT_255_2_778
10
9.6594699
20
7.9595363
11
9.6571699
21
7.9288363
0
LINE
8
DEFAULT_255_2_778
10
9.6571699
20
7.9288363
11
9.6560699
21
7.8881363
0
LINE
8
DEFAULT_255_2_778
10
9.6560699
20
7.8881363
11
9.8457699
21
7.8881363
0
LINE
8
DEFAULT_255_2_778
10
9.8457699
20
7.8881363
11
9.8476699
21
7.9315363
0
LINE
8
DEFAULT_255_2_778
10
9.8476699
20
7.9315363
11
9.8518699
21
7.9640363
0
LINE
8
DEFAULT_255_2_778
10
9.8518699
20
7.9640363
11
9.8640699
21
8.0124363
0
LINE
8
DEFAULT_255_2_778
10
9.8640699
20
8.0124363
11
9.9042699
21
8.0900363
0
LINE
8
DEFAULT_255_2_778
10
9.9042699
20
8.0900363
11
10.0097699
21
8.1709363
0
LINE
8
DEFAULT_255_2_778
10
10.0097699
20
8.1709363
11
10.2135699
21
8.1752363
0
LINE
8
DEFAULT_255_2_778
10
10.2135699
20
8.1752363
11
10.3275699
21
8.0976363
0
LINE
8
DEFAULT_255_2_778
10
10.3275699
20
8.0976363
11
10.3667699
21
8.0272363
0
LINE
8
DEFAULT_255_2_778
10
10.3667699
20
8.0272363
11
10.3796699
21
7.9772363
0
LINE
8
DEFAULT_255_2_778
10
10.3796699
20
7.9772363
11
10.3833699
21
7.9495363
0
LINE
8
DEFAULT_255_2_778
10
10.3833699
20
7.9495363
11
10.3823699
21
7.8801363
0
LINE
8
DEFAULT_255_2_778
10
10.3823699
20
7.8801363
11
10.3772699
21
7.8481363
0
LINE
8
DEFAULT_255_2_778
10
10.3772699
20
7.8481363
11
10.3653699
21
7.8008363
0
LINE
8
DEFAULT_255_2_778
10
10.3653699
20
7.8008363
11
10.3397699
21
7.7317363
0
LINE
8
DEFAULT_255_2_778
10
10.3397699
20
7.7317363
11
10.2952699
21
7.6433363
0
LINE
8
DEFAULT_255_2_778
10
10.2952699
20
7.6433363
11
10.2193699
21
7.5248363
0
LINE
8
DEFAULT_255_2_778
10
10.2193699
20
7.5248363
11
10.0656699
21
7.3266363
0
LINE
8
DEFAULT_255_2_778
10
10.0656699
20
7.3266363
11
9.8431699
21
7.0837363
0
LINE
8
DEFAULT_255_2_778
10
9.8431699
20
7.0837363
11
9.5962699
21
6.8506363
0
LINE
8
DEFAULT_255_2_778
10
9.5962699
20
6.8506363
11
9.5962699
21
6.6469363
0
LINE
8
DEFAULT_255_2_778
10
9.5962699
20
6.6469363
11
10.6043699
21
6.6469363
0
LINE
8
DEFAULT_255_2_778
10
10.6043699
20
6.6469363
11
10.6043699
21
6.8324363
0
LINE
8
DEFAULT_255_2_778
10
10.6043699
20
6.8324363
11
9.8343699
21
6.8324363
0
LINE
8
DEFAULT_255_2_778
10
9.8343699
20
6.8324363
11
10.1799699
21
7.1631363
0
LINE
8
DEFAULT_255_2_778
10
10.1799699
20
7.1631363
11
10.3320699
21
7.3385363
0
LINE
8
DEFAULT_255_2_778
10
10.3320699
20
7.3385363
11
10.4101699
21
7.4489363
0
LINE
8
DEFAULT_255_2_778
10
10.4101699
20
7.4489363
11
10.4617699
21
7.5362363
0
LINE
8
DEFAULT_255_2_778
10
10.4617699
20
7.5362363
11
10.5114699
21
7.6412363
0
LINE
8
DEFAULT_255_2_778
10
10.5114699
20
7.6412363
11
10.5365699
21
7.7092363
0
LINE
8
DEFAULT_255_2_778
10
10.5365699
20
7.7092363
11
10.5561699
21
7.7788363
0
LINE
8
DEFAULT_255_2_778
10
10.5561699
20
7.7788363
11
10.5654699
21
7.8259363
0
LINE
8
DEFAULT_255_2_778
10
10.5654699
20
7.8259363
11
10.5630699
21
8.0386363
0
LINE
8
DEFAULT_255_2_778
10
10.5630699
20
8.0386363
11
10.5540699
21
8.0749363
0
LINE
8
DEFAULT_255_2_778
10
10.5540699
20
8.0749363
11
10.5363699
21
8.1249363
0
LINE
8
DEFAULT_255_2_778
10
10.5363699
20
8.1249363
11
10.5032699
21
8.1865363
0
LINE
8
DEFAULT_255_2_778
10
10.5032699
20
8.1865363
11
10.4479699
21
8.2521363
0
LINE
8
DEFAULT_255_2_778
10
10.4479699
20
8.2521363
11
10.3608699
21
8.3156363
0
LINE
8
DEFAULT_255_2_778
10
10.3608699
20
8.3156363
11
10.2381699
21
8.3601363
0
LINE
8
DEFAULT_255_2_778
10
10.2381699
20
8.3601363
11
10.0727699
21
8.3707363
0
LINE
8
DEFAULT_255_2_778
10
10.0727699
20
8.3707363
11
9.9891699
21
8.3585363
0
LINE
8
DEFAULT_255_2_778
10
5.5737699
20
5.8534363
11
5.3764699
21
5.7434363
0
LINE
8
DEFAULT_255_2_778
10
5.3764699
20
5.7434363
11
5.2975699
21
5.6344363
0
LINE
8
DEFAULT_255_2_778
10
5.2975699
20
5.6344363
11
5.2663699
21
5.5478363
0
LINE
8
DEFAULT_255_2_778
10
5.2663699
20
5.5478363
11
5.2557699
21
5.4931363
0
LINE
8
DEFAULT_255_2_778
10
5.2557699
20
5.4931363
11
5.2520699
21
5.4600363
0
LINE
8
DEFAULT_255_2_778
10
5.2520699
20
5.4600363
11
5.2502699
21
5.4050363
0
LINE
8
DEFAULT_255_2_778
10
5.2502699
20
5.4050363
11
5.4399699
21
5.4050363
0
LINE
8
DEFAULT_255_2_778
10
5.4399699
20
5.4050363
11
5.4414699
21
5.4428363
0
LINE
8
DEFAULT_255_2_778
10
5.4414699
20
5.4428363
11
5.4454699
21
5.4711363
0
LINE
8
DEFAULT_255_2_778
10
5.4454699
20
5.4711363
11
5.4602699
21
5.5227363
0
LINE
8
DEFAULT_255_2_778
10
5.4602699
20
5.5227363
11
5.5047699
21
5.5955363
0
LINE
8
DEFAULT_255_2_778
10
5.5047699
20
5.5955363
11
5.6195699
21
5.6719363
0
LINE
8
DEFAULT_255_2_778
10
5.6195699
20
5.6719363
11
5.8338699
21
5.6748363
0
LINE
8
DEFAULT_255_2_778
10
5.8338699
20
5.6748363
11
5.9569699
21
5.5957363
0
LINE
8
DEFAULT_255_2_778
10
5.9569699
20
5.5957363
11
5.9971699
21
5.5306363
0
LINE
8
DEFAULT_255_2_778
10
5.9971699
20
5.5306363
11
6.0127699
21
5.4798363
0
LINE
8
DEFAULT_255_2_778
10
6.0127699
20
5.4798363
11
6.0100699
21
5.3245363
0
LINE
8
DEFAULT_255_2_778
10
6.0100699
20
5.3245363
11
5.9709699
21
5.2436363
0
LINE
8
DEFAULT_255_2_778
10
5.9709699
20
5.2436363
11
5.8346699
21
5.1393363
0
LINE
8
DEFAULT_255_2_778
10
5.8346699
20
5.1393363
11
5.6886699
21
5.1113363
0
LINE
8
DEFAULT_255_2_778
10
5.6886699
20
5.1113363
11
5.6232699
21
5.1113363
0
LINE
8
DEFAULT_255_2_778
10
5.6232699
20
5.1113363
11
5.6232699
21
4.9210363
0
LINE
8
DEFAULT_255_2_778
10
5.6232699
20
4.9210363
11
5.8664699
21
4.8943363
0
LINE
8
DEFAULT_255_2_778
10
5.8664699
20
4.8943363
11
5.9873699
21
4.8163363
0
LINE
8
DEFAULT_255_2_778
10
5.9873699
20
4.8163363
11
6.0317699
21
4.7448363
0
LINE
8
DEFAULT_255_2_778
10
6.0317699
20
4.7448363
11
6.0426699
21
4.7094363
0
LINE
8
DEFAULT_255_2_778
10
6.0426699
20
4.7094363
11
6.0476699
21
4.6795363
0
LINE
8
DEFAULT_255_2_778
10
6.0476699
20
4.6795363
11
6.0460699
21
4.5721363
0
LINE
8
DEFAULT_255_2_778
10
6.0460699
20
4.5721363
11
6.0376699
21
4.5295363
0
LINE
8
DEFAULT_255_2_778
10
6.0376699
20
4.5295363
11
6.0177699
21
4.4731363
0
LINE
8
DEFAULT_255_2_778
10
6.0177699
20
4.4731363
11
5.9637699
21
4.3940363
0
LINE
8
DEFAULT_255_2_778
10
5.9637699
20
4.3940363
11
5.8560699
21
4.3228363
0
LINE
8
DEFAULT_255_2_778
10
5.8560699
20
4.3228363
11
5.6306699
21
4.3178363
0
LINE
8
DEFAULT_255_2_778
10
5.6306699
20
4.3178363
11
5.4983699
21
4.4141363
0
LINE
8
DEFAULT_255_2_778
10
5.4983699
20
4.4141363
11
5.4351699
21
4.5236363
0
LINE
8
DEFAULT_255_2_778
10
5.4351699
20
4.5236363
11
5.4086699
21
4.6109363
0
LINE
8
DEFAULT_255_2_778
10
5.4086699
20
4.6109363
11
5.2086699
21
4.6109363
0
LINE
8
DEFAULT_255_2_778
10
5.2086699
20
4.6109363
11
5.2152699
21
4.5694363
0
LINE
8
DEFAULT_255_2_778
10
5.2152699
20
4.5694363
11
5.2240699
21
4.5281363
0
LINE
8
DEFAULT_255_2_778
10
5.2240699
20
4.5281363
11
5.2417699
21
4.4673363
0
LINE
8
DEFAULT_255_2_778
10
5.2417699
20
4.4673363
11
5.2745699
21
4.3892363
0
LINE
8
DEFAULT_255_2_778
10
5.2745699
20
4.3892363
11
5.3274699
21
4.3048363
0
LINE
8
DEFAULT_255_2_778
10
5.3274699
20
4.3048363
11
5.4176699
21
4.2128363
0
LINE
8
DEFAULT_255_2_778
10
5.4176699
20
4.2128363
11
5.5393699
21
4.1424363
0
LINE
8
DEFAULT_255_2_778
10
5.5393699
20
4.1424363
11
5.6899699
21
4.1098363
0
LINE
8
DEFAULT_255_2_778
10
5.6899699
20
4.1098363
11
5.8981699
21
4.1297363
0
LINE
8
DEFAULT_255_2_778
10
5.8981699
20
4.1297363
11
6.0418699
21
4.1937363
0
LINE
8
DEFAULT_255_2_778
10
6.0418699
20
4.1937363
11
6.1331699
21
4.2744363
0
LINE
8
DEFAULT_255_2_778
10
6.1331699
20
4.2744363
11
6.1847699
21
4.3493363
0
LINE
8
DEFAULT_255_2_778
10
6.1847699
20
4.3493363
11
6.2156699
21
4.4207363
0
LINE
8
DEFAULT_255_2_778
10
6.2156699
20
4.4207363
11
6.2286699
21
4.4657363
0
LINE
8
DEFAULT_255_2_778
10
6.2286699
20
4.4657363
11
6.2365699
21
4.5041363
0
LINE
8
DEFAULT_255_2_778
10
6.2365699
20
4.5041363
11
6.2418699
21
4.5430363
0
LINE
8
DEFAULT_255_2_778
10
6.2418699
20
4.5430363
11
6.2392699
21
4.7125363
0
LINE
8
DEFAULT_255_2_778
10
6.2392699
20
4.7125363
11
6.2265699
21
4.7705363
0
LINE
8
DEFAULT_255_2_778
10
6.2265699
20
4.7705363
11
6.1820699
21
4.8665363
0
LINE
8
DEFAULT_255_2_778
10
6.1820699
20
4.8665363
11
6.0381699
21
4.9938363
0
LINE
8
DEFAULT_255_2_778
10
6.0381699
20
4.9938363
11
5.9741699
21
5.0166363
0
LINE
8
DEFAULT_255_2_778
10
5.9741699
20
5.0166363
11
6.0807699
21
5.0912363
0
LINE
8
DEFAULT_255_2_778
10
6.0807699
20
5.0912363
11
6.1471699
21
5.1716363
0
LINE
8
DEFAULT_255_2_778
10
6.1471699
20
5.1716363
11
6.1810699
21
5.2383363
0
LINE
8
DEFAULT_255_2_778
10
6.1810699
20
5.2383363
11
6.1992699
21
5.2952363
0
LINE
8
DEFAULT_255_2_778
10
6.1992699
20
5.2952363
11
6.2058699
21
5.3269363
0
LINE
8
DEFAULT_255_2_778
10
6.2058699
20
5.3269363
11
6.2103699
21
5.3589363
0
LINE
8
DEFAULT_255_2_778
10
6.2103699
20
5.3589363
11
6.2090699
21
5.4997363
0
LINE
8
DEFAULT_255_2_778
10
6.2090699
20
5.4997363
11
6.2040699
21
5.5296363
0
LINE
8
DEFAULT_255_2_778
10
6.2040699
20
5.5296363
11
6.1931699
21
5.5724363
0
LINE
8
DEFAULT_255_2_778
10
6.1931699
20
5.5724363
11
6.1672699
21
5.6370363
0
LINE
8
DEFAULT_255_2_778
10
6.1672699
20
5.6370363
11
6.1214699
21
5.7069363
0
LINE
8
DEFAULT_255_2_778
10
6.1214699
20
5.7069363
11
6.0360699
21
5.7849363
0
LINE
8
DEFAULT_255_2_778
10
6.0360699
20
5.7849363
11
5.9045699
21
5.8479363
0
LINE
8
DEFAULT_255_2_778
10
5.9045699
20
5.8479363
11
5.7124699
21
5.8714363
0
LINE
8
DEFAULT_255_2_778
10
5.7124699
20
5.8714363
11
5.5729699
21
5.8526363
0
LINE
8
DEFAULT_255_2_778
10
3.9299699
20
8.1683363
11
4.1376699
21
8.1765363
0
LINE
8
DEFAULT_255_2_778
10
4.1376699
20
8.1765363
11
4.3215699
21
8.0632363
0
LINE
8
DEFAULT_255_2_778
10
4.3215699
20
8.0632363
11
4.3596699
21
7.9772363
0
LINE
8
DEFAULT_255_2_778
10
4.3596699
20
7.9772363
11
4.3664699
21
7.9341363
0
LINE
8
DEFAULT_255_2_778
10
4.3664699
20
7.9341363
11
4.3672699
21
7.9217363
0
LINE
8
DEFAULT_255_2_778
10
4.3672699
20
7.9217363
11
4.5704699
21
7.9217363
0
LINE
8
DEFAULT_255_2_778
10
4.5704699
20
7.9217363
11
4.5694699
21
7.9923363
0
LINE
8
DEFAULT_255_2_778
10
4.5694699
20
7.9923363
11
4.5654699
21
8.0201363
0
LINE
8
DEFAULT_255_2_778
10
4.5654699
20
8.0201363
11
4.5556699
21
8.0614363
0
LINE
8
DEFAULT_255_2_778
10
4.5556699
20
8.0614363
11
4.5302699
21
8.1273363
0
LINE
8
DEFAULT_255_2_778
10
4.5302699
20
8.1273363
11
4.4770699
21
8.2119363
0
LINE
8
DEFAULT_255_2_778
10
4.4770699
20
8.2119363
11
4.3826699
21
8.3006363
0
LINE
8
DEFAULT_255_2_778
10
4.3826699
20
8.3006363
11
4.2693699
21
8.3548363
0
LINE
8
DEFAULT_255_2_778
10
4.2693699
20
8.3548363
11
4.0418699
21
8.3802363
0
LINE
8
DEFAULT_255_2_778
10
4.0418699
20
8.3802363
11
3.8460699
21
8.3511363
0
LINE
8
DEFAULT_255_2_778
10
3.8460699
20
8.3511363
11
3.6989699
21
8.2810363
0
LINE
8
DEFAULT_255_2_778
10
3.6989699
20
8.2810363
11
3.6068699
21
8.1947363
0
LINE
8
DEFAULT_255_2_778
10
3.6068699
20
8.1947363
11
3.5666699
21
8.1320363
0
LINE
8
DEFAULT_255_2_778
10
3.5666699
20
8.1320363
11
3.5420699
21
8.0746363
0
LINE
8
DEFAULT_255_2_778
10
3.5420699
20
8.0746363
11
3.5285699
21
8.0280363
0
LINE
8
DEFAULT_255_2_778
10
3.5285699
20
8.0280363
11
3.5216699
21
7.9939363
0
LINE
8
DEFAULT_255_2_778
10
3.5216699
20
7.9939363
11
3.5232699
21
7.7830363
0
LINE
8
DEFAULT_255_2_778
10
3.5232699
20
7.7830363
11
3.5420699
21
7.7153363
0
LINE
8
DEFAULT_255_2_778
10
3.5420699
20
7.7153363
11
3.5912699
21
7.6238363
0
LINE
8
DEFAULT_255_2_778
10
3.5912699
20
7.6238363
11
3.6894699
21
7.5351363
0
LINE
8
DEFAULT_255_2_778
10
3.6894699
20
7.5351363
11
3.8846699
21
7.4526363
0
LINE
8
DEFAULT_255_2_778
10
3.8846699
20
7.4526363
11
4.2868699
21
7.3277363
0
LINE
8
DEFAULT_255_2_778
10
4.2868699
20
7.3277363
11
4.3699699
21
7.2563363
0
LINE
8
DEFAULT_255_2_778
10
4.3699699
20
7.2563363
11
4.3945699
21
7.2097363
0
LINE
8
DEFAULT_255_2_778
10
4.3945699
20
7.2097363
11
4.4040699
21
7.1745363
0
LINE
8
DEFAULT_255_2_778
10
4.4040699
20
7.1745363
11
4.4035699
21
7.0398363
0
LINE
8
DEFAULT_255_2_778
10
4.4035699
20
7.0398363
11
4.3905699
21
6.9927363
0
LINE
8
DEFAULT_255_2_778
10
4.3905699
20
6.9927363
11
4.3540699
21
6.9253363
0
LINE
8
DEFAULT_255_2_778
10
4.3540699
20
6.9253363
11
4.2514699
21
6.8414363
0
LINE
8
DEFAULT_255_2_778
10
4.2514699
20
6.8414363
11
3.9921699
21
6.8083363
0
LINE
8
DEFAULT_255_2_778
10
3.9921699
20
6.8083363
11
3.7878699
21
6.8967363
0
LINE
8
DEFAULT_255_2_778
10
3.7878699
20
6.8967363
11
3.7142699
21
7.0123363
0
LINE
8
DEFAULT_255_2_778
10
3.7142699
20
7.0123363
11
3.6997699
21
7.0687363
0
LINE
8
DEFAULT_255_2_778
10
3.6997699
20
7.0687363
11
3.6984699
21
7.1393363
0
LINE
8
DEFAULT_255_2_778
10
3.6984699
20
7.1393363
11
3.4973699
21
7.1393363
0
LINE
8
DEFAULT_255_2_778
10
3.4973699
20
7.1393363
11
3.4989699
21
7.0755363
0
LINE
8
DEFAULT_255_2_778
10
3.4989699
20
7.0755363
11
3.5028699
21
7.0435363
0
LINE
8
DEFAULT_255_2_778
10
3.5028699
20
7.0435363
11
3.5129699
21
6.9962363
0
LINE
8
DEFAULT_255_2_778
10
3.5129699
20
6.9962363
11
3.5333699
21
6.9343363
0
LINE
8
DEFAULT_255_2_778
10
3.5333699
20
6.9343363
11
3.5690699
21
6.8607363
0
LINE
8
DEFAULT_255_2_778
10
3.5690699
20
6.8607363
11
3.6365699
21
6.7689363
0
LINE
8
DEFAULT_255_2_778
10
3.6365699
20
6.7689363
11
3.7351699
21
6.6869363
0
LINE
8
DEFAULT_255_2_778
10
3.7351699
20
6.6869363
11
3.8778699
21
6.6302363
0
LINE
8
DEFAULT_255_2_778
10
3.8778699
20
6.6302363
11
4.0974699
21
6.6138363
0
LINE
8
DEFAULT_255_2_778
10
4.0974699
20
6.6138363
11
4.2868699
21
6.6482363
0
LINE
8
DEFAULT_255_2_778
10
4.2868699
20
6.6482363
11
4.4170699
21
6.7157363
0
LINE
8
DEFAULT_255_2_778
10
4.4170699
20
6.7157363
11
4.4982699
21
6.7916363
0
LINE
8
DEFAULT_255_2_778
10
4.4982699
20
6.7916363
11
4.5432699
21
6.8575363
0
LINE
8
DEFAULT_255_2_778
10
4.5432699
20
6.8575363
11
4.5710699
21
6.9176363
0
LINE
8
DEFAULT_255_2_778
10
4.5710699
20
6.9176363
11
4.5905699
21
6.9808363
0
LINE
8
DEFAULT_255_2_778
10
4.5905699
20
6.9808363
11
4.5985699
21
7.0173363
0
LINE
8
DEFAULT_255_2_778
10
4.5985699
20
7.0173363
11
4.6040699
21
7.0544363
0
LINE
8
DEFAULT_255_2_778
10
4.6040699
20
7.0544363
11
4.6032699
21
7.2332363
0
LINE
8
DEFAULT_255_2_778
10
4.6032699
20
7.2332363
11
4.5919699
21
7.2888363
0
LINE
8
DEFAULT_255_2_778
10
4.5919699
20
7.2888363
11
4.5633699
21
7.3634363
0
LINE
8
DEFAULT_255_2_778
10
4.5633699
20
7.3634363
11
4.4953699
21
7.4563363
0
LINE
8
DEFAULT_255_2_778
10
4.4953699
20
7.4563363
11
4.3347699
21
7.5568363
0
LINE
8
DEFAULT_255_2_778
10
4.3347699
20
7.5568363
11
3.8293699
21
7.7169363
0
LINE
8
DEFAULT_255_2_778
10
3.8293699
20
7.7169363
11
3.7486699
21
7.7912363
0
LINE
8
DEFAULT_255_2_778
10
3.7486699
20
7.7912363
11
3.7259699
21
7.8426363
0
LINE
8
DEFAULT_255_2_778
10
3.7259699
20
7.8426363
11
3.7195699
21
7.8743363
0
LINE
8
DEFAULT_255_2_778
10
3.7195699
20
7.8743363
11
3.7211699
21
7.9622363
0
LINE
8
DEFAULT_255_2_778
10
3.7211699
20
7.9622363
11
3.7325699
21
8.0061363
0
LINE
8
DEFAULT_255_2_778
10
3.7325699
20
8.0061363
11
3.7682699
21
8.0717363
0
LINE
8
DEFAULT_255_2_778
10
3.7682699
20
8.0717363
11
3.8688699
21
8.1466363
0
LINE
8
DEFAULT_255_2_778
10
3.8688699
20
8.1466363
11
3.9304699
21
8.1677363
0
LINE
8
DEFAULT_255_2_778
10
4.8959699
20
8.3471363
11
5.8897699
21
8.3471363
0
LINE
8
DEFAULT_255_2_778
10
5.8897699
20
8.3471363
11
5.8897699
21
8.1386363
0
LINE
8
DEFAULT_255_2_778
10
5.8897699
20
8.1386363
11
5.3290699
21
6.6472363
0
LINE
8
DEFAULT_255_2_778
10
5.3290699
20
6.6472363
11
5.0938699
21
6.6472363
0
LINE
8
DEFAULT_255_2_778
10
5.0938699
20
6.6472363
11
5.6833699
21
8.1569363
0
LINE
8
DEFAULT_255_2_778
10
5.6833699
20
8.1569363
11
4.8959699
21
8.1569363
0
LINE
8
DEFAULT_255_2_778
10
4.8959699
20
8.1569363
11
4.8959699
21
8.3471363
0
LINE
8
DEFAULT_255_2_778
10
2.3334699
20
8.3471363
11
3.2245699
21
8.3471363
0
LINE
8
DEFAULT_255_2_778
10
3.2245699
20
8.3471363
11
3.2245699
21
8.1542363
0
LINE
8
DEFAULT_255_2_778
10
3.2245699
20
8.1542363
11
2.5334699
21
8.1542363
0
LINE
8
DEFAULT_255_2_778
10
2.5334699
20
8.1542363
11
2.5334699
21
7.6182363
0
LINE
8
DEFAULT_255_2_778
10
2.5334699
20
7.6182363
11
3.1975699
21
7.6182363
0
LINE
8
DEFAULT_255_2_778
10
3.1975699
20
7.6182363
11
3.1975699
21
7.4253363
0
LINE
8
DEFAULT_255_2_778
10
3.1975699
20
7.4253363
11
2.5334699
21
7.4253363
0
LINE
8
DEFAULT_255_2_778
10
2.5334699
20
7.4253363
11
2.5334699
21
6.8398363
0
LINE
8
DEFAULT_255_2_778
10
2.5334699
20
6.8398363
11
3.2433699
21
6.8398363
0
LINE
8
DEFAULT_255_2_778
10
3.2433699
20
6.8398363
11
3.2433699
21
6.6469363
0
LINE
8
DEFAULT_255_2_778
10
3.2433699
20
6.6469363
11
2.3334699
21
6.6469363
0
LINE
8
DEFAULT_255_2_778
10
2.3334699
20
6.6469363
11
2.3334699
21
8.3469363
0
LINE
8
DEFAULT_255_2_778
10
1.4730699
20
8.1752363
11
1.6232699
21
8.1744363
0
LINE
8
DEFAULT_255_2_778
10
1.6232699
20
8.1744363
11
1.7127699
21
8.1251363
0
LINE
8
DEFAULT_255_2_778
10
1.7127699
20
8.1251363
11
1.7579699
21
8.0656363
0
LINE
8
DEFAULT_255_2_778
10
1.7579699
20
8.0656363
11
1.7759699
21
8.0196363
0
LINE
8
DEFAULT_255_2_778
10
1.7759699
20
8.0196363
11
1.7831699
21
7.9873363
0
LINE
8
DEFAULT_255_2_778
10
1.7831699
20
7.9873363
11
1.7865699
21
7.9611363
0
LINE
8
DEFAULT_255_2_778
10
1.7865699
20
7.9611363
11
1.7883699
21
7.9217363
0
LINE
8
DEFAULT_255_2_778
10
1.7883699
20
7.9217363
11
1.9799699
21
7.9217363
0
LINE
8
DEFAULT_255_2_778
10
1.9799699
20
7.9217363
11
1.9775699
21
7.9804363
0
LINE
8
DEFAULT_255_2_778
10
1.9775699
20
7.9804363
11
1.9757699
21
8.0000363
0
LINE
8
DEFAULT_255_2_778
10
1.9757699
20
8.0000363
11
1.9698699
21
8.0392363
0
LINE
8
DEFAULT_255_2_778
10
1.9698699
20
8.0392363
11
1.9619699
21
8.0754363
0
LINE
8
DEFAULT_255_2_778
10
1.9619699
20
8.0754363
11
1.9460699
21
8.1249363
0
LINE
8
DEFAULT_255_2_778
10
1.9460699
20
8.1249363
11
1.9161699
21
8.1863363
0
LINE
8
DEFAULT_255_2_778
10
1.9161699
20
8.1863363
11
1.8664699
21
8.2508363
0
LINE
8
DEFAULT_255_2_778
10
1.8664699
20
8.2508363
11
1.7823699
21
8.3162363
0
LINE
8
DEFAULT_255_2_778
10
1.7823699
20
8.3162363
11
1.6653699
21
8.3598363
0
LINE
8
DEFAULT_255_2_778
10
1.6653699
20
8.3598363
11
1.4735699
21
8.3675363
0
LINE
8
DEFAULT_255_2_778
10
1.4735699
20
8.3675363
11
1.3393699
21
8.3299363
0
LINE
8
DEFAULT_255_2_778
10
1.3393699
20
8.3299363
11
1.2269699
21
8.2548363
0
LINE
8
DEFAULT_255_2_778
10
1.2269699
20
8.2548363
11
1.1536699
21
8.1720363
0
LINE
8
DEFAULT_255_2_778
10
1.1536699
20
8.1720363
11
1.0951699
21
8.0725363
0
LINE
8
DEFAULT_255_2_778
10
1.0951699
20
8.0725363
11
1.0652699
21
8.0045363
0
LINE
8
DEFAULT_255_2_778
10
1.0652699
20
8.0045363
11
1.0383699
21
7.9267363
0
LINE
8
DEFAULT_255_2_778
10
1.0383699
20
7.9267363
11
1.0160699
21
7.8436363
0
LINE
8
DEFAULT_255_2_778
10
1.0160699
20
7.8436363
11
1.0033699
21
7.7828363
0
LINE
8
DEFAULT_255_2_778
10
1.0033699
20
7.7828363
11
0.9933699
21
7.7214363
0
LINE
8
DEFAULT_255_2_778
10
0.9933699
20
7.7214363
11
0.9853699
21
7.6595363
0
LINE
8
DEFAULT_255_2_778
10
0.9853699
20
7.6595363
11
0.9819699
21
7.6243363
0
LINE
8
DEFAULT_255_2_778
10
0.9819699
20
7.6243363
11
0.9811699
21
7.2314363
0
LINE
8
DEFAULT_255_2_778
10
0.9811699
20
7.2314363
11
0.9848699
21
7.1973363
0
LINE
8
DEFAULT_255_2_778
10
0.9848699
20
7.1973363
11
0.9922699
21
7.1443363
0
LINE
8
DEFAULT_255_2_778
10
0.9922699
20
7.1443363
11
1.0017699
21
7.0917363
0
LINE
8
DEFAULT_255_2_778
10
1.0017699
20
7.0917363
11
1.0136699
21
7.0396363
0
LINE
8
DEFAULT_255_2_778
10
1.0136699
20
7.0396363
11
1.0396699
21
6.9554363
0
LINE
8
DEFAULT_255_2_778
10
1.0396699
20
6.9554363
11
1.0713699
21
6.8800363
0
LINE
8
DEFAULT_255_2_778
10
1.0713699
20
6.8800363
11
1.1168699
21
6.8012363
0
LINE
8
DEFAULT_255_2_778
10
1.1168699
20
6.8012363
11
1.1962699
21
6.7112363
0
LINE
8
DEFAULT_255_2_778
10
1.1962699
20
6.7112363
11
1.3087699
21
6.6419363
0
LINE
8
DEFAULT_255_2_778
10
1.3087699
20
6.6419363
11
1.4745699
21
6.6088363
0
LINE
8
DEFAULT_255_2_778
10
1.4745699
20
6.6088363
11
1.6553699
21
6.6302363
0
LINE
8
DEFAULT_255_2_778
10
1.6553699
20
6.6302363
11
1.7791699
21
6.6866363
0
LINE
8
DEFAULT_255_2_778
10
1.7791699
20
6.6866363
11
1.8696699
21
6.7639363
0
LINE
8
DEFAULT_255_2_778
10
1.8696699
20
6.7639363
11
1.9225699
21
6.8342363
0
LINE
8
DEFAULT_255_2_778
10
1.9225699
20
6.8342363
11
1.9561699
21
6.8977363
0
LINE
8
DEFAULT_255_2_778
10
1.9561699
20
6.8977363
11
1.9762699
21
6.9507363
0
LINE
8
DEFAULT_255_2_778
10
1.9762699
20
6.9507363
11
1.9913699
21
7.0052363
0
LINE
8
DEFAULT_255_2_778
10
1.9913699
20
7.0052363
11
1.9992699
21
7.0446363
0
LINE
8
DEFAULT_255_2_778
10
1.9992699
20
7.0446363
11
2.0053699
21
7.0867363
0
LINE
8
DEFAULT_255_2_778
10
2.0053699
20
7.0867363
11
2.0042699
21
7.3084363
0
LINE
8
DEFAULT_255_2_778
10
2.0042699
20
7.3084363
11
1.9979699
21
7.3499363
0
LINE
8
DEFAULT_255_2_778
10
1.9979699
20
7.3499363
11
1.9865699
21
7.4018363
0
LINE
8
DEFAULT_255_2_778
10
1.9865699
20
7.4018363
11
1.9648699
21
7.4692363
0
LINE
8
DEFAULT_255_2_778
10
1.9648699
20
7.4692363
11
1.9249699
21
7.5513363
0
LINE
8
DEFAULT_255_2_778
10
1.9249699
20
7.5513363
11
1.8540699
21
7.6439363
0
LINE
8
DEFAULT_255_2_778
10
1.8540699
20
7.6439363
11
1.7450699
21
7.7227363
0
LINE
8
DEFAULT_255_2_778
10
1.7450699
20
7.7227363
11
1.5809699
21
7.7632363
0
LINE
8
DEFAULT_255_2_778
10
1.5809699
20
7.7632363
11
1.4140699
21
7.7391363
0
LINE
8
DEFAULT_255_2_778
10
1.4140699
20
7.7391363
11
1.2994699
21
7.6724363
0
LINE
8
DEFAULT_255_2_778
10
1.2994699
20
7.6724363
11
1.2113699
21
7.5806363
0
LINE
8
DEFAULT_255_2_778
10
1.2113699
20
7.5806363
11
1.1647699
21
7.5095363
0
LINE
8
DEFAULT_255_2_778
10
1.1647699
20
7.5095363
11
1.1687699
21
7.5653363
0
LINE
8
DEFAULT_255_2_778
10
1.1687699
20
7.5653363
11
1.1740699
21
7.6211363
0
LINE
8
DEFAULT_255_2_778
10
1.1740699
20
7.6211363
11
1.1811699
21
7.6767363
0
LINE
8
DEFAULT_255_2_778
10
1.1811699
20
7.6767363
11
1.1936699
21
7.7497363
0
LINE
8
DEFAULT_255_2_778
10
1.1936699
20
7.7497363
11
1.2147699
21
7.8399363
0
LINE
8
DEFAULT_255_2_778
10
1.2147699
20
7.8399363
11
1.2438699
21
7.9280363
0
LINE
8
DEFAULT_255_2_778
10
1.2438699
20
7.9280363
11
1.2878699
21
8.0204363
0
LINE
8
DEFAULT_255_2_778
10
1.2878699
20
8.0204363
11
1.3645699
21
8.1159363
0
LINE
8
DEFAULT_255_2_778
10
1.3645699
20
8.1159363
11
1.4730699
21
8.1752363
0
LINE
8
DEFAULT_255_2_778
10
1.4425699
20
7.5600363
11
1.6026699
21
7.5642363
0
LINE
8
DEFAULT_255_2_778
10
1.6026699
20
7.5642363
11
1.6942699
21
7.5208363
0
LINE
8
DEFAULT_255_2_778
10
1.6942699
20
7.5208363
11
1.7510699
21
7.4579363
0
LINE
8
DEFAULT_255_2_778
10
1.7510699
20
7.4579363
11
1.7891699
21
7.3827363
0
LINE
8
DEFAULT_255_2_778
10
1.7891699
20
7.3827363
11
1.8042699
21
7.3325363
0
LINE
8
DEFAULT_255_2_778
10
1.8042699
20
7.3325363
11
1.8119699
21
7.2938363
0
LINE
8
DEFAULT_255_2_778
10
1.8119699
20
7.2938363
11
1.8164699
21
7.2597363
0
LINE
8
DEFAULT_255_2_778
10
1.8164699
20
7.2597363
11
1.8153699
21
7.1126363
0
LINE
8
DEFAULT_255_2_778
10
1.8153699
20
7.1126363
11
1.8082699
21
7.0679363
0
LINE
8
DEFAULT_255_2_778
10
1.8082699
20
7.0679363
11
1.7939699
21
7.0142363
0
LINE
8
DEFAULT_255_2_778
10
1.7939699
20
7.0142363
11
1.7645699
21
6.9483363
0
LINE
8
DEFAULT_255_2_778
10
1.7645699
20
6.9483363
11
1.7018699
21
6.8697363
0
LINE
8
DEFAULT_255_2_778
10
1.7018699
20
6.8697363
11
1.6000699
21
6.8136363
0
LINE
8
DEFAULT_255_2_778
10
1.6000699
20
6.8136363
11
1.4391699
21
6.8080363
0
LINE
8
DEFAULT_255_2_778
10
1.4391699
20
6.8080363
11
1.3309699
21
6.8570363
0
LINE
8
DEFAULT_255_2_778
10
1.3309699
20
6.8570363
11
1.2579699
21
6.9398363
0
LINE
8
DEFAULT_255_2_778
10
1.2579699
20
6.9398363
11
1.2274699
21
7.0025363
0
LINE
8
DEFAULT_255_2_778
10
1.2274699
20
7.0025363
11
1.2116699
21
7.0554363
0
LINE
8
DEFAULT_255_2_778
10
1.2116699
20
7.0554363
11
1.2036699
21
7.0978363
0
LINE
8
DEFAULT_255_2_778
10
1.2036699
20
7.0978363
11
1.2052699
21
7.2872363
0
LINE
8
DEFAULT_255_2_778
10
1.2052699
20
7.2872363
11
1.2168699
21
7.3370363
0
LINE
8
DEFAULT_255_2_778
10
1.2168699
20
7.3370363
11
1.2396699
21
7.3946363
0
LINE
8
DEFAULT_255_2_778
10
1.2396699
20
7.3946363
11
1.2925699
21
7.4714363
0
LINE
8
DEFAULT_255_2_778
10
1.2925699
20
7.4714363
11
1.3907699
21
7.5423363
0
LINE
8
DEFAULT_255_2_778
10
1.3907699
20
7.5423363
11
1.4425699
21
7.5600363
0
LINE
8
DEFAULT_255_2_778
10
1.6174699
20
5.8471363
11
1.8484699
21
5.8471363
0
LINE
8
DEFAULT_255_2_778
10
1.8484699
20
5.8471363
11
1.8484699
21
4.7581363
0
LINE
8
DEFAULT_255_2_778
10
1.8484699
20
4.7581363
11
2.1252699
21
4.7581363
0
LINE
8
DEFAULT_255_2_778
10
2.1252699
20
4.7581363
11
2.1252699
21
4.5726363
0
LINE
8
DEFAULT_255_2_778
10
2.1252699
20
4.5726363
11
1.8484699
21
4.5726363
0
LINE
8
DEFAULT_255_2_778
10
1.8484699
20
4.5726363
11
1.8484699
21
4.1474363
0
LINE
8
DEFAULT_255_2_778
10
1.8484699
20
4.1474363
11
1.6526699
21
4.1474363
0
LINE
8
DEFAULT_255_2_778
10
1.6526699
20
4.1474363
11
1.6526699
21
4.5726363
0
LINE
8
DEFAULT_255_2_778
10
1.6526699
20
4.5726363
11
0.9729699
21
4.5726363
0
LINE
8
DEFAULT_255_2_778
10
0.9729699
20
4.5726363
11
0.9729699
21
4.7774363
0
LINE
8
DEFAULT_255_2_778
10
0.9729699
20
4.7774363
11
1.6174699
21
5.8471363
0
LINE
8
DEFAULT_255_2_778
10
1.1438699
20
4.7578363
11
1.6526699
21
4.7578363
0
LINE
8
DEFAULT_255_2_778
10
1.6526699
20
4.7578363
11
1.6526699
21
5.6047363
0
LINE
8
DEFAULT_255_2_778
10
1.6526699
20
5.6047363
11
1.1438699
21
4.7578363
0
LINE
8
DEFAULT_255_2_778
10
3.0523699
20
4.1527363
11
2.9385699
21
4.1471363
0
LINE
8
DEFAULT_255_2_778
10
2.9385699
20
4.1471363
11
2.3903699
21
4.1471363
0
LINE
8
DEFAULT_255_2_778
10
2.3903699
20
4.1471363
11
2.3903699
21
5.8471363
0
LINE
8
DEFAULT_255_2_778
10
2.3903699
20
5.8471363
11
3.0411699
21
5.8344363
0
LINE
8
DEFAULT_255_2_778
10
3.0411699
20
5.8344363
11
3.2369699
21
5.7611363
0
LINE
8
DEFAULT_255_2_778
10
3.2369699
20
5.7611363
11
3.3261699
21
5.6809363
0
LINE
8
DEFAULT_255_2_778
10
3.3261699
20
5.6809363
11
3.3639699
21
5.6177363
0
LINE
8
DEFAULT_255_2_778
10
3.3639699
20
5.6177363
11
3.3843699
21
5.5579363
0
LINE
8
DEFAULT_255_2_778
10
3.3843699
20
5.5579363
11
3.3922699
21
5.5203363
0
LINE
8
DEFAULT_255_2_778
10
3.3922699
20
5.5203363
11
3.3970699
21
5.4820363
0
LINE
8
DEFAULT_255_2_778
10
3.3970699
20
5.4820363
11
3.3960699
21
5.3621363
0
LINE
8
DEFAULT_255_2_778
10
3.3960699
20
5.3621363
11
3.3896699
21
5.3221363
0
LINE
8
DEFAULT_255_2_778
10
3.3896699
20
5.3221363
11
3.3753699
21
5.2706363
0
LINE
8
DEFAULT_255_2_778
10
3.3753699
20
5.2706363
11
3.3441699
21
5.2044363
0
LINE
8
DEFAULT_255_2_778
10
3.3441699
20
5.2044363
11
3.2758699
21
5.1208363
0
LINE
8
DEFAULT_255_2_778
10
3.2758699
20
5.1208363
11
3.1642699
21
5.0515363
0
LINE
8
DEFAULT_255_2_778
10
3.1642699
20
5.0515363
11
3.1414699
21
5.0438363
0
LINE
8
DEFAULT_255_2_778
10
3.1414699
20
5.0438363
11
3.2740699
21
4.9859363
0
LINE
8
DEFAULT_255_2_778
10
3.2740699
20
4.9859363
11
3.3589699
21
4.9107363
0
LINE
8
DEFAULT_255_2_778
10
3.3589699
20
4.9107363
11
3.4039699
21
4.8422363
0
LINE
8
DEFAULT_255_2_778
10
3.4039699
20
4.8422363
11
3.4301699
21
4.7771363
0
LINE
8
DEFAULT_255_2_778
10
3.4301699
20
4.7771363
11
3.4412699
21
4.7345363
0
LINE
8
DEFAULT_255_2_778
10
3.4412699
20
4.7345363
11
3.4468699
21
4.7033363
0
LINE
8
DEFAULT_255_2_778
10
3.4468699
20
4.7033363
11
3.4444699
21
4.4895363
0
LINE
8
DEFAULT_255_2_778
10
3.4444699
20
4.4895363
11
3.4348699
21
4.4464363
0
LINE
8
DEFAULT_255_2_778
10
3.4348699
20
4.4464363
11
3.4158699
21
4.3911363
0
LINE
8
DEFAULT_255_2_778
10
3.4158699
20
4.3911363
11
3.3748699
21
4.3199363
0
LINE
8
DEFAULT_255_2_778
10
3.3748699
20
4.3199363
11
3.2809699
21
4.2310363
0
LINE
8
DEFAULT_255_2_778
10
3.2809699
20
4.2310363
11
3.1483699
21
4.1707363
0
LINE
8
DEFAULT_255_2_778
10
3.1483699
20
4.1707363
11
3.0523699
21
4.1527363
0
LINE
8
DEFAULT_255_2_778
10
3.0009699
20
4.3440363
11
2.9208699
21
4.3398363
0
LINE
8
DEFAULT_255_2_778
10
2.9208699
20
4.3398363
11
2.5903699
21
4.3398363
0
LINE
8
DEFAULT_255_2_778
10
2.5903699
20
4.3398363
11
2.5903699
21
4.9314363
0
LINE
8
DEFAULT_255_2_778
10
2.5903699
20
4.9314363
11
3.0451699
21
4.9147363
0
LINE
8
DEFAULT_255_2_778
10
3.0451699
20
4.9147363
11
3.1798699
21
4.8414363
0
LINE
8
DEFAULT_255_2_778
10
3.1798699
20
4.8414363
11
3.2261699
21
4.7768363
0
LINE
8
DEFAULT_255_2_778
10
3.2261699
20
4.7768363
11
3.2441699
21
4.7237363
0
LINE
8
DEFAULT_255_2_778
10
3.2441699
20
4.7237363
11
3.2504699
21
4.6861363
0
LINE
8
DEFAULT_255_2_778
10
3.2504699
20
4.6861363
11
3.2491699
21
4.5689363
0
LINE
8
DEFAULT_255_2_778
10
3.2491699
20
4.5689363
11
3.2380699
21
4.5178363
0
LINE
8
DEFAULT_255_2_778
10
3.2380699
20
4.5178363
11
3.2144699
21
4.4612363
0
LINE
8
DEFAULT_255_2_778
10
3.2144699
20
4.4612363
11
3.1560699
21
4.3950363
0
LINE
8
DEFAULT_255_2_778
10
3.1560699
20
4.3950363
11
3.0168699
21
4.3458363
0
LINE
8
DEFAULT_255_2_778
10
3.0168699
20
4.3458363
11
3.0009699
21
4.3440363
0
LINE
8
DEFAULT_255_2_778
10
2.9417699
20
5.1322363
11
2.5903699
21
5.1290363
0
LINE
8
DEFAULT_255_2_778
10
2.5903699
20
5.1290363
11
2.5903699
21
5.6542363
0
LINE
8
DEFAULT_255_2_778
10
2.5903699
20
5.6542363
11
3.0187699
21
5.6357363
0
LINE
8
DEFAULT_255_2_778
10
3.0187699
20
5.6357363
11
3.1488699
21
5.5521363
0
LINE
8
DEFAULT_255_2_778
10
3.1488699
20
5.5521363
11
3.1835699
21
5.4902363
0
LINE
8
DEFAULT_255_2_778
10
3.1835699
20
5.4902363
11
3.1954699
21
5.4420363
0
LINE
8
DEFAULT_255_2_778
10
3.1954699
20
5.4420363
11
3.1941699
21
5.3248363
0
LINE
8
DEFAULT_255_2_778
10
3.1941699
20
5.3248363
11
3.1808699
21
5.2774363
0
LINE
8
DEFAULT_255_2_778
10
3.1808699
20
5.2774363
11
3.1427699
21
5.2176363
0
LINE
8
DEFAULT_255_2_778
10
3.1427699
20
5.2176363
11
3.0398699
21
5.1531363
0
LINE
8
DEFAULT_255_2_778
10
3.0398699
20
5.1531363
11
2.9417699
21
5.1322363
0
LINE
8
DEFAULT_255_2_778
10
4.3487699
20
4.1535363
11
4.2304699
21
4.1471363
0
LINE
8
DEFAULT_255_2_778
10
4.2304699
20
4.1471363
11
3.7280699
21
4.1471363
0
LINE
8
DEFAULT_255_2_778
10
3.7280699
20
4.1471363
11
3.7280699
21
5.8471363
0
LINE
8
DEFAULT_255_2_778
10
3.7280699
20
5.8471363
11
4.3328699
21
5.8384363
0
LINE
8
DEFAULT_255_2_778
10
4.3328699
20
5.8384363
11
4.4942699
21
5.8003363
0
LINE
8
DEFAULT_255_2_778
10
4.4942699
20
5.8003363
11
4.6178699
21
5.7383363
0
LINE
8
DEFAULT_255_2_778
10
4.6178699
20
5.7383363
11
4.7152699
21
5.6553363
0
LINE
8
DEFAULT_255_2_778
10
4.7152699
20
5.6553363
11
4.7824699
21
5.5711363
0
LINE
8
DEFAULT_255_2_778
10
4.7824699
20
5.5711363
11
4.8361699
21
5.4777363
0
LINE
8
DEFAULT_255_2_778
10
4.8361699
20
5.4777363
11
4.8572699
21
5.4298363
0
LINE
8
DEFAULT_255_2_778
10
4.8572699
20
5.4298363
11
4.8779699
21
5.3716363
0
LINE
8
DEFAULT_255_2_778
10
4.8779699
20
5.3716363
11
4.8943699
21
5.3124363
0
LINE
8
DEFAULT_255_2_778
10
4.8943699
20
5.3124363
11
4.9067699
21
5.2520363
0
LINE
8
DEFAULT_255_2_778
10
4.9067699
20
5.2520363
11
4.9118699
21
5.2216363
0
LINE
8
DEFAULT_255_2_778
10
4.9118699
20
5.2216363
11
4.9160699
21
5.1909363
0
LINE
8
DEFAULT_255_2_778
10
4.9160699
20
5.1909363
11
4.9194699
21
5.1600363
0
LINE
8
DEFAULT_255_2_778
10
4.9194699
20
5.1600363
11
4.9197699
21
4.7959363
0
LINE
8
DEFAULT_255_2_778
10
4.9197699
20
4.7959363
11
4.9165699
21
4.7668363
0
LINE
8
DEFAULT_255_2_778
10
4.9165699
20
4.7668363
11
4.9080699
21
4.7091363
0
LINE
8
DEFAULT_255_2_778
10
4.9080699
20
4.7091363
11
4.8964699
21
4.6522363
0
LINE
8
DEFAULT_255_2_778
10
4.8964699
20
4.6522363
11
4.8811699
21
4.5961363
0
LINE
8
DEFAULT_255_2_778
10
4.8811699
20
4.5961363
11
4.8615699
21
4.5414363
0
LINE
8
DEFAULT_255_2_778
10
4.8615699
20
4.5414363
11
4.8210699
21
4.4570363
0
LINE
8
DEFAULT_255_2_778
10
4.8210699
20
4.4570363
11
4.7607699
21
4.3675363
0
LINE
8
DEFAULT_255_2_778
10
4.7607699
20
4.3675363
11
4.6866699
21
4.2900363
0
LINE
8
DEFAULT_255_2_778
10
4.6866699
20
4.2900363
11
4.5977699
21
4.2278363
0
LINE
8
DEFAULT_255_2_778
10
4.5977699
20
4.2278363
11
4.4665699
21
4.1760363
0
LINE
8
DEFAULT_255_2_778
10
4.4665699
20
4.1760363
11
4.3487699
21
4.1535363
0
LINE
8
DEFAULT_255_2_778
10
4.3143699
20
4.3445363
11
4.2318699
21
4.3400363
0
LINE
8
DEFAULT_255_2_778
10
4.2318699
20
4.3400363
11
3.9283699
21
4.3400363
0
LINE
8
DEFAULT_255_2_778
10
3.9283699
20
4.3400363
11
3.9283699
21
5.6545363
0
LINE
8
DEFAULT_255_2_778
10
3.9283699
20
5.6545363
11
4.3291699
21
5.6423363
0
LINE
8
DEFAULT_255_2_778
10
4.3291699
20
5.6423363
11
4.4596699
21
5.5992363
0
LINE
8
DEFAULT_255_2_778
10
4.4596699
20
5.5992363
11
4.5546699
21
5.5314363
0
LINE
8
DEFAULT_255_2_778
10
4.5546699
20
5.5314363
11
4.6191699
21
5.4544363
0
LINE
8
DEFAULT_255_2_778
10
4.6191699
20
5.4544363
11
4.6609699
21
5.3814363
0
LINE
8
DEFAULT_255_2_778
10
4.6609699
20
5.3814363
11
4.6847699
21
5.3232363
0
LINE
8
DEFAULT_255_2_778
10
4.6847699
20
5.3232363
11
4.6982699
21
5.2793363
0
LINE
8
DEFAULT_255_2_778
10
4.6982699
20
5.2793363
11
4.7086699
21
5.2346363
0
LINE
8
DEFAULT_255_2_778
10
4.7086699
20
5.2346363
11
4.7162699
21
5.1893363
0
LINE
8
DEFAULT_255_2_778
10
4.7162699
20
5.1893363
11
4.7218699
21
5.1436363
0
LINE
8
DEFAULT_255_2_778
10
4.7218699
20
5.1436363
11
4.7197699
21
4.8398363
0
LINE
8
DEFAULT_255_2_778
10
4.7197699
20
4.8398363
11
4.7125699
21
4.7835363
0
LINE
8
DEFAULT_255_2_778
10
4.7125699
20
4.7835363
11
4.7046699
21
4.7369363
0
LINE
8
DEFAULT_255_2_778
10
4.7046699
20
4.7369363
11
4.6943699
21
4.6909363
0
LINE
8
DEFAULT_255_2_778
10
4.6943699
20
4.6909363
11
4.6755699
21
4.6292363
0
LINE
8
DEFAULT_255_2_778
10
4.6755699
20
4.6292363
11
4.6488699
21
4.5657363
0
LINE
8
DEFAULT_255_2_778
10
4.6488699
20
4.5657363
11
4.6048699
21
4.4959363
0
LINE
8
DEFAULT_255_2_778
10
4.6048699
20
4.4959363
11
4.5390699
21
4.4300363
0
LINE
8
DEFAULT_255_2_778
10
4.5390699
20
4.4300363
11
4.4270699
21
4.3699363
0
LINE
8
DEFAULT_255_2_778
10
4.4270699
20
4.3699363
11
4.3143699
21
4.3445363
0
LINE
8
DEFAULT_255_2_778
10
9.0525229
20
5.8705948
11
8.9372229
21
5.8473948
0
LINE
8
DEFAULT_255_2_778
10
8.9372229
20
5.8473948
11
8.8340229
21
5.7946948
0
LINE
8
DEFAULT_255_2_778
10
8.8340229
20
5.7946948
11
8.7586229
21
5.7300948
0
LINE
8
DEFAULT_255_2_778
10
8.7586229
20
5.7300948
11
8.6911229
21
5.6441948
0
LINE
8
DEFAULT_255_2_778
10
8.6911229
20
5.6441948
11
8.6538229
21
5.5803948
0
LINE
8
DEFAULT_255_2_778
10
8.6538229
20
5.5803948
11
8.6160229
21
5.4993948
0
LINE
8
DEFAULT_255_2_778
10
8.6160229
20
5.4993948
11
8.5858229
21
5.4152948
0
LINE
8
DEFAULT_255_2_778
10
8.5858229
20
5.4152948
11
8.5678229
21
5.3506948
0
LINE
8
DEFAULT_255_2_778
10
8.5678229
20
5.3506948
11
8.5535229
21
5.2853948
0
LINE
8
DEFAULT_255_2_778
10
8.5535229
20
5.2853948
11
8.5427229
21
5.2191948
0
LINE
8
DEFAULT_255_2_778
10
8.5427229
20
5.2191948
11
8.5382229
21
5.1826948
0
LINE
8
DEFAULT_255_2_778
10
8.5382229
20
5.1826948
11
8.5345229
21
5.1461948
0
LINE
8
DEFAULT_255_2_778
10
8.5345229
20
5.1461948
11
8.5342229
21
4.8503948
0
LINE
8
DEFAULT_255_2_778
10
8.5342229
20
4.8503948
11
8.5379229
21
4.8133948
0
LINE
8
DEFAULT_255_2_778
10
8.5379229
20
4.8133948
11
8.5424229
21
4.7762948
0
LINE
8
DEFAULT_255_2_778
10
8.5424229
20
4.7762948
11
8.5530229
21
4.7090948
0
LINE
8
DEFAULT_255_2_778
10
8.5530229
20
4.7090948
11
8.5670229
21
4.6426948
0
LINE
8
DEFAULT_255_2_778
10
8.5670229
20
4.6426948
11
8.5847229
21
4.5770948
0
LINE
8
DEFAULT_255_2_778
10
8.5847229
20
4.5770948
11
8.6109229
21
4.5005948
0
LINE
8
DEFAULT_255_2_778
10
8.6109229
20
4.5005948
11
8.6432229
21
4.4262948
0
LINE
8
DEFAULT_255_2_778
10
8.6432229
20
4.4262948
11
8.6887229
21
4.3436948
0
LINE
8
DEFAULT_255_2_778
10
8.6887229
20
4.3436948
11
8.7416229
21
4.2714948
0
LINE
8
DEFAULT_255_2_778
10
8.7416229
20
4.2714948
11
8.8162229
21
4.1997948
0
LINE
8
DEFAULT_255_2_778
10
8.8162229
20
4.1997948
11
8.9173229
21
4.1404948
0
LINE
8
DEFAULT_255_2_778
10
8.9173229
20
4.1404948
11
9.0517229
21
4.1092948
0
LINE
8
DEFAULT_255_2_778
10
9.0517229
20
4.1092948
11
9.1904229
21
4.1174948
0
LINE
8
DEFAULT_255_2_778
10
9.1904229
20
4.1174948
11
9.3015229
21
4.1568948
0
LINE
8
DEFAULT_255_2_778
10
9.3015229
20
4.1568948
11
9.3973229
21
4.2248948
0
LINE
8
DEFAULT_255_2_778
10
9.3973229
20
4.2248948
11
9.4692229
21
4.3063948
0
LINE
8
DEFAULT_255_2_778
10
9.4692229
20
4.3063948
11
9.5274229
21
4.4016948
0
LINE
8
DEFAULT_255_2_778
10
9.5274229
20
4.4016948
11
9.5618229
21
4.4754948
0
LINE
8
DEFAULT_255_2_778
10
9.5618229
20
4.4754948
11
9.5902229
21
4.5516948
0
LINE
8
DEFAULT_255_2_778
10
9.5902229
20
4.5516948
11
9.6076229
21
4.6101948
0
LINE
8
DEFAULT_255_2_778
10
9.6076229
20
4.6101948
11
9.6235229
21
4.6762948
0
LINE
8
DEFAULT_255_2_778
10
9.6235229
20
4.6762948
11
9.6359229
21
4.7432948
0
LINE
8
DEFAULT_255_2_778
10
9.6359229
20
4.7432948
11
9.6410229
21
4.7768948
0
LINE
8
DEFAULT_255_2_778
10
9.6410229
20
4.7768948
11
9.6454229
21
4.8138948
0
LINE
8
DEFAULT_255_2_778
10
9.6454229
20
4.8138948
11
9.6492229
21
4.8508948
0
LINE
8
DEFAULT_255_2_778
10
9.6492229
20
4.8508948
11
9.6489229
21
5.1461948
0
LINE
8
DEFAULT_255_2_778
10
9.6489229
20
5.1461948
11
9.6452229
21
5.1826948
0
LINE
8
DEFAULT_255_2_778
10
9.6452229
20
5.1826948
11
9.6407229
21
5.2191948
0
LINE
8
DEFAULT_255_2_778
10
9.6407229
20
5.2191948
11
9.6298229
21
5.2853948
0
LINE
8
DEFAULT_255_2_778
10
9.6298229
20
5.2853948
11
9.6156229
21
5.3506948
0
LINE
8
DEFAULT_255_2_778
10
9.6156229
20
5.3506948
11
9.5976229
21
5.4152948
0
LINE
8
DEFAULT_255_2_778
10
9.5976229
20
5.4152948
11
9.5708229
21
5.4906948
0
LINE
8
DEFAULT_255_2_778
10
9.5708229
20
5.4906948
11
9.5380229
21
5.5636948
0
LINE
8
DEFAULT_255_2_778
10
9.5380229
20
5.5636948
11
9.4801229
21
5.6621948
0
LINE
8
DEFAULT_255_2_778
10
9.4801229
20
5.6621948
11
9.4251229
21
5.7298948
0
LINE
8
DEFAULT_255_2_778
10
9.4251229
20
5.7298948
11
9.3338229
21
5.8049948
0
LINE
8
DEFAULT_255_2_778
10
9.3338229
20
5.8049948
11
9.2279229
21
5.8528948
0
LINE
8
DEFAULT_255_2_778
10
9.2279229
20
5.8528948
11
9.0917229
21
5.8716948
0
LINE
8
DEFAULT_255_2_778
10
9.0917229
20
5.8716948
11
9.0525229
21
5.8705948
0
LINE
8
DEFAULT_255_2_778
10
9.0544229
20
5.6769948
11
9.1787229
21
5.6663948
0
LINE
8
DEFAULT_255_2_778
10
9.1787229
20
5.6663948
11
9.2671229
21
5.6179948
0
LINE
8
DEFAULT_255_2_778
10
9.2671229
20
5.6179948
11
9.3232229
21
5.5591948
0
LINE
8
DEFAULT_255_2_778
10
9.3232229
20
5.5591948
11
9.3682229
21
5.4864948
0
LINE
8
DEFAULT_255_2_778
10
9.3682229
20
5.4864948
11
9.3994229
21
5.4136948
0
LINE
8
DEFAULT_255_2_778
10
9.3994229
20
5.4136948
11
9.4253229
21
5.3308948
0
LINE
8
DEFAULT_255_2_778
10
9.4253229
20
5.3308948
11
9.4409229
21
5.2609948
0
LINE
8
DEFAULT_255_2_778
10
9.4409229
20
5.2609948
11
9.4491229
21
5.2117948
0
LINE
8
DEFAULT_255_2_778
10
9.4491229
20
5.2117948
11
9.4552229
21
5.1623948
0
LINE
8
DEFAULT_255_2_778
10
9.4552229
20
5.1623948
11
9.4584229
21
5.1294948
0
LINE
8
DEFAULT_255_2_778
10
9.4584229
20
5.1294948
11
9.4584229
21
4.8638948
0
LINE
8
DEFAULT_255_2_778
10
9.4584229
20
4.8638948
11
9.4552229
21
4.8305948
0
LINE
8
DEFAULT_255_2_778
10
9.4552229
20
4.8305948
11
9.4491229
21
4.7802948
0
LINE
8
DEFAULT_255_2_778
10
9.4491229
20
4.7802948
11
9.4409229
21
4.7302948
0
LINE
8
DEFAULT_255_2_778
10
9.4409229
20
4.7302948
11
9.4253229
21
4.6582948
0
LINE
8
DEFAULT_255_2_778
10
9.4253229
20
4.6582948
11
9.4057229
21
4.5918948
0
LINE
8
DEFAULT_255_2_778
10
9.4057229
20
4.5918948
11
9.3687229
21
4.5003948
0
LINE
8
DEFAULT_255_2_778
10
9.3687229
20
4.5003948
11
9.3237229
21
4.4251948
0
LINE
8
DEFAULT_255_2_778
10
9.3237229
20
4.4251948
11
9.2573229
21
4.3563948
0
LINE
8
DEFAULT_255_2_778
10
9.2573229
20
4.3563948
11
9.1666229
21
4.3111948
0
LINE
8
DEFAULT_255_2_778
10
9.1666229
20
4.3111948
11
9.0411229
21
4.3055948
0
LINE
8
DEFAULT_255_2_778
10
9.0411229
20
4.3055948
11
8.9469229
21
4.3413948
0
LINE
8
DEFAULT_255_2_778
10
8.9469229
20
4.3413948
11
8.8700229
21
4.4108948
0
LINE
8
DEFAULT_255_2_778
10
8.8700229
20
4.4108948
11
8.8221229
21
4.4841948
0
LINE
8
DEFAULT_255_2_778
10
8.8221229
20
4.4841948
11
8.7930229
21
4.5479948
0
LINE
8
DEFAULT_255_2_778
10
8.7930229
20
4.5479948
11
8.7699229
21
4.6132948
0
LINE
8
DEFAULT_255_2_778
10
8.7699229
20
4.6132948
11
8.7520229
21
4.6802948
0
LINE
8
DEFAULT_255_2_778
10
8.7520229
20
4.6802948
11
8.7416229
21
4.7297948
0
LINE
8
DEFAULT_255_2_778
10
8.7416229
20
4.7297948
11
8.7334229
21
4.7797948
0
LINE
8
DEFAULT_255_2_778
10
8.7334229
20
4.7797948
11
8.7273229
21
4.8299948
0
LINE
8
DEFAULT_255_2_778
10
8.7273229
20
4.8299948
11
8.7242229
21
4.8633948
0
LINE
8
DEFAULT_255_2_778
10
8.7242229
20
4.8633948
11
8.7242229
21
5.1289948
0
LINE
8
DEFAULT_255_2_778
10
8.7242229
20
5.1289948
11
8.7273229
21
5.1617948
0
LINE
8
DEFAULT_255_2_778
10
8.7273229
20
5.1617948
11
8.7334229
21
5.2112948
0
LINE
8
DEFAULT_255_2_778
10
8.7334229
20
5.2112948
11
8.7416229
21
5.2604948
0
LINE
8
DEFAULT_255_2_778
10
8.7416229
20
5.2604948
11
8.7575229
21
5.3313948
0
LINE
8
DEFAULT_255_2_778
10
8.7575229
20
5.3313948
11
8.7774229
21
5.3967948
0
LINE
8
DEFAULT_255_2_778
10
8.7774229
20
5.3967948
11
8.8147229
21
5.4861948
0
LINE
8
DEFAULT_255_2_778
10
8.8147229
20
5.4861948
11
8.8596229
21
5.5589948
0
LINE
8
DEFAULT_255_2_778
10
8.8596229
20
5.5589948
11
8.9364229
21
5.6329948
0
LINE
8
DEFAULT_255_2_778
10
8.9364229
20
5.6329948
11
9.0409229
21
5.6748948
0
LINE
8
DEFAULT_255_2_778
10
9.0409229
20
5.6748948
11
9.0544229
21
5.6769948
0
LINE
8
DEFAULT_255_2_778
10
10.2577875
20
4.7832739
11
10.8184875
21
4.7832739
0
LINE
8
DEFAULT_255_2_778
10
10.8184875
20
4.7832739
11
10.5376875
21
5.6278739
0
LINE
8
DEFAULT_255_2_778
10
10.5376875
20
5.6278739
11
10.2577875
21
4.7832739
0
LINE
8
DEFAULT_255_2_778
10
10.4265875
20
5.8471739
11
10.6461875
21
5.8471739
0
LINE
8
DEFAULT_255_2_778
10
10.6461875
20
5.8471739
11
11.2459875
21
4.1472739
0
LINE
8
DEFAULT_255_2_778
10
11.2459875
20
4.1472739
11
11.0284875
21
4.1472739
0
LINE
8
DEFAULT_255_2_778
10
11.0284875
20
4.1472739
11
10.8813875
21
4.5906739
0
LINE
8
DEFAULT_255_2_778
10
10.8813875
20
4.5906739
11
10.1934875
21
4.5906739
0
LINE
8
DEFAULT_255_2_778
10
10.1934875
20
4.5906739
11
10.0484875
21
4.1472739
0
LINE
8
DEFAULT_255_2_778
10
10.0484875
20
4.1472739
11
9.8267875
21
4.1472739
0
LINE
8
DEFAULT_255_2_778
10
9.8267875
20
4.1472739
11
10.4265875
21
5.8471739
0
LINE
8
DEFAULT_255_2_778
10
11.8235875
20
4.7832739
11
12.3842875
21
4.7832739
0
LINE
8
DEFAULT_255_2_778
10
12.3842875
20
4.7832739
11
12.1034875
21
5.6278739
0
LINE
8
DEFAULT_255_2_778
10
12.1034875
20
5.6278739
11
11.8235875
21
4.7832739
0
LINE
8
DEFAULT_255_2_778
10
11.9923875
20
5.8471739
11
12.2119875
21
5.8471739
0
LINE
8
DEFAULT_255_2_778
10
12.2119875
20
5.8471739
11
12.8117875
21
4.1472739
0
LINE
8
DEFAULT_255_2_778
10
12.8117875
20
4.1472739
11
12.5942875
21
4.1472739
0
LINE
8
DEFAULT_255_2_778
10
12.5942875
20
4.1472739
11
12.4471875
21
4.5906739
0
LINE
8
DEFAULT_255_2_778
10
12.4471875
20
4.5906739
11
11.7592875
21
4.5906739
0
LINE
8
DEFAULT_255_2_778
10
11.7592875
20
4.5906739
11
11.6142875
21
4.1472739
0
LINE
8
DEFAULT_255_2_778
10
11.6142875
20
4.1472739
11
11.3925875
21
4.1472739
0
LINE
8
DEFAULT_255_2_778
10
11.3925875
20
4.1472739
11
11.9923875
21
5.8471739
0
LINE
8
DEFAULT_255_2_778
10
13.5142229
20
5.8705948
11
13.3988229
21
5.8473948
0
LINE
8
DEFAULT_255_2_778
10
13.3988229
20
5.8473948
11
13.2957229
21
5.7946948
0
LINE
8
DEFAULT_255_2_778
10
13.2957229
20
5.7946948
11
13.2203229
21
5.7300948
0
LINE
8
DEFAULT_255_2_778
10
13.2203229
20
5.7300948
11
13.1528229
21
5.6441948
0
LINE
8
DEFAULT_255_2_778
10
13.1528229
20
5.6441948
11
13.1155229
21
5.5803948
0
LINE
8
DEFAULT_255_2_778
10
13.1155229
20
5.5803948
11
13.0777229
21
5.4993948
0
LINE
8
DEFAULT_255_2_778
10
13.0777229
20
5.4993948
11
13.0475229
21
5.4152948
0
LINE
8
DEFAULT_255_2_778
10
13.0475229
20
5.4152948
11
13.0295229
21
5.3506948
0
LINE
8
DEFAULT_255_2_778
10
13.0295229
20
5.3506948
11
13.0152229
21
5.2853948
0
LINE
8
DEFAULT_255_2_778
10
13.0152229
20
5.2853948
11
13.0044229
21
5.2191948
0
LINE
8
DEFAULT_255_2_778
10
13.0044229
20
5.2191948
11
12.9999229
21
5.1826948
0
LINE
8
DEFAULT_255_2_778
10
12.9999229
20
5.1826948
11
12.9962229
21
5.1461948
0
LINE
8
DEFAULT_255_2_778
10
12.9962229
20
5.1461948
11
12.9959229
21
4.8503948
0
LINE
8
DEFAULT_255_2_778
10
12.9959229
20
4.8503948
11
12.9996229
21
4.8133948
0
LINE
8
DEFAULT_255_2_778
10
12.9996229
20
4.8133948
11
13.0041229
21
4.7762948
0
LINE
8
DEFAULT_255_2_778
10
13.0041229
20
4.7762948
11
13.0147229
21
4.7090948
0
LINE
8
DEFAULT_255_2_778
10
13.0147229
20
4.7090948
11
13.0287229
21
4.6426948
0
LINE
8
DEFAULT_255_2_778
10
13.0287229
20
4.6426948
11
13.0464229
21
4.5770948
0
LINE
8
DEFAULT_255_2_778
10
13.0464229
20
4.5770948
11
13.0726229
21
4.5005948
0
LINE
8
DEFAULT_255_2_778
10
13.0726229
20
4.5005948
11
13.1049229
21
4.4262948
0
LINE
8
DEFAULT_255_2_778
10
13.1049229
20
4.4262948
11
13.1504229
21
4.3436948
0
LINE
8
DEFAULT_255_2_778
10
13.1504229
20
4.3436948
11
13.2033229
21
4.2714948
0
LINE
8
DEFAULT_255_2_778
10
13.2033229
20
4.2714948
11
13.2779229
21
4.1997948
0
LINE
8
DEFAULT_255_2_778
10
13.2779229
20
4.1997948
11
13.3790229
21
4.1404948
0
LINE
8
DEFAULT_255_2_778
10
13.3790229
20
4.1404948
11
13.5134229
21
4.1092948
0
LINE
8
DEFAULT_255_2_778
10
13.5134229
20
4.1092948
11
13.6521229
21
4.1174948
0
LINE
8
DEFAULT_255_2_778
10
13.6521229
20
4.1174948
11
13.7632229
21
4.1568948
0
LINE
8
DEFAULT_255_2_778
10
13.7632229
20
4.1568948
11
13.8590229
21
4.2248948
0
LINE
8
DEFAULT_255_2_778
10
13.8590229
20
4.2248948
11
13.9309229
21
4.3063948
0
LINE
8
DEFAULT_255_2_778
10
13.9309229
20
4.3063948
11
13.9891229
21
4.4016948
0
LINE
8
DEFAULT_255_2_778
10
13.9891229
20
4.4016948
11
14.0235229
21
4.4754948
0
LINE
8
DEFAULT_255_2_778
10
14.0235229
20
4.4754948
11
14.0519229
21
4.5516948
0
LINE
8
DEFAULT_255_2_778
10
14.0519229
20
4.5516948
11
14.0693229
21
4.6101948
0
LINE
8
DEFAULT_255_2_778
10
14.0693229
20
4.6101948
11
14.0852229
21
4.6762948
0
LINE
8
DEFAULT_255_2_778
10
14.0852229
20
4.6762948
11
14.0976229
21
4.7432948
0
LINE
8
DEFAULT_255_2_778
10
14.0976229
20
4.7432948
11
14.1027229
21
4.7768948
0
LINE
8
DEFAULT_255_2_778
10
14.1027229
20
4.7768948
11
14.1071229
21
4.8138948
0
LINE
8
DEFAULT_255_2_778
10
14.1071229
20
4.8138948
11
14.1109229
21
4.8508948
0
LINE
8
DEFAULT_255_2_778
10
14.1109229
20
4.8508948
11
14.1106229
21
5.1461948
0
LINE
8
DEFAULT_255_2_778
10
14.1106229
20
5.1461948
11
14.1069229
21
5.1826948
0
LINE
8
DEFAULT_255_2_778
10
14.1069229
20
5.1826948
11
14.1024229
21
5.2191948
0
LINE
8
DEFAULT_255_2_778
10
14.1024229
20
5.2191948
11
14.0915229
21
5.2853948
0
LINE
8
DEFAULT_255_2_778
10
14.0915229
20
5.2853948
11
14.0773229
21
5.3506948
0
LINE
8
DEFAULT_255_2_778
10
14.0773229
20
5.3506948
11
14.0593229
21
5.4152948
0
LINE
8
DEFAULT_255_2_778
10
14.0593229
20
5.4152948
11
14.0325229
21
5.4906948
0
LINE
8
DEFAULT_255_2_778
10
14.0325229
20
5.4906948
11
13.9997229
21
5.5636948
0
LINE
8
DEFAULT_255_2_778
10
13.9997229
20
5.5636948
11
13.9418229
21
5.6621948
0
LINE
8
DEFAULT_255_2_778
10
13.9418229
20
5.6621948
11
13.8868229
21
5.7298948
0
LINE
8
DEFAULT_255_2_778
10
13.8868229
20
5.7298948
11
13.7955229
21
5.8049948
0
LINE
8
DEFAULT_255_2_778
10
13.7955229
20
5.8049948
11
13.6896229
21
5.8528948
0
LINE
8
DEFAULT_255_2_778
10
13.6896229
20
5.8528948
11
13.5534229
21
5.8716948
0
LINE
8
DEFAULT_255_2_778
10
13.5534229
20
5.8716948
11
13.5142229
21
5.8705948
0
LINE
8
DEFAULT_255_2_778
10
13.5161229
20
5.6769948
11
13.6404229
21
5.6663948
0
LINE
8
DEFAULT_255_2_778
10
13.6404229
20
5.6663948
11
13.7288229
21
5.6179948
0
LINE
8
DEFAULT_255_2_778
10
13.7288229
20
5.6179948
11
13.7849229
21
5.5591948
0
LINE
8
DEFAULT_255_2_778
10
13.7849229
20
5.5591948
11
13.8299229
21
5.4864948
0
LINE
8
DEFAULT_255_2_778
10
13.8299229
20
5.4864948
11
13.8611229
21
5.4136948
0
LINE
8
DEFAULT_255_2_778
10
13.8611229
20
5.4136948
11
13.8870229
21
5.3308948
0
LINE
8
DEFAULT_255_2_778
10
13.8870229
20
5.3308948
11
13.9026229
21
5.2609948
0
LINE
8
DEFAULT_255_2_778
10
13.9026229
20
5.2609948
11
13.9108229
21
5.2117948
0
LINE
8
DEFAULT_255_2_778
10
13.9108229
20
5.2117948
11
13.9169229
21
5.1623948
0
LINE
8
DEFAULT_255_2_778
10
13.9169229
20
5.1623948
11
13.9201229
21
5.1294948
0
LINE
8
DEFAULT_255_2_778
10
13.9201229
20
5.1294948
11
13.9201229
21
4.8638948
0
LINE
8
DEFAULT_255_2_778
10
13.9201229
20
4.8638948
11
13.9169229
21
4.8305948
0
LINE
8
DEFAULT_255_2_778
10
13.9169229
20
4.8305948
11
13.9108229
21
4.7802948
0
LINE
8
DEFAULT_255_2_778
10
13.9108229
20
4.7802948
11
13.9026229
21
4.7302948
0
LINE
8
DEFAULT_255_2_778
10
13.9026229
20
4.7302948
11
13.8870229
21
4.6582948
0
LINE
8
DEFAULT_255_2_778
10
13.8870229
20
4.6582948
11
13.8674229
21
4.5918948
0
LINE
8
DEFAULT_255_2_778
10
13.8674229
20
4.5918948
11
13.8304229
21
4.5003948
0
LINE
8
DEFAULT_255_2_778
10
13.8304229
20
4.5003948
11
13.7854229
21
4.4251948
0
LINE
8
DEFAULT_255_2_778
10
13.7854229
20
4.4251948
11
13.7190229
21
4.3563948
0
LINE
8
DEFAULT_255_2_778
10
13.7190229
20
4.3563948
11
13.6283229
21
4.3111948
0
LINE
8
DEFAULT_255_2_778
10
13.6283229
20
4.3111948
11
13.5028229
21
4.3055948
0
LINE
8
DEFAULT_255_2_778
10
13.5028229
20
4.3055948
11
13.4086229
21
4.3413948
0
LINE
8
DEFAULT_255_2_778
10
13.4086229
20
4.3413948
11
13.3317229
21
4.4108948
0
LINE
8
DEFAULT_255_2_778
10
13.3317229
20
4.4108948
11
13.2838229
21
4.4841948
0
LINE
8
DEFAULT_255_2_778
10
13.2838229
20
4.4841948
11
13.2547229
21
4.5479948
0
LINE
8
DEFAULT_255_2_778
10
13.2547229
20
4.5479948
11
13.2316229
21
4.6132948
0
LINE
8
DEFAULT_255_2_778
10
13.2316229
20
4.6132948
11
13.2137229
21
4.6802948
0
LINE
8
DEFAULT_255_2_778
10
13.2137229
20
4.6802948
11
13.2033229
21
4.7297948
0
LINE
8
DEFAULT_255_2_778
10
13.2033229
20
4.7297948
11
13.1951229
21
4.7797948
0
LINE
8
DEFAULT_255_2_778
10
13.1951229
20
4.7797948
11
13.1890229
21
4.8299948
0
LINE
8
DEFAULT_255_2_778
10
13.1890229
20
4.8299948
11
13.1859229
21
4.8633948
0
LINE
8
DEFAULT_255_2_778
10
13.1859229
20
4.8633948
11
13.1859229
21
5.1289948
0
LINE
8
DEFAULT_255_2_778
10
13.1859229
20
5.1289948
11
13.1890229
21
5.1617948
0
LINE
8
DEFAULT_255_2_778
10
13.1890229
20
5.1617948
11
13.1951229
21
5.2112948
0
LINE
8
DEFAULT_255_2_778
10
13.1951229
20
5.2112948
11
13.2033229
21
5.2604948
0
LINE
8
DEFAULT_255_2_778
10
13.2033229
20
5.2604948
11
13.2192229
21
5.3313948
0
LINE
8
DEFAULT_255_2_778
10
13.2192229
20
5.3313948
11
13.2390229
21
5.3967948
0
LINE
8
DEFAULT_255_2_778
10
13.2390229
20
5.3967948
11
13.2764229
21
5.4861948
0
LINE
8
DEFAULT_255_2_778
10
13.2764229
20
5.4861948
11
13.3213229
21
5.5589948
0
LINE
8
DEFAULT_255_2_778
10
13.3213229
20
5.5589948
11
13.3981229
21
5.6329948
0
LINE
8
DEFAULT_255_2_778
10
13.3981229
20
5.6329948
11
13.5026229
21
5.6748948
0
LINE
8
DEFAULT_255_2_778
10
13.5026229
20
5.6748948
11
13.5161229
21
5.6769948
0
ENDSEC
0
EOF