0
SECTION
2
HEADER
9
$MEASUREMENT
70
1
0
ENDSEC
0
SECTION
2
TABLES
0
TABLE
2
LTYPE
0
LTYPE
72
65
70
64
2
CONTINUOUS
3
______
73
0
40
0
0
ENDTAB
0
TABLE
2
LAYER
0
LAYER
2
DEFAULT_255_2_778
70
0
62
255
6
CONTINUOUS
0
ENDTAB
0
ENDSEC
0
SECTION
2
ENTITIES
0
ARC
8
DEFAULT_255_2_778
10
29.9839823
20
84.9375773
40
0.3000674
50
2.9929354
51
89.9698199
0
ARC
8
DEFAULT_255_2_778
10
29.9391426
20
84.2519391
40
0.9857056
50
90.0001278
51
91.1588253
0
ARC
8
DEFAULT_255_2_778
10
29.9394878
20
84.2410874
40
0.9965619
50
91.166052
51
98.0437107
0
ARC
8
DEFAULT_255_2_778
10
27.6661375
20
83.9181097
40
1.0001686
50
98.0000333
51
155.9855914
0
ARC
8
DEFAULT_255_2_778
10
33.5804936
20
1.1984885
40
0.9999593
50
204.0077613
51
262.0066101
0
ARC
8
DEFAULT_255_2_778
10
36.1483765
20
0.834402
40
0.9968574
50
261.9593466
51
269.9864283
0
ARC
8
DEFAULT_255_2_778
10
36.1844764
20
0.1374077
40
0.2998631
50
269.9931113
51
357.044104
0
LINE
8
DEFAULT_255_2_778
10
52.3782404
20
44.2375446
11
52.3789946
21
44.237545
0
ARC
8
DEFAULT_255_2_778
10
52.3790082
20
43.3386567
40
0.8988883
50
44.9799823
51
90.0008724
0
ARC
8
DEFAULT_255_2_778
10
52.3786123
20
43.3378651
40
0.8997281
50
359.9972641
51
44.997815
0
LINE
8
DEFAULT_255_2_778
10
53.2783404
20
43.3378221
11
53.2783404
21
43.3374446
0
LINE
8
DEFAULT_255_2_778
10
53.2783404
20
41.7375446
11
53.2783404
21
41.7371672
0
ARC
8
DEFAULT_255_2_778
10
52.378206
20
41.7371926
40
0.9001344
50
315.0128921
51
359.9983851
0
ARC
8
DEFAULT_255_2_778
10
52.3786608
20
41.7370727
40
0.8997281
50
269.9972641
51
314.997815
0
LINE
8
DEFAULT_255_2_778
10
52.3786178
20
40.8373446
11
52.3782404
21
40.8373446
0
ARC
8
DEFAULT_255_2_778
10
55.8780309
20
2.2376541
40
0.3001094
50
270.0208901
51
359.9791099
0
ARC
8
DEFAULT_255_2_778
10
5.6782373
20
1.0377416
40
0.5000969
50
179.9996485
51
270.0003515
0
LINE
8
DEFAULT_255_2_778
10
5.1781404
20
76.5376446
11
0.5780404
21
76.5376446
0
LINE
8
DEFAULT_255_2_778
10
0.5780404
20
76.5376446
11
0.1780404
21
76.1375446
0
LINE
8
DEFAULT_255_2_778
10
0.1780404
20
76.1375446
11
0.1780404
21
54.3576446
0
LINE
8
DEFAULT_255_2_778
10
0.1780404
20
54.3576446
11
0.5780404
21
53.9575446
0
LINE
8
DEFAULT_255_2_778
10
0.5780404
20
53.9575446
11
5.1781404
21
53.9575446
0
LINE
8
DEFAULT_255_2_778
10
23.0780404
20
81.2376446
11
22.9729404
21
82.4375446
0
LINE
8
DEFAULT_255_2_778
10
22.9729404
20
82.4375446
11
22.4728404
21
82.4375446
0
LINE
8
DEFAULT_255_2_778
10
22.4728404
20
82.4375446
11
21.0428404
21
81.2376446
0
LINE
8
DEFAULT_255_2_778
10
30.3789404
20
83.1376446
11
30.2836404
21
84.9532446
0
LINE
8
DEFAULT_255_2_778
10
29.9841404
20
85.2376446
11
29.9391404
21
85.2376446
0
LINE
8
DEFAULT_255_2_778
10
29.8000404
20
85.2278446
11
27.5269404
21
84.9085446
0
LINE
8
DEFAULT_255_2_778
10
26.7525404
20
84.3251446
11
26.2238404
21
83.1379446
0
LINE
8
DEFAULT_255_2_778
10
32.1569404
20
1.9375446
11
32.6670404
21
0.7916446
0
LINE
8
DEFAULT_255_2_778
10
33.4414404
20
0.2082446
11
36.0089404
21
-0.1526554
0
LINE
8
DEFAULT_255_2_778
10
36.1481404
20
-0.1624554
11
36.1844404
21
-0.1624554
0
LINE
8
DEFAULT_255_2_778
10
36.4839404
20
0.1219446
11
36.5791404
21
1.9375446
0
LINE
8
DEFAULT_255_2_778
10
53.2783404
20
43.3374446
11
53.2783404
21
41.7375446
0
LINE
8
DEFAULT_255_2_778
10
52.3782404
20
40.8373446
11
51.4781404
21
40.8373446
0
LINE
8
DEFAULT_255_2_778
10
51.4781404
20
40.8373446
11
51.4781404
21
44.2372446
0
LINE
8
DEFAULT_255_2_778
10
51.4781404
20
44.2372446
11
52.3782404
21
44.2372446
0
LINE
8
DEFAULT_255_2_778
10
56.1781404
20
83.1352446
11
56.1781404
21
2.2375446
0
LINE
8
DEFAULT_255_2_778
10
55.8781404
20
1.9375446
11
25.1782404
21
1.9375446
0
LINE
8
DEFAULT_255_2_778
10
25.1782404
20
1.9375446
11
25.1782404
21
0.5376446
0
LINE
8
DEFAULT_255_2_778
10
25.1782404
20
0.5376446
11
5.6782404
21
0.5376446
0
LINE
8
DEFAULT_255_2_778
10
5.1781404
20
1.0377446
11
5.1781404
21
81.1990446
0
LINE
8
DEFAULT_255_2_778
10
5.1781404
20
81.1990446
11
5.1892404
21
81.2204446
0
LINE
8
DEFAULT_255_2_778
10
5.1892404
20
81.2204446
11
5.2006404
21
81.2334446
0
LINE
8
DEFAULT_255_2_778
10
5.2006404
20
81.2334446
11
5.2122404
21
81.2376446
0
ARC
8
DEFAULT_255_2_778
10
23.1808333
20
78.3399683
40
2.1941333
50
279.9553354
51
305.8856078
0
ARC
8
DEFAULT_255_2_778
10
23.1772742
20
78.3458392
40
2.2009764
50
305.8710865
51
352.1202372
0
ARC
8
DEFAULT_255_2_778
10
23.1666886
20
78.3451421
40
2.2113675
50
352.1757292
51
0.0111486
0
LINE
8
DEFAULT_255_2_778
10
5.178156
20
72.9376724
11
23.560156
21
76.1788724
0
LINE
8
DEFAULT_255_2_778
10
25.378056
20
78.3455724
11
25.378056
21
83.1376724
0
LINE
8
DEFAULT_255_2_778
10
25.378056
20
83.1376724
11
56.175856
21
83.1376724
0
LINE
8
DEFAULT_255_2_778
10
5.178156
20
49.1259724
11
0.578156
21
49.1259724
0
LINE
8
DEFAULT_255_2_778
10
5.178156
20
45.1493724
11
0.578156
21
45.1493724
0
LINE
8
DEFAULT_255_2_778
10
5.1781378
20
42.3379172
11
0.5781378
21
42.3379172
0
LINE
8
DEFAULT_255_2_778
10
0.5781378
20
42.3379172
11
0.5781378
21
51.9377172
0
LINE
8
DEFAULT_255_2_778
10
0.5781378
20
51.9377172
11
5.1781378
21
51.9377172
0
LINE
8
DEFAULT_255_2_778
10
5.1781378
20
81.2377172
11
25.3780378
21
81.2377172
0
LINE
8
DEFAULT_255_2_778
10
5.1781378
20
79.9378172
11
25.3780378
21
79.9378172
0
LINE
8
DEFAULT_255_2_778
10
25.3780378
20
78.3376172
11
5.1781378
21
78.3376172
0
ENDSEC
0
EOF