0
SECTION
2
HEADER
9
$MEASUREMENT
70
1
0
ENDSEC
0
SECTION
2
TABLES
0
TABLE
2
LTYPE
0
LTYPE
72
65
70
64
2
CONTINUOUS
3
______
73
0
40
0
0
ENDTAB
0
TABLE
2
LAYER
0
LAYER
2
DEFAULT_255_2_778
70
0
62
255
6
CONTINUOUS
0
LAYER
2
DEFAULT_255_1_388
70
0
62
255
6
CONTINUOUS
0
ENDTAB
0
ENDSEC
0
SECTION
2
ENTITIES
0
ARC
8
DEFAULT_255_2_778
10
3.5695693
20
91.6802028
40
0.7914215
50
129.1312896
51
180.1450914
0
ARC
8
DEFAULT_255_2_778
10
3.5698345
20
91.6806899
40
0.7912112
50
89.854026
51
129.1684493
0
ARC
8
DEFAULT_255_2_778
10
25.7988937
20
91.6803765
40
0.7915249
50
39.4792447
51
90.147911
0
ARC
8
DEFAULT_255_2_778
10
25.7994935
20
91.6802231
40
0.7911595
50
359.8533901
51
39.5154338
0
ARC
8
DEFAULT_255_2_778
10
25.7991693
20
-1.9863495
40
0.7914836
50
309.4761667
51
0.1482649
0
ARC
8
DEFAULT_255_2_778
10
25.798898
20
-1.9867805
40
0.7913235
50
269.8517415
51
309.511178
0
ARC
8
DEFAULT_255_2_778
10
3.569842
20
-1.9867224
40
0.7913815
50
219.1282118
51
270.1454017
0
ARC
8
DEFAULT_255_2_778
10
3.5695247
20
-1.9863399
40
0.7913769
50
179.8524075
51
219.1641908
0
LINE
8
DEFAULT_255_2_778
10
3.5718503
20
92.4718987
11
25.7968503
21
92.4718987
0
LINE
8
DEFAULT_255_2_778
10
26.5906503
20
91.6781987
11
26.5906503
21
-1.9843013
0
LINE
8
DEFAULT_255_2_778
10
25.7968503
20
-2.7781013
11
3.5718503
21
-2.7781013
0
LINE
8
DEFAULT_255_2_778
10
2.7781503
20
-1.9843013
11
2.7781503
21
91.6781987
0
LINE
8
DEFAULT_255_1_388
10
5.6923015
20
0.6766934
11
5.7221191
21
0.6766934
0
LINE
8
DEFAULT_255_1_388
10
5.7221191
20
0.6766934
11
5.7221191
21
0.5348338
0
LINE
8
DEFAULT_255_1_388
10
5.7221191
20
0.5348338
11
5.6913979
21
0.5348338
0
LINE
8
DEFAULT_255_1_388
10
5.0760705
20
-0.1392253
11
5.0760705
21
-0.0750722
0
LINE
8
DEFAULT_255_1_388
10
5.2441335
20
-0.0967578
11
5.2441335
21
-0.1582001
0
ARC
8
DEFAULT_255_1_388
10
5.6972871
20
-0.0274174
40
0.562282
50
90.6001079
51
104.5146616
0
ARC
8
DEFAULT_255_1_388
10
5.653583
20
0.13511
40
0.3939917
50
104.2855758
51
133.8630124
0
ARC
8
DEFAULT_255_1_388
10
5.6720083
20
0.1229243
40
0.4155734
50
134.5304124
51
161.6210222
0
ARC
8
DEFAULT_255_1_388
10
5.8580015
20
0.0573421
40
0.6127682
50
161.2850533
51
174.2074364
0
ARC
8
DEFAULT_255_1_388
10
6.0169582
20
0.0354437
40
0.7731446
50
173.7817938
51
174.9251711
0
ARC
8
DEFAULT_255_1_388
10
5.5043775
20
-0.120073
40
0.3412588
50
95.8332067
51
138.995412
0
ARC
8
DEFAULT_255_1_388
10
5.5295056
20
-0.2639305
40
0.4870358
50
89.8755506
51
97.0540979
0
ARC
8
DEFAULT_255_1_388
10
5.5348445
20
-0.1699159
40
0.3930432
50
71.6407016
51
90.6240821
0
ARC
8
DEFAULT_255_1_388
10
5.5517838
20
-0.1075567
40
0.3285421
50
39.6368051
51
71.0190743
0
ARC
8
DEFAULT_255_1_388
10
5.4801746
20
-0.1694414
40
0.4231706
50
10.6588054
51
39.9044509
0
ARC
8
DEFAULT_255_1_388
10
5.3060291
20
-0.2072777
40
0.60133
50
359.6827842
51
11.1326896
0
ARC
8
DEFAULT_255_1_388
10
5.3015627
20
-0.2152285
40
0.6058047
50
347.2485908
51
0.4371098
0
ARC
8
DEFAULT_255_1_388
10
5.4891413
20
-0.2603621
40
0.4128987
50
318.1408565
51
347.6118497
0
ARC
8
DEFAULT_255_1_388
10
5.5257009
20
-0.2904097
40
0.3656244
50
275.6342406
51
317.824739
0
ARC
8
DEFAULT_255_1_388
10
5.500853
20
-0.1442173
40
0.513655
50
269.8872513
51
276.7916069
0
ARC
8
DEFAULT_255_1_388
10
5.4946723
20
-0.2595819
40
0.398323
50
246.9139443
51
270.7436787
0
ARC
8
DEFAULT_255_1_388
10
5.4953919
20
-0.2755956
40
0.3839368
50
218.1665534
51
245.8780431
0
ARC
8
DEFAULT_255_1_388
10
5.5943291
20
-0.1928097
40
0.5128958
50
191.4115343
51
218.6077624
0
ARC
8
DEFAULT_255_1_388
10
5.8123607
20
-0.1439223
40
0.7363054
50
179.6344971
51
191.7836758
0
ARC
8
DEFAULT_255_1_388
10
6.4403482
20
-0.0675505
40
1.3642984
50
171.4523743
51
180.3158856
0
ARC
8
DEFAULT_255_1_388
10
5.9459209
20
0.0093895
40
0.8639311
50
157.9802296
51
171.6246761
0
ARC
8
DEFAULT_255_1_388
10
5.6968559
20
0.1087038
40
0.5958004
50
141.4299236
51
157.8541251
0
ARC
8
DEFAULT_255_1_388
10
5.6246643
20
0.1597746
40
0.5075416
50
102.871586
51
140.8564533
0
ARC
8
DEFAULT_255_1_388
10
5.6975195
20
-0.1147057
40
0.7914163
50
90.377773
51
103.5868422
0
ARC
8
DEFAULT_255_1_388
10
5.5019717
20
-0.1827457
40
0.2667015
50
89.8751238
51
126.2072139
0
ARC
8
DEFAULT_255_1_388
10
5.5071188
20
-0.2001153
40
0.2838229
50
124.9742447
51
144.8960197
0
ARC
8
DEFAULT_255_1_388
10
5.4873433
20
-0.1840019
40
0.2583845
50
145.2974778
51
160.2660922
0
ARC
8
DEFAULT_255_1_388
10
5.8329921
20
-0.1617849
40
0.5888695
50
179.6512124
51
190.285571
0
ARC
8
DEFAULT_255_1_388
10
5.6424401
20
-0.1977032
40
0.3949683
50
190.0944895
51
207.5099647
0
ARC
8
DEFAULT_255_1_388
10
5.5787982
20
-0.2279823
40
0.3245464
50
207.9585471
51
216.325377
0
ARC
8
DEFAULT_255_1_388
10
5.5405619
20
-0.2594288
40
0.2751259
50
215.7661336
51
232.5457193
0
ARC
8
DEFAULT_255_1_388
10
5.4974735
20
-0.3141727
40
0.2054668
50
232.8005815
51
270.6605497
0
ARC
8
DEFAULT_255_1_388
10
5.502616
20
-0.2732147
40
0.2464268
50
269.3550767
51
288.474612
0
ARC
8
DEFAULT_255_1_388
10
5.5130667
20
-0.3125279
40
0.2058436
50
289.1831976
51
322.9685307
0
ARC
8
DEFAULT_255_1_388
10
5.4442768
20
-0.2582721
40
0.2934408
50
322.6007085
51
346.5183319
0
ARC
8
DEFAULT_255_1_388
10
5.3140524
20
-0.2250566
40
0.4278249
50
346.2584622
51
358.7739592
0
ARC
8
DEFAULT_255_1_388
10
5.19891
20
-0.2188171
40
0.5430876
50
358.3757628
51
0.0082477
0
ARC
8
DEFAULT_255_1_388
10
5.2845918
20
-0.2157144
40
0.4574157
50
359.6211417
51
11.28403
0
ARC
8
DEFAULT_255_1_388
10
5.4282524
20
-0.1857465
40
0.3106708
50
11.0483152
51
31.8145585
0
ARC
8
DEFAULT_255_1_388
10
5.4630229
20
-0.1668955
40
0.2711963
50
32.3028554
51
38.0820598
0
ARC
8
DEFAULT_255_1_388
10
5.5103462
20
-0.1240283
40
0.2075566
50
36.8249851
51
85.741667
0
ARC
8
DEFAULT_255_1_388
10
5.5027875
20
-0.1803935
40
0.2643487
50
85.0150021
51
90.050843
0
LINE
8
DEFAULT_255_1_388
10
6.8922351
20
0.1101585
11
6.8922351
21
-0.0317011
0
LINE
8
DEFAULT_255_1_388
10
6.8922351
20
-0.0317011
11
6.3220859
21
-0.0317011
0
LINE
8
DEFAULT_255_1_388
10
6.3220859
20
-0.0317011
11
6.3220859
21
-0.4979404
0
LINE
8
DEFAULT_255_1_388
10
6.3220859
20
-0.4979404
11
6.9843986
21
-0.4979404
0
LINE
8
DEFAULT_255_1_388
10
6.9843986
20
-0.4979404
11
6.9843986
21
-0.6398
0
LINE
8
DEFAULT_255_1_388
10
6.9843986
20
-0.6398
11
6.1486015
21
-0.6398
0
LINE
8
DEFAULT_255_1_388
10
6.1486015
20
-0.6398
11
6.1486015
21
0.6757898
0
LINE
8
DEFAULT_255_1_388
10
6.1486015
20
0.6757898
11
6.975363
21
0.6757898
0
LINE
8
DEFAULT_255_1_388
10
6.975363
20
0.6757898
11
6.975363
21
0.5330267
0
LINE
8
DEFAULT_255_1_388
10
6.975363
20
0.5330267
11
6.3220859
21
0.5330267
0
LINE
8
DEFAULT_255_1_388
10
6.3220859
20
0.5330267
11
6.3220859
21
0.1101585
0
LINE
8
DEFAULT_255_1_388
10
6.3220859
20
0.1101585
11
6.8922351
21
0.1101585
0
LINE
8
DEFAULT_255_1_388
10
8.0731938
20
0.2953892
11
7.8988059
21
0.2953892
0
LINE
8
DEFAULT_255_1_388
10
7.1199333
20
-0.2584958
11
7.2943212
21
-0.2584958
0
ARC
8
DEFAULT_255_1_388
10
7.9728786
20
1.3017821
40
1.4087688
50
248.9196578
51
254.1442424
0
ARC
8
DEFAULT_255_1_388
10
7.7838666
20
0.8151805
40
0.8867498
50
241.6337352
51
249.0064643
0
ARC
8
DEFAULT_255_1_388
10
7.6118979
20
0.5000764
40
0.5277799
50
230.4982261
51
241.8087583
0
ARC
8
DEFAULT_255_1_388
10
7.523675
20
0.3876686
40
0.3849419
50
227.4062979
51
229.9877433
0
ARC
8
DEFAULT_255_1_388
10
7.4688097
20
0.3341155
40
0.3084129
50
200.6782127
51
228.1765252
0
ARC
8
DEFAULT_255_1_388
10
7.4769466
20
0.3324277
40
0.315461
50
179.506278
51
199.8695278
0
ARC
8
DEFAULT_255_1_388
10
7.4759054
20
0.3407671
40
0.3144584
50
132.4834401
51
181.0242352
0
ARC
8
DEFAULT_255_1_388
10
7.5428259
20
0.2775788
40
0.4063094
50
129.2526113
51
133.4249077
0
ARC
8
DEFAULT_255_1_388
10
7.5593851
20
0.2527619
40
0.436014
50
101.9878945
51
128.8741833
0
ARC
8
DEFAULT_255_1_388
10
7.6042267
20
0.059136
40
0.6347415
50
89.5906376
51
102.3170567
0
ARC
8
DEFAULT_255_1_388
10
7.6121578
20
0.0949586
40
0.5989122
50
77.2359491
51
90.3248968
0
ARC
8
DEFAULT_255_1_388
10
7.6354509
20
0.2037554
40
0.4876594
50
63.8379856
51
77.0808925
0
ARC
8
DEFAULT_255_1_388
10
7.6667043
20
0.2619882
40
0.4216191
50
45.9863127
51
64.1608798
0
ARC
8
DEFAULT_255_1_388
10
7.6960436
20
0.295499
40
0.3771394
50
32.2747934
51
45.6544796
0
ARC
8
DEFAULT_255_1_388
10
7.7035243
20
0.2976426
40
0.3696765
50
359.6507495
51
32.6129943
0
ARC
8
DEFAULT_255_1_388
10
7.5974425
20
0.2981788
40
0.3013762
50
359.469654
51
14.983205
0
ARC
8
DEFAULT_255_1_388
10
7.6767678
20
0.3194288
40
0.2192542
50
14.9781954
51
48.2004799
0
ARC
8
DEFAULT_255_1_388
10
7.6582788
20
0.2961937
40
0.2489048
50
48.5926661
51
74.1242559
0
ARC
8
DEFAULT_255_1_388
10
7.6207591
20
0.1723607
40
0.3782845
50
73.7889321
51
86.6653996
0
ARC
8
DEFAULT_255_1_388
10
7.6092405
20
0.0365955
40
0.5145025
50
86.2642725
51
90.0533288
0
ARC
8
DEFAULT_255_1_388
10
7.6060498
20
0.0810376
40
0.4700681
50
89.669455
51
99.2313411
0
ARC
8
DEFAULT_255_1_388
10
7.5787658
20
0.2435401
40
0.3052945
50
99.0695987
51
113.7659242
0
ARC
8
DEFAULT_255_1_388
10
7.5479652
20
0.3161772
40
0.226407
50
114.0402885
51
127.9848946
0
ARC
8
DEFAULT_255_1_388
10
7.5209129
20
0.3494884
40
0.1835045
50
127.7287217
51
176.7106493
0
ARC
8
DEFAULT_255_1_388
10
7.5972794
20
0.338121
40
0.2604907
50
175.1780759
51
180.0581213
0
ARC
8
DEFAULT_255_1_388
10
7.5024137
20
0.3367411
40
0.1656287
50
179.6140658
51
228.124674
0
ARC
8
DEFAULT_255_1_388
10
7.5521495
20
0.382794
40
0.2332038
50
226.5785315
51
230.8792476
0
ARC
8
DEFAULT_255_1_388
10
7.6050981
20
0.4530908
40
0.3211664
50
231.4636401
51
241.9261664
0
ARC
8
DEFAULT_255_1_388
10
7.7397765
20
0.7009349
40
0.6032345
50
241.7177136
51
248.3259138
0
ARC
8
DEFAULT_255_1_388
10
7.8956359
20
1.0870771
40
1.0196417
50
248.2007377
51
252.4527713
0
ARC
8
DEFAULT_255_1_388
10
8.0309886
20
1.5055092
40
1.4594143
50
252.3388938
51
254.347037
0
ARC
8
DEFAULT_255_1_388
10
7.1825187
20
-1.5292905
40
1.6917621
50
71.0197462
51
74.4085467
0
ARC
8
DEFAULT_255_1_388
10
7.3732275
20
-0.9787856
40
1.1091618
50
66.1845203
51
71.086519
0
ARC
8
DEFAULT_255_1_388
10
7.5482823
20
-0.5846561
40
0.6779073
50
59.3537334
51
66.269255
0
ARC
8
DEFAULT_255_1_388
10
7.6482549
20
-0.4155223
40
0.4814366
50
49.1021732
51
59.3294421
0
ARC
8
DEFAULT_255_1_388
10
7.7403538
20
-0.3105425
40
0.3417875
50
32.7924183
51
49.2503526
0
ARC
8
DEFAULT_255_1_388
10
7.7753152
20
-0.2855689
40
0.2988789
50
31.121225
51
32.3977355
0
ARC
8
DEFAULT_255_1_388
10
7.766533
20
-0.2888272
40
0.3080861
50
8.1116803
51
30.7958224
0
ARC
8
DEFAULT_255_1_388
10
7.6753675
20
-0.3043563
40
0.4005385
50
359.8390945
51
8.4707348
0
ARC
8
DEFAULT_255_1_388
10
7.7457723
20
-0.3098249
40
0.3301608
50
337.4732479
51
0.7538283
0
ARC
8
DEFAULT_255_1_388
10
7.7658748
20
-0.3120446
40
0.3107929
50
307.5917028
51
336.4313755
0
ARC
8
DEFAULT_255_1_388
10
7.7147806
20
-0.2552491
40
0.3870096
50
307.6560665
51
308.4561779
0
ARC
8
DEFAULT_255_1_388
10
7.6882022
20
-0.2144168
40
0.435591
50
284.3733666
51
307.1426212
0
ARC
8
DEFAULT_255_1_388
10
7.6324917
20
-0.0094609
40
0.6479685
50
272.4384566
51
284.6464689
0
ARC
8
DEFAULT_255_1_388
10
7.6182302
20
0.1929434
40
0.8508149
50
269.9708517
51
272.8180721
0
ARC
8
DEFAULT_255_1_388
10
7.6133984
20
-0.0362717
40
0.6216151
50
248.2707343
51
270.4054609
0
ARC
8
DEFAULT_255_1_388
10
7.6072856
20
-0.0577327
40
0.5994203
50
246.1380358
51
248.054058
0
ARC
8
DEFAULT_255_1_388
10
7.5601998
20
-0.1566295
40
0.4899388
50
233.1671897
51
246.4951656
0
ARC
8
DEFAULT_255_1_388
10
7.4978633
20
-0.2407863
40
0.3852115
50
215.3403381
51
233.084328
0
ARC
8
DEFAULT_255_1_388
10
7.4671997
20
-0.2630907
40
0.3472969
50
179.2419235
51
215.2648426
0
ARC
8
DEFAULT_255_1_388
10
7.5535548
20
-0.2615021
40
0.259251
50
179.3355796
51
199.1045873
0
ARC
8
DEFAULT_255_1_388
10
7.516169
20
-0.2712777
40
0.2207454
50
199.8830064
51
232.7061328
0
ARC
8
DEFAULT_255_1_388
10
7.5692965
20
-0.2044544
40
0.306101
50
232.3736206
51
255.5136621
0
ARC
8
DEFAULT_255_1_388
10
7.607647
20
-0.0644823
40
0.4512213
50
255.2447928
51
267.5318292
0
ARC
8
DEFAULT_255_1_388
10
7.6174937
20
0.0741709
40
0.5901825
50
267.1564563
51
270.0294721
0
ARC
8
DEFAULT_255_1_388
10
7.6206263
20
0.0242623
40
0.5402814
50
269.6999944
51
278.1662446
0
ARC
8
DEFAULT_255_1_388
10
7.649429
20
-0.1704026
40
0.3435003
50
278.0229022
51
290.6255326
0
ARC
8
DEFAULT_255_1_388
10
7.6885457
20
-0.2747453
40
0.2320666
50
290.6616368
51
307.0374127
0
ARC
8
DEFAULT_255_1_388
10
7.7223357
20
-0.316196
40
0.1786372
50
306.3942078
51
355.303191
0
ARC
8
DEFAULT_255_1_388
10
7.664765
20
-0.3075814
40
0.2367516
50
354.3662092
51
0.0709489
0
ARC
8
DEFAULT_255_1_388
10
7.6807518
20
-0.3050439
40
0.2207761
50
359.4175379
51
16.1975911
0
ARC
8
DEFAULT_255_1_388
10
7.7319636
20
-0.2910046
40
0.1676828
50
16.4721294
51
52.6261798
0
ARC
8
DEFAULT_255_1_388
10
7.6396144
20
-0.4129394
40
0.3206412
50
52.7381828
51
62.4979144
0
ARC
8
DEFAULT_255_1_388
10
7.4837896
20
-0.7061764
40
0.6527035
50
62.2517425
51
68.1219454
0
ARC
8
DEFAULT_255_1_388
10
7.2903384
20
-1.1816049
40
1.1659797
50
68.006043
51
71.8055127
0
ARC
8
DEFAULT_255_1_388
10
7.0883292
20
-1.7874277
40
1.8045908
50
71.718361
51
73.9260743
0
LINE
8
DEFAULT_255_1_388
10
9.1041608
20
0.6757898
11
9.1041608
21
0.5818191
0
LINE
8
DEFAULT_255_1_388
10
9.1041608
20
0.5818191
11
8.5593115
21
-0.6398
0
LINE
8
DEFAULT_255_1_388
10
8.5593115
20
-0.6398
11
8.38402
21
-0.6398
0
LINE
8
DEFAULT_255_1_388
10
8.38402
20
-0.6398
11
8.9270622
21
0.538448
0
LINE
8
DEFAULT_255_1_388
10
8.9270622
20
0.538448
11
8.2150534
21
0.538448
0
LINE
8
DEFAULT_255_1_388
10
8.2150534
20
0.538448
11
8.2150534
21
0.6757898
0
LINE
8
DEFAULT_255_1_388
10
8.2150534
20
0.6757898
11
9.1041608
21
0.6757898
0
LINE
8
DEFAULT_255_1_388
10
9.5044399
20
-0.0145334
11
9.3707124
21
0.0198021
0
LINE
8
DEFAULT_255_1_388
10
9.3707124
20
0.0198021
11
9.4375761
21
0.6757898
0
LINE
8
DEFAULT_255_1_388
10
9.4375761
20
0.6757898
11
10.1116352
21
0.6757898
0
LINE
8
DEFAULT_255_1_388
10
10.1116352
20
0.6757898
11
10.1116352
21
0.5212803
0
LINE
8
DEFAULT_255_1_388
10
10.1116352
20
0.5212803
11
9.5794357
21
0.5212803
0
LINE
8
DEFAULT_255_1_388
10
9.5794357
20
0.5212803
11
9.5396789
21
0.1625652
0
LINE
8
DEFAULT_255_1_388
10
9.323727
20
-0.2937348
11
9.4818508
21
-0.2937348
0
LINE
8
DEFAULT_255_1_388
10
9.5487146
20
0.0216092
11
9.5044399
21
-0.0145334
0
ARC
8
DEFAULT_255_1_388
10
9.7483403
20
-0.1951759
40
0.4141476
50
93.7181681
51
120.253934
0
ARC
8
DEFAULT_255_1_388
10
9.7589455
20
-0.2860716
40
0.5055616
50
89.9660471
51
94.2495185
0
ARC
8
DEFAULT_255_1_388
10
9.7635277
20
-0.2197846
40
0.4392953
50
73.8045384
51
90.5585736
0
ARC
8
DEFAULT_255_1_388
10
9.7899534
20
-0.123248
40
0.3392225
50
41.3071072
51
73.543002
0
ARC
8
DEFAULT_255_1_388
10
9.7431354
20
-0.1635539
40
0.4009977
50
13.5075837
51
41.2174839
0
ARC
8
DEFAULT_255_1_388
10
9.5584452
20
-0.2119093
40
0.5918864
50
1.1330171
51
13.8830737
0
ARC
8
DEFAULT_255_1_388
10
9.3988098
20
-0.2204478
40
0.7516787
50
359.9925091
51
1.5431298
0
ARC
8
DEFAULT_255_1_388
10
9.5432712
20
-0.2250973
40
0.6072343
50
347.8572712
51
0.4294349
0
ARC
8
DEFAULT_255_1_388
10
9.7401847
20
-0.2697102
40
0.4053482
50
323.6727442
51
348.1674594
0
ARC
8
DEFAULT_255_1_388
10
9.7732812
20
-0.2898825
40
0.3667495
50
316.8171818
51
323.1486802
0
ARC
8
DEFAULT_255_1_388
10
9.7801935
20
-0.2940388
40
0.358869
50
281.839603
51
316.5458142
0
ARC
8
DEFAULT_255_1_388
10
9.7379223
20
-0.1190637
40
0.5388223
50
269.5770964
51
282.4214641
0
ARC
8
DEFAULT_255_1_388
10
9.7299144
20
-0.143107
40
0.5147801
50
256.2425863
51
270.4486481
0
ARC
8
DEFAULT_255_1_388
10
9.6962671
20
-0.2780876
40
0.3756708
50
228.9024379
51
256.33135
0
ARC
8
DEFAULT_255_1_388
10
9.6879652
20
-0.2911946
40
0.360344
50
193.7536029
51
228.5272638
0
ARC
8
DEFAULT_255_1_388
10
9.8272217
20
-0.2503537
40
0.5053599
50
184.9244437
51
194.4976052
0
ARC
8
DEFAULT_255_1_388
10
9.8488858
20
-0.2463278
40
0.3700839
50
187.3596909
51
198.6733728
0
ARC
8
DEFAULT_255_1_388
10
9.7308101
20
-0.2872627
40
0.2451195
50
198.4453795
51
217.7945479
0
ARC
8
DEFAULT_255_1_388
10
9.6975274
20
-0.3108437
40
0.2043754
50
218.2887146
51
228.5613203
0
ARC
8
DEFAULT_255_1_388
10
9.7085281
20
-0.2960098
40
0.2227819
50
228.9652423
51
258.1237049
0
ARC
8
DEFAULT_255_1_388
10
9.7316718
20
-0.1969036
40
0.3245374
50
257.7260585
51
270.4013717
0
ARC
8
DEFAULT_255_1_388
10
9.7367216
20
-0.2469745
40
0.2744726
50
269.4204315
51
286.420998
0
ARC
8
DEFAULT_255_1_388
10
9.7534272
20
-0.3076295
40
0.2115721
50
286.7250065
51
320.6004665
0
ARC
8
DEFAULT_255_1_388
10
9.7103187
20
-0.2726473
40
0.2670878
50
320.6712228
51
344.5440474
0
ARC
8
DEFAULT_255_1_388
10
9.5801901
20
-0.2344606
40
0.4026927
50
344.241448
51
356.735803
0
ARC
8
DEFAULT_255_1_388
10
9.4398208
20
-0.2228344
40
0.5435085
50
356.3547471
51
0.0507222
0
ARC
8
DEFAULT_255_1_388
10
9.5900473
20
-0.2193188
40
0.3932934
50
359.5579289
51
12.9534322
0
ARC
8
DEFAULT_255_1_388
10
9.7087313
20
-0.1905414
40
0.2711827
50
12.6489751
51
41.608121
0
ARC
8
DEFAULT_255_1_388
10
9.7346473
20
-0.1685054
40
0.2371737
50
41.7851122
51
85.9892156
0
ARC
8
DEFAULT_255_1_388
10
9.7207784
20
-0.2600262
40
0.3295244
50
84.6965848
51
90.0672125
0
ARC
8
DEFAULT_255_1_388
10
9.7181351
20
-0.3351882
40
0.4046926
50
89.6804991
51
99.161352
0
ARC
8
DEFAULT_255_1_388
10
9.695036
20
-0.1971152
40
0.2647044
50
98.9836248
51
113.8905702
0
ARC
8
DEFAULT_255_1_388
10
9.6692035
20
-0.1361882
40
0.1985386
50
114.195234
51
127.3641866
0
LINE
8
DEFAULT_255_1_388
10
10.8823757
20
0.6821148
11
10.8823757
21
-0.6398
0
LINE
8
DEFAULT_255_1_388
10
10.8823757
20
-0.6398
11
10.7143127
21
-0.6398
0
LINE
8
DEFAULT_255_1_388
10
10.7143127
20
-0.6398
11
10.7143127
21
0.474295
0
LINE
8
DEFAULT_255_1_388
10
10.7143127
20
0.474295
11
10.3772832
21
0.3505066
0
LINE
8
DEFAULT_255_1_388
10
10.3772832
20
0.3505066
11
10.3772832
21
0.5023055
0
LINE
8
DEFAULT_255_1_388
10
10.3772832
20
0.5023055
11
10.8561723
21
0.6821148
0
LINE
8
DEFAULT_255_1_388
10
10.8561723
20
0.6821148
11
10.8823757
21
0.6821148
0
LINE
8
DEFAULT_255_1_388
10
11.9982778
20
0.6766934
11
12.0280954
21
0.6766934
0
LINE
8
DEFAULT_255_1_388
10
12.0280954
20
0.6766934
11
12.0280954
21
0.5348338
0
LINE
8
DEFAULT_255_1_388
10
12.0280954
20
0.5348338
11
11.9973742
21
0.5348338
0
LINE
8
DEFAULT_255_1_388
10
11.3820468
20
-0.1392253
11
11.3820468
21
-0.0750722
0
LINE
8
DEFAULT_255_1_388
10
11.5501098
20
-0.0967578
11
11.5501098
21
-0.1582001
0
ARC
8
DEFAULT_255_1_388
10
12.0032634
20
-0.0274174
40
0.562282
50
90.6001079
51
104.5146616
0
ARC
8
DEFAULT_255_1_388
10
11.9595593
20
0.13511
40
0.3939917
50
104.2855758
51
133.8630124
0
ARC
8
DEFAULT_255_1_388
10
11.9779846
20
0.1229243
40
0.4155734
50
134.5304124
51
161.6210222
0
ARC
8
DEFAULT_255_1_388
10
12.1639778
20
0.0573421
40
0.6127682
50
161.2850533
51
174.2074364
0
ARC
8
DEFAULT_255_1_388
10
12.3229345
20
0.0354437
40
0.7731446
50
173.7817938
51
174.9251711
0
ARC
8
DEFAULT_255_1_388
10
11.8103539
20
-0.120073
40
0.3412588
50
95.8332067
51
138.995412
0
ARC
8
DEFAULT_255_1_388
10
11.8354819
20
-0.2639305
40
0.4870358
50
89.8755506
51
97.0540979
0
ARC
8
DEFAULT_255_1_388
10
11.8408208
20
-0.1699159
40
0.3930432
50
71.6407016
51
90.6240821
0
ARC
8
DEFAULT_255_1_388
10
11.8577601
20
-0.1075567
40
0.3285421
50
39.6368051
51
71.0190743
0
ARC
8
DEFAULT_255_1_388
10
11.7861509
20
-0.1694414
40
0.4231706
50
10.6588054
51
39.9044509
0
ARC
8
DEFAULT_255_1_388
10
11.6120055
20
-0.2072777
40
0.60133
50
359.6827842
51
11.1326896
0
ARC
8
DEFAULT_255_1_388
10
11.607539
20
-0.2152285
40
0.6058047
50
347.2485908
51
0.4371098
0
ARC
8
DEFAULT_255_1_388
10
11.7951176
20
-0.2603621
40
0.4128987
50
318.1408565
51
347.6118497
0
ARC
8
DEFAULT_255_1_388
10
11.8316773
20
-0.2904097
40
0.3656244
50
275.6342406
51
317.824739
0
ARC
8
DEFAULT_255_1_388
10
11.8068293
20
-0.1442173
40
0.513655
50
269.8872513
51
276.7916069
0
ARC
8
DEFAULT_255_1_388
10
11.8006486
20
-0.2595819
40
0.398323
50
246.9139443
51
270.7436787
0
ARC
8
DEFAULT_255_1_388
10
11.8013682
20
-0.2755956
40
0.3839368
50
218.1665534
51
245.8780431
0
ARC
8
DEFAULT_255_1_388
10
11.9003054
20
-0.1928097
40
0.5128958
50
191.4115343
51
218.6077624
0
ARC
8
DEFAULT_255_1_388
10
12.118337
20
-0.1439223
40
0.7363054
50
179.6344971
51
191.7836758
0
ARC
8
DEFAULT_255_1_388
10
12.7463245
20
-0.0675505
40
1.3642984
50
171.4523743
51
180.3158856
0
ARC
8
DEFAULT_255_1_388
10
12.2518972
20
0.0093895
40
0.8639311
50
157.9802296
51
171.6246761
0
ARC
8
DEFAULT_255_1_388
10
12.0028322
20
0.1087038
40
0.5958004
50
141.4299236
51
157.8541251
0
ARC
8
DEFAULT_255_1_388
10
11.9306406
20
0.1597746
40
0.5075416
50
102.871586
51
140.8564533
0
ARC
8
DEFAULT_255_1_388
10
12.0034959
20
-0.1147057
40
0.7914163
50
90.377773
51
103.5868422
0
ARC
8
DEFAULT_255_1_388
10
11.807948
20
-0.1827457
40
0.2667015
50
89.8751238
51
126.2072139
0
ARC
8
DEFAULT_255_1_388
10
11.8130951
20
-0.2001153
40
0.2838229
50
124.9742447
51
144.8960197
0
ARC
8
DEFAULT_255_1_388
10
11.7933196
20
-0.1840019
40
0.2583845
50
145.2974778
51
160.2660922
0
ARC
8
DEFAULT_255_1_388
10
12.1389684
20
-0.1617849
40
0.5888695
50
179.6512124
51
190.285571
0
ARC
8
DEFAULT_255_1_388
10
11.9484164
20
-0.1977032
40
0.3949683
50
190.0944895
51
207.5099647
0
ARC
8
DEFAULT_255_1_388
10
11.8847745
20
-0.2279823
40
0.3245464
50
207.9585471
51
216.325377
0
ARC
8
DEFAULT_255_1_388
10
11.8465383
20
-0.2594288
40
0.2751259
50
215.7661336
51
232.5457193
0
ARC
8
DEFAULT_255_1_388
10
11.8034498
20
-0.3141727
40
0.2054668
50
232.8005815
51
270.6605497
0
ARC
8
DEFAULT_255_1_388
10
11.8085923
20
-0.2732147
40
0.2464268
50
269.3550767
51
288.474612
0
ARC
8
DEFAULT_255_1_388
10
11.819043
20
-0.3125279
40
0.2058436
50
289.1831976
51
322.9685307
0
ARC
8
DEFAULT_255_1_388
10
11.7502531
20
-0.2582721
40
0.2934408
50
322.6007085
51
346.5183319
0
ARC
8
DEFAULT_255_1_388
10
11.6200288
20
-0.2250566
40
0.4278249
50
346.2584622
51
358.7739592
0
ARC
8
DEFAULT_255_1_388
10
11.5048863
20
-0.2188171
40
0.5430876
50
358.3757628
51
0.0082477
0
ARC
8
DEFAULT_255_1_388
10
11.5905681
20
-0.2157144
40
0.4574157
50
359.6211417
51
11.28403
0
ARC
8
DEFAULT_255_1_388
10
11.7342288
20
-0.1857465
40
0.3106708
50
11.0483152
51
31.8145585
0
ARC
8
DEFAULT_255_1_388
10
11.7689993
20
-0.1668955
40
0.2711963
50
32.3028554
51
38.0820598
0
ARC
8
DEFAULT_255_1_388
10
11.8163226
20
-0.1240283
40
0.2075566
50
36.8249851
51
85.741667
0
ARC
8
DEFAULT_255_1_388
10
11.8087638
20
-0.1803935
40
0.2643487
50
85.0150021
51
90.050843
0
LINE
8
DEFAULT_255_1_388
10
12.7762468
20
-0.0127263
11
12.7762468
21
-0.1491645
0
LINE
8
DEFAULT_255_1_388
10
12.7762468
20
-0.1491645
11
12.3353073
21
-0.1491645
0
LINE
8
DEFAULT_255_1_388
10
12.3353073
20
-0.1491645
11
12.3353073
21
-0.0127263
0
LINE
8
DEFAULT_255_1_388
10
12.3353073
20
-0.0127263
11
12.7762468
21
-0.0127263
0
LINE
8
DEFAULT_255_1_388
10
13.7837211
20
-0.5033618
11
13.7837211
21
-0.6398
0
LINE
8
DEFAULT_255_1_388
10
13.7837211
20
-0.6398
11
12.9217207
21
-0.6398
0
LINE
8
DEFAULT_255_1_388
10
12.9217207
20
-0.6398
11
12.9217207
21
-0.5196259
0
LINE
8
DEFAULT_255_1_388
10
12.9217207
20
-0.5196259
11
13.3771171
21
-0.0136298
0
LINE
8
DEFAULT_255_1_388
10
13.0635803
20
0.2881607
11
12.8964208
21
0.2881607
0
LINE
8
DEFAULT_255_1_388
10
13.4756057
20
-0.121154
11
13.1232155
21
-0.5033618
0
LINE
8
DEFAULT_255_1_388
10
13.1232155
20
-0.5033618
11
13.7837211
21
-0.5033618
0
ARC
8
DEFAULT_255_1_388
10
11.8595231
20
1.3283983
40
2.0258655
50
318.5132526
51
320.7829045
0
ARC
8
DEFAULT_255_1_388
10
12.4543188
20
0.8442929
40
1.2589638
50
320.7372878
51
323.9739031
0
ARC
8
DEFAULT_255_1_388
10
12.895212
20
0.5248554
40
0.7145141
50
323.8962701
51
328.64194
0
ARC
8
DEFAULT_255_1_388
10
13.1254377
20
0.3828545
40
0.4440242
50
328.8294576
51
331.7891185
0
ARC
8
DEFAULT_255_1_388
10
13.2376697
20
0.3249374
40
0.3177517
50
331.4254512
51
352.9365785
0
ARC
8
DEFAULT_255_1_388
10
13.2529697
20
0.321505
40
0.3021496
50
353.2257659
51
0.0166158
0
ARC
8
DEFAULT_255_1_388
10
13.2766458
20
0.3240894
40
0.2784847
50
359.486299
51
15.9343185
0
ARC
8
DEFAULT_255_1_388
10
13.3336725
20
0.3394269
40
0.2194403
50
16.1712913
51
43.5286088
0
ARC
8
DEFAULT_255_1_388
10
13.3423669
20
0.3481191
40
0.2071504
50
43.4417391
51
83.1661095
0
ARC
8
DEFAULT_255_1_388
10
13.327283
20
0.2652316
40
0.2912888
50
82.160179
51
90.1505708
0
ARC
8
DEFAULT_255_1_388
10
13.3237312
20
0.2048279
40
0.3517025
50
89.5460741
51
102.5418361
0
ARC
8
DEFAULT_255_1_388
10
13.2964032
20
0.3207933
40
0.2325748
50
102.1738499
51
129.206123
0
ARC
8
DEFAULT_255_1_388
10
13.2875485
20
0.3347664
40
0.2161591
50
129.72865
51
135.753947
0
ARC
8
DEFAULT_255_1_388
10
13.3011967
20
0.3238728
40
0.2335433
50
136.1757367
51
166.3673339
0
ARC
8
DEFAULT_255_1_388
10
13.4144656
20
0.2935148
40
0.3507873
50
165.9090694
51
178.8684636
0
ARC
8
DEFAULT_255_1_388
10
13.5120427
20
0.2882263
40
0.4484624
50
178.4391136
51
180.0083808
0
ARC
8
DEFAULT_255_1_388
10
13.3541129
20
0.2926197
40
0.4577138
50
163.2878482
51
180.5581842
0
ARC
8
DEFAULT_255_1_388
10
13.263917
20
0.3174393
40
0.3641968
50
133.4540601
51
162.947111
0
ARC
8
DEFAULT_255_1_388
10
13.2840052
20
0.2960789
40
0.3935189
50
100.7869829
51
133.4382499
0
ARC
8
DEFAULT_255_1_388
10
13.3231297
20
0.1218399
40
0.5720313
50
89.660664
51
101.3702276
0
ARC
8
DEFAULT_255_1_388
10
13.3305906
20
0.1287263
40
0.5651495
50
78.2172678
51
90.412935
0
ARC
8
DEFAULT_255_1_388
10
13.3705371
20
0.3114511
40
0.378122
50
55.9269121
51
78.4888449
0
ARC
8
DEFAULT_255_1_388
10
13.3926087
20
0.3495187
40
0.3342379
50
47.929771
51
55.4049217
0
ARC
8
DEFAULT_255_1_388
10
13.4040617
20
0.3611618
40
0.3179217
50
4.334829
51
48.0560205
0
ARC
8
DEFAULT_255_1_388
10
13.2808419
20
0.3420487
40
0.442341
50
359.9251713
51
5.5971671
0
ARC
8
DEFAULT_255_1_388
10
13.3290573
20
0.3483728
40
0.3941854
50
337.8914027
51
358.9967534
0
ARC
8
DEFAULT_255_1_388
10
13.0238143
20
0.4661295
40
0.7213271
50
326.9132501
51
338.3508308
0
ARC
8
DEFAULT_255_1_388
10
12.5754255
20
0.7535105
40
1.2538973
50
319.6471833
51
327.0959558
0
ARC
8
DEFAULT_255_1_388
10
12.1440913
20
1.109305
40
1.8129975
50
317.2588228
51
319.9045804
0
LINE
8
DEFAULT_255_1_388
10
14.4875979
20
-0.1247683
11
14.1776752
21
-0.1247683
0
LINE
8
DEFAULT_255_1_388
10
14.1776752
20
-0.1247683
11
14.1776752
21
-0.6398
0
LINE
8
DEFAULT_255_1_388
10
14.1776752
20
-0.6398
11
14.0041909
21
-0.6398
0
LINE
8
DEFAULT_255_1_388
10
14.0041909
20
-0.6398
11
14.0041909
21
0.6757898
0
LINE
8
DEFAULT_255_1_388
10
14.0041909
20
0.6757898
11
14.489405
21
0.6757898
0
LINE
8
DEFAULT_255_1_388
10
14.1776752
20
0.5330267
11
14.1776752
21
0.0170914
0
LINE
8
DEFAULT_255_1_388
10
14.1776752
20
0.0170914
11
14.489405
21
0.0170914
0
LINE
8
DEFAULT_255_1_388
10
14.4993442
20
0.5330267
11
14.1776752
21
0.5330267
0
ARC
8
DEFAULT_255_1_388
10
14.4941423
20
-0.0058666
40
0.6816729
50
78.8380084
51
90.398184
0
ARC
8
DEFAULT_255_1_388
10
14.5409453
20
0.2214796
40
0.449571
50
58.9633273
51
79.0810717
0
ARC
8
DEFAULT_255_1_388
10
14.5748838
20
0.2844823
40
0.3781049
50
48.0194715
51
58.4475592
0
ARC
8
DEFAULT_255_1_388
10
14.5848658
20
0.2940818
40
0.3642936
50
3.3374546
51
48.1766642
0
ARC
8
DEFAULT_255_1_388
10
14.4463465
20
0.2741581
40
0.5038766
50
359.9483251
51
4.6822857
0
ARC
8
DEFAULT_255_1_388
10
14.4603388
20
0.2693779
40
0.4899031
50
346.1879032
51
0.5059221
0
ARC
8
DEFAULT_255_1_388
10
14.6132179
20
0.2296763
40
0.3319729
50
310.8832219
51
346.5426612
0
ARC
8
DEFAULT_255_1_388
10
14.5785028
20
0.2765853
40
0.3901853
50
286.6925305
51
310.228778
0
ARC
8
DEFAULT_255_1_388
10
14.5144758
20
0.4779585
40
0.6014737
50
274.6848219
51
287.0247342
0
ARC
8
DEFAULT_255_1_388
10
14.4891306
20
0.7264088
40
0.8511785
50
269.8968222
51
275.0192639
0
ARC
8
DEFAULT_255_1_388
10
14.49223
20
0.4926144
40
0.4755314
50
269.6596206
51
279.4150542
0
ARC
8
DEFAULT_255_1_388
10
14.5211758
20
0.3248945
40
0.3053379
50
279.2050006
51
294.9901776
0
ARC
8
DEFAULT_255_1_388
10
14.5538392
20
0.2520353
40
0.2255036
50
295.2886769
51
311.2912669
0
ARC
8
DEFAULT_255_1_388
10
14.5618134
20
0.2401938
40
0.2113522
50
311.7853512
51
347.2860549
0
ARC
8
DEFAULT_255_1_388
10
14.4511295
20
0.268643
40
0.3256011
50
346.6891629
51
0.1057086
0
ARC
8
DEFAULT_255_1_388
10
14.3588755
20
0.2719247
40
0.417863
50
359.63239
51
359.9961329
0
ARC
8
DEFAULT_255_1_388
10
14.475336
20
0.2746987
40
0.3014155
50
359.4673371
51
15.5931159
0
ARC
8
DEFAULT_255_1_388
10
14.5456422
20
0.2936937
40
0.2285918
50
15.7441779
51
46.620186
0
ARC
8
DEFAULT_255_1_388
10
14.5290183
20
0.2745361
40
0.2539359
50
46.8628482
51
75.6676625
0
ARC
8
DEFAULT_255_1_388
10
14.4959239
20
0.1554243
40
0.3775415
50
75.2763152
51
88.2916439
0
ARC
8
DEFAULT_255_1_388
10
14.4893238
20
0.0552097
40
0.4779221
50
87.8589087
51
88.7986197
0
LINE
8
DEFAULT_255_1_388
10
16.1826848
20
0.6757898
11
16.1826848
21
-0.6398
0
LINE
8
DEFAULT_255_1_388
10
16.1826848
20
-0.6398
11
16.0082968
21
-0.6398
0
LINE
8
DEFAULT_255_1_388
10
16.0082968
20
-0.6398
11
15.3459841
21
0.3739993
0
LINE
8
DEFAULT_255_1_388
10
15.3459841
20
0.3739993
11
15.3459841
21
-0.6398
0
LINE
8
DEFAULT_255_1_388
10
15.3459841
20
-0.6398
11
15.1715961
21
-0.6398
0
LINE
8
DEFAULT_255_1_388
10
15.1715961
20
-0.6398
11
15.1715961
21
0.6757898
0
LINE
8
DEFAULT_255_1_388
10
15.1715961
20
0.6757898
11
15.3459841
21
0.6757898
0
LINE
8
DEFAULT_255_1_388
10
15.3459841
20
0.6757898
11
16.010104
21
-0.3425273
0
LINE
8
DEFAULT_255_1_388
10
16.010104
20
-0.3425273
11
16.010104
21
0.6757898
0
LINE
8
DEFAULT_255_1_388
10
16.010104
20
0.6757898
11
16.1826848
21
0.6757898
0
LINE
8
DEFAULT_255_1_388
10
17.2723835
20
0.138169
11
17.2723835
21
-0.0786865
0
LINE
8
DEFAULT_255_1_388
10
16.4420078
20
-0.1012756
11
16.4420078
21
0.1219048
0
LINE
8
DEFAULT_255_1_388
10
17.1052241
20
-0.1238647
11
17.1052241
21
0.1499153
0
LINE
8
DEFAULT_255_1_388
10
16.6091672
20
0.1625652
11
16.6091672
21
-0.1048898
0
ARC
8
DEFAULT_255_1_388
10
15.8946169
20
-0.0841882
40
1.3777776
50
353.8440855
51
0.2287917
0
ARC
8
DEFAULT_255_1_388
10
16.4165186
20
-0.1424586
40
0.852639
50
344.4934746
51
353.9763743
0
ARC
8
DEFAULT_255_1_388
10
16.7531994
20
-0.2381809
40
0.5026273
50
329.2803599
51
344.7473406
0
ARC
8
DEFAULT_255_1_388
10
16.8647489
20
-0.2993962
40
0.3754848
50
324.9361395
51
328.6153007
0
ARC
8
DEFAULT_255_1_388
10
16.9073139
20
-0.3291414
40
0.3235566
50
280.5801797
51
324.9173226
0
ARC
8
DEFAULT_255_1_388
10
16.8621768
20
-0.1411764
40
0.5167077
50
269.5979457
51
281.6732777
0
ARC
8
DEFAULT_255_1_388
10
16.8540671
20
-0.1546887
40
0.5032026
50
256.6228565
51
270.5105488
0
ARC
8
DEFAULT_255_1_388
10
16.8088414
20
-0.3288655
40
0.3233092
50
215.8618351
51
257.2787793
0
ARC
8
DEFAULT_255_1_388
10
16.9237121
20
-0.2517894
40
0.4615831
50
197.9695203
51
215.2622745
0
ARC
8
DEFAULT_255_1_388
10
17.2032797
20
-0.1574359
40
0.7566307
50
187.8816486
51
198.2346584
0
ARC
8
DEFAULT_255_1_388
10
17.6486035
20
-0.0931547
40
1.2065653
50
180.8977266
51
188.0054894
0
ARC
8
DEFAULT_255_1_388
10
17.9536249
20
-0.08166
40
1.5117443
50
180.7434591
51
181.152202
0
ARC
8
DEFAULT_255_1_388
10
17.7861244
20
0.1273371
40
1.3441277
50
173.7674302
51
180.2315596
0
ARC
8
DEFAULT_255_1_388
10
17.2779113
20
0.1847779
40
0.8326847
50
164.3058537
51
173.9000553
0
ARC
8
DEFAULT_255_1_388
10
16.9503113
20
0.2791652
40
0.4917711
50
148.7922028
51
164.5682288
0
ARC
8
DEFAULT_255_1_388
10
16.8433851
20
0.3388457
40
0.3694204
50
144.5883979
51
148.1161588
0
ARC
8
DEFAULT_255_1_388
10
16.8046596
20
0.3658667
40
0.322202
50
101.6440149
51
144.5142619
0
ARC
8
DEFAULT_255_1_388
10
16.8524788
20
0.1758337
40
0.5180451
50
89.528284
51
102.5820197
0
ARC
8
DEFAULT_255_1_388
10
16.861378
20
0.1714376
40
0.5224441
50
77.0437914
51
90.508231
0
ARC
8
DEFAULT_255_1_388
10
16.9066034
20
0.3562272
40
0.3322297
50
48.2777708
51
77.4996087
0
ARC
8
DEFAULT_255_1_388
10
16.9147774
20
0.3707557
40
0.315966
50
36.3141586
51
47.6307332
0
ARC
8
DEFAULT_255_1_388
10
16.8170496
20
0.3049159
40
0.4337313
50
18.2931065
51
35.6770203
0
ARC
8
DEFAULT_255_1_388
10
16.5309337
20
0.2067107
40
0.7362203
50
8.0246996
51
18.5605636
0
ARC
8
DEFAULT_255_1_388
10
16.0625692
20
0.1375432
40
1.2096583
50
1.127539
51
8.1718423
0
ARC
8
DEFAULT_255_1_388
10
15.6976826
20
0.1232374
40
1.5747719
50
0.5432713
51
1.38669
0
ARC
8
DEFAULT_255_1_388
10
15.9034205
20
0.1539163
40
1.2018103
50
359.8092569
51
4.9408001
0
ARC
8
DEFAULT_255_1_388
10
16.3770786
20
0.19619
40
0.7262727
50
4.8364937
51
12.2906017
0
ARC
8
DEFAULT_255_1_388
10
16.6870251
20
0.2652485
40
0.4087324
50
12.0806994
51
23.8171225
0
ARC
8
DEFAULT_255_1_388
10
16.8190647
20
0.3211508
40
0.2653719
50
24.2874621
51
31.3934353
0
ARC
8
DEFAULT_255_1_388
10
16.8781082
20
0.3597822
40
0.1948607
50
30.7407708
51
82.4658033
0
ARC
8
DEFAULT_255_1_388
10
16.8578743
20
0.2604017
40
0.2961198
50
81.1057101
51
90.2187368
0
ARC
8
DEFAULT_255_1_388
10
16.8538555
20
0.2894421
40
0.2670929
50
89.380395
51
105.6763916
0
ARC
8
DEFAULT_255_1_388
10
16.8332277
20
0.364432
40
0.1893189
50
105.7980655
51
149.7387869
0
ARC
8
DEFAULT_255_1_388
10
16.9529417
20
0.2924719
40
0.3289892
50
149.4208441
51
163.628295
0
ARC
8
DEFAULT_255_1_388
10
17.1881647
20
0.2207345
40
0.5749004
50
163.3764549
51
172.141138
0
ARC
8
DEFAULT_255_1_388
10
17.5594368
20
0.1675582
40
0.9499585
50
172.0258462
51
178.0705453
0
ARC
8
DEFAULT_255_1_388
10
17.9015921
20
0.1513682
40
1.2924734
50
177.8639301
51
179.5036263
0
ARC
8
DEFAULT_255_1_388
10
17.779694
20
-0.1089849
40
1.170534
50
179.7995545
51
185.246089
0
ARC
8
DEFAULT_255_1_388
10
17.3248533
20
-0.1520596
40
0.7136613
50
185.1411911
51
193.0082205
0
ARC
8
DEFAULT_255_1_388
10
17.0274794
20
-0.2223559
40
0.4080987
50
192.7897338
51
205.2507384
0
ARC
8
DEFAULT_255_1_388
10
16.9097004
20
-0.2749462
40
0.2791522
50
205.8001921
51
211.2545876
0
ARC
8
DEFAULT_255_1_388
10
16.8508543
20
-0.3143868
40
0.2084074
50
210.3789935
51
238.4007996
0
ARC
8
DEFAULT_255_1_388
10
16.8486629
20
-0.3091214
40
0.2117943
50
239.6521916
51
265.9793852
0
ARC
8
DEFAULT_255_1_388
10
16.8582478
20
-0.2334642
40
0.2879689
50
265.1324455
51
270.0603288
0
ARC
8
DEFAULT_255_1_388
10
16.8614855
20
-0.2699582
40
0.2514919
50
269.3314378
51
287.2180039
0
ARC
8
DEFAULT_255_1_388
10
16.8769937
20
-0.3265709
40
0.1928357
50
287.7957942
51
329.0808983
0
ARC
8
DEFAULT_255_1_388
10
16.7692694
20
-0.2593349
40
0.319808
50
328.6635261
51
343.3325043
0
ARC
8
DEFAULT_255_1_388
10
16.5248153
20
-0.1831805
40
0.5758408
50
343.0498092
51
351.9392499
0
ARC
8
DEFAULT_255_1_388
10
16.1347474
20
-0.1256795
40
0.9701202
50
351.8071632
51
357.7957897
0
ARC
8
DEFAULT_255_1_388
10
15.7712951
20
-0.1068276
40
1.3340376
50
357.5870923
51
359.2682493
0
LINE
8
DEFAULT_255_1_388
10
18.3114826
20
0.138169
11
18.3114826
21
-0.0786865
0
LINE
8
DEFAULT_255_1_388
10
17.4811069
20
-0.1012756
11
17.4811069
21
0.1219048
0
LINE
8
DEFAULT_255_1_388
10
18.1443232
20
-0.1238647
11
18.1443232
21
0.1499153
0
LINE
8
DEFAULT_255_1_388
10
17.6482663
20
0.1625652
11
17.6482663
21
-0.1048898
0
ARC
8
DEFAULT_255_1_388
10
16.933716
20
-0.0841882
40
1.3777776
50
353.8440855
51
0.2287917
0
ARC
8
DEFAULT_255_1_388
10
17.4556178
20
-0.1424586
40
0.852639
50
344.4934746
51
353.9763743
0
ARC
8
DEFAULT_255_1_388
10
17.7922985
20
-0.2381809
40
0.5026273
50
329.2803599
51
344.7473406
0
ARC
8
DEFAULT_255_1_388
10
17.903848
20
-0.2993962
40
0.3754848
50
324.9361395
51
328.6153007
0
ARC
8
DEFAULT_255_1_388
10
17.946413
20
-0.3291414
40
0.3235566
50
280.5801797
51
324.9173226
0
ARC
8
DEFAULT_255_1_388
10
17.9012759
20
-0.1411764
40
0.5167077
50
269.5979457
51
281.6732777
0
ARC
8
DEFAULT_255_1_388
10
17.8931662
20
-0.1546887
40
0.5032026
50
256.6228565
51
270.5105488
0
ARC
8
DEFAULT_255_1_388
10
17.8479405
20
-0.3288655
40
0.3233092
50
215.8618351
51
257.2787793
0
ARC
8
DEFAULT_255_1_388
10
17.9628112
20
-0.2517894
40
0.4615831
50
197.9695203
51
215.2622745
0
ARC
8
DEFAULT_255_1_388
10
18.2423788
20
-0.1574359
40
0.7566307
50
187.8816486
51
198.2346584
0
ARC
8
DEFAULT_255_1_388
10
18.6877026
20
-0.0931547
40
1.2065653
50
180.8977266
51
188.0054894
0
ARC
8
DEFAULT_255_1_388
10
18.992724
20
-0.08166
40
1.5117443
50
180.7434591
51
181.152202
0
ARC
8
DEFAULT_255_1_388
10
18.8252236
20
0.1273371
40
1.3441277
50
173.7674302
51
180.2315596
0
ARC
8
DEFAULT_255_1_388
10
18.3170105
20
0.1847779
40
0.8326847
50
164.3058537
51
173.9000553
0
ARC
8
DEFAULT_255_1_388
10
17.9894105
20
0.2791652
40
0.4917711
50
148.7922028
51
164.5682288
0
ARC
8
DEFAULT_255_1_388
10
17.8824842
20
0.3388457
40
0.3694204
50
144.5883979
51
148.1161588
0
ARC
8
DEFAULT_255_1_388
10
17.8437587
20
0.3658667
40
0.322202
50
101.6440149
51
144.5142619
0
ARC
8
DEFAULT_255_1_388
10
17.891578
20
0.1758337
40
0.5180451
50
89.528284
51
102.5820197
0
ARC
8
DEFAULT_255_1_388
10
17.9004771
20
0.1714376
40
0.5224441
50
77.0437914
51
90.508231
0
ARC
8
DEFAULT_255_1_388
10
17.9457025
20
0.3562272
40
0.3322297
50
48.2777708
51
77.4996087
0
ARC
8
DEFAULT_255_1_388
10
17.9538765
20
0.3707557
40
0.315966
50
36.3141586
51
47.6307332
0
ARC
8
DEFAULT_255_1_388
10
17.8561487
20
0.3049159
40
0.4337313
50
18.2931065
51
35.6770203
0
ARC
8
DEFAULT_255_1_388
10
17.5700328
20
0.2067107
40
0.7362203
50
8.0246996
51
18.5605636
0
ARC
8
DEFAULT_255_1_388
10
17.1016684
20
0.1375432
40
1.2096583
50
1.127539
51
8.1718423
0
ARC
8
DEFAULT_255_1_388
10
16.7367817
20
0.1232374
40
1.5747719
50
0.5432713
51
1.38669
0
ARC
8
DEFAULT_255_1_388
10
16.9425196
20
0.1539163
40
1.2018103
50
359.8092569
51
4.9408001
0
ARC
8
DEFAULT_255_1_388
10
17.4161777
20
0.19619
40
0.7262727
50
4.8364937
51
12.2906017
0
ARC
8
DEFAULT_255_1_388
10
17.7261242
20
0.2652485
40
0.4087324
50
12.0806994
51
23.8171225
0
ARC
8
DEFAULT_255_1_388
10
17.8581638
20
0.3211508
40
0.2653719
50
24.2874621
51
31.3934353
0
ARC
8
DEFAULT_255_1_388
10
17.9172074
20
0.3597822
40
0.1948607
50
30.7407708
51
82.4658033
0
ARC
8
DEFAULT_255_1_388
10
17.8969735
20
0.2604017
40
0.2961198
50
81.1057101
51
90.2187368
0
ARC
8
DEFAULT_255_1_388
10
17.8929546
20
0.2894421
40
0.2670929
50
89.380395
51
105.6763916
0
ARC
8
DEFAULT_255_1_388
10
17.8723268
20
0.364432
40
0.1893189
50
105.7980655
51
149.7387869
0
ARC
8
DEFAULT_255_1_388
10
17.9920408
20
0.2924719
40
0.3289892
50
149.4208441
51
163.628295
0
ARC
8
DEFAULT_255_1_388
10
18.2272638
20
0.2207345
40
0.5749004
50
163.3764549
51
172.141138
0
ARC
8
DEFAULT_255_1_388
10
18.598536
20
0.1675582
40
0.9499585
50
172.0258462
51
178.0705453
0
ARC
8
DEFAULT_255_1_388
10
18.9406912
20
0.1513682
40
1.2924734
50
177.8639301
51
179.5036263
0
ARC
8
DEFAULT_255_1_388
10
18.8187931
20
-0.1089849
40
1.170534
50
179.7995545
51
185.246089
0
ARC
8
DEFAULT_255_1_388
10
18.3639524
20
-0.1520596
40
0.7136613
50
185.1411911
51
193.0082205
0
ARC
8
DEFAULT_255_1_388
10
18.0665785
20
-0.2223559
40
0.4080987
50
192.7897338
51
205.2507384
0
ARC
8
DEFAULT_255_1_388
10
17.9487995
20
-0.2749462
40
0.2791522
50
205.8001921
51
211.2545876
0
ARC
8
DEFAULT_255_1_388
10
17.8899534
20
-0.3143868
40
0.2084074
50
210.3789935
51
238.4007996
0
ARC
8
DEFAULT_255_1_388
10
17.887762
20
-0.3091214
40
0.2117943
50
239.6521916
51
265.9793852
0
ARC
8
DEFAULT_255_1_388
10
17.8973469
20
-0.2334642
40
0.2879689
50
265.1324455
51
270.0603288
0
ARC
8
DEFAULT_255_1_388
10
17.9005846
20
-0.2699582
40
0.2514919
50
269.3314378
51
287.2180039
0
ARC
8
DEFAULT_255_1_388
10
17.9160928
20
-0.3265709
40
0.1928357
50
287.7957942
51
329.0808983
0
ARC
8
DEFAULT_255_1_388
10
17.8083685
20
-0.2593349
40
0.319808
50
328.6635261
51
343.3325043
0
ARC
8
DEFAULT_255_1_388
10
17.5639144
20
-0.1831805
40
0.5758408
50
343.0498092
51
351.9392499
0
ARC
8
DEFAULT_255_1_388
10
17.1738465
20
-0.1256795
40
0.9701202
50
351.8071632
51
357.7957897
0
ARC
8
DEFAULT_255_1_388
10
16.8103942
20
-0.1068276
40
1.3340376
50
357.5870923
51
359.2682493
0
LINE
8
DEFAULT_255_1_388
10
18.8906674
20
-0.0127263
11
18.8906674
21
-0.1491645
0
LINE
8
DEFAULT_255_1_388
10
18.8906674
20
-0.1491645
11
18.449728
21
-0.1491645
0
LINE
8
DEFAULT_255_1_388
10
18.449728
20
-0.1491645
11
18.449728
21
-0.0127263
0
LINE
8
DEFAULT_255_1_388
10
18.449728
20
-0.0127263
11
18.8906674
21
-0.0127263
0
LINE
8
DEFAULT_255_1_388
10
19.8610957
20
0.138169
11
19.8610957
21
-0.0786865
0
LINE
8
DEFAULT_255_1_388
10
19.0307199
20
-0.1012756
11
19.0307199
21
0.1219048
0
LINE
8
DEFAULT_255_1_388
10
19.6939362
20
-0.1238647
11
19.6939362
21
0.1499153
0
LINE
8
DEFAULT_255_1_388
10
19.1978793
20
0.1625652
11
19.1978793
21
-0.1048898
0
ARC
8
DEFAULT_255_1_388
10
18.4833291
20
-0.0841882
40
1.3777776
50
353.8440855
51
0.2287917
0
ARC
8
DEFAULT_255_1_388
10
19.0052308
20
-0.1424586
40
0.852639
50
344.4934746
51
353.9763743
0
ARC
8
DEFAULT_255_1_388
10
19.3419115
20
-0.2381809
40
0.5026273
50
329.2803599
51
344.7473406
0
ARC
8
DEFAULT_255_1_388
10
19.4534611
20
-0.2993962
40
0.3754848
50
324.9361395
51
328.6153007
0
ARC
8
DEFAULT_255_1_388
10
19.4960261
20
-0.3291414
40
0.3235566
50
280.5801797
51
324.9173226
0
ARC
8
DEFAULT_255_1_388
10
19.4508889
20
-0.1411764
40
0.5167077
50
269.5979457
51
281.6732777
0
ARC
8
DEFAULT_255_1_388
10
19.4427793
20
-0.1546887
40
0.5032026
50
256.6228565
51
270.5105488
0
ARC
8
DEFAULT_255_1_388
10
19.3975536
20
-0.3288655
40
0.3233092
50
215.8618351
51
257.2787793
0
ARC
8
DEFAULT_255_1_388
10
19.5124243
20
-0.2517894
40
0.4615831
50
197.9695203
51
215.2622745
0
ARC
8
DEFAULT_255_1_388
10
19.7919918
20
-0.1574359
40
0.7566307
50
187.8816486
51
198.2346584
0
ARC
8
DEFAULT_255_1_388
10
20.2373156
20
-0.0931547
40
1.2065653
50
180.8977266
51
188.0054894
0
ARC
8
DEFAULT_255_1_388
10
20.542337
20
-0.08166
40
1.5117443
50
180.7434591
51
181.152202
0
ARC
8
DEFAULT_255_1_388
10
20.3748366
20
0.1273371
40
1.3441277
50
173.7674302
51
180.2315596
0
ARC
8
DEFAULT_255_1_388
10
19.8666235
20
0.1847779
40
0.8326847
50
164.3058537
51
173.9000553
0
ARC
8
DEFAULT_255_1_388
10
19.5390235
20
0.2791652
40
0.4917711
50
148.7922028
51
164.5682288
0
ARC
8
DEFAULT_255_1_388
10
19.4320972
20
0.3388457
40
0.3694204
50
144.5883979
51
148.1161588
0
ARC
8
DEFAULT_255_1_388
10
19.3933718
20
0.3658667
40
0.322202
50
101.6440149
51
144.5142619
0
ARC
8
DEFAULT_255_1_388
10
19.441191
20
0.1758337
40
0.5180451
50
89.528284
51
102.5820197
0
ARC
8
DEFAULT_255_1_388
10
19.4500902
20
0.1714376
40
0.5224441
50
77.0437914
51
90.508231
0
ARC
8
DEFAULT_255_1_388
10
19.4953156
20
0.3562272
40
0.3322297
50
48.2777708
51
77.4996087
0
ARC
8
DEFAULT_255_1_388
10
19.5034895
20
0.3707557
40
0.315966
50
36.3141586
51
47.6307332
0
ARC
8
DEFAULT_255_1_388
10
19.4057618
20
0.3049159
40
0.4337313
50
18.2931065
51
35.6770203
0
ARC
8
DEFAULT_255_1_388
10
19.1196459
20
0.2067107
40
0.7362203
50
8.0246996
51
18.5605636
0
ARC
8
DEFAULT_255_1_388
10
18.6512814
20
0.1375432
40
1.2096583
50
1.127539
51
8.1718423
0
ARC
8
DEFAULT_255_1_388
10
18.2863947
20
0.1232374
40
1.5747719
50
0.5432713
51
1.38669
0
ARC
8
DEFAULT_255_1_388
10
18.4921326
20
0.1539163
40
1.2018103
50
359.8092569
51
4.9408001
0
ARC
8
DEFAULT_255_1_388
10
18.9657907
20
0.19619
40
0.7262727
50
4.8364937
51
12.2906017
0
ARC
8
DEFAULT_255_1_388
10
19.2757372
20
0.2652485
40
0.4087324
50
12.0806994
51
23.8171225
0
ARC
8
DEFAULT_255_1_388
10
19.4077768
20
0.3211508
40
0.2653719
50
24.2874621
51
31.3934353
0
ARC
8
DEFAULT_255_1_388
10
19.4668204
20
0.3597822
40
0.1948607
50
30.7407708
51
82.4658033
0
ARC
8
DEFAULT_255_1_388
10
19.4465865
20
0.2604017
40
0.2961198
50
81.1057101
51
90.2187368
0
ARC
8
DEFAULT_255_1_388
10
19.4425677
20
0.2894421
40
0.2670929
50
89.380395
51
105.6763916
0
ARC
8
DEFAULT_255_1_388
10
19.4219399
20
0.364432
40
0.1893189
50
105.7980655
51
149.7387869
0
ARC
8
DEFAULT_255_1_388
10
19.5416539
20
0.2924719
40
0.3289892
50
149.4208441
51
163.628295
0
ARC
8
DEFAULT_255_1_388
10
19.7768769
20
0.2207345
40
0.5749004
50
163.3764549
51
172.141138
0
ARC
8
DEFAULT_255_1_388
10
20.148149
20
0.1675582
40
0.9499585
50
172.0258462
51
178.0705453
0
ARC
8
DEFAULT_255_1_388
10
20.4903043
20
0.1513682
40
1.2924734
50
177.8639301
51
179.5036263
0
ARC
8
DEFAULT_255_1_388
10
20.3684061
20
-0.1089849
40
1.170534
50
179.7995545
51
185.246089
0
ARC
8
DEFAULT_255_1_388
10
19.9135655
20
-0.1520596
40
0.7136613
50
185.1411911
51
193.0082205
0
ARC
8
DEFAULT_255_1_388
10
19.6161915
20
-0.2223559
40
0.4080987
50
192.7897338
51
205.2507384
0
ARC
8
DEFAULT_255_1_388
10
19.4984125
20
-0.2749462
40
0.2791522
50
205.8001921
51
211.2545876
0
ARC
8
DEFAULT_255_1_388
10
19.4395664
20
-0.3143868
40
0.2084074
50
210.3789935
51
238.4007996
0
ARC
8
DEFAULT_255_1_388
10
19.437375
20
-0.3091214
40
0.2117943
50
239.6521916
51
265.9793852
0
ARC
8
DEFAULT_255_1_388
10
19.4469599
20
-0.2334642
40
0.2879689
50
265.1324455
51
270.0603288
0
ARC
8
DEFAULT_255_1_388
10
19.4501976
20
-0.2699582
40
0.2514919
50
269.3314378
51
287.2180039
0
ARC
8
DEFAULT_255_1_388
10
19.4657058
20
-0.3265709
40
0.1928357
50
287.7957942
51
329.0808983
0
ARC
8
DEFAULT_255_1_388
10
19.3579816
20
-0.2593349
40
0.319808
50
328.6635261
51
343.3325043
0
ARC
8
DEFAULT_255_1_388
10
19.1135274
20
-0.1831805
40
0.5758408
50
343.0498092
51
351.9392499
0
ARC
8
DEFAULT_255_1_388
10
18.7234596
20
-0.1256795
40
0.9701202
50
351.8071632
51
357.7957897
0
ARC
8
DEFAULT_255_1_388
10
18.3600073
20
-0.1068276
40
1.3340376
50
357.5870923
51
359.2682493
0
LINE
8
DEFAULT_255_1_388
10
20.9706728
20
-0.6398
11
20.8450773
21
-0.2964455
0
LINE
8
DEFAULT_255_1_388
10
20.8450773
20
-0.2964455
11
20.293903
21
-0.2964455
0
LINE
8
DEFAULT_255_1_388
10
20.293903
20
-0.2964455
11
20.1701147
21
-0.6398
0
LINE
8
DEFAULT_255_1_388
10
20.1701147
20
-0.6398
11
19.9912089
21
-0.6398
0
LINE
8
DEFAULT_255_1_388
10
19.9912089
20
-0.6398
11
20.4935908
21
0.6757898
0
LINE
8
DEFAULT_255_1_388
10
20.4935908
20
0.6757898
11
20.6453896
21
0.6757898
0
LINE
8
DEFAULT_255_1_388
10
20.6453896
20
0.6757898
11
21.148675
21
-0.6398
0
LINE
8
DEFAULT_255_1_388
10
21.148675
20
-0.6398
11
20.9706728
21
-0.6398
0
LINE
8
DEFAULT_255_1_388
10
20.5694902
20
0.4616451
11
20.3463098
21
-0.1536823
0
LINE
8
DEFAULT_255_1_388
10
20.3463098
20
-0.1536823
11
20.7935742
21
-0.1536823
0
LINE
8
DEFAULT_255_1_388
10
20.7935742
20
-0.1536823
11
20.5694902
21
0.4616451
0
LINE
8
DEFAULT_255_1_388
10
21.7820737
20
-0.6398
11
21.3257736
21
-0.6398
0
LINE
8
DEFAULT_255_1_388
10
21.3257736
20
-0.6398
11
21.3257736
21
0.6757898
0
LINE
8
DEFAULT_255_1_388
10
21.3257736
20
0.6757898
11
21.7558703
21
0.6757898
0
LINE
8
DEFAULT_255_1_388
10
21.7883986
20
-0.0244726
11
21.499258
21
-0.0244726
0
LINE
8
DEFAULT_255_1_388
10
21.499258
20
-0.0244726
11
21.499258
21
-0.4979404
0
LINE
8
DEFAULT_255_1_388
10
21.499258
20
-0.4979404
11
21.7856879
21
-0.4979404
0
LINE
8
DEFAULT_255_1_388
10
21.499258
20
0.5330267
11
21.499258
21
0.1146763
0
LINE
8
DEFAULT_255_1_388
10
21.499258
20
0.1146763
11
21.7612917
21
0.1146763
0
LINE
8
DEFAULT_255_1_388
10
21.7558703
20
0.5330267
11
21.499258
21
0.5330267
0
ARC
8
DEFAULT_255_1_388
10
21.7601123
20
-0.1530176
40
0.8288183
50
82.1256322
51
90.2932506
0
ARC
8
DEFAULT_255_1_388
10
21.8038698
20
0.152759
40
0.5199321
50
69.9044202
51
82.2857574
0
ARC
8
DEFAULT_255_1_388
10
21.8680691
20
0.3262993
40
0.3348993
50
51.1840204
51
70.018125
0
ARC
8
DEFAULT_255_1_388
10
21.8967523
20
0.3679945
40
0.2844579
50
12.1018086
51
50.421322
0
ARC
8
DEFAULT_255_1_388
10
21.7410395
20
0.3288937
40
0.4449429
50
359.5252354
51
12.8212369
0
ARC
8
DEFAULT_255_1_388
10
21.9187825
20
0.3210943
40
0.2672162
50
323.4907456
51
0.8818258
0
ARC
8
DEFAULT_255_1_388
10
21.8717237
20
0.3574523
40
0.3266736
50
298.6824053
51
323.2758285
0
ARC
8
DEFAULT_255_1_388
10
21.8310529
20
0.4250509
40
0.4055105
50
293.1994739
51
299.139634
0
ARC
8
DEFAULT_255_1_388
10
21.9067478
20
-0.2595349
40
0.3229926
50
54.0009997
51
74.9168635
0
ARC
8
DEFAULT_255_1_388
10
21.9198405
20
-0.2373489
40
0.2973581
50
36.3578854
51
53.5293172
0
ARC
8
DEFAULT_255_1_388
10
21.9055773
20
-0.247515
40
0.3148715
50
4.8189348
51
36.3090187
0
ARC
8
DEFAULT_255_1_388
10
21.8178797
20
-0.2598617
40
0.4033265
50
359.9373213
51
5.5201284
0
ARC
8
DEFAULT_255_1_388
10
21.7814128
20
-0.2644267
40
0.4398126
50
344.7479357
51
0.5372278
0
ARC
8
DEFAULT_255_1_388
10
21.8929026
20
-0.2944795
40
0.3243441
50
311.1785587
51
344.6887681
0
ARC
8
DEFAULT_255_1_388
10
21.860057
20
-0.2535916
40
0.3767511
50
286.0417804
51
310.8440924
0
ARC
8
DEFAULT_255_1_388
10
21.8029979
20
-0.0683115
40
0.5705957
50
274.1044074
51
286.4070149
0
ARC
8
DEFAULT_255_1_388
10
21.7831194
20
0.1434901
40
0.7832907
50
269.9235077
51
274.4458593
0
ARC
8
DEFAULT_255_1_388
10
21.7882912
20
-0.1196538
40
0.3782955
50
269.6057074
51
281.3740795
0
ARC
8
DEFAULT_255_1_388
10
21.8142411
20
-0.2426431
40
0.2526069
50
281.105298
51
302.5134029
0
ARC
8
DEFAULT_255_1_388
10
21.8307798
20
-0.2723056
40
0.2187131
50
303.0365425
51
311.8818034
0
ARC
8
DEFAULT_255_1_388
10
21.8387975
20
-0.2818398
40
0.2062624
50
311.9916937
51
351.7143773
0
ARC
8
DEFAULT_255_1_388
10
21.7469
20
-0.2632729
40
0.2999202
50
350.7343295
51
0.2221526
0
ARC
8
DEFAULT_255_1_388
10
21.7348088
20
-0.256913
40
0.3120525
50
359.045729
51
17.2295312
0
ARC
8
DEFAULT_255_1_388
10
21.8517119
20
-0.2221845
40
0.1901144
50
17.6685208
51
78.9940245
0
ARC
8
DEFAULT_255_1_388
10
21.7935479
20
-0.4309989
40
0.4065575
50
76.565218
51
90.7103392
0
LINE
8
DEFAULT_255_1_388
10
21.7885077
20
-0.0244726
11
21.7883986
21
-0.0244726
0
ARC
8
DEFAULT_255_1_388
10
21.7638305
20
0.4842949
40
0.3696273
50
269.6064514
51
281.4533785
0
ARC
8
DEFAULT_255_1_388
10
21.7888946
20
0.3660283
40
0.2487412
50
281.2044438
51
302.5143998
0
ARC
8
DEFAULT_255_1_388
10
21.80432
20
0.3382576
40
0.2170405
50
303.0211308
51
309.8378766
0
ARC
8
DEFAULT_255_1_388
10
21.8249318
20
0.3151486
40
0.1860946
50
309.5229446
51
356.9509628
0
ARC
8
DEFAULT_255_1_388
10
21.7503443
20
0.3258831
40
0.2612347
50
355.4699226
51
0.0498632
0
ARC
8
DEFAULT_255_1_388
10
21.7189117
20
0.3283789
40
0.2926762
50
359.5558955
51
11.2092924
0
ARC
8
DEFAULT_255_1_388
10
21.8266084
20
0.3506667
40
0.1827036
50
10.9185717
51
31.322519
0
ARC
8
DEFAULT_255_1_388
10
21.8587632
20
0.3685571
40
0.1459418
50
31.8850633
51
52.1415586
0
ARC
8
DEFAULT_255_1_388
10
21.8279062
20
0.3249674
40
0.1993088
50
52.8283418
51
71.9850132
0
ARC
8
DEFAULT_255_1_388
10
21.7856222
20
0.2005158
40
0.3307407
50
71.686634
51
82.8453416
0
ARC
8
DEFAULT_255_1_388
10
21.758687
20
-0.0030108
40
0.536039
50
82.6981895
51
90.1730083
0
ARC
8
DEFAULT_255_1_388
10
21.7561701
20
0.0848836
40
0.4481429
50
89.8851568
51
90.0383283
0
LINE
8
DEFAULT_255_1_388
10
23.2594016
20
0.138169
11
23.2594016
21
-0.0786865
0
LINE
8
DEFAULT_255_1_388
10
22.4290258
20
-0.1012756
11
22.4290258
21
0.1219048
0
LINE
8
DEFAULT_255_1_388
10
23.0922421
20
-0.1238647
11
23.0922421
21
0.1499153
0
LINE
8
DEFAULT_255_1_388
10
22.5961853
20
0.1625652
11
22.5961853
21
-0.1048898
0
ARC
8
DEFAULT_255_1_388
10
21.881635
20
-0.0841882
40
1.3777776
50
353.8440855
51
0.2287917
0
ARC
8
DEFAULT_255_1_388
10
22.4035367
20
-0.1424586
40
0.852639
50
344.4934746
51
353.9763743
0
ARC
8
DEFAULT_255_1_388
10
22.7402174
20
-0.2381809
40
0.5026273
50
329.2803599
51
344.7473406
0
ARC
8
DEFAULT_255_1_388
10
22.851767
20
-0.2993962
40
0.3754848
50
324.9361395
51
328.6153007
0
ARC
8
DEFAULT_255_1_388
10
22.894332
20
-0.3291414
40
0.3235566
50
280.5801797
51
324.9173226
0
ARC
8
DEFAULT_255_1_388
10
22.8491948
20
-0.1411764
40
0.5167077
50
269.5979457
51
281.6732777
0
ARC
8
DEFAULT_255_1_388
10
22.8410852
20
-0.1546887
40
0.5032026
50
256.6228565
51
270.5105488
0
ARC
8
DEFAULT_255_1_388
10
22.7958595
20
-0.3288655
40
0.3233092
50
215.8618351
51
257.2787793
0
ARC
8
DEFAULT_255_1_388
10
22.9107302
20
-0.2517894
40
0.4615831
50
197.9695203
51
215.2622745
0
ARC
8
DEFAULT_255_1_388
10
23.1902977
20
-0.1574359
40
0.7566307
50
187.8816486
51
198.2346584
0
ARC
8
DEFAULT_255_1_388
10
23.6356216
20
-0.0931547
40
1.2065653
50
180.8977266
51
188.0054894
0
ARC
8
DEFAULT_255_1_388
10
23.9406429
20
-0.08166
40
1.5117443
50
180.7434591
51
181.152202
0
ARC
8
DEFAULT_255_1_388
10
23.7731425
20
0.1273371
40
1.3441277
50
173.7674302
51
180.2315596
0
ARC
8
DEFAULT_255_1_388
10
23.2649294
20
0.1847779
40
0.8326847
50
164.3058537
51
173.9000553
0
ARC
8
DEFAULT_255_1_388
10
22.9373294
20
0.2791652
40
0.4917711
50
148.7922028
51
164.5682288
0
ARC
8
DEFAULT_255_1_388
10
22.8304031
20
0.3388457
40
0.3694204
50
144.5883979
51
148.1161588
0
ARC
8
DEFAULT_255_1_388
10
22.7916777
20
0.3658667
40
0.322202
50
101.6440149
51
144.5142619
0
ARC
8
DEFAULT_255_1_388
10
22.8394969
20
0.1758337
40
0.5180451
50
89.528284
51
102.5820197
0
ARC
8
DEFAULT_255_1_388
10
22.8483961
20
0.1714376
40
0.5224441
50
77.0437914
51
90.508231
0
ARC
8
DEFAULT_255_1_388
10
22.8936215
20
0.3562272
40
0.3322297
50
48.2777708
51
77.4996087
0
ARC
8
DEFAULT_255_1_388
10
22.9017955
20
0.3707557
40
0.315966
50
36.3141586
51
47.6307332
0
ARC
8
DEFAULT_255_1_388
10
22.8040677
20
0.3049159
40
0.4337313
50
18.2931065
51
35.6770203
0
ARC
8
DEFAULT_255_1_388
10
22.5179518
20
0.2067107
40
0.7362203
50
8.0246996
51
18.5605636
0
ARC
8
DEFAULT_255_1_388
10
22.0495873
20
0.1375432
40
1.2096583
50
1.127539
51
8.1718423
0
ARC
8
DEFAULT_255_1_388
10
21.6847007
20
0.1232374
40
1.5747719
50
0.5432713
51
1.38669
0
ARC
8
DEFAULT_255_1_388
10
21.8904385
20
0.1539163
40
1.2018103
50
359.8092569
51
4.9408001
0
ARC
8
DEFAULT_255_1_388
10
22.3640967
20
0.19619
40
0.7262727
50
4.8364937
51
12.2906017
0
ARC
8
DEFAULT_255_1_388
10
22.6740431
20
0.2652485
40
0.4087324
50
12.0806994
51
23.8171225
0
ARC
8
DEFAULT_255_1_388
10
22.8060827
20
0.3211508
40
0.2653719
50
24.2874621
51
31.3934353
0
ARC
8
DEFAULT_255_1_388
10
22.8651263
20
0.3597822
40
0.1948607
50
30.7407708
51
82.4658033
0
ARC
8
DEFAULT_255_1_388
10
22.8448924
20
0.2604017
40
0.2961198
50
81.1057101
51
90.2187368
0
ARC
8
DEFAULT_255_1_388
10
22.8408736
20
0.2894421
40
0.2670929
50
89.380395
51
105.6763916
0
ARC
8
DEFAULT_255_1_388
10
22.8202458
20
0.364432
40
0.1893189
50
105.7980655
51
149.7387869
0
ARC
8
DEFAULT_255_1_388
10
22.9399598
20
0.2924719
40
0.3289892
50
149.4208441
51
163.628295
0
ARC
8
DEFAULT_255_1_388
10
23.1751828
20
0.2207345
40
0.5749004
50
163.3764549
51
172.141138
0
ARC
8
DEFAULT_255_1_388
10
23.5464549
20
0.1675582
40
0.9499585
50
172.0258462
51
178.0705453
0
ARC
8
DEFAULT_255_1_388
10
23.8886102
20
0.1513682
40
1.2924734
50
177.8639301
51
179.5036263
0
ARC
8
DEFAULT_255_1_388
10
23.7667121
20
-0.1089849
40
1.170534
50
179.7995545
51
185.246089
0
ARC
8
DEFAULT_255_1_388
10
23.3118714
20
-0.1520596
40
0.7136613
50
185.1411911
51
193.0082205
0
ARC
8
DEFAULT_255_1_388
10
23.0144974
20
-0.2223559
40
0.4080987
50
192.7897338
51
205.2507384
0
ARC
8
DEFAULT_255_1_388
10
22.8967184
20
-0.2749462
40
0.2791522
50
205.8001921
51
211.2545876
0
ARC
8
DEFAULT_255_1_388
10
22.8378723
20
-0.3143868
40
0.2084074
50
210.3789935
51
238.4007996
0
ARC
8
DEFAULT_255_1_388
10
22.8356809
20
-0.3091214
40
0.2117943
50
239.6521916
51
265.9793852
0
ARC
8
DEFAULT_255_1_388
10
22.8452658
20
-0.2334642
40
0.2879689
50
265.1324455
51
270.0603288
0
ARC
8
DEFAULT_255_1_388
10
22.8485035
20
-0.2699582
40
0.2514919
50
269.3314378
51
287.2180039
0
ARC
8
DEFAULT_255_1_388
10
22.8640118
20
-0.3265709
40
0.1928357
50
287.7957942
51
329.0808983
0
ARC
8
DEFAULT_255_1_388
10
22.7562875
20
-0.2593349
40
0.319808
50
328.6635261
51
343.3325043
0
ARC
8
DEFAULT_255_1_388
10
22.5118333
20
-0.1831805
40
0.5758408
50
343.0498092
51
351.9392499
0
ARC
8
DEFAULT_255_1_388
10
22.1217655
20
-0.1256795
40
0.9701202
50
351.8071632
51
357.7957897
0
ARC
8
DEFAULT_255_1_388
10
21.7583132
20
-0.1068276
40
1.3340376
50
357.5870923
51
359.2682493
0
ARC
8
DEFAULT_255_2_778
10
7.7537338
20
92.0262992
40
3.0484709
50
251.6854144
51
258.6071955
0
ARC
8
DEFAULT_255_2_778
10
7.539521
20
90.9446738
40
1.9458471
50
258.4992492
51
268.3986479
0
ARC
8
DEFAULT_255_2_778
10
7.5172314
20
90.5144206
40
1.5151737
50
268.7865272
51
269.9950384
0
ARC
8
DEFAULT_255_2_778
10
7.5277432
20
90.0632355
40
1.0640417
50
269.426895
51
279.6711067
0
ARC
8
DEFAULT_255_2_778
10
7.6417753
20
89.4336746
40
0.4243233
50
278.7731084
51
300.3324923
0
ARC
8
DEFAULT_255_2_778
10
7.760746
20
89.2310552
40
0.1893587
50
300.2240287
51
1.9041213
0
ARC
8
DEFAULT_255_2_778
10
7.7452705
20
89.2402089
40
0.2047497
50
359.1991369
51
359.99965
0
ARC
8
DEFAULT_255_2_778
10
7.7523233
20
89.2410378
40
0.1976988
50
359.7594145
51
47.1793976
0
ARC
8
DEFAULT_255_2_778
10
7.6187277
20
89.092431
40
0.3975169
50
47.6144502
51
60.8366176
0
ARC
8
DEFAULT_255_2_778
10
7.0190958
20
88.0764865
40
1.5771337
50
59.799464
51
64.8885807
0
ARC
8
DEFAULT_255_2_778
10
6.0948833
20
86.1474682
40
3.7160912
50
64.6076081
51
66.8386974
0
ARC
8
DEFAULT_255_2_778
10
9.6419609
20
94.5105052
40
5.368109
50
244.3032309
51
247.1393781
0
ARC
8
DEFAULT_255_2_778
10
8.5507088
20
92.250518
40
2.8584574
50
240.2323579
51
244.3709759
0
ARC
8
DEFAULT_255_2_778
10
7.7800475
20
90.9136591
40
1.315392
50
233.2209971
51
240.4606284
0
ARC
8
DEFAULT_255_2_778
10
7.3561477
20
90.3425187
40
0.6041399
50
225.6990744
51
232.9899679
0
ARC
8
DEFAULT_255_2_778
10
7.3965073
20
90.3669214
40
0.6499005
50
178.2783416
51
224.6550883
0
ARC
8
DEFAULT_255_2_778
10
7.5059624
20
90.4002974
40
0.7591885
50
157.033673
51
181.0453383
0
ARC
8
DEFAULT_255_2_778
10
7.378439
20
90.4411396
40
0.6259551
50
124.9113017
51
155.9211516
0
ARC
8
DEFAULT_255_2_778
10
7.5960466
20
90.1325681
40
1.0035357
50
100.4079723
51
125.0168617
0
ARC
8
DEFAULT_255_2_778
10
7.6991199
20
89.6385046
40
1.5081396
50
89.6483922
51
100.8684975
0
ARC
8
DEFAULT_255_2_778
10
7.7083242
20
89.2862988
40
1.8603169
50
89.5079487
51
89.9984402
0
ARC
8
DEFAULT_255_2_778
10
7.7099573
20
89.2210694
40
1.9255311
50
83.9170631
51
89.5732113
0
ARC
8
DEFAULT_255_2_778
10
7.5071517
20
87.2134957
40
3.9433074
50
80.7325723
51
84.0779772
0
ARC
8
DEFAULT_255_2_778
10
7.0208457
20
84.190582
40
7.0050837
50
78.5086351
51
80.7886813
0
ARC
8
DEFAULT_255_2_778
10
7.6620177
20
88.7900544
40
1.9415426
50
67.135818
51
78.0934208
0
ARC
8
DEFAULT_255_2_778
10
7.7851814
20
89.3604809
40
1.3579807
50
78.2126325
51
89.7333975
0
ARC
8
DEFAULT_255_2_778
10
7.7793853
20
89.7756211
40
0.9429038
50
89.2638155
51
100.5666868
0
ARC
8
DEFAULT_255_2_778
10
7.6660949
20
90.3454419
40
0.362036
50
99.4784875
51
124.329414
0
ARC
8
DEFAULT_255_2_778
10
7.5705593
20
90.493551
40
0.1859067
50
125.7571195
51
182.2824883
0
ARC
8
DEFAULT_255_2_778
10
7.5493239
20
90.4868629
40
0.1645253
50
180.2492993
51
239.8144161
0
ARC
8
DEFAULT_255_2_778
10
7.932718
20
91.0869128
40
0.876484
50
237.8725734
51
242.8068846
0
ARC
8
DEFAULT_255_2_778
10
9.4175857
20
93.9034958
40
4.0604642
50
242.3328458
51
244.031083
0
ARC
8
DEFAULT_255_2_778
10
12.3804066
20
99.9519314
40
10.7955807
50
243.950624
51
244.8024316
0
ARC
8
DEFAULT_255_2_778
10
15.4009918
20
106.3359175
40
17.8580926
50
244.7535425
51
244.9563234
0
ARC
8
DEFAULT_255_2_778
10
5.8652927
20
85.8343264
40
4.7527588
50
62.2505456
51
65.4301556
0
ARC
8
DEFAULT_255_2_778
10
6.9275435
20
87.8424172
40
2.4810291
50
57.2951304
51
62.3684211
0
ARC
8
DEFAULT_255_2_778
10
7.6807233
20
89.0057235
40
1.0952081
50
48.7345704
51
57.5685367
0
ARC
8
DEFAULT_255_2_778
10
8.0117486
20
89.3932722
40
0.5856147
50
44.3236031
51
48.0704418
0
ARC
8
DEFAULT_255_2_778
10
7.9783002
20
89.3732468
40
0.6236013
50
1.3523843
51
43.4925744
0
ARC
8
DEFAULT_255_2_778
10
7.7103531
20
89.3403151
40
0.8926473
50
359.9763756
51
3.0599076
0
ARC
8
DEFAULT_255_2_778
10
7.8645343
20
89.3252407
40
0.7386124
50
333.0361889
51
1.1408766
0
ARC
8
DEFAULT_255_2_778
10
7.8947908
20
89.3321919
40
0.7150741
50
300.8430083
51
331.4403095
0
ARC
8
DEFAULT_255_2_778
10
7.694568
20
89.6457162
40
1.0869673
50
281.4258583
51
301.4316118
0
ARC
8
DEFAULT_255_2_778
10
7.5632666
20
90.2539414
40
1.7091691
50
270.2273513
51
281.7010805
0
ARC
8
DEFAULT_255_2_778
10
7.5453797
20
90.7306043
40
2.1859577
50
269.9983113
51
270.6466065
0
LINE
8
DEFAULT_255_2_778
10
7.5453153
20
88.5446465
11
7.5438002
21
88.544647
0
ARC
8
DEFAULT_255_2_778
10
7.5509161
20
91.7275969
40
3.1829579
50
256.2431122
51
269.871909
0
ARC
8
DEFAULT_255_2_778
10
21.7538511
20
91.9521629
40
2.9720345
50
251.5709223
51
258.7508181
0
ARC
8
DEFAULT_255_2_778
10
21.5538128
20
90.9289385
40
1.9294488
50
258.6495077
51
268.8281511
0
ARC
8
DEFAULT_255_2_778
10
21.5355488
20
90.5341193
40
1.5343723
50
269.2085037
51
269.9981866
0
ARC
8
DEFAULT_255_2_778
10
21.5473849
20
90.0657184
40
1.0660376
50
269.3612297
51
279.5899087
0
ARC
8
DEFAULT_255_2_778
10
21.6608439
20
89.4342324
40
0.424527
50
278.6895227
51
300.2363944
0
ARC
8
DEFAULT_255_2_778
10
21.7799083
20
89.2307793
40
0.188796
50
300.1108484
51
1.9024905
0
ARC
8
DEFAULT_255_2_778
10
21.7439577
20
89.2414221
40
0.2246851
50
358.8842611
51
0.0019649
0
ARC
8
DEFAULT_255_2_778
10
21.7769791
20
89.2453385
40
0.1917038
50
358.831716
51
47.0900458
0
ARC
8
DEFAULT_255_2_778
10
21.6364654
20
89.085984
40
0.4041259
50
47.8812665
51
61.174665
0
ARC
8
DEFAULT_255_2_778
10
21.0418848
20
88.0660117
40
1.5846568
50
60.1210877
51
65.1917015
0
ARC
8
DEFAULT_255_2_778
10
20.1415278
20
86.1604122
40
3.6922188
50
64.9168629
51
67.1565628
0
ARC
8
DEFAULT_255_2_778
10
23.6275467
20
94.4319888
40
5.2839333
50
244.2656926
51
247.1407051
0
ARC
8
DEFAULT_255_2_778
10
22.5594997
20
92.223765
40
2.8309849
50
240.1545061
51
244.3326325
0
ARC
8
DEFAULT_255_2_778
10
21.7856548
20
90.8877346
40
1.2870531
50
232.697515
51
240.4357497
0
ARC
8
DEFAULT_255_2_778
10
21.3705506
20
90.3367218
40
0.5972006
50
225.5850892
51
232.3393736
0
ARC
8
DEFAULT_255_2_778
10
21.4133941
20
90.3662933
40
0.6483829
50
178.7795739
51
224.7095916
0
ARC
8
DEFAULT_255_2_778
10
21.6669319
20
90.3903135
40
0.9018316
50
179.997867
51
180.6487041
0
ARC
8
DEFAULT_255_2_778
10
21.5167738
20
90.4041249
40
0.7517998
50
156.9195758
51
181.050088
0
ARC
8
DEFAULT_255_2_778
10
21.3928482
20
90.4435712
40
0.6224513
50
124.7111133
51
155.7879672
0
ARC
8
DEFAULT_255_2_778
10
21.6055459
20
90.1516942
40
0.9835402
50
101.7934503
51
125.2143527
0
ARC
8
DEFAULT_255_2_778
10
21.729848
20
89.5991326
40
1.5498677
50
89.5248728
51
102.1166783
0
ARC
8
DEFAULT_255_2_778
10
21.7283109
20
89.0455834
40
2.1034129
50
83.2889725
51
89.6080411
0
ARC
8
DEFAULT_255_2_778
10
21.529975
20
87.2777668
40
3.8823067
50
79.4764054
51
83.4308492
0
ARC
8
DEFAULT_255_2_778
10
21.2186357
20
85.5245673
40
5.6628977
50
78.2224868
51
79.6190915
0
ARC
8
DEFAULT_255_2_778
10
21.6838473
20
88.8020715
40
1.9311543
50
67.1323814
51
78.3148813
0
ARC
8
DEFAULT_255_2_778
10
21.801359
20
89.3535614
40
1.3672981
50
78.4565774
51
89.7552271
0
ARC
8
DEFAULT_255_2_778
10
21.7951366
20
89.784447
40
0.9364778
50
89.2619009
51
100.5950934
0
ARC
8
DEFAULT_255_2_778
10
21.6824182
20
90.3499169
40
0.3599879
50
99.5087086
51
124.406715
0
ARC
8
DEFAULT_255_2_778
10
21.5878565
20
90.496343
40
0.1858061
50
125.8630185
51
182.2986975
0
ARC
8
DEFAULT_255_2_778
10
21.5497296
20
90.4888047
40
0.1475296
50
179.9666559
51
180.100057
0
ARC
8
DEFAULT_255_2_778
10
21.566185
20
90.488793
40
0.163985
50
180.0859454
51
239.8819968
0
ARC
8
DEFAULT_255_2_778
10
21.9379018
20
91.0755619
40
0.8584853
50
238.072871
51
243.0442008
0
ARC
8
DEFAULT_255_2_778
10
23.4872034
20
94.0405845
40
4.2038426
50
242.5409111
51
244.1884903
0
ARC
8
DEFAULT_255_2_778
10
26.6463384
20
100.535196
40
11.4260319
50
244.1076525
51
244.9219574
0
ARC
8
DEFAULT_255_2_778
10
29.9038827
20
107.458855
40
19.0777309
50
244.8743531
51
245.066969
0
ARC
8
DEFAULT_255_2_778
10
19.8865272
20
85.8666274
40
4.7250654
50
62.0340028
51
65.293009
0
ARC
8
DEFAULT_255_2_778
10
20.9507744
20
87.8615758
40
2.464003
50
57.1127289
51
62.13736
0
ARC
8
DEFAULT_255_2_778
10
21.7037139
20
89.0152906
40
1.0863604
50
48.3695509
51
57.4197129
0
ARC
8
DEFAULT_255_2_778
10
22.0286268
20
89.3920419
40
0.5889589
50
44.472493
51
47.6467012
0
ARC
8
DEFAULT_255_2_778
10
21.9979457
20
89.3749032
40
0.6229283
50
1.2061613
51
43.6203607
0
ARC
8
DEFAULT_255_2_778
10
21.7312413
20
89.3424903
40
0.890659
50
359.9779196
51
2.9299178
0
ARC
8
DEFAULT_255_2_778
10
21.8802547
20
89.3273837
40
0.7417924
50
333.172934
51
1.140392
0
ARC
8
DEFAULT_255_2_778
10
21.9146167
20
89.3320736
40
0.7135172
50
300.9808035
51
331.5913995
0
ARC
8
DEFAULT_255_2_778
10
21.7182603
20
89.6419862
40
1.0803281
50
281.9040909
51
301.4483918
0
ARC
8
DEFAULT_255_2_778
10
21.5848425
20
90.2405518
40
1.6935565
50
270.5796874
51
282.1436175
0
ARC
8
DEFAULT_255_2_778
10
21.5636722
20
90.7354735
40
2.1887267
50
269.9959074
51
271.0027751
0
LINE
8
DEFAULT_255_2_778
10
21.5635158
20
88.5467468
11
21.5625002
21
88.546747
0
ARC
8
DEFAULT_255_2_778
10
21.5700221
20
91.7355174
40
3.1887792
50
256.2556596
51
269.8648469
0
LINE
8
DEFAULT_255_2_778
10
6.7958002
20
88.637547
11
6.7958002
21
89.132247
0
LINE
8
DEFAULT_255_2_778
10
8.4164002
20
91.055247
11
8.4164002
21
90.579047
0
LINE
8
DEFAULT_255_2_778
10
6.7940002
20
88.635947
11
6.7958002
21
88.637547
0
LINE
8
DEFAULT_255_2_778
10
8.9866002
20
91.104747
11
9.6629002
21
91.104747
0
LINE
8
DEFAULT_255_2_778
10
9.6629002
20
91.104747
11
9.6629002
21
88.597347
0
LINE
8
DEFAULT_255_2_778
10
9.6629002
20
88.597347
11
8.9866002
21
88.597347
0
LINE
8
DEFAULT_255_2_778
10
8.9866002
20
88.597347
11
8.9866002
21
91.104747
0
LINE
8
DEFAULT_255_2_778
10
10.2809002
20
88.597347
11
10.2809002
21
91.104747
0
LINE
8
DEFAULT_255_2_778
10
10.2809002
20
91.104747
11
12.0132002
21
91.104747
0
LINE
8
DEFAULT_255_2_778
10
12.0132002
20
91.104747
11
12.0132002
21
90.651047
0
LINE
8
DEFAULT_255_2_778
10
12.0132002
20
90.651047
11
10.9321002
21
90.651047
0
LINE
8
DEFAULT_255_2_778
10
10.9321002
20
90.651047
11
10.9321002
21
90.084747
0
LINE
8
DEFAULT_255_2_778
10
10.9321002
20
90.084747
11
11.8735002
21
90.084747
0
LINE
8
DEFAULT_255_2_778
10
11.8735002
20
90.084747
11
11.8735002
21
89.671247
0
LINE
8
DEFAULT_255_2_778
10
11.8735002
20
89.671247
11
10.9321002
21
89.671247
0
LINE
8
DEFAULT_255_2_778
10
10.9321002
20
89.671247
11
10.9321002
21
89.075947
0
LINE
8
DEFAULT_255_2_778
10
10.9321002
20
89.075947
11
12.0412002
21
89.075947
0
LINE
8
DEFAULT_255_2_778
10
12.0412002
20
89.075947
11
12.0412002
21
88.595747
0
LINE
8
DEFAULT_255_2_778
10
12.0412002
20
88.595747
11
10.2809002
21
88.597347
0
LINE
8
DEFAULT_255_2_778
10
12.4817002
20
88.597347
11
12.4817002
21
91.104747
0
LINE
8
DEFAULT_255_2_778
10
12.4817002
20
91.104747
11
13.3575002
21
91.104747
0
LINE
8
DEFAULT_255_2_778
10
13.3575002
20
91.104747
11
13.9671002
21
89.502447
0
LINE
8
DEFAULT_255_2_778
10
13.9671002
20
89.502447
11
14.5897002
21
91.104747
0
LINE
8
DEFAULT_255_2_778
10
14.5897002
20
91.104747
11
15.4215002
21
91.104747
0
LINE
8
DEFAULT_255_2_778
10
15.4215002
20
91.104747
11
15.4215002
21
88.597347
0
LINE
8
DEFAULT_255_2_778
10
15.4215002
20
88.597347
11
14.7812002
21
88.597347
0
LINE
8
DEFAULT_255_2_778
10
14.7812002
20
88.597347
11
14.7812002
21
90.373147
0
LINE
8
DEFAULT_255_2_778
10
14.7812002
20
90.373147
11
14.0724002
21
88.572947
0
LINE
8
DEFAULT_255_2_778
10
14.0724002
20
88.572947
11
13.6515002
21
88.572947
0
LINE
8
DEFAULT_255_2_778
10
13.6515002
20
88.572947
11
12.9559002
21
90.373147
0
LINE
8
DEFAULT_255_2_778
10
12.9559002
20
90.373147
11
12.9559002
21
88.597047
0
LINE
8
DEFAULT_255_2_778
10
12.9559002
20
88.597047
11
12.4817002
21
88.597347
0
LINE
8
DEFAULT_255_2_778
10
16.0409002
20
88.597347
11
16.0409002
21
91.104747
0
LINE
8
DEFAULT_255_2_778
10
16.0409002
20
91.104747
11
17.7731002
21
91.104747
0
LINE
8
DEFAULT_255_2_778
10
17.7731002
20
91.104747
11
17.7731002
21
90.651047
0
LINE
8
DEFAULT_255_2_778
10
17.7731002
20
90.651047
11
16.6921002
21
90.651047
0
LINE
8
DEFAULT_255_2_778
10
16.6921002
20
90.651047
11
16.6921002
21
90.084747
0
LINE
8
DEFAULT_255_2_778
10
16.6921002
20
90.084747
11
17.6334002
21
90.084747
0
LINE
8
DEFAULT_255_2_778
10
17.6334002
20
90.084747
11
17.6334002
21
89.671247
0
LINE
8
DEFAULT_255_2_778
10
17.6334002
20
89.671247
11
16.6921002
21
89.671247
0
LINE
8
DEFAULT_255_2_778
10
16.6921002
20
89.671247
11
16.6921002
21
89.075947
0
LINE
8
DEFAULT_255_2_778
10
16.6921002
20
89.075947
11
17.8030002
21
89.075947
0
LINE
8
DEFAULT_255_2_778
10
17.8030002
20
89.075947
11
17.8030002
21
88.595747
0
LINE
8
DEFAULT_255_2_778
10
17.8030002
20
88.595747
11
16.0409002
21
88.597347
0
LINE
8
DEFAULT_255_2_778
10
18.2454002
20
88.597347
11
18.2454002
21
91.104747
0
LINE
8
DEFAULT_255_2_778
10
18.2454002
20
91.104747
11
19.0283002
21
91.104747
0
LINE
8
DEFAULT_255_2_778
10
19.0283002
20
91.104747
11
19.8586002
21
89.425947
0
LINE
8
DEFAULT_255_2_778
10
19.8586002
20
89.425947
11
19.8586002
21
91.104747
0
LINE
8
DEFAULT_255_2_778
10
19.8586002
20
91.104747
11
20.3343002
21
91.104747
0
LINE
8
DEFAULT_255_2_778
10
20.3343002
20
91.104747
11
20.3343002
21
88.597347
0
LINE
8
DEFAULT_255_2_778
10
20.3343002
20
88.597347
11
19.5739002
21
88.597347
0
LINE
8
DEFAULT_255_2_778
10
19.5739002
20
88.597347
11
18.7214002
21
90.298547
0
LINE
8
DEFAULT_255_2_778
10
18.7214002
20
90.298547
11
18.7214002
21
88.597347
0
LINE
8
DEFAULT_255_2_778
10
18.7214002
20
88.597347
11
18.2454002
21
88.597347
0
LINE
8
DEFAULT_255_2_778
10
20.8143002
20
88.637747
11
20.8143002
21
89.132547
0
LINE
8
DEFAULT_255_2_778
10
22.3745002
20
91.068247
11
22.4343002
21
91.057647
0
LINE
8
DEFAULT_255_2_778
10
22.4343002
20
91.057647
11
22.4343002
21
90.581447
0
LINE
8
DEFAULT_255_2_778
10
20.8124002
20
88.638047
11
20.8143002
21
88.637747
0
LINE
8
DEFAULT_255_1_388
10
6.9518457
20
86.9464892
11
6.7774577
21
86.9464892
0
LINE
8
DEFAULT_255_1_388
10
5.9985852
20
86.3926042
11
6.1729731
21
86.3926042
0
ARC
8
DEFAULT_255_1_388
10
6.8515304
20
87.9528821
40
1.4087688
50
248.9196578
51
254.1442424
0
ARC
8
DEFAULT_255_1_388
10
6.6625184
20
87.4662805
40
0.8867498
50
241.6337352
51
249.0064643
0
ARC
8
DEFAULT_255_1_388
10
6.4905498
20
87.1511764
40
0.5277799
50
230.4982261
51
241.8087583
0
ARC
8
DEFAULT_255_1_388
10
6.4023269
20
87.0387686
40
0.3849419
50
227.4062979
51
229.9877433
0
ARC
8
DEFAULT_255_1_388
10
6.3474615
20
86.9852155
40
0.3084129
50
200.6782127
51
228.1765252
0
ARC
8
DEFAULT_255_1_388
10
6.3555984
20
86.9835277
40
0.315461
50
179.506278
51
199.8695278
0
ARC
8
DEFAULT_255_1_388
10
6.3545573
20
86.9918671
40
0.3144584
50
132.4834401
51
181.0242352
0
ARC
8
DEFAULT_255_1_388
10
6.4214777
20
86.9286788
40
0.4063094
50
129.2526113
51
133.4249077
0
ARC
8
DEFAULT_255_1_388
10
6.438037
20
86.9038619
40
0.436014
50
101.9878945
51
128.8741833
0
ARC
8
DEFAULT_255_1_388
10
6.4828785
20
86.710236
40
0.6347415
50
89.5906376
51
102.3170567
0
ARC
8
DEFAULT_255_1_388
10
6.4908097
20
86.7460586
40
0.5989122
50
77.2359491
51
90.3248968
0
ARC
8
DEFAULT_255_1_388
10
6.5141028
20
86.8548554
40
0.4876594
50
63.8379856
51
77.0808925
0
ARC
8
DEFAULT_255_1_388
10
6.5453561
20
86.9130882
40
0.4216191
50
45.9863127
51
64.1608798
0
ARC
8
DEFAULT_255_1_388
10
6.5746955
20
86.946599
40
0.3771394
50
32.2747934
51
45.6544796
0
ARC
8
DEFAULT_255_1_388
10
6.5821761
20
86.9487426
40
0.3696765
50
359.6507495
51
32.6129943
0
ARC
8
DEFAULT_255_1_388
10
6.4760944
20
86.9492788
40
0.3013762
50
359.469654
51
14.983205
0
ARC
8
DEFAULT_255_1_388
10
6.5554196
20
86.9705288
40
0.2192542
50
14.9781954
51
48.2004799
0
ARC
8
DEFAULT_255_1_388
10
6.5369307
20
86.9472937
40
0.2489048
50
48.5926661
51
74.1242559
0
ARC
8
DEFAULT_255_1_388
10
6.4994109
20
86.8234607
40
0.3782845
50
73.7889321
51
86.6653996
0
ARC
8
DEFAULT_255_1_388
10
6.4878924
20
86.6876955
40
0.5145025
50
86.2642725
51
90.0533288
0
ARC
8
DEFAULT_255_1_388
10
6.4847017
20
86.7321376
40
0.4700681
50
89.669455
51
99.2313411
0
ARC
8
DEFAULT_255_1_388
10
6.4574176
20
86.8946401
40
0.3052945
50
99.0695987
51
113.7659242
0
ARC
8
DEFAULT_255_1_388
10
6.4266171
20
86.9672772
40
0.226407
50
114.0402885
51
127.9848946
0
ARC
8
DEFAULT_255_1_388
10
6.3995647
20
87.0005884
40
0.1835045
50
127.7287217
51
176.7106493
0
ARC
8
DEFAULT_255_1_388
10
6.4759312
20
86.989221
40
0.2604907
50
175.1780759
51
180.0581213
0
ARC
8
DEFAULT_255_1_388
10
6.3810656
20
86.9878411
40
0.1656287
50
179.6140658
51
228.124674
0
ARC
8
DEFAULT_255_1_388
10
6.4308013
20
87.033894
40
0.2332038
50
226.5785315
51
230.8792476
0
ARC
8
DEFAULT_255_1_388
10
6.48375
20
87.1041908
40
0.3211664
50
231.4636401
51
241.9261664
0
ARC
8
DEFAULT_255_1_388
10
6.6184283
20
87.3520349
40
0.6032345
50
241.7177136
51
248.3259138
0
ARC
8
DEFAULT_255_1_388
10
6.7742878
20
87.7381771
40
1.0196417
50
248.2007377
51
252.4527713
0
ARC
8
DEFAULT_255_1_388
10
6.9096405
20
88.1566092
40
1.4594143
50
252.3388938
51
254.347037
0
ARC
8
DEFAULT_255_1_388
10
6.0611705
20
85.1218095
40
1.6917621
50
71.0197462
51
74.4085467
0
ARC
8
DEFAULT_255_1_388
10
6.2518793
20
85.6723144
40
1.1091618
50
66.1845203
51
71.086519
0
ARC
8
DEFAULT_255_1_388
10
6.4269342
20
86.0664439
40
0.6779073
50
59.3537334
51
66.269255
0
ARC
8
DEFAULT_255_1_388
10
6.5269068
20
86.2355777
40
0.4814366
50
49.1021732
51
59.3294421
0
ARC
8
DEFAULT_255_1_388
10
6.6190056
20
86.3405575
40
0.3417875
50
32.7924183
51
49.2503526
0
ARC
8
DEFAULT_255_1_388
10
6.653967
20
86.3655311
40
0.2988789
50
31.121225
51
32.3977355
0
ARC
8
DEFAULT_255_1_388
10
6.6451848
20
86.3622728
40
0.3080861
50
8.1116803
51
30.7958224
0
ARC
8
DEFAULT_255_1_388
10
6.5540194
20
86.3467437
40
0.4005385
50
359.8390945
51
8.4707348
0
ARC
8
DEFAULT_255_1_388
10
6.6244242
20
86.3412751
40
0.3301608
50
337.4732479
51
0.7538283
0
ARC
8
DEFAULT_255_1_388
10
6.6445267
20
86.3390554
40
0.3107929
50
307.5917028
51
336.4313755
0
ARC
8
DEFAULT_255_1_388
10
6.5934324
20
86.3958509
40
0.3870096
50
307.6560665
51
308.4561779
0
ARC
8
DEFAULT_255_1_388
10
6.5668541
20
86.4366832
40
0.435591
50
284.3733666
51
307.1426212
0
ARC
8
DEFAULT_255_1_388
10
6.5111435
20
86.6416391
40
0.6479685
50
272.4384566
51
284.6464689
0
ARC
8
DEFAULT_255_1_388
10
6.496882
20
86.8440434
40
0.8508149
50
269.9708517
51
272.8180721
0
ARC
8
DEFAULT_255_1_388
10
6.4920503
20
86.6148283
40
0.6216151
50
248.2707343
51
270.4054609
0
ARC
8
DEFAULT_255_1_388
10
6.4859374
20
86.5933673
40
0.5994203
50
246.1380358
51
248.054058
0
ARC
8
DEFAULT_255_1_388
10
6.4388517
20
86.4944705
40
0.4899388
50
233.1671897
51
246.4951656
0
ARC
8
DEFAULT_255_1_388
10
6.3765152
20
86.4103137
40
0.3852115
50
215.3403381
51
233.084328
0
ARC
8
DEFAULT_255_1_388
10
6.3458516
20
86.3880093
40
0.3472969
50
179.2419235
51
215.2648426
0
ARC
8
DEFAULT_255_1_388
10
6.4322067
20
86.3895979
40
0.259251
50
179.3355796
51
199.1045873
0
ARC
8
DEFAULT_255_1_388
10
6.3948209
20
86.3798223
40
0.2207454
50
199.8830064
51
232.7061328
0
ARC
8
DEFAULT_255_1_388
10
6.4479483
20
86.4466456
40
0.306101
50
232.3736206
51
255.5136621
0
ARC
8
DEFAULT_255_1_388
10
6.4862989
20
86.5866177
40
0.4512213
50
255.2447928
51
267.5318292
0
ARC
8
DEFAULT_255_1_388
10
6.4961456
20
86.7252709
40
0.5901825
50
267.1564563
51
270.0294721
0
ARC
8
DEFAULT_255_1_388
10
6.4992781
20
86.6753623
40
0.5402814
50
269.6999944
51
278.1662446
0
ARC
8
DEFAULT_255_1_388
10
6.5280809
20
86.4806974
40
0.3435003
50
278.0229022
51
290.6255326
0
ARC
8
DEFAULT_255_1_388
10
6.5671975
20
86.3763547
40
0.2320666
50
290.6616368
51
307.0374127
0
ARC
8
DEFAULT_255_1_388
10
6.6009875
20
86.334904
40
0.1786372
50
306.3942078
51
355.303191
0
ARC
8
DEFAULT_255_1_388
10
6.5434168
20
86.3435186
40
0.2367516
50
354.3662092
51
0.0709489
0
ARC
8
DEFAULT_255_1_388
10
6.5594037
20
86.3460561
40
0.2207761
50
359.4175379
51
16.1975911
0
ARC
8
DEFAULT_255_1_388
10
6.6106155
20
86.3600954
40
0.1676828
50
16.4721294
51
52.6261798
0
ARC
8
DEFAULT_255_1_388
10
6.5182662
20
86.2381606
40
0.3206412
50
52.7381828
51
62.4979144
0
ARC
8
DEFAULT_255_1_388
10
6.3624415
20
85.9449236
40
0.6527035
50
62.2517425
51
68.1219454
0
ARC
8
DEFAULT_255_1_388
10
6.1689903
20
85.4694951
40
1.1659797
50
68.006043
51
71.8055127
0
ARC
8
DEFAULT_255_1_388
10
5.9669811
20
84.8636723
40
1.8045908
50
71.718361
51
73.9260743
0
LINE
8
DEFAULT_255_1_388
10
7.3629675
20
87.3268898
11
7.3629675
21
86.0113
0
LINE
8
DEFAULT_255_1_388
10
7.3629675
20
86.0113
11
7.1894831
21
86.0113
0
LINE
8
DEFAULT_255_1_388
10
7.1894831
20
86.0113
11
7.1894831
21
87.3268898
0
LINE
8
DEFAULT_255_1_388
10
7.1894831
20
87.3268898
11
7.3629675
21
87.3268898
0
LINE
8
DEFAULT_255_1_388
10
7.6801186
20
87.3268898
11
7.9042026
21
87.3268898
0
LINE
8
DEFAULT_255_1_388
10
7.9042026
20
87.3268898
11
8.3342993
21
86.2534553
0
LINE
8
DEFAULT_255_1_388
10
8.3342993
20
86.2534553
11
8.7643959
21
87.3268898
0
LINE
8
DEFAULT_255_1_388
10
8.7643959
20
87.3268898
11
8.9893835
21
87.3268898
0
LINE
8
DEFAULT_255_1_388
10
8.9893835
20
87.3268898
11
8.9893835
21
86.0113
0
LINE
8
DEFAULT_255_1_388
10
8.9893835
20
86.0113
11
8.8158991
21
86.0113
0
LINE
8
DEFAULT_255_1_388
10
8.8158991
20
86.0113
11
8.8158991
21
86.523621
0
LINE
8
DEFAULT_255_1_388
10
8.8158991
20
86.523621
11
8.8321633
21
87.0766025
0
LINE
8
DEFAULT_255_1_388
10
8.8321633
20
87.0766025
11
8.4002595
21
86.0113
0
LINE
8
DEFAULT_255_1_388
10
8.4002595
20
86.0113
11
8.2674355
21
86.0113
0
LINE
8
DEFAULT_255_1_388
10
8.2674355
20
86.0113
11
7.8364353
21
87.0738918
0
LINE
8
DEFAULT_255_1_388
10
7.8364353
20
87.0738918
11
7.853603
21
86.523621
0
LINE
8
DEFAULT_255_1_388
10
7.853603
20
86.523621
11
7.853603
21
86.0113
0
LINE
8
DEFAULT_255_1_388
10
7.853603
20
86.0113
11
7.6801186
21
86.0113
0
LINE
8
DEFAULT_255_1_388
10
7.6801186
20
86.0113
11
7.6801186
21
87.3268898
0
LINE
8
DEFAULT_255_1_388
10
10.1640173
20
86.0113
11
10.0384218
21
86.3546545
0
LINE
8
DEFAULT_255_1_388
10
10.0384218
20
86.3546545
11
9.4872475
21
86.3546545
0
LINE
8
DEFAULT_255_1_388
10
9.4872475
20
86.3546545
11
9.3634592
21
86.0113
0
LINE
8
DEFAULT_255_1_388
10
9.3634592
20
86.0113
11
9.1845534
21
86.0113
0
LINE
8
DEFAULT_255_1_388
10
9.1845534
20
86.0113
11
9.6869353
21
87.3268898
0
LINE
8
DEFAULT_255_1_388
10
9.6869353
20
87.3268898
11
9.8387341
21
87.3268898
0
LINE
8
DEFAULT_255_1_388
10
9.8387341
20
87.3268898
11
10.3420195
21
86.0113
0
LINE
8
DEFAULT_255_1_388
10
10.3420195
20
86.0113
11
10.1640173
21
86.0113
0
LINE
8
DEFAULT_255_1_388
10
9.7628347
20
87.1127451
11
9.5396542
21
86.4974177
0
LINE
8
DEFAULT_255_1_388
10
9.5396542
20
86.4974177
11
9.9869187
21
86.4974177
0
LINE
8
DEFAULT_255_1_388
10
9.9869187
20
86.4974177
11
9.7628347
21
87.1127451
0
LINE
8
DEFAULT_255_1_388
10
11.3115441
20
87.3268898
11
11.3115441
21
87.1841267
0
LINE
8
DEFAULT_255_1_388
10
11.3115441
20
87.1841267
11
10.888676
21
87.1841267
0
LINE
8
DEFAULT_255_1_388
10
10.888676
20
87.1841267
11
10.888676
21
86.0113
0
LINE
8
DEFAULT_255_1_388
10
10.888676
20
86.0113
11
10.7160952
21
86.0113
0
LINE
8
DEFAULT_255_1_388
10
10.7160952
20
86.0113
11
10.7160952
21
87.1841267
0
LINE
8
DEFAULT_255_1_388
10
10.7160952
20
87.1841267
11
10.2941306
21
87.1841267
0
LINE
8
DEFAULT_255_1_388
10
10.2941306
20
87.1841267
11
10.2941306
21
87.3268898
0
LINE
8
DEFAULT_255_1_388
10
10.2941306
20
87.3268898
11
11.3115441
21
87.3268898
0
LINE
8
DEFAULT_255_1_388
10
11.6928483
20
87.3268898
11
11.6928483
21
86.0113
0
LINE
8
DEFAULT_255_1_388
10
11.6928483
20
86.0113
11
11.519364
21
86.0113
0
LINE
8
DEFAULT_255_1_388
10
11.519364
20
86.0113
11
11.519364
21
87.3268898
0
LINE
8
DEFAULT_255_1_388
10
11.519364
20
87.3268898
11
11.6928483
21
87.3268898
0
LINE
8
DEFAULT_255_1_388
10
12.8033291
20
86.4287468
11
12.977717
21
86.4287468
0
LINE
8
DEFAULT_255_1_388
10
11.9648212
20
86.6076525
11
11.9648212
21
86.7341516
0
LINE
8
DEFAULT_255_1_388
10
12.977717
20
86.9040217
11
12.8033291
21
86.9040217
0
LINE
8
DEFAULT_255_1_388
10
12.1392092
20
86.7296337
11
12.1392092
21
86.6022312
0
ARC
8
DEFAULT_255_1_388
10
12.3611404
20
86.4959329
40
0.6202263
50
340.1774904
51
353.7812217
0
ARC
8
DEFAULT_255_1_388
10
12.5379257
20
86.4300893
40
0.4315926
50
311.4560052
51
340.4420756
0
ARC
8
DEFAULT_255_1_388
10
12.5341796
20
86.4425665
40
0.4434573
50
282.4332229
51
310.7514507
0
ARC
8
DEFAULT_255_1_388
10
12.4847614
20
86.6467703
40
0.6535262
50
269.9358869
51
282.8096729
0
ARC
8
DEFAULT_255_1_388
10
12.4789554
20
86.7980329
40
0.8048043
50
269.9995752
51
270.3612856
0
ARC
8
DEFAULT_255_1_388
10
12.4730044
20
86.5181781
40
0.5249831
50
250.7885263
51
270.6488451
0
ARC
8
DEFAULT_255_1_388
10
12.4540868
20
86.4464853
40
0.4510942
50
219.3628377
51
250.0611024
0
ARC
8
DEFAULT_255_1_388
10
12.5473743
20
86.5257653
40
0.5735046
50
193.5480293
51
219.5755675
0
ARC
8
DEFAULT_255_1_388
10
12.8141952
20
86.595052
40
0.849146
50
181.1220183
51
193.8754971
0
ARC
8
DEFAULT_255_1_388
10
13.0465185
20
86.6074914
40
1.0816971
50
179.9914644
51
181.5398227
0
ARC
8
DEFAULT_255_1_388
10
12.8388495
20
86.7383586
40
0.8740384
50
169.5837606
51
180.275782
0
ARC
8
DEFAULT_255_1_388
10
12.6321844
20
86.7765439
40
0.6638751
50
155.0367033
51
169.6002779
0
ARC
8
DEFAULT_255_1_388
10
12.5044302
20
86.8381336
40
0.5220662
50
136.7831557
51
155.2472983
0
ARC
8
DEFAULT_255_1_388
10
12.4606092
20
86.8753577
40
0.4646502
50
121.7633063
51
136.4281161
0
ARC
8
DEFAULT_255_1_388
10
12.4757932
20
86.8473049
40
0.4964979
50
95.6460018
51
121.5489589
0
ARC
8
DEFAULT_255_1_388
10
12.4934907
20
86.7225704
40
0.6223912
50
89.9245727
51
96.1375919
0
ARC
8
DEFAULT_255_1_388
10
12.4991612
20
86.7359721
40
0.6090084
50
76.6779212
51
90.456405
0
ARC
8
DEFAULT_255_1_388
10
12.5434425
20
86.914906
40
0.42469
50
47.4858803
51
76.9287069
0
ARC
8
DEFAULT_255_1_388
10
12.5269038
20
86.9036623
40
0.4441778
50
16.5424081
51
46.8934505
0
ARC
8
DEFAULT_255_1_388
10
12.3460088
20
86.8442265
40
0.6345318
50
5.4072971
51
17.0363711
0
ARC
8
DEFAULT_255_1_388
10
12.1841813
20
86.8182304
40
0.6250632
50
7.8888693
51
15.9242022
0
ARC
8
DEFAULT_255_1_388
10
12.4076799
20
86.8831309
40
0.3923364
50
15.7650676
51
27.9410069
0
ARC
8
DEFAULT_255_1_388
10
12.5318968
20
86.9496317
40
0.2514401
50
27.8167196
51
46.4007942
0
ARC
8
DEFAULT_255_1_388
10
12.5374809
20
86.9489882
40
0.2480958
50
47.4372362
51
75.0695672
0
ARC
8
DEFAULT_255_1_388
10
12.5027646
20
86.8281277
40
0.3738281
50
74.7009379
51
87.8124314
0
ARC
8
DEFAULT_255_1_388
10
12.4945262
20
86.7097659
40
0.4924321
50
87.3802571
51
90.0251599
0
ARC
8
DEFAULT_255_1_388
10
12.490191
20
86.8417997
40
0.3604218
50
89.3451886
51
108.5744412
0
ARC
8
DEFAULT_255_1_388
10
12.4747902
20
86.8995836
40
0.3007661
50
109.2998307
51
143.3037387
0
ARC
8
DEFAULT_255_1_388
10
12.5605192
20
86.8336584
40
0.4089031
50
143.075267
51
163.1918576
0
ARC
8
DEFAULT_255_1_388
10
12.7801026
20
86.7643652
40
0.6391492
50
162.9375929
51
174.6208776
0
ARC
8
DEFAULT_255_1_388
10
13.0755408
20
86.7319711
40
0.9363344
50
174.342123
51
180.1430283
0
ARC
8
DEFAULT_255_1_388
10
12.9707949
20
86.5976117
40
0.8315986
50
179.6817261
51
189.150555
0
ARC
8
DEFAULT_255_1_388
10
12.6894698
20
86.5507559
40
0.5464044
50
188.9911061
51
203.5772363
0
ARC
8
DEFAULT_255_1_388
10
12.567999
20
86.5003539
40
0.4149206
50
203.9075402
51
215.1312435
0
ARC
8
DEFAULT_255_1_388
10
12.4641788
20
86.4198907
40
0.2837747
50
213.9071511
51
263.8848919
0
ARC
8
DEFAULT_255_1_388
10
12.4782781
20
86.5081519
40
0.3730641
50
263.1757928
51
270.1031044
0
ARC
8
DEFAULT_255_1_388
10
12.481886
20
86.6484511
40
0.5133712
50
269.6722503
51
279.0606936
0
ARC
8
DEFAULT_255_1_388
10
12.5119016
20
86.467015
40
0.3294739
50
278.8749101
51
293.6349581
0
ARC
8
DEFAULT_255_1_388
10
12.5479219
20
86.3824251
40
0.2375405
50
293.8553806
51
310.0518171
0
ARC
8
DEFAULT_255_1_388
10
12.5484728
20
86.3754021
40
0.2318463
50
311.0644687
51
332.0111037
0
ARC
8
DEFAULT_255_1_388
10
12.4143402
20
86.4493702
40
0.3850112
50
331.6586806
51
343.2877423
0
ARC
8
DEFAULT_255_1_388
10
12.1822867
20
86.5206806
40
0.6277712
50
343.1446576
51
351.0103568
0
ARC
8
DEFAULT_255_1_388
10
12.019019
20
86.5506873
40
0.7937327
50
350.71248
51
351.1626997
0
LINE
8
DEFAULT_255_1_388
10
14.4161916
20
86.7612585
11
14.4161916
21
86.6193989
0
LINE
8
DEFAULT_255_1_388
10
14.4161916
20
86.6193989
11
13.8460424
21
86.6193989
0
LINE
8
DEFAULT_255_1_388
10
13.8460424
20
86.6193989
11
13.8460424
21
86.1531596
0
LINE
8
DEFAULT_255_1_388
10
13.8460424
20
86.1531596
11
14.5083552
21
86.1531596
0
LINE
8
DEFAULT_255_1_388
10
14.5083552
20
86.1531596
11
14.5083552
21
86.0113
0
LINE
8
DEFAULT_255_1_388
10
14.5083552
20
86.0113
11
13.6725581
21
86.0113
0
LINE
8
DEFAULT_255_1_388
10
13.6725581
20
86.0113
11
13.6725581
21
87.3268898
0
LINE
8
DEFAULT_255_1_388
10
13.6725581
20
87.3268898
11
14.4993195
21
87.3268898
0
LINE
8
DEFAULT_255_1_388
10
14.4993195
20
87.3268898
11
14.4993195
21
87.1841267
0
LINE
8
DEFAULT_255_1_388
10
14.4993195
20
87.1841267
11
13.8460424
21
87.1841267
0
LINE
8
DEFAULT_255_1_388
10
13.8460424
20
87.1841267
11
13.8460424
21
86.7612585
0
LINE
8
DEFAULT_255_1_388
10
13.8460424
20
86.7612585
11
14.4161916
21
86.7612585
0
LINE
8
DEFAULT_255_1_388
10
15.6513642
20
87.3268898
11
15.6513642
21
87.1841267
0
LINE
8
DEFAULT_255_1_388
10
15.6513642
20
87.1841267
11
15.228496
21
87.1841267
0
LINE
8
DEFAULT_255_1_388
10
15.228496
20
87.1841267
11
15.228496
21
86.0113
0
LINE
8
DEFAULT_255_1_388
10
15.228496
20
86.0113
11
15.0559152
21
86.0113
0
LINE
8
DEFAULT_255_1_388
10
15.0559152
20
86.0113
11
15.0559152
21
87.1841267
0
LINE
8
DEFAULT_255_1_388
10
15.0559152
20
87.1841267
11
14.6339506
21
87.1841267
0
LINE
8
DEFAULT_255_1_388
10
14.6339506
20
87.1841267
11
14.6339506
21
87.3268898
0
LINE
8
DEFAULT_255_1_388
10
14.6339506
20
87.3268898
11
15.6513642
21
87.3268898
0
LINE
8
DEFAULT_255_1_388
10
16.6651635
20
86.1477382
11
16.6651635
21
86.0113
0
LINE
8
DEFAULT_255_1_388
10
16.6651635
20
86.0113
11
15.803163
21
86.0113
0
LINE
8
DEFAULT_255_1_388
10
15.803163
20
86.0113
11
15.803163
21
86.1314741
0
LINE
8
DEFAULT_255_1_388
10
15.803163
20
86.1314741
11
16.2585595
21
86.6374702
0
LINE
8
DEFAULT_255_1_388
10
15.9450227
20
86.9392607
11
15.7778632
21
86.9392607
0
LINE
8
DEFAULT_255_1_388
10
16.357048
20
86.529946
11
16.0046579
21
86.1477382
0
LINE
8
DEFAULT_255_1_388
10
16.0046579
20
86.1477382
11
16.6651635
21
86.1477382
0
ARC
8
DEFAULT_255_1_388
10
14.7409655
20
87.9794983
40
2.0258655
50
318.5132526
51
320.7829045
0
ARC
8
DEFAULT_255_1_388
10
15.3357612
20
87.4953929
40
1.2589638
50
320.7372878
51
323.9739031
0
ARC
8
DEFAULT_255_1_388
10
15.7766543
20
87.1759554
40
0.7145141
50
323.8962701
51
328.64194
0
ARC
8
DEFAULT_255_1_388
10
16.0068801
20
87.0339545
40
0.4440242
50
328.8294576
51
331.7891185
0
ARC
8
DEFAULT_255_1_388
10
16.1191121
20
86.9760374
40
0.3177517
50
331.4254512
51
352.9365785
0
ARC
8
DEFAULT_255_1_388
10
16.1344121
20
86.972605
40
0.3021496
50
353.2257659
51
0.0166158
0
ARC
8
DEFAULT_255_1_388
10
16.1580882
20
86.9751894
40
0.2784847
50
359.486299
51
15.9343185
0
ARC
8
DEFAULT_255_1_388
10
16.2151148
20
86.9905269
40
0.2194403
50
16.1712913
51
43.5286088
0
ARC
8
DEFAULT_255_1_388
10
16.2238093
20
86.9992191
40
0.2071504
50
43.4417391
51
83.1661095
0
ARC
8
DEFAULT_255_1_388
10
16.2087254
20
86.9163316
40
0.2912888
50
82.160179
51
90.1505708
0
ARC
8
DEFAULT_255_1_388
10
16.2051736
20
86.8559279
40
0.3517025
50
89.5460741
51
102.5418361
0
ARC
8
DEFAULT_255_1_388
10
16.1778456
20
86.9718933
40
0.2325748
50
102.1738499
51
129.206123
0
ARC
8
DEFAULT_255_1_388
10
16.1689909
20
86.9858664
40
0.2161591
50
129.72865
51
135.753947
0
ARC
8
DEFAULT_255_1_388
10
16.1826391
20
86.9749728
40
0.2335433
50
136.1757367
51
166.3673339
0
ARC
8
DEFAULT_255_1_388
10
16.295908
20
86.9446148
40
0.3507873
50
165.9090694
51
178.8684636
0
ARC
8
DEFAULT_255_1_388
10
16.3934851
20
86.9393263
40
0.4484624
50
178.4391136
51
180.0083808
0
ARC
8
DEFAULT_255_1_388
10
16.2355553
20
86.9437197
40
0.4577138
50
163.2878482
51
180.5581842
0
ARC
8
DEFAULT_255_1_388
10
16.1453594
20
86.9685393
40
0.3641968
50
133.4540601
51
162.947111
0
ARC
8
DEFAULT_255_1_388
10
16.1654476
20
86.9471789
40
0.3935189
50
100.7869829
51
133.4382499
0
ARC
8
DEFAULT_255_1_388
10
16.2045721
20
86.7729399
40
0.5720313
50
89.660664
51
101.3702276
0
ARC
8
DEFAULT_255_1_388
10
16.212033
20
86.7798263
40
0.5651495
50
78.2172678
51
90.412935
0
ARC
8
DEFAULT_255_1_388
10
16.2519795
20
86.9625511
40
0.378122
50
55.9269121
51
78.4888449
0
ARC
8
DEFAULT_255_1_388
10
16.274051
20
87.0006187
40
0.3342379
50
47.929771
51
55.4049217
0
ARC
8
DEFAULT_255_1_388
10
16.2855041
20
87.0122618
40
0.3179217
50
4.334829
51
48.0560205
0
ARC
8
DEFAULT_255_1_388
10
16.1622842
20
86.9931487
40
0.442341
50
359.9251713
51
5.5971671
0
ARC
8
DEFAULT_255_1_388
10
16.2104997
20
86.9994728
40
0.3941854
50
337.8914027
51
358.9967534
0
ARC
8
DEFAULT_255_1_388
10
15.9052567
20
87.1172295
40
0.7213271
50
326.9132501
51
338.3508308
0
ARC
8
DEFAULT_255_1_388
10
15.4568679
20
87.4046105
40
1.2538973
50
319.6471833
51
327.0959558
0
ARC
8
DEFAULT_255_1_388
10
15.0255337
20
87.760405
40
1.8129975
50
317.2588228
51
319.9045804
0
LINE
8
DEFAULT_255_1_388
10
17.6672165
20
86.789269
11
17.6672165
21
86.5724135
0
LINE
8
DEFAULT_255_1_388
10
16.8368408
20
86.5498244
11
16.8368408
21
86.7730048
0
LINE
8
DEFAULT_255_1_388
10
17.5000571
20
86.5272353
11
17.5000571
21
86.8010153
0
LINE
8
DEFAULT_255_1_388
10
17.0040002
20
86.8136652
11
17.0040002
21
86.5462102
0
ARC
8
DEFAULT_255_1_388
10
16.2894499
20
86.5669118
40
1.3777776
50
353.8440855
51
0.2287917
0
ARC
8
DEFAULT_255_1_388
10
16.8113516
20
86.5086414
40
0.852639
50
344.4934746
51
353.9763743
0
ARC
8
DEFAULT_255_1_388
10
17.1480324
20
86.4129191
40
0.5026273
50
329.2803599
51
344.7473406
0
ARC
8
DEFAULT_255_1_388
10
17.2595819
20
86.3517038
40
0.3754848
50
324.9361395
51
328.6153007
0
ARC
8
DEFAULT_255_1_388
10
17.3021469
20
86.3219586
40
0.3235566
50
280.5801797
51
324.9173226
0
ARC
8
DEFAULT_255_1_388
10
17.2570098
20
86.5099236
40
0.5167077
50
269.5979457
51
281.6732777
0
ARC
8
DEFAULT_255_1_388
10
17.2489001
20
86.4964113
40
0.5032026
50
256.6228565
51
270.5105488
0
ARC
8
DEFAULT_255_1_388
10
17.2036744
20
86.3222345
40
0.3233092
50
215.8618351
51
257.2787793
0
ARC
8
DEFAULT_255_1_388
10
17.3185451
20
86.3993106
40
0.4615831
50
197.9695203
51
215.2622745
0
ARC
8
DEFAULT_255_1_388
10
17.5981127
20
86.4936641
40
0.7566307
50
187.8816486
51
198.2346584
0
ARC
8
DEFAULT_255_1_388
10
18.0434365
20
86.5579453
40
1.2065653
50
180.8977266
51
188.0054894
0
ARC
8
DEFAULT_255_1_388
10
18.3484579
20
86.56944
40
1.5117443
50
180.7434591
51
181.152202
0
ARC
8
DEFAULT_255_1_388
10
18.1809575
20
86.7784371
40
1.3441277
50
173.7674302
51
180.2315596
0
ARC
8
DEFAULT_255_1_388
10
17.6727443
20
86.8358779
40
0.8326847
50
164.3058537
51
173.9000553
0
ARC
8
DEFAULT_255_1_388
10
17.3451443
20
86.9302652
40
0.4917711
50
148.7922028
51
164.5682288
0
ARC
8
DEFAULT_255_1_388
10
17.2382181
20
86.9899457
40
0.3694204
50
144.5883979
51
148.1161588
0
ARC
8
DEFAULT_255_1_388
10
17.1994926
20
87.0169667
40
0.322202
50
101.6440149
51
144.5142619
0
ARC
8
DEFAULT_255_1_388
10
17.2473118
20
86.8269337
40
0.5180451
50
89.528284
51
102.5820197
0
ARC
8
DEFAULT_255_1_388
10
17.256211
20
86.8225376
40
0.5224441
50
77.0437914
51
90.508231
0
ARC
8
DEFAULT_255_1_388
10
17.3014364
20
87.0073272
40
0.3322297
50
48.2777708
51
77.4996087
0
ARC
8
DEFAULT_255_1_388
10
17.3096104
20
87.0218557
40
0.315966
50
36.3141586
51
47.6307332
0
ARC
8
DEFAULT_255_1_388
10
17.2118826
20
86.9560159
40
0.4337313
50
18.2931065
51
35.6770203
0
ARC
8
DEFAULT_255_1_388
10
16.9257667
20
86.8578107
40
0.7362203
50
8.0246996
51
18.5605636
0
ARC
8
DEFAULT_255_1_388
10
16.4574022
20
86.7886432
40
1.2096583
50
1.127539
51
8.1718423
0
ARC
8
DEFAULT_255_1_388
10
16.0925156
20
86.7743374
40
1.5747719
50
0.5432713
51
1.38669
0
ARC
8
DEFAULT_255_1_388
10
16.2982535
20
86.8050163
40
1.2018103
50
359.8092569
51
4.9408001
0
ARC
8
DEFAULT_255_1_388
10
16.7719116
20
86.84729
40
0.7262727
50
4.8364937
51
12.2906017
0
ARC
8
DEFAULT_255_1_388
10
17.0818581
20
86.9163485
40
0.4087324
50
12.0806994
51
23.8171225
0
ARC
8
DEFAULT_255_1_388
10
17.2138977
20
86.9722508
40
0.2653719
50
24.2874621
51
31.3934353
0
ARC
8
DEFAULT_255_1_388
10
17.2729413
20
87.0108822
40
0.1948607
50
30.7407708
51
82.4658033
0
ARC
8
DEFAULT_255_1_388
10
17.2527073
20
86.9115017
40
0.2961198
50
81.1057101
51
90.2187368
0
ARC
8
DEFAULT_255_1_388
10
17.2486885
20
86.9405421
40
0.2670929
50
89.380395
51
105.6763916
0
ARC
8
DEFAULT_255_1_388
10
17.2280607
20
87.015532
40
0.1893189
50
105.7980655
51
149.7387869
0
ARC
8
DEFAULT_255_1_388
10
17.3477747
20
86.9435719
40
0.3289892
50
149.4208441
51
163.628295
0
ARC
8
DEFAULT_255_1_388
10
17.5829977
20
86.8718345
40
0.5749004
50
163.3764549
51
172.141138
0
ARC
8
DEFAULT_255_1_388
10
17.9542698
20
86.8186582
40
0.9499585
50
172.0258462
51
178.0705453
0
ARC
8
DEFAULT_255_1_388
10
18.2964251
20
86.8024682
40
1.2924734
50
177.8639301
51
179.5036263
0
ARC
8
DEFAULT_255_1_388
10
18.174527
20
86.5421151
40
1.170534
50
179.7995545
51
185.246089
0
ARC
8
DEFAULT_255_1_388
10
17.7196863
20
86.4990404
40
0.7136613
50
185.1411911
51
193.0082205
0
ARC
8
DEFAULT_255_1_388
10
17.4223124
20
86.4287441
40
0.4080987
50
192.7897338
51
205.2507384
0
ARC
8
DEFAULT_255_1_388
10
17.3045334
20
86.3761538
40
0.2791522
50
205.8001921
51
211.2545876
0
ARC
8
DEFAULT_255_1_388
10
17.2456873
20
86.3367132
40
0.2084074
50
210.3789935
51
238.4007996
0
ARC
8
DEFAULT_255_1_388
10
17.2434959
20
86.3419786
40
0.2117943
50
239.6521916
51
265.9793852
0
ARC
8
DEFAULT_255_1_388
10
17.2530808
20
86.4176358
40
0.2879689
50
265.1324455
51
270.0603288
0
ARC
8
DEFAULT_255_1_388
10
17.2563185
20
86.3811418
40
0.2514919
50
269.3314378
51
287.2180039
0
ARC
8
DEFAULT_255_1_388
10
17.2718267
20
86.3245291
40
0.1928357
50
287.7957942
51
329.0808983
0
ARC
8
DEFAULT_255_1_388
10
17.1641024
20
86.3917651
40
0.319808
50
328.6635261
51
343.3325043
0
ARC
8
DEFAULT_255_1_388
10
16.9196483
20
86.4679195
40
0.5758408
50
343.0498092
51
351.9392499
0
ARC
8
DEFAULT_255_1_388
10
16.5295804
20
86.5254205
40
0.9701202
50
351.8071632
51
357.7957897
0
ARC
8
DEFAULT_255_1_388
10
16.1661281
20
86.5442724
40
1.3340376
50
357.5870923
51
359.2682493
0
LINE
8
DEFAULT_255_1_388
10
18.7063156
20
86.789269
11
18.7063156
21
86.5724135
0
LINE
8
DEFAULT_255_1_388
10
17.8759399
20
86.5498244
11
17.8759399
21
86.7730048
0
LINE
8
DEFAULT_255_1_388
10
18.5391562
20
86.5272353
11
18.5391562
21
86.8010153
0
LINE
8
DEFAULT_255_1_388
10
18.0430993
20
86.8136652
11
18.0430993
21
86.5462102
0
ARC
8
DEFAULT_255_1_388
10
17.328549
20
86.5669118
40
1.3777776
50
353.8440855
51
0.2287917
0
ARC
8
DEFAULT_255_1_388
10
17.8504508
20
86.5086414
40
0.852639
50
344.4934746
51
353.9763743
0
ARC
8
DEFAULT_255_1_388
10
18.1871315
20
86.4129191
40
0.5026273
50
329.2803599
51
344.7473406
0
ARC
8
DEFAULT_255_1_388
10
18.2986811
20
86.3517038
40
0.3754848
50
324.9361395
51
328.6153007
0
ARC
8
DEFAULT_255_1_388
10
18.341246
20
86.3219586
40
0.3235566
50
280.5801797
51
324.9173226
0
ARC
8
DEFAULT_255_1_388
10
18.2961089
20
86.5099236
40
0.5167077
50
269.5979457
51
281.6732777
0
ARC
8
DEFAULT_255_1_388
10
18.2879992
20
86.4964113
40
0.5032026
50
256.6228565
51
270.5105488
0
ARC
8
DEFAULT_255_1_388
10
18.2427735
20
86.3222345
40
0.3233092
50
215.8618351
51
257.2787793
0
ARC
8
DEFAULT_255_1_388
10
18.3576442
20
86.3993106
40
0.4615831
50
197.9695203
51
215.2622745
0
ARC
8
DEFAULT_255_1_388
10
18.6372118
20
86.4936641
40
0.7566307
50
187.8816486
51
198.2346584
0
ARC
8
DEFAULT_255_1_388
10
19.0825356
20
86.5579453
40
1.2065653
50
180.8977266
51
188.0054894
0
ARC
8
DEFAULT_255_1_388
10
19.387557
20
86.56944
40
1.5117443
50
180.7434591
51
181.152202
0
ARC
8
DEFAULT_255_1_388
10
19.2200566
20
86.7784371
40
1.3441277
50
173.7674302
51
180.2315596
0
ARC
8
DEFAULT_255_1_388
10
18.7118435
20
86.8358779
40
0.8326847
50
164.3058537
51
173.9000553
0
ARC
8
DEFAULT_255_1_388
10
18.3842435
20
86.9302652
40
0.4917711
50
148.7922028
51
164.5682288
0
ARC
8
DEFAULT_255_1_388
10
18.2773172
20
86.9899457
40
0.3694204
50
144.5883979
51
148.1161588
0
ARC
8
DEFAULT_255_1_388
10
18.2385917
20
87.0169667
40
0.322202
50
101.6440149
51
144.5142619
0
ARC
8
DEFAULT_255_1_388
10
18.286411
20
86.8269337
40
0.5180451
50
89.528284
51
102.5820197
0
ARC
8
DEFAULT_255_1_388
10
18.2953102
20
86.8225376
40
0.5224441
50
77.0437914
51
90.508231
0
ARC
8
DEFAULT_255_1_388
10
18.3405355
20
87.0073272
40
0.3322297
50
48.2777708
51
77.4996087
0
ARC
8
DEFAULT_255_1_388
10
18.3487095
20
87.0218557
40
0.315966
50
36.3141586
51
47.6307332
0
ARC
8
DEFAULT_255_1_388
10
18.2509817
20
86.9560159
40
0.4337313
50
18.2931065
51
35.6770203
0
ARC
8
DEFAULT_255_1_388
10
17.9648658
20
86.8578107
40
0.7362203
50
8.0246996
51
18.5605636
0
ARC
8
DEFAULT_255_1_388
10
17.4965014
20
86.7886432
40
1.2096583
50
1.127539
51
8.1718423
0
ARC
8
DEFAULT_255_1_388
10
17.1316147
20
86.7743374
40
1.5747719
50
0.5432713
51
1.38669
0
ARC
8
DEFAULT_255_1_388
10
17.3373526
20
86.8050163
40
1.2018103
50
359.8092569
51
4.9408001
0
ARC
8
DEFAULT_255_1_388
10
17.8110107
20
86.84729
40
0.7262727
50
4.8364937
51
12.2906017
0
ARC
8
DEFAULT_255_1_388
10
18.1209572
20
86.9163485
40
0.4087324
50
12.0806994
51
23.8171225
0
ARC
8
DEFAULT_255_1_388
10
18.2529968
20
86.9722508
40
0.2653719
50
24.2874621
51
31.3934353
0
ARC
8
DEFAULT_255_1_388
10
18.3120404
20
87.0108822
40
0.1948607
50
30.7407708
51
82.4658033
0
ARC
8
DEFAULT_255_1_388
10
18.2918065
20
86.9115017
40
0.2961198
50
81.1057101
51
90.2187368
0
ARC
8
DEFAULT_255_1_388
10
18.2877877
20
86.9405421
40
0.2670929
50
89.380395
51
105.6763916
0
ARC
8
DEFAULT_255_1_388
10
18.2671598
20
87.015532
40
0.1893189
50
105.7980655
51
149.7387869
0
ARC
8
DEFAULT_255_1_388
10
18.3868739
20
86.9435719
40
0.3289892
50
149.4208441
51
163.628295
0
ARC
8
DEFAULT_255_1_388
10
18.6220968
20
86.8718345
40
0.5749004
50
163.3764549
51
172.141138
0
ARC
8
DEFAULT_255_1_388
10
18.993369
20
86.8186582
40
0.9499585
50
172.0258462
51
178.0705453
0
ARC
8
DEFAULT_255_1_388
10
19.3355242
20
86.8024682
40
1.2924734
50
177.8639301
51
179.5036263
0
ARC
8
DEFAULT_255_1_388
10
19.2136261
20
86.5421151
40
1.170534
50
179.7995545
51
185.246089
0
ARC
8
DEFAULT_255_1_388
10
18.7587854
20
86.4990404
40
0.7136613
50
185.1411911
51
193.0082205
0
ARC
8
DEFAULT_255_1_388
10
18.4614115
20
86.4287441
40
0.4080987
50
192.7897338
51
205.2507384
0
ARC
8
DEFAULT_255_1_388
10
18.3436325
20
86.3761538
40
0.2791522
50
205.8001921
51
211.2545876
0
ARC
8
DEFAULT_255_1_388
10
18.2847864
20
86.3367132
40
0.2084074
50
210.3789935
51
238.4007996
0
ARC
8
DEFAULT_255_1_388
10
18.282595
20
86.3419786
40
0.2117943
50
239.6521916
51
265.9793852
0
ARC
8
DEFAULT_255_1_388
10
18.2921799
20
86.4176358
40
0.2879689
50
265.1324455
51
270.0603288
0
ARC
8
DEFAULT_255_1_388
10
18.2954176
20
86.3811418
40
0.2514919
50
269.3314378
51
287.2180039
0
ARC
8
DEFAULT_255_1_388
10
18.3109258
20
86.3245291
40
0.1928357
50
287.7957942
51
329.0808983
0
ARC
8
DEFAULT_255_1_388
10
18.2032015
20
86.3917651
40
0.319808
50
328.6635261
51
343.3325043
0
ARC
8
DEFAULT_255_1_388
10
17.9587474
20
86.4679195
40
0.5758408
50
343.0498092
51
351.9392499
0
ARC
8
DEFAULT_255_1_388
10
17.5686795
20
86.5254205
40
0.9701202
50
351.8071632
51
357.7957897
0
ARC
8
DEFAULT_255_1_388
10
17.2052272
20
86.5442724
40
1.3340376
50
357.5870923
51
359.2682493
0
LINE
8
DEFAULT_255_1_388
10
19.4472385
20
86.5263317
11
19.1373159
21
86.5263317
0
LINE
8
DEFAULT_255_1_388
10
19.1373159
20
86.5263317
11
19.1373159
21
86.0113
0
LINE
8
DEFAULT_255_1_388
10
19.1373159
20
86.0113
11
18.9638315
21
86.0113
0
LINE
8
DEFAULT_255_1_388
10
18.9638315
20
86.0113
11
18.9638315
21
87.3268898
0
LINE
8
DEFAULT_255_1_388
10
18.9638315
20
87.3268898
11
19.4490456
21
87.3268898
0
LINE
8
DEFAULT_255_1_388
10
19.1373159
20
87.1841267
11
19.1373159
21
86.6681914
0
LINE
8
DEFAULT_255_1_388
10
19.1373159
20
86.6681914
11
19.4490456
21
86.6681914
0
LINE
8
DEFAULT_255_1_388
10
19.4589848
20
87.1841267
11
19.1373159
21
87.1841267
0
ARC
8
DEFAULT_255_1_388
10
19.4537829
20
86.6452334
40
0.6816729
50
78.8380084
51
90.398184
0
ARC
8
DEFAULT_255_1_388
10
19.500586
20
86.8725796
40
0.449571
50
58.9633273
51
79.0810717
0
ARC
8
DEFAULT_255_1_388
10
19.5345244
20
86.9355823
40
0.3781049
50
48.0194715
51
58.4475592
0
ARC
8
DEFAULT_255_1_388
10
19.5445064
20
86.9451818
40
0.3642936
50
3.3374546
51
48.1766642
0
ARC
8
DEFAULT_255_1_388
10
19.4059871
20
86.9252581
40
0.5038766
50
359.9483251
51
4.6822857
0
ARC
8
DEFAULT_255_1_388
10
19.4199794
20
86.9204779
40
0.4899031
50
346.1879032
51
0.5059221
0
ARC
8
DEFAULT_255_1_388
10
19.5728586
20
86.8807763
40
0.3319729
50
310.8832219
51
346.5426612
0
ARC
8
DEFAULT_255_1_388
10
19.5381434
20
86.9276853
40
0.3901853
50
286.6925305
51
310.228778
0
ARC
8
DEFAULT_255_1_388
10
19.4741164
20
87.1290585
40
0.6014737
50
274.6848219
51
287.0247342
0
ARC
8
DEFAULT_255_1_388
10
19.4487713
20
87.3775088
40
0.8511785
50
269.8968222
51
275.0192639
0
ARC
8
DEFAULT_255_1_388
10
19.4518706
20
87.1437144
40
0.4755314
50
269.6596206
51
279.4150542
0
ARC
8
DEFAULT_255_1_388
10
19.4808164
20
86.9759945
40
0.3053379
50
279.2050006
51
294.9901776
0
ARC
8
DEFAULT_255_1_388
10
19.5134799
20
86.9031353
40
0.2255036
50
295.2886769
51
311.2912669
0
ARC
8
DEFAULT_255_1_388
10
19.521454
20
86.8912938
40
0.2113522
50
311.7853512
51
347.2860549
0
ARC
8
DEFAULT_255_1_388
10
19.4107701
20
86.919743
40
0.3256011
50
346.6891629
51
0.1057086
0
ARC
8
DEFAULT_255_1_388
10
19.3185161
20
86.9230247
40
0.417863
50
359.63239
51
359.9961329
0
ARC
8
DEFAULT_255_1_388
10
19.4349766
20
86.9257987
40
0.3014155
50
359.4673371
51
15.5931159
0
ARC
8
DEFAULT_255_1_388
10
19.5052829
20
86.9447937
40
0.2285918
50
15.7441779
51
46.620186
0
ARC
8
DEFAULT_255_1_388
10
19.4886589
20
86.9256361
40
0.2539359
50
46.8628482
51
75.6676625
0
ARC
8
DEFAULT_255_1_388
10
19.4555645
20
86.8065243
40
0.3775415
50
75.2763152
51
88.2916439
0
ARC
8
DEFAULT_255_1_388
10
19.4489645
20
86.7063097
40
0.4779221
50
87.8589087
51
88.7986197
0
LINE
8
DEFAULT_255_1_388
10
20.8992666
20
86.0113
11
20.6137402
21
86.5434995
0
LINE
8
DEFAULT_255_1_388
10
20.6137402
20
86.5434995
11
20.3047211
21
86.5434995
0
LINE
8
DEFAULT_255_1_388
10
20.3047211
20
86.5434995
11
20.3047211
21
86.0113
0
LINE
8
DEFAULT_255_1_388
10
20.3047211
20
86.0113
11
20.1303332
21
86.0113
0
LINE
8
DEFAULT_255_1_388
10
20.1303332
20
86.0113
11
20.1303332
21
87.3268898
0
LINE
8
DEFAULT_255_1_388
10
20.1303332
20
87.3268898
11
20.5658513
21
87.3268898
0
LINE
8
DEFAULT_255_1_388
10
20.7763818
20
86.5805456
11
21.0854008
21
86.0221428
0
LINE
8
DEFAULT_255_1_388
10
21.0854008
20
86.0221428
11
21.0854008
21
86.0113
0
LINE
8
DEFAULT_255_1_388
10
21.0854008
20
86.0113
11
20.8992666
21
86.0113
0
LINE
8
DEFAULT_255_1_388
10
20.3047211
20
87.1841267
11
20.3047211
21
86.6853591
0
LINE
8
DEFAULT_255_1_388
10
20.3047211
20
86.6853591
11
20.5712727
21
86.6853591
0
LINE
8
DEFAULT_255_1_388
10
20.5703691
20
87.1841267
11
20.3047211
21
87.1841267
0
ARC
8
DEFAULT_255_1_388
10
20.5705358
20
86.5437346
40
0.7831693
50
80.6535681
51
90.3427203
0
ARC
8
DEFAULT_255_1_388
10
20.6177269
20
86.8207722
40
0.5021479
50
65.6987674
51
80.8330164
0
ARC
8
DEFAULT_255_1_388
10
20.6714563
20
86.9439479
40
0.3677787
50
50.0019152
51
65.4304412
0
ARC
8
DEFAULT_255_1_388
10
20.6960379
20
86.9771603
40
0.3265454
50
11.6284215
51
49.5603681
0
ARC
8
DEFAULT_255_1_388
10
20.5232865
20
86.9349524
40
0.5043009
50
359.5655533
51
12.3693319
0
ARC
8
DEFAULT_255_1_388
10
20.6444201
20
86.9279038
40
0.3831661
50
341.998418
51
0.4822212
0
ARC
8
DEFAULT_255_1_388
10
20.6888388
20
86.9158479
40
0.3372036
50
323.8610842
51
341.6141514
0
ARC
8
DEFAULT_255_1_388
10
20.6548934
20
86.9420615
40
0.3800784
50
296.7019299
51
323.6876213
0
ARC
8
DEFAULT_255_1_388
10
20.6052892
20
87.0307532
40
0.4816219
50
290.808313
51
297.2325929
0
ARC
8
DEFAULT_255_1_388
10
20.5741686
20
87.0896377
40
0.404289
50
269.5895908
51
281.8058892
0
ARC
8
DEFAULT_255_1_388
10
20.6023952
20
86.960536
40
0.2721459
50
281.5499321
51
303.9358954
0
ARC
8
DEFAULT_255_1_388
10
20.6178486
20
86.9337588
40
0.2413121
50
304.4410786
51
311.211123
0
ARC
8
DEFAULT_255_1_388
10
20.6326892
20
86.9181152
40
0.2197678
50
310.9874923
51
356.2715203
0
ARC
8
DEFAULT_255_1_388
10
20.5476638
20
86.9307992
40
0.3055212
50
354.9346315
51
0.0617816
0
ARC
8
DEFAULT_255_1_388
10
20.5265479
20
86.9338427
40
0.3266482
50
359.5239293
51
12.8808621
0
ARC
8
DEFAULT_255_1_388
10
20.6365241
20
86.9607638
40
0.2134449
50
12.417206
51
43.1023141
0
ARC
8
DEFAULT_255_1_388
10
20.6434572
20
86.9649253
40
0.2055463
50
43.575886
51
48.2047245
0
ARC
8
DEFAULT_255_1_388
10
20.6243832
20
86.9400151
40
0.2368418
50
48.7809155
51
72.6968768
0
ARC
8
DEFAULT_255_1_388
10
20.5845196
20
86.8190385
40
0.364206
50
72.3699892
51
84.8793749
0
ARC
8
DEFAULT_255_1_388
10
20.5679202
20
86.6680651
40
0.5160674
50
84.5398226
51
89.7281165
0
LINE
8
DEFAULT_255_1_388
10
22.2826237
20
86.7097553
11
22.2826237
21
86.6266274
0
LINE
8
DEFAULT_255_1_388
10
21.2245498
20
86.6148811
11
21.2245498
21
86.7097553
0
LINE
8
DEFAULT_255_1_388
10
22.1100429
20
86.6139775
11
22.1100429
21
86.7115625
0
LINE
8
DEFAULT_255_1_388
10
21.3971306
20
86.7233088
11
21.3971306
21
86.6266274
0
ARC
8
DEFAULT_255_1_388
10
21.3103976
20
86.6221726
40
0.9722364
50
350.4878118
51
0.2625322
0
ARC
8
DEFAULT_255_1_388
10
21.5683936
20
86.5777994
40
0.7104556
50
336.0277991
51
350.5787241
0
ARC
8
DEFAULT_255_1_388
10
21.7197043
20
86.5094243
40
0.544417
50
319.887443
51
336.1331163
0
ARC
8
DEFAULT_255_1_388
10
21.7874855
20
86.4551733
40
0.4576311
50
302.4806296
51
319.6144102
0
ARC
8
DEFAULT_255_1_388
10
21.7745476
20
86.4801067
40
0.4856183
50
275.8196423
51
302.1885521
0
ARC
8
DEFAULT_255_1_388
10
21.7558337
20
86.6086466
40
0.6154183
50
269.9169897
51
276.339506
0
ARC
8
DEFAULT_255_1_388
10
21.7507938
20
86.531468
40
0.5382553
50
252.5221437
51
270.441579
0
ARC
8
DEFAULT_255_1_388
10
21.7346189
20
86.4708046
40
0.4755426
50
237.5349961
51
252.1858334
0
ARC
8
DEFAULT_255_1_388
10
21.7446565
20
86.483612
40
0.4917393
50
209.0632754
51
237.3492577
0
ARC
8
DEFAULT_255_1_388
10
21.842589
20
86.5451104
40
0.6072464
50
205.118533
51
209.6465345
0
ARC
8
DEFAULT_255_1_388
10
21.9321892
20
86.5831174
40
0.7045164
50
188.7216633
51
204.8239753
0
ARC
8
DEFAULT_255_1_388
10
22.1568668
20
86.6209387
40
0.9323368
50
180.3722704
51
188.9253909
0
ARC
8
DEFAULT_255_1_388
10
22.1538229
20
86.7142416
40
0.929284
50
169.5253055
51
180.2766048
0
ARC
8
DEFAULT_255_1_388
10
21.9398028
20
86.7536024
40
0.7116745
50
155.8314601
51
169.5088611
0
ARC
8
DEFAULT_255_1_388
10
21.7957491
20
86.8204312
40
0.5528904
50
139.6259579
51
156.0379072
0
ARC
8
DEFAULT_255_1_388
10
21.7294025
20
86.8738143
40
0.4677708
50
122.6414784
51
139.3431662
0
ARC
8
DEFAULT_255_1_388
10
21.740728
20
86.8531787
40
0.4912586
50
93.0224537
51
122.4556091
0
ARC
8
DEFAULT_255_1_388
10
21.7528801
20
86.7445776
40
0.6003837
50
89.9756766
51
93.6340839
0
ARC
8
DEFAULT_255_1_388
10
21.7572398
20
86.7894879
40
0.5554884
50
73.7463329
51
90.4234008
0
ARC
8
DEFAULT_255_1_388
10
21.7769872
20
86.8659772
40
0.4765353
50
57.663051
51
73.4516911
0
ARC
8
DEFAULT_255_1_388
10
21.7760909
20
86.8684108
40
0.4749629
50
29.1441355
51
57.4146687
0
ARC
8
DEFAULT_255_1_388
10
21.6708721
20
86.8027046
40
0.5988917
50
24.0985653
51
29.732054
0
ARC
8
DEFAULT_255_1_388
10
21.5546352
20
86.7545154
40
0.7246823
50
8.6654943
51
23.8241215
0
ARC
8
DEFAULT_255_1_388
10
21.3032771
20
86.7135037
40
0.9793537
50
359.7807044
51
8.8218476
0
ARC
8
DEFAULT_255_1_388
10
21.1742475
20
86.7163731
40
0.9358078
50
359.7054632
51
8.0359751
0
ARC
8
DEFAULT_255_1_388
10
21.5117527
20
86.7655252
40
0.5947474
50
7.8926278
51
20.2962188
0
ARC
8
DEFAULT_255_1_388
10
21.6948377
20
86.8330367
40
0.3996117
50
20.3231056
51
36.4990255
0
ARC
8
DEFAULT_255_1_388
10
21.7719674
20
86.8924399
40
0.3022818
50
36.1436715
51
85.6627846
0
ARC
8
DEFAULT_255_1_388
10
21.753693
20
86.7754881
40
0.4203853
50
84.3845912
51
90.076054
0
ARC
8
DEFAULT_255_1_388
10
21.7489285
20
86.8497416
40
0.346157
50
89.3037228
51
109.9046209
0
ARC
8
DEFAULT_255_1_388
10
21.7385118
20
86.8927379
40
0.3022217
50
110.8229774
51
143.917961
0
ARC
8
DEFAULT_255_1_388
10
21.8435477
20
86.8125455
40
0.434348
50
143.5289166
51
163.2980252
0
ARC
8
DEFAULT_255_1_388
10
22.0581764
20
86.7450685
40
0.659321
50
163.0418884
51
174.3139873
0
ARC
8
DEFAULT_255_1_388
10
22.3286729
20
86.7138378
40
0.9315905
50
174.050934
51
179.4174954
0
ARC
8
DEFAULT_255_1_388
10
22.2718673
20
86.6219382
40
0.8747493
50
179.6928582
51
188.7908948
0
ARC
8
DEFAULT_255_1_388
10
21.9722473
20
86.5740086
40
0.5713262
50
188.6328449
51
202.5630732
0
ARC
8
DEFAULT_255_1_388
10
21.8311309
20
86.5173142
40
0.4192612
50
202.8078931
51
216.1195888
0
ARC
8
DEFAULT_255_1_388
10
21.7400826
20
86.4440479
40
0.3025752
50
215.0755613
51
264.6379773
0
ARC
8
DEFAULT_255_1_388
10
21.7543664
20
86.5375376
40
0.3970284
50
263.8464302
51
270.0830805
0
ARC
8
DEFAULT_255_1_388
10
21.7590209
20
86.5084808
40
0.3679937
50
269.3649295
51
287.5149684
0
ARC
8
DEFAULT_255_1_388
10
21.7790649
20
86.4356714
40
0.2925408
50
288.0629019
51
323.8115617
0
ARC
8
DEFAULT_255_1_388
10
21.6810626
20
86.5087754
40
0.4148018
50
323.6546541
51
342.6591359
0
ARC
8
DEFAULT_255_1_388
10
21.4525283
20
86.583128
40
0.6551163
50
342.4092446
51
353.6451501
0
ARC
8
DEFAULT_255_1_388
10
21.1340077
20
86.6227565
40
0.9760748
50
353.4027553
51
359.4846611
0
LINE
8
DEFAULT_255_1_388
10
4.5007985
20
85.3488148
11
4.5007985
21
84.0269
0
LINE
8
DEFAULT_255_1_388
10
4.5007985
20
84.0269
11
4.3327355
21
84.0269
0
LINE
8
DEFAULT_255_1_388
10
4.3327355
20
84.0269
11
4.3327355
21
85.140995
0
LINE
8
DEFAULT_255_1_388
10
4.3327355
20
85.140995
11
3.995706
21
85.0172066
0
LINE
8
DEFAULT_255_1_388
10
3.995706
20
85.0172066
11
3.995706
21
85.1690055
0
LINE
8
DEFAULT_255_1_388
10
3.995706
20
85.1690055
11
4.4745951
21
85.3488148
0
LINE
8
DEFAULT_255_1_388
10
4.4745951
20
85.3488148
11
4.5007985
21
85.3488148
0
LINE
8
DEFAULT_255_1_388
10
5.2082895
20
85.3424898
11
5.2082895
21
84.1687596
0
LINE
8
DEFAULT_255_1_388
10
5.2082895
20
84.1687596
11
5.8317489
21
84.1687596
0
LINE
8
DEFAULT_255_1_388
10
5.8317489
20
84.1687596
11
5.8317489
21
84.0269
0
LINE
8
DEFAULT_255_1_388
10
5.8317489
20
84.0269
11
5.0339015
21
84.0269
0
LINE
8
DEFAULT_255_1_388
10
5.0339015
20
84.0269
11
5.0339015
21
85.3424898
0
LINE
8
DEFAULT_255_1_388
10
5.0339015
20
85.3424898
11
5.2082895
21
85.3424898
0
LINE
8
DEFAULT_255_1_388
10
6.4823153
20
85.1165987
11
6.4823153
21
84.7325838
0
LINE
8
DEFAULT_255_1_388
10
6.4823153
20
84.7325838
11
6.8491625
21
84.7325838
0
LINE
8
DEFAULT_255_1_388
10
6.8491625
20
84.7325838
11
6.8491625
21
84.5744601
0
LINE
8
DEFAULT_255_1_388
10
6.8491625
20
84.5744601
11
6.4823153
21
84.5744601
0
LINE
8
DEFAULT_255_1_388
10
6.4823153
20
84.5744601
11
6.4823153
21
84.1588204
0
LINE
8
DEFAULT_255_1_388
10
6.4823153
20
84.1588204
11
6.3142523
21
84.1588204
0
LINE
8
DEFAULT_255_1_388
10
6.3142523
20
84.1588204
11
6.3142523
21
84.5744601
0
LINE
8
DEFAULT_255_1_388
10
6.3142523
20
84.5744601
11
5.9474052
21
84.5744601
0
LINE
8
DEFAULT_255_1_388
10
5.9474052
20
84.5744601
11
5.9474052
21
84.7325838
0
LINE
8
DEFAULT_255_1_388
10
5.9474052
20
84.7325838
11
6.3142523
21
84.7325838
0
LINE
8
DEFAULT_255_1_388
10
6.3142523
20
84.7325838
11
6.3142523
21
85.1165987
0
LINE
8
DEFAULT_255_1_388
10
6.3142523
20
85.1165987
11
6.4823153
21
85.1165987
0
LINE
8
DEFAULT_255_1_388
10
4.2438444
20
5.9674898
11
4.5609955
21
5.4633009
0
LINE
8
DEFAULT_255_1_388
10
4.5609955
20
5.4633009
11
4.8763395
21
5.9674898
0
LINE
8
DEFAULT_255_1_388
10
4.8763395
20
5.9674898
11
5.0805451
21
5.9674898
0
LINE
8
DEFAULT_255_1_388
10
5.0805451
20
5.9674898
11
4.6649054
21
5.3151163
0
LINE
8
DEFAULT_255_1_388
10
4.6649054
20
5.3151163
11
5.0904843
21
4.6519
0
LINE
8
DEFAULT_255_1_388
10
5.0904843
20
4.6519
11
4.8844716
21
4.6519
0
LINE
8
DEFAULT_255_1_388
10
4.8844716
20
4.6519
11
4.5609955
21
5.1651246
0
LINE
8
DEFAULT_255_1_388
10
4.5609955
20
5.1651246
11
4.2357123
21
4.6519
0
LINE
8
DEFAULT_255_1_388
10
4.2357123
20
4.6519
11
4.0306032
21
4.6519
0
LINE
8
DEFAULT_255_1_388
10
4.0306032
20
4.6519
11
4.4570856
21
5.3151163
0
LINE
8
DEFAULT_255_1_388
10
4.4570856
20
5.3151163
11
4.0405424
21
5.9674898
0
LINE
8
DEFAULT_255_1_388
10
4.0405424
20
5.9674898
11
4.2438444
21
5.9674898
0
LINE
8
DEFAULT_255_1_388
10
6.1106085
20
4.7883382
11
6.1106085
21
4.6519
0
LINE
8
DEFAULT_255_1_388
10
6.1106085
20
4.6519
11
5.2486081
21
4.6519
0
LINE
8
DEFAULT_255_1_388
10
5.2486081
20
4.6519
11
5.2486081
21
4.7720741
0
LINE
8
DEFAULT_255_1_388
10
5.2486081
20
4.7720741
11
5.7040045
21
5.2780702
0
LINE
8
DEFAULT_255_1_388
10
5.3904677
20
5.5798607
11
5.2233083
21
5.5798607
0
LINE
8
DEFAULT_255_1_388
10
5.8024931
20
5.170546
11
5.4501029
21
4.7883382
0
LINE
8
DEFAULT_255_1_388
10
5.4501029
20
4.7883382
11
6.1106085
21
4.7883382
0
ARC
8
DEFAULT_255_1_388
10
4.1864105
20
6.6200983
40
2.0258655
50
318.5132526
51
320.7829045
0
ARC
8
DEFAULT_255_1_388
10
4.7812062
20
6.1359929
40
1.2589638
50
320.7372878
51
323.9739031
0
ARC
8
DEFAULT_255_1_388
10
5.2220994
20
5.8165554
40
0.7145141
50
323.8962701
51
328.64194
0
ARC
8
DEFAULT_255_1_388
10
5.4523251
20
5.6745545
40
0.4440242
50
328.8294576
51
331.7891185
0
ARC
8
DEFAULT_255_1_388
10
5.5645571
20
5.6166374
40
0.3177517
50
331.4254512
51
352.9365785
0
ARC
8
DEFAULT_255_1_388
10
5.5798571
20
5.613205
40
0.3021496
50
353.2257659
51
0.0166158
0
ARC
8
DEFAULT_255_1_388
10
5.6035332
20
5.6157894
40
0.2784847
50
359.486299
51
15.9343185
0
ARC
8
DEFAULT_255_1_388
10
5.6605599
20
5.6311269
40
0.2194403
50
16.1712913
51
43.5286088
0
ARC
8
DEFAULT_255_1_388
10
5.6692543
20
5.6398191
40
0.2071504
50
43.4417391
51
83.1661095
0
ARC
8
DEFAULT_255_1_388
10
5.6541704
20
5.5569316
40
0.2912888
50
82.160179
51
90.1505708
0
ARC
8
DEFAULT_255_1_388
10
5.6506186
20
5.4965279
40
0.3517025
50
89.5460741
51
102.5418361
0
ARC
8
DEFAULT_255_1_388
10
5.6232906
20
5.6124933
40
0.2325748
50
102.1738499
51
129.206123
0
ARC
8
DEFAULT_255_1_388
10
5.6144359
20
5.6264664
40
0.2161591
50
129.72865
51
135.753947
0
ARC
8
DEFAULT_255_1_388
10
5.6280841
20
5.6155728
40
0.2335433
50
136.1757367
51
166.3673339
0
ARC
8
DEFAULT_255_1_388
10
5.741353
20
5.5852148
40
0.3507873
50
165.9090694
51
178.8684636
0
ARC
8
DEFAULT_255_1_388
10
5.8389301
20
5.5799263
40
0.4484624
50
178.4391136
51
180.0083808
0
ARC
8
DEFAULT_255_1_388
10
5.6810003
20
5.5843197
40
0.4577138
50
163.2878482
51
180.5581842
0
ARC
8
DEFAULT_255_1_388
10
5.5908044
20
5.6091393
40
0.3641968
50
133.4540601
51
162.947111
0
ARC
8
DEFAULT_255_1_388
10
5.6108926
20
5.5877789
40
0.3935189
50
100.7869829
51
133.4382499
0
ARC
8
DEFAULT_255_1_388
10
5.6500171
20
5.4135399
40
0.5720313
50
89.660664
51
101.3702276
0
ARC
8
DEFAULT_255_1_388
10
5.657478
20
5.4204263
40
0.5651495
50
78.2172678
51
90.412935
0
ARC
8
DEFAULT_255_1_388
10
5.6974245
20
5.6031511
40
0.378122
50
55.9269121
51
78.4888449
0
ARC
8
DEFAULT_255_1_388
10
5.7194961
20
5.6412187
40
0.3342379
50
47.929771
51
55.4049217
0
ARC
8
DEFAULT_255_1_388
10
5.7309491
20
5.6528618
40
0.3179217
50
4.334829
51
48.0560205
0
ARC
8
DEFAULT_255_1_388
10
5.6077293
20
5.6337487
40
0.442341
50
359.9251713
51
5.5971671
0
ARC
8
DEFAULT_255_1_388
10
5.6559447
20
5.6400728
40
0.3941854
50
337.8914027
51
358.9967534
0
ARC
8
DEFAULT_255_1_388
10
5.3507017
20
5.7578295
40
0.7213271
50
326.9132501
51
338.3508308
0
ARC
8
DEFAULT_255_1_388
10
4.9023129
20
6.0452105
40
1.2538973
50
319.6471833
51
327.0959558
0
ARC
8
DEFAULT_255_1_388
10
4.4709787
20
6.401005
40
1.8129975
50
317.2588228
51
319.9045804
0
LINE
8
DEFAULT_255_1_388
10
4.2358444
20
13.9049898
11
4.5529955
21
13.4008009
0
LINE
8
DEFAULT_255_1_388
10
4.5529955
20
13.4008009
11
4.8683395
21
13.9049898
0
LINE
8
DEFAULT_255_1_388
10
4.8683395
20
13.9049898
11
5.0725451
21
13.9049898
0
LINE
8
DEFAULT_255_1_388
10
5.0725451
20
13.9049898
11
4.6569054
21
13.2526163
0
LINE
8
DEFAULT_255_1_388
10
4.6569054
20
13.2526163
11
5.0824843
21
12.5894
0
LINE
8
DEFAULT_255_1_388
10
5.0824843
20
12.5894
11
4.8764716
21
12.5894
0
LINE
8
DEFAULT_255_1_388
10
4.8764716
20
12.5894
11
4.5529955
21
13.1026246
0
LINE
8
DEFAULT_255_1_388
10
4.5529955
20
13.1026246
11
4.2277123
21
12.5894
0
LINE
8
DEFAULT_255_1_388
10
4.2277123
20
12.5894
11
4.0226032
21
12.5894
0
LINE
8
DEFAULT_255_1_388
10
4.0226032
20
12.5894
11
4.4490856
21
13.2526163
0
LINE
8
DEFAULT_255_1_388
10
4.4490856
20
13.2526163
11
4.0325424
21
13.9049898
0
LINE
8
DEFAULT_255_1_388
10
4.0325424
20
13.9049898
11
4.2358444
21
13.9049898
0
LINE
8
DEFAULT_255_1_388
10
5.7899752
20
13.9113148
11
5.7899752
21
12.5894
0
LINE
8
DEFAULT_255_1_388
10
5.7899752
20
12.5894
11
5.6219123
21
12.5894
0
LINE
8
DEFAULT_255_1_388
10
5.6219123
20
12.5894
11
5.6219123
21
13.703495
0
LINE
8
DEFAULT_255_1_388
10
5.6219123
20
13.703495
11
5.2848827
21
13.5797066
0
LINE
8
DEFAULT_255_1_388
10
5.2848827
20
13.5797066
11
5.2848827
21
13.7315055
0
LINE
8
DEFAULT_255_1_388
10
5.2848827
20
13.7315055
11
5.7637719
21
13.9113148
0
LINE
8
DEFAULT_255_1_388
10
5.7637719
20
13.9113148
11
5.7899752
21
13.9113148
0
LINE
8
DEFAULT_255_1_388
10
4.2358444
20
21.8424898
11
4.5529955
21
21.3383009
0
LINE
8
DEFAULT_255_1_388
10
4.5529955
20
21.3383009
11
4.8683395
21
21.8424898
0
LINE
8
DEFAULT_255_1_388
10
4.8683395
20
21.8424898
11
5.0725451
21
21.8424898
0
LINE
8
DEFAULT_255_1_388
10
5.0725451
20
21.8424898
11
4.6569054
21
21.1901163
0
LINE
8
DEFAULT_255_1_388
10
4.6569054
20
21.1901163
11
5.0824843
21
20.5269
0
LINE
8
DEFAULT_255_1_388
10
5.0824843
20
20.5269
11
4.8764716
21
20.5269
0
LINE
8
DEFAULT_255_1_388
10
4.8764716
20
20.5269
11
4.5529955
21
21.0401246
0
LINE
8
DEFAULT_255_1_388
10
4.5529955
20
21.0401246
11
4.2277123
21
20.5269
0
LINE
8
DEFAULT_255_1_388
10
4.2277123
20
20.5269
11
4.0226032
21
20.5269
0
LINE
8
DEFAULT_255_1_388
10
4.0226032
20
20.5269
11
4.4490856
21
21.1901163
0
LINE
8
DEFAULT_255_1_388
10
4.4490856
20
21.1901163
11
4.0325424
21
21.8424898
0
LINE
8
DEFAULT_255_1_388
10
4.0325424
20
21.8424898
11
4.2358444
21
21.8424898
0
LINE
8
DEFAULT_255_1_388
10
5.7899752
20
21.8488148
11
5.7899752
21
20.5269
0
LINE
8
DEFAULT_255_1_388
10
5.7899752
20
20.5269
11
5.6219123
21
20.5269
0
LINE
8
DEFAULT_255_1_388
10
5.6219123
20
20.5269
11
5.6219123
21
21.640995
0
LINE
8
DEFAULT_255_1_388
10
5.6219123
20
21.640995
11
5.2848827
21
21.5172066
0
LINE
8
DEFAULT_255_1_388
10
5.2848827
20
21.5172066
11
5.2848827
21
21.6690055
0
LINE
8
DEFAULT_255_1_388
10
5.2848827
20
21.6690055
11
5.7637719
21
21.8488148
0
LINE
8
DEFAULT_255_1_388
10
5.7637719
20
21.8488148
11
5.7899752
21
21.8488148
0
LINE
8
DEFAULT_255_1_388
10
4.2358444
20
29.7799898
11
4.5529955
21
29.2758009
0
LINE
8
DEFAULT_255_1_388
10
4.5529955
20
29.2758009
11
4.8683395
21
29.7799898
0
LINE
8
DEFAULT_255_1_388
10
4.8683395
20
29.7799898
11
5.0725451
21
29.7799898
0
LINE
8
DEFAULT_255_1_388
10
5.0725451
20
29.7799898
11
4.6569054
21
29.1276163
0
LINE
8
DEFAULT_255_1_388
10
4.6569054
20
29.1276163
11
5.0824843
21
28.4644
0
LINE
8
DEFAULT_255_1_388
10
5.0824843
20
28.4644
11
4.8764716
21
28.4644
0
LINE
8
DEFAULT_255_1_388
10
4.8764716
20
28.4644
11
4.5529955
21
28.9776246
0
LINE
8
DEFAULT_255_1_388
10
4.5529955
20
28.9776246
11
4.2277123
21
28.4644
0
LINE
8
DEFAULT_255_1_388
10
4.2277123
20
28.4644
11
4.0226032
21
28.4644
0
LINE
8
DEFAULT_255_1_388
10
4.0226032
20
28.4644
11
4.4490856
21
29.1276163
0
LINE
8
DEFAULT_255_1_388
10
4.4490856
20
29.1276163
11
4.0325424
21
29.7799898
0
LINE
8
DEFAULT_255_1_388
10
4.0325424
20
29.7799898
11
4.2358444
21
29.7799898
0
LINE
8
DEFAULT_255_1_388
10
5.7899752
20
29.7863148
11
5.7899752
21
28.4644
0
LINE
8
DEFAULT_255_1_388
10
5.7899752
20
28.4644
11
5.6219123
21
28.4644
0
LINE
8
DEFAULT_255_1_388
10
5.6219123
20
28.4644
11
5.6219123
21
29.578495
0
LINE
8
DEFAULT_255_1_388
10
5.6219123
20
29.578495
11
5.2848827
21
29.4547066
0
LINE
8
DEFAULT_255_1_388
10
5.2848827
20
29.4547066
11
5.2848827
21
29.6065055
0
LINE
8
DEFAULT_255_1_388
10
5.2848827
20
29.6065055
11
5.7637719
21
29.7863148
0
LINE
8
DEFAULT_255_1_388
10
5.7637719
20
29.7863148
11
5.7899752
21
29.7863148
0
LINE
8
DEFAULT_255_1_388
10
4.0993024
20
37.7174898
11
4.3233864
21
37.7174898
0
LINE
8
DEFAULT_255_1_388
10
4.3233864
20
37.7174898
11
4.7534831
21
36.6440553
0
LINE
8
DEFAULT_255_1_388
10
4.7534831
20
36.6440553
11
5.1835797
21
37.7174898
0
LINE
8
DEFAULT_255_1_388
10
5.1835797
20
37.7174898
11
5.4085673
21
37.7174898
0
LINE
8
DEFAULT_255_1_388
10
5.4085673
20
37.7174898
11
5.4085673
21
36.4019
0
LINE
8
DEFAULT_255_1_388
10
5.4085673
20
36.4019
11
5.2350829
21
36.4019
0
LINE
8
DEFAULT_255_1_388
10
5.2350829
20
36.4019
11
5.2350829
21
36.914221
0
LINE
8
DEFAULT_255_1_388
10
5.2350829
20
36.914221
11
5.2513471
21
37.4672025
0
LINE
8
DEFAULT_255_1_388
10
5.2513471
20
37.4672025
11
4.8194433
21
36.4019
0
LINE
8
DEFAULT_255_1_388
10
4.8194433
20
36.4019
11
4.6866193
21
36.4019
0
LINE
8
DEFAULT_255_1_388
10
4.6866193
20
36.4019
11
4.255619
21
37.4644918
0
LINE
8
DEFAULT_255_1_388
10
4.255619
20
37.4644918
11
4.2727868
21
36.914221
0
LINE
8
DEFAULT_255_1_388
10
4.2727868
20
36.914221
11
4.2727868
21
36.4019
0
LINE
8
DEFAULT_255_1_388
10
4.2727868
20
36.4019
11
4.0993024
21
36.4019
0
LINE
8
DEFAULT_255_1_388
10
4.0993024
20
36.4019
11
4.0993024
21
37.7174898
0
LINE
8
DEFAULT_255_1_388
10
6.7259643
20
37.7174898
11
6.7259643
21
36.4019
0
LINE
8
DEFAULT_255_1_388
10
6.7259643
20
36.4019
11
6.5515763
21
36.4019
0
LINE
8
DEFAULT_255_1_388
10
6.5515763
20
36.4019
11
5.8892636
21
37.4156993
0
LINE
8
DEFAULT_255_1_388
10
5.8892636
20
37.4156993
11
5.8892636
21
36.4019
0
LINE
8
DEFAULT_255_1_388
10
5.8892636
20
36.4019
11
5.7148756
21
36.4019
0
LINE
8
DEFAULT_255_1_388
10
5.7148756
20
36.4019
11
5.7148756
21
37.7174898
0
LINE
8
DEFAULT_255_1_388
10
5.7148756
20
37.7174898
11
5.8892636
21
37.7174898
0
LINE
8
DEFAULT_255_1_388
10
5.8892636
20
37.7174898
11
6.5533834
21
36.6991727
0
LINE
8
DEFAULT_255_1_388
10
6.5533834
20
36.6991727
11
6.5533834
21
37.7174898
0
LINE
8
DEFAULT_255_1_388
10
6.5533834
20
37.7174898
11
6.7259643
21
37.7174898
0
LINE
8
DEFAULT_255_1_388
10
7.9168622
20
37.7174898
11
7.9168622
21
37.5747267
0
LINE
8
DEFAULT_255_1_388
10
7.9168622
20
37.5747267
11
7.493994
21
37.5747267
0
LINE
8
DEFAULT_255_1_388
10
7.493994
20
37.5747267
11
7.493994
21
36.4019
0
LINE
8
DEFAULT_255_1_388
10
7.493994
20
36.4019
11
7.3214132
21
36.4019
0
LINE
8
DEFAULT_255_1_388
10
7.3214132
20
36.4019
11
7.3214132
21
37.5747267
0
LINE
8
DEFAULT_255_1_388
10
7.3214132
20
37.5747267
11
6.8994486
21
37.5747267
0
LINE
8
DEFAULT_255_1_388
10
6.8994486
20
37.5747267
11
6.8994486
21
37.7174898
0
LINE
8
DEFAULT_255_1_388
10
6.8994486
20
37.7174898
11
7.9168622
21
37.7174898
0
LINE
8
DEFAULT_255_1_388
10
4.8253359
20
45.0893585
11
4.8253359
21
44.9474989
0
LINE
8
DEFAULT_255_1_388
10
4.8253359
20
44.9474989
11
4.2551868
21
44.9474989
0
LINE
8
DEFAULT_255_1_388
10
4.2551868
20
44.9474989
11
4.2551868
21
44.4812596
0
LINE
8
DEFAULT_255_1_388
10
4.2551868
20
44.4812596
11
4.9174995
21
44.4812596
0
LINE
8
DEFAULT_255_1_388
10
4.9174995
20
44.4812596
11
4.9174995
21
44.3394
0
LINE
8
DEFAULT_255_1_388
10
4.9174995
20
44.3394
11
4.0817024
21
44.3394
0
LINE
8
DEFAULT_255_1_388
10
4.0817024
20
44.3394
11
4.0817024
21
45.6549898
0
LINE
8
DEFAULT_255_1_388
10
4.0817024
20
45.6549898
11
4.9084639
21
45.6549898
0
LINE
8
DEFAULT_255_1_388
10
4.9084639
20
45.6549898
11
4.9084639
21
45.5122267
0
LINE
8
DEFAULT_255_1_388
10
4.9084639
20
45.5122267
11
4.2551868
21
45.5122267
0
LINE
8
DEFAULT_255_1_388
10
4.2551868
20
45.5122267
11
4.2551868
21
45.0893585
0
LINE
8
DEFAULT_255_1_388
10
4.2551868
20
45.0893585
11
4.8253359
21
45.0893585
0
LINE
8
DEFAULT_255_1_388
10
5.9014812
20
44.3394
11
5.6159548
21
44.8715995
0
LINE
8
DEFAULT_255_1_388
10
5.6159548
20
44.8715995
11
5.3069358
21
44.8715995
0
LINE
8
DEFAULT_255_1_388
10
5.3069358
20
44.8715995
11
5.3069358
21
44.3394
0
LINE
8
DEFAULT_255_1_388
10
5.3069358
20
44.3394
11
5.1325479
21
44.3394
0
LINE
8
DEFAULT_255_1_388
10
5.1325479
20
44.3394
11
5.1325479
21
45.6549898
0
LINE
8
DEFAULT_255_1_388
10
5.1325479
20
45.6549898
11
5.5680659
21
45.6549898
0
LINE
8
DEFAULT_255_1_388
10
5.7785964
20
44.9086456
11
6.0876155
21
44.3502428
0
LINE
8
DEFAULT_255_1_388
10
6.0876155
20
44.3502428
11
6.0876155
21
44.3394
0
LINE
8
DEFAULT_255_1_388
10
6.0876155
20
44.3394
11
5.9014812
21
44.3394
0
LINE
8
DEFAULT_255_1_388
10
5.3069358
20
45.5122267
11
5.3069358
21
45.0134591
0
LINE
8
DEFAULT_255_1_388
10
5.3069358
20
45.0134591
11
5.5734873
21
45.0134591
0
LINE
8
DEFAULT_255_1_388
10
5.5725837
20
45.5122267
11
5.3069358
21
45.5122267
0
ARC
8
DEFAULT_255_1_388
10
5.5727505
20
44.8718346
40
0.7831693
50
80.6535681
51
90.3427203
0
ARC
8
DEFAULT_255_1_388
10
5.6199416
20
45.1488722
40
0.5021479
50
65.6987674
51
80.8330164
0
ARC
8
DEFAULT_255_1_388
10
5.6736709
20
45.2720479
40
0.3677787
50
50.0019152
51
65.4304412
0
ARC
8
DEFAULT_255_1_388
10
5.6982526
20
45.3052603
40
0.3265454
50
11.6284215
51
49.5603681
0
ARC
8
DEFAULT_255_1_388
10
5.5255012
20
45.2630524
40
0.5043009
50
359.5655533
51
12.3693319
0
ARC
8
DEFAULT_255_1_388
10
5.6466348
20
45.2560038
40
0.3831661
50
341.998418
51
0.4822212
0
ARC
8
DEFAULT_255_1_388
10
5.6910534
20
45.2439479
40
0.3372036
50
323.8610842
51
341.6141514
0
ARC
8
DEFAULT_255_1_388
10
5.657108
20
45.2701615
40
0.3800784
50
296.7019299
51
323.6876213
0
ARC
8
DEFAULT_255_1_388
10
5.6075038
20
45.3588532
40
0.4816219
50
290.808313
51
297.2325929
0
ARC
8
DEFAULT_255_1_388
10
5.5763832
20
45.4177377
40
0.404289
50
269.5895908
51
281.8058892
0
ARC
8
DEFAULT_255_1_388
10
5.6046098
20
45.288636
40
0.2721459
50
281.5499321
51
303.9358954
0
ARC
8
DEFAULT_255_1_388
10
5.6200633
20
45.2618588
40
0.2413121
50
304.4410786
51
311.211123
0
ARC
8
DEFAULT_255_1_388
10
5.6349038
20
45.2462152
40
0.2197678
50
310.9874923
51
356.2715203
0
ARC
8
DEFAULT_255_1_388
10
5.5498784
20
45.2588992
40
0.3055212
50
354.9346315
51
0.0617816
0
ARC
8
DEFAULT_255_1_388
10
5.5287625
20
45.2619427
40
0.3266482
50
359.5239293
51
12.8808621
0
ARC
8
DEFAULT_255_1_388
10
5.6387388
20
45.2888638
40
0.2134449
50
12.417206
51
43.1023141
0
ARC
8
DEFAULT_255_1_388
10
5.6456718
20
45.2930253
40
0.2055463
50
43.575886
51
48.2047245
0
ARC
8
DEFAULT_255_1_388
10
5.6265979
20
45.2681151
40
0.2368418
50
48.7809155
51
72.6968768
0
ARC
8
DEFAULT_255_1_388
10
5.5867343
20
45.1471385
40
0.364206
50
72.3699892
51
84.8793749
0
ARC
8
DEFAULT_255_1_388
10
5.5701349
20
44.9961651
40
0.5160674
50
84.5398226
51
89.7281165
0
LINE
8
DEFAULT_255_1_388
10
4.8700322
20
52.2769
11
4.5845058
21
52.8090995
0
LINE
8
DEFAULT_255_1_388
10
4.5845058
20
52.8090995
11
4.2754868
21
52.8090995
0
LINE
8
DEFAULT_255_1_388
10
4.2754868
20
52.8090995
11
4.2754868
21
52.2769
0
LINE
8
DEFAULT_255_1_388
10
4.2754868
20
52.2769
11
4.1010988
21
52.2769
0
LINE
8
DEFAULT_255_1_388
10
4.1010988
20
52.2769
11
4.1010988
21
53.5924898
0
LINE
8
DEFAULT_255_1_388
10
4.1010988
20
53.5924898
11
4.5366169
21
53.5924898
0
LINE
8
DEFAULT_255_1_388
10
4.7471474
20
52.8461456
11
5.0561665
21
52.2877428
0
LINE
8
DEFAULT_255_1_388
10
5.0561665
20
52.2877428
11
5.0561665
21
52.2769
0
LINE
8
DEFAULT_255_1_388
10
5.0561665
20
52.2769
11
4.8700322
21
52.2769
0
LINE
8
DEFAULT_255_1_388
10
4.2754868
20
53.4497267
11
4.2754868
21
52.9509591
0
LINE
8
DEFAULT_255_1_388
10
4.2754868
20
52.9509591
11
4.5420383
21
52.9509591
0
LINE
8
DEFAULT_255_1_388
10
4.5411347
20
53.4497267
11
4.2754868
21
53.4497267
0
ARC
8
DEFAULT_255_1_388
10
4.5413015
20
52.8093346
40
0.7831693
50
80.6535681
51
90.3427203
0
ARC
8
DEFAULT_255_1_388
10
4.5884925
20
53.0863722
40
0.5021479
50
65.6987674
51
80.8330164
0
ARC
8
DEFAULT_255_1_388
10
4.6422219
20
53.2095479
40
0.3677787
50
50.0019152
51
65.4304412
0
ARC
8
DEFAULT_255_1_388
10
4.6668035
20
53.2427603
40
0.3265454
50
11.6284215
51
49.5603681
0
ARC
8
DEFAULT_255_1_388
10
4.4940521
20
53.2005524
40
0.5043009
50
359.5655533
51
12.3693319
0
ARC
8
DEFAULT_255_1_388
10
4.6151858
20
53.1935038
40
0.3831661
50
341.998418
51
0.4822212
0
ARC
8
DEFAULT_255_1_388
10
4.6596044
20
53.1814479
40
0.3372036
50
323.8610842
51
341.6141514
0
ARC
8
DEFAULT_255_1_388
10
4.625659
20
53.2076615
40
0.3800784
50
296.7019299
51
323.6876213
0
ARC
8
DEFAULT_255_1_388
10
4.5760548
20
53.2963532
40
0.4816219
50
290.808313
51
297.2325929
0
ARC
8
DEFAULT_255_1_388
10
4.5449342
20
53.3552377
40
0.404289
50
269.5895908
51
281.8058892
0
ARC
8
DEFAULT_255_1_388
10
4.5731608
20
53.226136
40
0.2721459
50
281.5499321
51
303.9358954
0
ARC
8
DEFAULT_255_1_388
10
4.5886143
20
53.1993588
40
0.2413121
50
304.4410786
51
311.211123
0
ARC
8
DEFAULT_255_1_388
10
4.6034548
20
53.1837152
40
0.2197678
50
310.9874923
51
356.2715203
0
ARC
8
DEFAULT_255_1_388
10
4.5184294
20
53.1963992
40
0.3055212
50
354.9346315
51
0.0617816
0
ARC
8
DEFAULT_255_1_388
10
4.4973135
20
53.1994427
40
0.3266482
50
359.5239293
51
12.8808621
0
ARC
8
DEFAULT_255_1_388
10
4.6072898
20
53.2263638
40
0.2134449
50
12.417206
51
43.1023141
0
ARC
8
DEFAULT_255_1_388
10
4.6142228
20
53.2305253
40
0.2055463
50
43.575886
51
48.2047245
0
ARC
8
DEFAULT_255_1_388
10
4.5951489
20
53.2056151
40
0.2368418
50
48.7809155
51
72.6968768
0
ARC
8
DEFAULT_255_1_388
10
4.5552853
20
53.0846385
40
0.364206
50
72.3699892
51
84.8793749
0
ARC
8
DEFAULT_255_1_388
10
4.5386859
20
52.9336651
40
0.5160674
50
84.5398226
51
89.7281165
0
LINE
8
DEFAULT_255_1_388
10
5.7970893
20
53.5924898
11
5.2486257
21
52.1639544
0
LINE
8
DEFAULT_255_1_388
10
5.2486257
20
52.1639544
11
5.1049589
21
52.1639544
0
LINE
8
DEFAULT_255_1_388
10
5.1049589
20
52.1639544
11
5.6543261
21
53.5924898
0
LINE
8
DEFAULT_255_1_388
10
5.6543261
20
53.5924898
11
5.7970893
21
53.5924898
0
LINE
8
DEFAULT_255_1_388
10
6.8768488
20
53.2120892
11
6.7024609
21
53.2120892
0
LINE
8
DEFAULT_255_1_388
10
5.9235883
20
52.6582042
11
6.0979763
21
52.6582042
0
ARC
8
DEFAULT_255_1_388
10
6.7765336
20
54.2184821
40
1.4087688
50
248.9196578
51
254.1442424
0
ARC
8
DEFAULT_255_1_388
10
6.5875216
20
53.7318805
40
0.8867498
50
241.6337352
51
249.0064643
0
ARC
8
DEFAULT_255_1_388
10
6.4155529
20
53.4167764
40
0.5277799
50
230.4982261
51
241.8087583
0
ARC
8
DEFAULT_255_1_388
10
6.3273301
20
53.3043686
40
0.3849419
50
227.4062979
51
229.9877433
0
ARC
8
DEFAULT_255_1_388
10
6.2724647
20
53.2508155
40
0.3084129
50
200.6782127
51
228.1765252
0
ARC
8
DEFAULT_255_1_388
10
6.2806016
20
53.2491277
40
0.315461
50
179.506278
51
199.8695278
0
ARC
8
DEFAULT_255_1_388
10
6.2795605
20
53.2574671
40
0.3144584
50
132.4834401
51
181.0242352
0
ARC
8
DEFAULT_255_1_388
10
6.3464809
20
53.1942788
40
0.4063094
50
129.2526113
51
133.4249077
0
ARC
8
DEFAULT_255_1_388
10
6.3630401
20
53.1694619
40
0.436014
50
101.9878945
51
128.8741833
0
ARC
8
DEFAULT_255_1_388
10
6.4078817
20
52.975836
40
0.6347415
50
89.5906376
51
102.3170567
0
ARC
8
DEFAULT_255_1_388
10
6.4158128
20
53.0116586
40
0.5989122
50
77.2359491
51
90.3248968
0
ARC
8
DEFAULT_255_1_388
10
6.4391059
20
53.1204554
40
0.4876594
50
63.8379856
51
77.0808925
0
ARC
8
DEFAULT_255_1_388
10
6.4703593
20
53.1786882
40
0.4216191
50
45.9863127
51
64.1608798
0
ARC
8
DEFAULT_255_1_388
10
6.4996987
20
53.212199
40
0.3771394
50
32.2747934
51
45.6544796
0
ARC
8
DEFAULT_255_1_388
10
6.5071793
20
53.2143426
40
0.3696765
50
359.6507495
51
32.6129943
0
ARC
8
DEFAULT_255_1_388
10
6.4010976
20
53.2148788
40
0.3013762
50
359.469654
51
14.983205
0
ARC
8
DEFAULT_255_1_388
10
6.4804228
20
53.2361288
40
0.2192542
50
14.9781954
51
48.2004799
0
ARC
8
DEFAULT_255_1_388
10
6.4619339
20
53.2128937
40
0.2489048
50
48.5926661
51
74.1242559
0
ARC
8
DEFAULT_255_1_388
10
6.4244141
20
53.0890607
40
0.3782845
50
73.7889321
51
86.6653996
0
ARC
8
DEFAULT_255_1_388
10
6.4128956
20
52.9532955
40
0.5145025
50
86.2642725
51
90.0533288
0
ARC
8
DEFAULT_255_1_388
10
6.4097048
20
52.9977376
40
0.4700681
50
89.669455
51
99.2313411
0
ARC
8
DEFAULT_255_1_388
10
6.3824208
20
53.1602401
40
0.3052945
50
99.0695987
51
113.7659242
0
ARC
8
DEFAULT_255_1_388
10
6.3516203
20
53.2328772
40
0.226407
50
114.0402885
51
127.9848946
0
ARC
8
DEFAULT_255_1_388
10
6.3245679
20
53.2661884
40
0.1835045
50
127.7287217
51
176.7106493
0
ARC
8
DEFAULT_255_1_388
10
6.4009344
20
53.254821
40
0.2604907
50
175.1780759
51
180.0581213
0
ARC
8
DEFAULT_255_1_388
10
6.3060688
20
53.2534411
40
0.1656287
50
179.6140658
51
228.124674
0
ARC
8
DEFAULT_255_1_388
10
6.3558045
20
53.299494
40
0.2332038
50
226.5785315
51
230.8792476
0
ARC
8
DEFAULT_255_1_388
10
6.4087532
20
53.3697908
40
0.3211664
50
231.4636401
51
241.9261664
0
ARC
8
DEFAULT_255_1_388
10
6.5434315
20
53.6176349
40
0.6032345
50
241.7177136
51
248.3259138
0
ARC
8
DEFAULT_255_1_388
10
6.699291
20
54.0037771
40
1.0196417
50
248.2007377
51
252.4527713
0
ARC
8
DEFAULT_255_1_388
10
6.8346436
20
54.4222092
40
1.4594143
50
252.3388938
51
254.347037
0
ARC
8
DEFAULT_255_1_388
10
5.9861737
20
51.3874095
40
1.6917621
50
71.0197462
51
74.4085467
0
ARC
8
DEFAULT_255_1_388
10
6.1768825
20
51.9379144
40
1.1091618
50
66.1845203
51
71.086519
0
ARC
8
DEFAULT_255_1_388
10
6.3519374
20
52.3320439
40
0.6779073
50
59.3537334
51
66.269255
0
ARC
8
DEFAULT_255_1_388
10
6.45191
20
52.5011777
40
0.4814366
50
49.1021732
51
59.3294421
0
ARC
8
DEFAULT_255_1_388
10
6.5440088
20
52.6061575
40
0.3417875
50
32.7924183
51
49.2503526
0
ARC
8
DEFAULT_255_1_388
10
6.5789702
20
52.6311311
40
0.2988789
50
31.121225
51
32.3977355
0
ARC
8
DEFAULT_255_1_388
10
6.570188
20
52.6278728
40
0.3080861
50
8.1116803
51
30.7958224
0
ARC
8
DEFAULT_255_1_388
10
6.4790226
20
52.6123437
40
0.4005385
50
359.8390945
51
8.4707348
0
ARC
8
DEFAULT_255_1_388
10
6.5494273
20
52.6068751
40
0.3301608
50
337.4732479
51
0.7538283
0
ARC
8
DEFAULT_255_1_388
10
6.5695298
20
52.6046554
40
0.3107929
50
307.5917028
51
336.4313755
0
ARC
8
DEFAULT_255_1_388
10
6.5184356
20
52.6614509
40
0.3870096
50
307.6560665
51
308.4561779
0
ARC
8
DEFAULT_255_1_388
10
6.4918573
20
52.7022832
40
0.435591
50
284.3733666
51
307.1426212
0
ARC
8
DEFAULT_255_1_388
10
6.4361467
20
52.9072391
40
0.6479685
50
272.4384566
51
284.6464689
0
ARC
8
DEFAULT_255_1_388
10
6.4218852
20
53.1096434
40
0.8508149
50
269.9708517
51
272.8180721
0
ARC
8
DEFAULT_255_1_388
10
6.4170534
20
52.8804283
40
0.6216151
50
248.2707343
51
270.4054609
0
ARC
8
DEFAULT_255_1_388
10
6.4109406
20
52.8589673
40
0.5994203
50
246.1380358
51
248.054058
0
ARC
8
DEFAULT_255_1_388
10
6.3638549
20
52.7600705
40
0.4899388
50
233.1671897
51
246.4951656
0
ARC
8
DEFAULT_255_1_388
10
6.3015184
20
52.6759137
40
0.3852115
50
215.3403381
51
233.084328
0
ARC
8
DEFAULT_255_1_388
10
6.2708548
20
52.6536093
40
0.3472969
50
179.2419235
51
215.2648426
0
ARC
8
DEFAULT_255_1_388
10
6.3572099
20
52.6551979
40
0.259251
50
179.3355796
51
199.1045873
0
ARC
8
DEFAULT_255_1_388
10
6.3198241
20
52.6454223
40
0.2207454
50
199.8830064
51
232.7061328
0
ARC
8
DEFAULT_255_1_388
10
6.3729515
20
52.7122456
40
0.306101
50
232.3736206
51
255.5136621
0
ARC
8
DEFAULT_255_1_388
10
6.4113021
20
52.8522177
40
0.4512213
50
255.2447928
51
267.5318292
0
ARC
8
DEFAULT_255_1_388
10
6.4211488
20
52.9908709
40
0.5901825
50
267.1564563
51
270.0294721
0
ARC
8
DEFAULT_255_1_388
10
6.4242813
20
52.9409623
40
0.5402814
50
269.6999944
51
278.1662446
0
ARC
8
DEFAULT_255_1_388
10
6.4530841
20
52.7462974
40
0.3435003
50
278.0229022
51
290.6255326
0
ARC
8
DEFAULT_255_1_388
10
6.4922007
20
52.6419547
40
0.2320666
50
290.6616368
51
307.0374127
0
ARC
8
DEFAULT_255_1_388
10
6.5259907
20
52.600504
40
0.1786372
50
306.3942078
51
355.303191
0
ARC
8
DEFAULT_255_1_388
10
6.46842
20
52.6091186
40
0.2367516
50
354.3662092
51
0.0709489
0
ARC
8
DEFAULT_255_1_388
10
6.4844069
20
52.6116561
40
0.2207761
50
359.4175379
51
16.1975911
0
ARC
8
DEFAULT_255_1_388
10
6.5356186
20
52.6256954
40
0.1676828
50
16.4721294
51
52.6261798
0
ARC
8
DEFAULT_255_1_388
10
6.4432694
20
52.5037606
40
0.3206412
50
52.7381828
51
62.4979144
0
ARC
8
DEFAULT_255_1_388
10
6.2874447
20
52.2105236
40
0.6527035
50
62.2517425
51
68.1219454
0
ARC
8
DEFAULT_255_1_388
10
6.0939935
20
51.7350951
40
1.1659797
50
68.006043
51
71.8055127
0
ARC
8
DEFAULT_255_1_388
10
5.8919843
20
51.1292723
40
1.8045908
50
71.718361
51
73.9260743
0
LINE
8
DEFAULT_255_1_388
10
4.8134318
20
60.3508382
11
4.8134318
21
60.2144
0
LINE
8
DEFAULT_255_1_388
10
4.8134318
20
60.2144
11
3.9514313
21
60.2144
0
LINE
8
DEFAULT_255_1_388
10
3.9514313
20
60.2144
11
3.9514313
21
60.3345741
0
LINE
8
DEFAULT_255_1_388
10
3.9514313
20
60.3345741
11
4.4068278
21
60.8405702
0
LINE
8
DEFAULT_255_1_388
10
4.0932909
20
61.1423607
11
3.9261315
21
61.1423607
0
LINE
8
DEFAULT_255_1_388
10
4.5053163
20
60.733046
11
4.1529262
21
60.3508382
0
LINE
8
DEFAULT_255_1_388
10
4.1529262
20
60.3508382
11
4.8134318
21
60.3508382
0
ARC
8
DEFAULT_255_1_388
10
2.8892337
20
62.1825983
40
2.0258655
50
318.5132526
51
320.7829045
0
ARC
8
DEFAULT_255_1_388
10
3.4840294
20
61.6984929
40
1.2589638
50
320.7372878
51
323.9739031
0
ARC
8
DEFAULT_255_1_388
10
3.9249226
20
61.3790554
40
0.7145141
50
323.8962701
51
328.64194
0
ARC
8
DEFAULT_255_1_388
10
4.1551484
20
61.2370545
40
0.4440242
50
328.8294576
51
331.7891185
0
ARC
8
DEFAULT_255_1_388
10
4.2673804
20
61.1791374
40
0.3177517
50
331.4254512
51
352.9365785
0
ARC
8
DEFAULT_255_1_388
10
4.2826804
20
61.175705
40
0.3021496
50
353.2257659
51
0.0166158
0
ARC
8
DEFAULT_255_1_388
10
4.3063564
20
61.1782894
40
0.2784847
50
359.486299
51
15.9343185
0
ARC
8
DEFAULT_255_1_388
10
4.3633831
20
61.1936269
40
0.2194403
50
16.1712913
51
43.5286088
0
ARC
8
DEFAULT_255_1_388
10
4.3720776
20
61.2023191
40
0.2071504
50
43.4417391
51
83.1661095
0
ARC
8
DEFAULT_255_1_388
10
4.3569937
20
61.1194316
40
0.2912888
50
82.160179
51
90.1505708
0
ARC
8
DEFAULT_255_1_388
10
4.3534418
20
61.0590279
40
0.3517025
50
89.5460741
51
102.5418361
0
ARC
8
DEFAULT_255_1_388
10
4.3261138
20
61.1749933
40
0.2325748
50
102.1738499
51
129.206123
0
ARC
8
DEFAULT_255_1_388
10
4.3172592
20
61.1889664
40
0.2161591
50
129.72865
51
135.753947
0
ARC
8
DEFAULT_255_1_388
10
4.3309074
20
61.1780728
40
0.2335433
50
136.1757367
51
166.3673339
0
ARC
8
DEFAULT_255_1_388
10
4.4441762
20
61.1477148
40
0.3507873
50
165.9090694
51
178.8684636
0
ARC
8
DEFAULT_255_1_388
10
4.5417534
20
61.1424263
40
0.4484624
50
178.4391136
51
180.0083808
0
ARC
8
DEFAULT_255_1_388
10
4.3838235
20
61.1468197
40
0.4577138
50
163.2878482
51
180.5581842
0
ARC
8
DEFAULT_255_1_388
10
4.2936276
20
61.1716393
40
0.3641968
50
133.4540601
51
162.947111
0
ARC
8
DEFAULT_255_1_388
10
4.3137158
20
61.1502789
40
0.3935189
50
100.7869829
51
133.4382499
0
ARC
8
DEFAULT_255_1_388
10
4.3528403
20
60.9760399
40
0.5720313
50
89.660664
51
101.3702276
0
ARC
8
DEFAULT_255_1_388
10
4.3603012
20
60.9829263
40
0.5651495
50
78.2172678
51
90.412935
0
ARC
8
DEFAULT_255_1_388
10
4.4002478
20
61.1656511
40
0.378122
50
55.9269121
51
78.4888449
0
ARC
8
DEFAULT_255_1_388
10
4.4223193
20
61.2037187
40
0.3342379
50
47.929771
51
55.4049217
0
ARC
8
DEFAULT_255_1_388
10
4.4337723
20
61.2153618
40
0.3179217
50
4.334829
51
48.0560205
0
ARC
8
DEFAULT_255_1_388
10
4.3105525
20
61.1962487
40
0.442341
50
359.9251713
51
5.5971671
0
ARC
8
DEFAULT_255_1_388
10
4.358768
20
61.2025728
40
0.3941854
50
337.8914027
51
358.9967534
0
ARC
8
DEFAULT_255_1_388
10
4.053525
20
61.3203295
40
0.7213271
50
326.9132501
51
338.3508308
0
ARC
8
DEFAULT_255_1_388
10
3.6051362
20
61.6077105
40
1.2538973
50
319.6471833
51
327.0959558
0
ARC
8
DEFAULT_255_1_388
10
3.173802
20
61.963505
40
1.8129975
50
317.2588228
51
319.9045804
0
LINE
8
DEFAULT_255_1_388
10
5.2082895
20
61.5299898
11
5.2082895
21
60.3562596
0
LINE
8
DEFAULT_255_1_388
10
5.2082895
20
60.3562596
11
5.8317489
21
60.3562596
0
LINE
8
DEFAULT_255_1_388
10
5.8317489
20
60.3562596
11
5.8317489
21
60.2144
0
LINE
8
DEFAULT_255_1_388
10
5.8317489
20
60.2144
11
5.0339015
21
60.2144
0
LINE
8
DEFAULT_255_1_388
10
5.0339015
20
60.2144
11
5.0339015
21
61.5299898
0
LINE
8
DEFAULT_255_1_388
10
5.0339015
20
61.5299898
11
5.2082895
21
61.5299898
0
LINE
8
DEFAULT_255_1_388
10
6.4823153
20
61.3040987
11
6.4823153
21
60.9200838
0
LINE
8
DEFAULT_255_1_388
10
6.4823153
20
60.9200838
11
6.8491625
21
60.9200838
0
LINE
8
DEFAULT_255_1_388
10
6.8491625
20
60.9200838
11
6.8491625
21
60.7619601
0
LINE
8
DEFAULT_255_1_388
10
6.8491625
20
60.7619601
11
6.4823153
21
60.7619601
0
LINE
8
DEFAULT_255_1_388
10
6.4823153
20
60.7619601
11
6.4823153
21
60.3463204
0
LINE
8
DEFAULT_255_1_388
10
6.4823153
20
60.3463204
11
6.3142523
21
60.3463204
0
LINE
8
DEFAULT_255_1_388
10
6.3142523
20
60.3463204
11
6.3142523
21
60.7619601
0
LINE
8
DEFAULT_255_1_388
10
6.3142523
20
60.7619601
11
5.9474052
21
60.7619601
0
LINE
8
DEFAULT_255_1_388
10
5.9474052
20
60.7619601
11
5.9474052
21
60.9200838
0
LINE
8
DEFAULT_255_1_388
10
5.9474052
20
60.9200838
11
6.3142523
21
60.9200838
0
LINE
8
DEFAULT_255_1_388
10
6.3142523
20
60.9200838
11
6.3142523
21
61.3040987
0
LINE
8
DEFAULT_255_1_388
10
6.3142523
20
61.3040987
11
6.4823153
21
61.3040987
0
LINE
8
DEFAULT_255_1_388
10
4.8134318
20
68.2883382
11
4.8134318
21
68.1519
0
LINE
8
DEFAULT_255_1_388
10
4.8134318
20
68.1519
11
3.9514313
21
68.1519
0
LINE
8
DEFAULT_255_1_388
10
3.9514313
20
68.1519
11
3.9514313
21
68.2720741
0
LINE
8
DEFAULT_255_1_388
10
3.9514313
20
68.2720741
11
4.4068278
21
68.7780702
0
LINE
8
DEFAULT_255_1_388
10
4.0932909
20
69.0798607
11
3.9261315
21
69.0798607
0
LINE
8
DEFAULT_255_1_388
10
4.5053163
20
68.670546
11
4.1529262
21
68.2883382
0
LINE
8
DEFAULT_255_1_388
10
4.1529262
20
68.2883382
11
4.8134318
21
68.2883382
0
ARC
8
DEFAULT_255_1_388
10
2.8892337
20
70.1200983
40
2.0258655
50
318.5132526
51
320.7829045
0
ARC
8
DEFAULT_255_1_388
10
3.4840294
20
69.6359929
40
1.2589638
50
320.7372878
51
323.9739031
0
ARC
8
DEFAULT_255_1_388
10
3.9249226
20
69.3165554
40
0.7145141
50
323.8962701
51
328.64194
0
ARC
8
DEFAULT_255_1_388
10
4.1551484
20
69.1745545
40
0.4440242
50
328.8294576
51
331.7891185
0
ARC
8
DEFAULT_255_1_388
10
4.2673804
20
69.1166374
40
0.3177517
50
331.4254512
51
352.9365785
0
ARC
8
DEFAULT_255_1_388
10
4.2826804
20
69.113205
40
0.3021496
50
353.2257659
51
0.0166158
0
ARC
8
DEFAULT_255_1_388
10
4.3063564
20
69.1157894
40
0.2784847
50
359.486299
51
15.9343185
0
ARC
8
DEFAULT_255_1_388
10
4.3633831
20
69.1311269
40
0.2194403
50
16.1712913
51
43.5286088
0
ARC
8
DEFAULT_255_1_388
10
4.3720776
20
69.1398191
40
0.2071504
50
43.4417391
51
83.1661095
0
ARC
8
DEFAULT_255_1_388
10
4.3569937
20
69.0569316
40
0.2912888
50
82.160179
51
90.1505708
0
ARC
8
DEFAULT_255_1_388
10
4.3534418
20
68.9965279
40
0.3517025
50
89.5460741
51
102.5418361
0
ARC
8
DEFAULT_255_1_388
10
4.3261138
20
69.1124933
40
0.2325748
50
102.1738499
51
129.206123
0
ARC
8
DEFAULT_255_1_388
10
4.3172592
20
69.1264664
40
0.2161591
50
129.72865
51
135.753947
0
ARC
8
DEFAULT_255_1_388
10
4.3309074
20
69.1155728
40
0.2335433
50
136.1757367
51
166.3673339
0
ARC
8
DEFAULT_255_1_388
10
4.4441762
20
69.0852148
40
0.3507873
50
165.9090694
51
178.8684636
0
ARC
8
DEFAULT_255_1_388
10
4.5417534
20
69.0799263
40
0.4484624
50
178.4391136
51
180.0083808
0
ARC
8
DEFAULT_255_1_388
10
4.3838235
20
69.0843197
40
0.4577138
50
163.2878482
51
180.5581842
0
ARC
8
DEFAULT_255_1_388
10
4.2936276
20
69.1091393
40
0.3641968
50
133.4540601
51
162.947111
0
ARC
8
DEFAULT_255_1_388
10
4.3137158
20
69.0877789
40
0.3935189
50
100.7869829
51
133.4382499
0
ARC
8
DEFAULT_255_1_388
10
4.3528403
20
68.9135399
40
0.5720313
50
89.660664
51
101.3702276
0
ARC
8
DEFAULT_255_1_388
10
4.3603012
20
68.9204263
40
0.5651495
50
78.2172678
51
90.412935
0
ARC
8
DEFAULT_255_1_388
10
4.4002478
20
69.1031511
40
0.378122
50
55.9269121
51
78.4888449
0
ARC
8
DEFAULT_255_1_388
10
4.4223193
20
69.1412187
40
0.3342379
50
47.929771
51
55.4049217
0
ARC
8
DEFAULT_255_1_388
10
4.4337723
20
69.1528618
40
0.3179217
50
4.334829
51
48.0560205
0
ARC
8
DEFAULT_255_1_388
10
4.3105525
20
69.1337487
40
0.442341
50
359.9251713
51
5.5971671
0
ARC
8
DEFAULT_255_1_388
10
4.358768
20
69.1400728
40
0.3941854
50
337.8914027
51
358.9967534
0
ARC
8
DEFAULT_255_1_388
10
4.053525
20
69.2578295
40
0.7213271
50
326.9132501
51
338.3508308
0
ARC
8
DEFAULT_255_1_388
10
3.6051362
20
69.5452105
40
1.2538973
50
319.6471833
51
327.0959558
0
ARC
8
DEFAULT_255_1_388
10
3.173802
20
69.901005
40
1.8129975
50
317.2588228
51
319.9045804
0
LINE
8
DEFAULT_255_1_388
10
5.2082895
20
69.4674898
11
5.2082895
21
68.2937596
0
LINE
8
DEFAULT_255_1_388
10
5.2082895
20
68.2937596
11
5.8317489
21
68.2937596
0
LINE
8
DEFAULT_255_1_388
10
5.8317489
20
68.2937596
11
5.8317489
21
68.1519
0
LINE
8
DEFAULT_255_1_388
10
5.8317489
20
68.1519
11
5.0339015
21
68.1519
0
LINE
8
DEFAULT_255_1_388
10
5.0339015
20
68.1519
11
5.0339015
21
69.4674898
0
LINE
8
DEFAULT_255_1_388
10
5.0339015
20
69.4674898
11
5.2082895
21
69.4674898
0
LINE
8
DEFAULT_255_1_388
10
6.4823153
20
69.2415987
11
6.4823153
21
68.8575838
0
LINE
8
DEFAULT_255_1_388
10
6.4823153
20
68.8575838
11
6.8491625
21
68.8575838
0
LINE
8
DEFAULT_255_1_388
10
6.8491625
20
68.8575838
11
6.8491625
21
68.6994601
0
LINE
8
DEFAULT_255_1_388
10
6.8491625
20
68.6994601
11
6.4823153
21
68.6994601
0
LINE
8
DEFAULT_255_1_388
10
6.4823153
20
68.6994601
11
6.4823153
21
68.2838204
0
LINE
8
DEFAULT_255_1_388
10
6.4823153
20
68.2838204
11
6.3142523
21
68.2838204
0
LINE
8
DEFAULT_255_1_388
10
6.3142523
20
68.2838204
11
6.3142523
21
68.6994601
0
LINE
8
DEFAULT_255_1_388
10
6.3142523
20
68.6994601
11
5.9474052
21
68.6994601
0
LINE
8
DEFAULT_255_1_388
10
5.9474052
20
68.6994601
11
5.9474052
21
68.8575838
0
LINE
8
DEFAULT_255_1_388
10
5.9474052
20
68.8575838
11
6.3142523
21
68.8575838
0
LINE
8
DEFAULT_255_1_388
10
6.3142523
20
68.8575838
11
6.3142523
21
69.2415987
0
LINE
8
DEFAULT_255_1_388
10
6.3142523
20
69.2415987
11
6.4823153
21
69.2415987
0
LINE
8
DEFAULT_255_1_388
10
4.5007985
20
77.4113148
11
4.5007985
21
76.0894
0
LINE
8
DEFAULT_255_1_388
10
4.5007985
20
76.0894
11
4.3327355
21
76.0894
0
LINE
8
DEFAULT_255_1_388
10
4.3327355
20
76.0894
11
4.3327355
21
77.203495
0
LINE
8
DEFAULT_255_1_388
10
4.3327355
20
77.203495
11
3.995706
21
77.0797066
0
LINE
8
DEFAULT_255_1_388
10
3.995706
20
77.0797066
11
3.995706
21
77.2315055
0
LINE
8
DEFAULT_255_1_388
10
3.995706
20
77.2315055
11
4.4745951
21
77.4113148
0
LINE
8
DEFAULT_255_1_388
10
4.4745951
20
77.4113148
11
4.5007985
21
77.4113148
0
LINE
8
DEFAULT_255_1_388
10
5.2082895
20
77.4049898
11
5.2082895
21
76.2312596
0
LINE
8
DEFAULT_255_1_388
10
5.2082895
20
76.2312596
11
5.8317489
21
76.2312596
0
LINE
8
DEFAULT_255_1_388
10
5.8317489
20
76.2312596
11
5.8317489
21
76.0894
0
LINE
8
DEFAULT_255_1_388
10
5.8317489
20
76.0894
11
5.0339015
21
76.0894
0
LINE
8
DEFAULT_255_1_388
10
5.0339015
20
76.0894
11
5.0339015
21
77.4049898
0
LINE
8
DEFAULT_255_1_388
10
5.0339015
20
77.4049898
11
5.2082895
21
77.4049898
0
LINE
8
DEFAULT_255_1_388
10
6.4823153
20
77.1790987
11
6.4823153
21
76.7950838
0
LINE
8
DEFAULT_255_1_388
10
6.4823153
20
76.7950838
11
6.8491625
21
76.7950838
0
LINE
8
DEFAULT_255_1_388
10
6.8491625
20
76.7950838
11
6.8491625
21
76.6369601
0
LINE
8
DEFAULT_255_1_388
10
6.8491625
20
76.6369601
11
6.4823153
21
76.6369601
0
LINE
8
DEFAULT_255_1_388
10
6.4823153
20
76.6369601
11
6.4823153
21
76.2213204
0
LINE
8
DEFAULT_255_1_388
10
6.4823153
20
76.2213204
11
6.3142523
21
76.2213204
0
LINE
8
DEFAULT_255_1_388
10
6.3142523
20
76.2213204
11
6.3142523
21
76.6369601
0
LINE
8
DEFAULT_255_1_388
10
6.3142523
20
76.6369601
11
5.9474052
21
76.6369601
0
LINE
8
DEFAULT_255_1_388
10
5.9474052
20
76.6369601
11
5.9474052
21
76.7950838
0
LINE
8
DEFAULT_255_1_388
10
5.9474052
20
76.7950838
11
6.3142523
21
76.7950838
0
LINE
8
DEFAULT_255_1_388
10
6.3142523
20
76.7950838
11
6.3142523
21
77.1790987
0
LINE
8
DEFAULT_255_1_388
10
6.3142523
20
77.1790987
11
6.4823153
21
77.1790987
0
LINE
8
DEFAULT_255_1_388
10
22.4761985
20
85.3488148
11
22.4761985
21
84.0269
0
LINE
8
DEFAULT_255_1_388
10
22.4761985
20
84.0269
11
22.3081355
21
84.0269
0
LINE
8
DEFAULT_255_1_388
10
22.3081355
20
84.0269
11
22.3081355
21
85.140995
0
LINE
8
DEFAULT_255_1_388
10
22.3081355
20
85.140995
11
21.971106
21
85.0172066
0
LINE
8
DEFAULT_255_1_388
10
21.971106
20
85.0172066
11
21.971106
21
85.1690055
0
LINE
8
DEFAULT_255_1_388
10
21.971106
20
85.1690055
11
22.4499951
21
85.3488148
0
LINE
8
DEFAULT_255_1_388
10
22.4499951
20
85.3488148
11
22.4761985
21
85.3488148
0
LINE
8
DEFAULT_255_1_388
10
23.0093015
20
85.3424898
11
23.2333855
21
85.3424898
0
LINE
8
DEFAULT_255_1_388
10
23.2333855
20
85.3424898
11
23.6634822
21
84.2690553
0
LINE
8
DEFAULT_255_1_388
10
23.6634822
20
84.2690553
11
24.0935789
21
85.3424898
0
LINE
8
DEFAULT_255_1_388
10
24.0935789
20
85.3424898
11
24.3185664
21
85.3424898
0
LINE
8
DEFAULT_255_1_388
10
24.3185664
20
85.3424898
11
24.3185664
21
84.0269
0
LINE
8
DEFAULT_255_1_388
10
24.3185664
20
84.0269
11
24.145082
21
84.0269
0
LINE
8
DEFAULT_255_1_388
10
24.145082
20
84.0269
11
24.145082
21
84.539221
0
LINE
8
DEFAULT_255_1_388
10
24.145082
20
84.539221
11
24.1613462
21
85.0922025
0
LINE
8
DEFAULT_255_1_388
10
24.1613462
20
85.0922025
11
23.7294424
21
84.0269
0
LINE
8
DEFAULT_255_1_388
10
23.7294424
20
84.0269
11
23.5966184
21
84.0269
0
LINE
8
DEFAULT_255_1_388
10
23.5966184
20
84.0269
11
23.1656182
21
85.0894918
0
LINE
8
DEFAULT_255_1_388
10
23.1656182
20
85.0894918
11
23.1827859
21
84.539221
0
LINE
8
DEFAULT_255_1_388
10
23.1827859
20
84.539221
11
23.1827859
21
84.0269
0
LINE
8
DEFAULT_255_1_388
10
23.1827859
20
84.0269
11
23.0093015
21
84.0269
0
LINE
8
DEFAULT_255_1_388
10
23.0093015
20
84.0269
11
23.0093015
21
85.3424898
0
LINE
8
DEFAULT_255_1_388
10
22.7888318
20
60.3508382
11
22.7888318
21
60.2144
0
LINE
8
DEFAULT_255_1_388
10
22.7888318
20
60.2144
11
21.9268313
21
60.2144
0
LINE
8
DEFAULT_255_1_388
10
21.9268313
20
60.2144
11
21.9268313
21
60.3345741
0
LINE
8
DEFAULT_255_1_388
10
21.9268313
20
60.3345741
11
22.3822278
21
60.8405702
0
LINE
8
DEFAULT_255_1_388
10
22.0686909
20
61.1423607
11
21.9015315
21
61.1423607
0
LINE
8
DEFAULT_255_1_388
10
22.4807163
20
60.733046
11
22.1283262
21
60.3508382
0
LINE
8
DEFAULT_255_1_388
10
22.1283262
20
60.3508382
11
22.7888318
21
60.3508382
0
ARC
8
DEFAULT_255_1_388
10
20.8646337
20
62.1825983
40
2.0258655
50
318.5132526
51
320.7829045
0
ARC
8
DEFAULT_255_1_388
10
21.4594294
20
61.6984929
40
1.2589638
50
320.7372878
51
323.9739031
0
ARC
8
DEFAULT_255_1_388
10
21.9003226
20
61.3790554
40
0.7145141
50
323.8962701
51
328.64194
0
ARC
8
DEFAULT_255_1_388
10
22.1305484
20
61.2370545
40
0.4440242
50
328.8294576
51
331.7891185
0
ARC
8
DEFAULT_255_1_388
10
22.2427804
20
61.1791374
40
0.3177517
50
331.4254512
51
352.9365785
0
ARC
8
DEFAULT_255_1_388
10
22.2580804
20
61.175705
40
0.3021496
50
353.2257659
51
0.0166158
0
ARC
8
DEFAULT_255_1_388
10
22.2817564
20
61.1782894
40
0.2784847
50
359.486299
51
15.9343185
0
ARC
8
DEFAULT_255_1_388
10
22.3387831
20
61.1936269
40
0.2194403
50
16.1712913
51
43.5286088
0
ARC
8
DEFAULT_255_1_388
10
22.3474776
20
61.2023191
40
0.2071504
50
43.4417391
51
83.1661095
0
ARC
8
DEFAULT_255_1_388
10
22.3323937
20
61.1194316
40
0.2912888
50
82.160179
51
90.1505708
0
ARC
8
DEFAULT_255_1_388
10
22.3288418
20
61.0590279
40
0.3517025
50
89.5460741
51
102.5418361
0
ARC
8
DEFAULT_255_1_388
10
22.3015138
20
61.1749933
40
0.2325748
50
102.1738499
51
129.206123
0
ARC
8
DEFAULT_255_1_388
10
22.2926592
20
61.1889664
40
0.2161591
50
129.72865
51
135.753947
0
ARC
8
DEFAULT_255_1_388
10
22.3063074
20
61.1780728
40
0.2335433
50
136.1757367
51
166.3673339
0
ARC
8
DEFAULT_255_1_388
10
22.4195762
20
61.1477148
40
0.3507873
50
165.9090694
51
178.8684636
0
ARC
8
DEFAULT_255_1_388
10
22.5171534
20
61.1424263
40
0.4484624
50
178.4391136
51
180.0083808
0
ARC
8
DEFAULT_255_1_388
10
22.3592235
20
61.1468197
40
0.4577138
50
163.2878482
51
180.5581842
0
ARC
8
DEFAULT_255_1_388
10
22.2690276
20
61.1716393
40
0.3641968
50
133.4540601
51
162.947111
0
ARC
8
DEFAULT_255_1_388
10
22.2891158
20
61.1502789
40
0.3935189
50
100.7869829
51
133.4382499
0
ARC
8
DEFAULT_255_1_388
10
22.3282403
20
60.9760399
40
0.5720313
50
89.660664
51
101.3702276
0
ARC
8
DEFAULT_255_1_388
10
22.3357012
20
60.9829263
40
0.5651495
50
78.2172678
51
90.412935
0
ARC
8
DEFAULT_255_1_388
10
22.3756478
20
61.1656511
40
0.378122
50
55.9269121
51
78.4888449
0
ARC
8
DEFAULT_255_1_388
10
22.3977193
20
61.2037187
40
0.3342379
50
47.929771
51
55.4049217
0
ARC
8
DEFAULT_255_1_388
10
22.4091723
20
61.2153618
40
0.3179217
50
4.334829
51
48.0560205
0
ARC
8
DEFAULT_255_1_388
10
22.2859525
20
61.1962487
40
0.442341
50
359.9251713
51
5.5971671
0
ARC
8
DEFAULT_255_1_388
10
22.334168
20
61.2025728
40
0.3941854
50
337.8914027
51
358.9967534
0
ARC
8
DEFAULT_255_1_388
10
22.028925
20
61.3203295
40
0.7213271
50
326.9132501
51
338.3508308
0
ARC
8
DEFAULT_255_1_388
10
21.5805362
20
61.6077105
40
1.2538973
50
319.6471833
51
327.0959558
0
ARC
8
DEFAULT_255_1_388
10
21.149202
20
61.963505
40
1.8129975
50
317.2588228
51
319.9045804
0
LINE
8
DEFAULT_255_1_388
10
23.0093015
20
61.5299898
11
23.2333855
21
61.5299898
0
LINE
8
DEFAULT_255_1_388
10
23.2333855
20
61.5299898
11
23.6634822
21
60.4565553
0
LINE
8
DEFAULT_255_1_388
10
23.6634822
20
60.4565553
11
24.0935789
21
61.5299898
0
LINE
8
DEFAULT_255_1_388
10
24.0935789
20
61.5299898
11
24.3185664
21
61.5299898
0
LINE
8
DEFAULT_255_1_388
10
24.3185664
20
61.5299898
11
24.3185664
21
60.2144
0
LINE
8
DEFAULT_255_1_388
10
24.3185664
20
60.2144
11
24.145082
21
60.2144
0
LINE
8
DEFAULT_255_1_388
10
24.145082
20
60.2144
11
24.145082
21
60.726721
0
LINE
8
DEFAULT_255_1_388
10
24.145082
20
60.726721
11
24.1613462
21
61.2797025
0
LINE
8
DEFAULT_255_1_388
10
24.1613462
20
61.2797025
11
23.7294424
21
60.2144
0
LINE
8
DEFAULT_255_1_388
10
23.7294424
20
60.2144
11
23.5966184
21
60.2144
0
LINE
8
DEFAULT_255_1_388
10
23.5966184
20
60.2144
11
23.1656182
21
61.2769918
0
LINE
8
DEFAULT_255_1_388
10
23.1656182
20
61.2769918
11
23.1827859
21
60.726721
0
LINE
8
DEFAULT_255_1_388
10
23.1827859
20
60.726721
11
23.1827859
21
60.2144
0
LINE
8
DEFAULT_255_1_388
10
23.1827859
20
60.2144
11
23.0093015
21
60.2144
0
LINE
8
DEFAULT_255_1_388
10
23.0093015
20
60.2144
11
23.0093015
21
61.5299898
0
LINE
8
DEFAULT_255_1_388
10
22.7888318
20
68.2883382
11
22.7888318
21
68.1519
0
LINE
8
DEFAULT_255_1_388
10
22.7888318
20
68.1519
11
21.9268313
21
68.1519
0
LINE
8
DEFAULT_255_1_388
10
21.9268313
20
68.1519
11
21.9268313
21
68.2720741
0
LINE
8
DEFAULT_255_1_388
10
21.9268313
20
68.2720741
11
22.3822278
21
68.7780702
0
LINE
8
DEFAULT_255_1_388
10
22.0686909
20
69.0798607
11
21.9015315
21
69.0798607
0
LINE
8
DEFAULT_255_1_388
10
22.4807163
20
68.670546
11
22.1283262
21
68.2883382
0
LINE
8
DEFAULT_255_1_388
10
22.1283262
20
68.2883382
11
22.7888318
21
68.2883382
0
ARC
8
DEFAULT_255_1_388
10
20.8646337
20
70.1200983
40
2.0258655
50
318.5132526
51
320.7829045
0
ARC
8
DEFAULT_255_1_388
10
21.4594294
20
69.6359929
40
1.2589638
50
320.7372878
51
323.9739031
0
ARC
8
DEFAULT_255_1_388
10
21.9003226
20
69.3165554
40
0.7145141
50
323.8962701
51
328.64194
0
ARC
8
DEFAULT_255_1_388
10
22.1305484
20
69.1745545
40
0.4440242
50
328.8294576
51
331.7891185
0
ARC
8
DEFAULT_255_1_388
10
22.2427804
20
69.1166374
40
0.3177517
50
331.4254512
51
352.9365785
0
ARC
8
DEFAULT_255_1_388
10
22.2580804
20
69.113205
40
0.3021496
50
353.2257659
51
0.0166158
0
ARC
8
DEFAULT_255_1_388
10
22.2817564
20
69.1157894
40
0.2784847
50
359.486299
51
15.9343185
0
ARC
8
DEFAULT_255_1_388
10
22.3387831
20
69.1311269
40
0.2194403
50
16.1712913
51
43.5286088
0
ARC
8
DEFAULT_255_1_388
10
22.3474776
20
69.1398191
40
0.2071504
50
43.4417391
51
83.1661095
0
ARC
8
DEFAULT_255_1_388
10
22.3323937
20
69.0569316
40
0.2912888
50
82.160179
51
90.1505708
0
ARC
8
DEFAULT_255_1_388
10
22.3288418
20
68.9965279
40
0.3517025
50
89.5460741
51
102.5418361
0
ARC
8
DEFAULT_255_1_388
10
22.3015138
20
69.1124933
40
0.2325748
50
102.1738499
51
129.206123
0
ARC
8
DEFAULT_255_1_388
10
22.2926592
20
69.1264664
40
0.2161591
50
129.72865
51
135.753947
0
ARC
8
DEFAULT_255_1_388
10
22.3063074
20
69.1155728
40
0.2335433
50
136.1757367
51
166.3673339
0
ARC
8
DEFAULT_255_1_388
10
22.4195762
20
69.0852148
40
0.3507873
50
165.9090694
51
178.8684636
0
ARC
8
DEFAULT_255_1_388
10
22.5171534
20
69.0799263
40
0.4484624
50
178.4391136
51
180.0083808
0
ARC
8
DEFAULT_255_1_388
10
22.3592235
20
69.0843197
40
0.4577138
50
163.2878482
51
180.5581842
0
ARC
8
DEFAULT_255_1_388
10
22.2690276
20
69.1091393
40
0.3641968
50
133.4540601
51
162.947111
0
ARC
8
DEFAULT_255_1_388
10
22.2891158
20
69.0877789
40
0.3935189
50
100.7869829
51
133.4382499
0
ARC
8
DEFAULT_255_1_388
10
22.3282403
20
68.9135399
40
0.5720313
50
89.660664
51
101.3702276
0
ARC
8
DEFAULT_255_1_388
10
22.3357012
20
68.9204263
40
0.5651495
50
78.2172678
51
90.412935
0
ARC
8
DEFAULT_255_1_388
10
22.3756478
20
69.1031511
40
0.378122
50
55.9269121
51
78.4888449
0
ARC
8
DEFAULT_255_1_388
10
22.3977193
20
69.1412187
40
0.3342379
50
47.929771
51
55.4049217
0
ARC
8
DEFAULT_255_1_388
10
22.4091723
20
69.1528618
40
0.3179217
50
4.334829
51
48.0560205
0
ARC
8
DEFAULT_255_1_388
10
22.2859525
20
69.1337487
40
0.442341
50
359.9251713
51
5.5971671
0
ARC
8
DEFAULT_255_1_388
10
22.334168
20
69.1400728
40
0.3941854
50
337.8914027
51
358.9967534
0
ARC
8
DEFAULT_255_1_388
10
22.028925
20
69.2578295
40
0.7213271
50
326.9132501
51
338.3508308
0
ARC
8
DEFAULT_255_1_388
10
21.5805362
20
69.5452105
40
1.2538973
50
319.6471833
51
327.0959558
0
ARC
8
DEFAULT_255_1_388
10
21.149202
20
69.901005
40
1.8129975
50
317.2588228
51
319.9045804
0
LINE
8
DEFAULT_255_1_388
10
23.0093015
20
69.4674898
11
23.2333855
21
69.4674898
0
LINE
8
DEFAULT_255_1_388
10
23.2333855
20
69.4674898
11
23.6634822
21
68.3940553
0
LINE
8
DEFAULT_255_1_388
10
23.6634822
20
68.3940553
11
24.0935789
21
69.4674898
0
LINE
8
DEFAULT_255_1_388
10
24.0935789
20
69.4674898
11
24.3185664
21
69.4674898
0
LINE
8
DEFAULT_255_1_388
10
24.3185664
20
69.4674898
11
24.3185664
21
68.1519
0
LINE
8
DEFAULT_255_1_388
10
24.3185664
20
68.1519
11
24.145082
21
68.1519
0
LINE
8
DEFAULT_255_1_388
10
24.145082
20
68.1519
11
24.145082
21
68.664221
0
LINE
8
DEFAULT_255_1_388
10
24.145082
20
68.664221
11
24.1613462
21
69.2172025
0
LINE
8
DEFAULT_255_1_388
10
24.1613462
20
69.2172025
11
23.7294424
21
68.1519
0
LINE
8
DEFAULT_255_1_388
10
23.7294424
20
68.1519
11
23.5966184
21
68.1519
0
LINE
8
DEFAULT_255_1_388
10
23.5966184
20
68.1519
11
23.1656182
21
69.2144918
0
LINE
8
DEFAULT_255_1_388
10
23.1656182
20
69.2144918
11
23.1827859
21
68.664221
0
LINE
8
DEFAULT_255_1_388
10
23.1827859
20
68.664221
11
23.1827859
21
68.1519
0
LINE
8
DEFAULT_255_1_388
10
23.1827859
20
68.1519
11
23.0093015
21
68.1519
0
LINE
8
DEFAULT_255_1_388
10
23.0093015
20
68.1519
11
23.0093015
21
69.4674898
0
LINE
8
DEFAULT_255_1_388
10
22.4761985
20
77.4113148
11
22.4761985
21
76.0894
0
LINE
8
DEFAULT_255_1_388
10
22.4761985
20
76.0894
11
22.3081355
21
76.0894
0
LINE
8
DEFAULT_255_1_388
10
22.3081355
20
76.0894
11
22.3081355
21
77.203495
0
LINE
8
DEFAULT_255_1_388
10
22.3081355
20
77.203495
11
21.971106
21
77.0797066
0
LINE
8
DEFAULT_255_1_388
10
21.971106
20
77.0797066
11
21.971106
21
77.2315055
0
LINE
8
DEFAULT_255_1_388
10
21.971106
20
77.2315055
11
22.4499951
21
77.4113148
0
LINE
8
DEFAULT_255_1_388
10
22.4499951
20
77.4113148
11
22.4761985
21
77.4113148
0
LINE
8
DEFAULT_255_1_388
10
23.0093015
20
77.4049898
11
23.2333855
21
77.4049898
0
LINE
8
DEFAULT_255_1_388
10
23.2333855
20
77.4049898
11
23.6634822
21
76.3315553
0
LINE
8
DEFAULT_255_1_388
10
23.6634822
20
76.3315553
11
24.0935789
21
77.4049898
0
LINE
8
DEFAULT_255_1_388
10
24.0935789
20
77.4049898
11
24.3185664
21
77.4049898
0
LINE
8
DEFAULT_255_1_388
10
24.3185664
20
77.4049898
11
24.3185664
21
76.0894
0
LINE
8
DEFAULT_255_1_388
10
24.3185664
20
76.0894
11
24.145082
21
76.0894
0
LINE
8
DEFAULT_255_1_388
10
24.145082
20
76.0894
11
24.145082
21
76.601721
0
LINE
8
DEFAULT_255_1_388
10
24.145082
20
76.601721
11
24.1613462
21
77.1547025
0
LINE
8
DEFAULT_255_1_388
10
24.1613462
20
77.1547025
11
23.7294424
21
76.0894
0
LINE
8
DEFAULT_255_1_388
10
23.7294424
20
76.0894
11
23.5966184
21
76.0894
0
LINE
8
DEFAULT_255_1_388
10
23.5966184
20
76.0894
11
23.1656182
21
77.1519918
0
LINE
8
DEFAULT_255_1_388
10
23.1656182
20
77.1519918
11
23.1827859
21
76.601721
0
LINE
8
DEFAULT_255_1_388
10
23.1827859
20
76.601721
11
23.1827859
21
76.0894
0
LINE
8
DEFAULT_255_1_388
10
23.1827859
20
76.0894
11
23.0093015
21
76.0894
0
LINE
8
DEFAULT_255_1_388
10
23.0093015
20
76.0894
11
23.0093015
21
77.4049898
0
ENDSEC
0
EOF