0
SECTION
2
HEADER
9
$MEASUREMENT
70
1
0
ENDSEC
0
SECTION
2
TABLES
0
TABLE
2
LTYPE
0
LTYPE
72
65
70
64
2
CONTINUOUS
3
______
73
0
40
0
0
ENDTAB
0
TABLE
2
LAYER
0
LAYER
2
DEFAULT_255_2_778
70
0
62
255
6
CONTINUOUS
0
LAYER
2
DEFAULT_255_1_234
70
0
62
255
6
CONTINUOUS
0
ENDTAB
0
ENDSEC
0
SECTION
2
ENTITIES
0
ARC
8
DEFAULT_255_2_778
10
3.5695693
20
99.6176527
40
0.7914215
50
129.1312896
51
180.1450914
0
ARC
8
DEFAULT_255_2_778
10
3.5698345
20
99.6181398
40
0.7912112
50
89.854026
51
129.1684493
0
ARC
8
DEFAULT_255_2_778
10
25.7988937
20
99.6178263
40
0.7915249
50
39.4792447
51
90.147911
0
ARC
8
DEFAULT_255_2_778
10
25.7994935
20
99.617673
40
0.7911595
50
359.8533901
51
39.5154338
0
ARC
8
DEFAULT_255_2_778
10
25.7991693
20
-1.9863996
40
0.7914836
50
309.4761667
51
0.1482649
0
ARC
8
DEFAULT_255_2_778
10
25.798898
20
-1.9868307
40
0.7913235
50
269.8517415
51
309.511178
0
ARC
8
DEFAULT_255_2_778
10
3.569842
20
-1.9867725
40
0.7913815
50
219.1282118
51
270.1454017
0
ARC
8
DEFAULT_255_2_778
10
3.5695247
20
-1.98639
40
0.7913769
50
179.8524075
51
219.1641908
0
LINE
8
DEFAULT_255_2_778
10
3.5718503
20
100.4093486
11
25.7968503
21
100.4093486
0
LINE
8
DEFAULT_255_2_778
10
26.5906503
20
99.6156486
11
26.5906503
21
-1.9843514
0
LINE
8
DEFAULT_255_2_778
10
25.7968503
20
-2.7781514
11
3.5718503
21
-2.7781514
0
LINE
8
DEFAULT_255_2_778
10
2.7781503
20
-1.9843514
11
2.7781503
21
99.6156486
0
LINE
8
DEFAULT_255_1_234
10
6.7672835
20
0.5189243
11
6.7937882
21
0.5189243
0
LINE
8
DEFAULT_255_1_234
10
6.7937882
20
0.5189243
11
6.7937882
21
0.392826
0
LINE
8
DEFAULT_255_1_234
10
6.7937882
20
0.392826
11
6.7664803
21
0.392826
0
LINE
8
DEFAULT_255_1_234
10
6.2195189
20
-0.2063417
11
6.2195189
21
-0.1493164
0
LINE
8
DEFAULT_255_1_234
10
6.3689093
20
-0.1685925
11
6.3689093
21
-0.2232083
0
ARC
8
DEFAULT_255_1_234
10
6.7717151
20
-0.1069545
40
0.4998079
50
90.6001036
51
104.514704
0
ARC
8
DEFAULT_255_1_234
10
6.7328667
20
0.0375131
40
0.3502176
50
104.2855254
51
133.862935
0
ARC
8
DEFAULT_255_1_234
10
6.7492424
20
0.026683
40
0.3693984
50
134.5302688
51
161.6210873
0
ARC
8
DEFAULT_255_1_234
10
6.9145613
20
-0.0316105
40
0.5446739
50
161.2849839
51
174.2076652
0
ARC
8
DEFAULT_255_1_234
10
7.055255
20
-0.0510213
40
0.6866274
50
173.7810589
51
174.9254635
0
ARC
8
DEFAULT_255_1_234
10
6.6002382
20
-0.1893161
40
0.3033419
50
95.8330959
51
138.9954921
0
ARC
8
DEFAULT_255_1_234
10
6.6225738
20
-0.3171625
40
0.4328947
50
89.8753725
51
97.0544009
0
ARC
8
DEFAULT_255_1_234
10
6.6273204
20
-0.2336252
40
0.3493769
50
71.6407809
51
90.6240094
0
ARC
8
DEFAULT_255_1_234
10
6.6423777
20
-0.1781918
40
0.2920396
50
39.6367836
51
71.019018
0
ARC
8
DEFAULT_255_1_234
10
6.578725
20
-0.2332002
40
0.3761538
50
10.658731
51
39.9043955
0
ARC
8
DEFAULT_255_1_234
10
6.4239333
20
-0.2668314
40
0.5345136
50
359.682601
51
11.132623
0
ARC
8
DEFAULT_255_1_234
10
6.4199464
20
-0.273899
40
0.5385081
50
347.2486944
51
0.4369317
0
ARC
8
DEFAULT_255_1_234
10
6.5866941
20
-0.3140193
40
0.3670249
50
318.1409698
51
347.6118597
0
ARC
8
DEFAULT_255_1_234
10
6.6191934
20
-0.3407298
40
0.3250007
50
275.6342139
51
317.8248465
0
ARC
8
DEFAULT_255_1_234
10
6.5971045
20
-0.2107781
40
0.4565864
50
269.8874292
51
276.7917694
0
ARC
8
DEFAULT_255_1_234
10
6.5916116
20
-0.3133257
40
0.3540676
50
246.9140195
51
270.7437342
0
ARC
8
DEFAULT_255_1_234
10
6.5922506
20
-0.3275616
40
0.3412781
50
218.1665114
51
245.878116
0
ARC
8
DEFAULT_255_1_234
10
6.6801967
20
-0.2539721
40
0.455911
50
191.4115814
51
218.6077802
0
ARC
8
DEFAULT_255_1_234
10
6.8740056
20
-0.2105167
40
0.6545001
50
179.6345085
51
191.7836486
0
ARC
8
DEFAULT_255_1_234
10
7.4322393
20
-0.1426303
40
1.2127388
50
171.4525249
51
180.3158839
0
ARC
8
DEFAULT_255_1_234
10
6.9927269
20
-0.0742392
40
0.7679464
50
157.9802646
51
171.6246686
0
ARC
8
DEFAULT_255_1_234
10
6.771329
20
0.0140421
40
0.5296008
50
141.4298019
51
157.854097
0
ARC
8
DEFAULT_255_1_234
10
6.707161
20
0.0594381
40
0.4511509
50
102.8715806
51
140.8564722
0
ARC
8
DEFAULT_255_1_234
10
6.7719226
20
-0.1845448
40
0.7034845
50
90.3778349
51
103.5869322
0
ARC
8
DEFAULT_255_1_234
10
6.5981002
20
-0.245027
40
0.2370698
50
89.8751008
51
126.2071704
0
ARC
8
DEFAULT_255_1_234
10
6.6026792
20
-0.2604697
40
0.2522934
50
124.9745049
51
144.895901
0
ARC
8
DEFAULT_255_1_234
10
6.5850982
20
-0.246144
40
0.2296779
50
145.2974905
51
160.2660252
0
ARC
8
DEFAULT_255_1_234
10
6.8923521
20
-0.2263929
40
0.5234525
50
179.6514266
51
190.2855912
0
ARC
8
DEFAULT_255_1_234
10
6.7229658
20
-0.2583214
40
0.3510893
50
190.0945431
51
207.5098196
0
ARC
8
DEFAULT_255_1_234
10
6.6663928
20
-0.2852377
40
0.288489
50
207.9583163
51
216.3251085
0
ARC
8
DEFAULT_255_1_234
10
6.6324036
20
-0.3131895
40
0.2445587
50
215.7661442
51
232.5456785
0
ARC
8
DEFAULT_255_1_234
10
6.5941019
20
-0.3618518
40
0.1826382
50
232.8005391
51
270.6605633
0
ARC
8
DEFAULT_255_1_234
10
6.598672
20
-0.3254388
40
0.2190529
50
269.35537
51
288.4744281
0
ARC
8
DEFAULT_255_1_234
10
6.6079617
20
-0.3603882
40
0.1829749
50
289.1833337
51
322.9683818
0
ARC
8
DEFAULT_255_1_234
10
6.5468139
20
-0.3121609
40
0.2608399
50
322.6007884
51
346.5182367
0
ARC
8
DEFAULT_255_1_234
10
6.4310735
20
-0.2826384
40
0.3802777
50
346.2582162
51
358.7741648
0
ARC
8
DEFAULT_255_1_234
10
6.3292404
20
-0.2771035
40
0.4822176
50
358.3755224
51
0.0098023
0
ARC
8
DEFAULT_255_1_234
10
6.4048591
20
-0.2743343
40
0.4066078
50
359.6214041
51
11.2839074
0
ARC
8
DEFAULT_255_1_234
10
6.5325738
20
-0.2476934
40
0.2761514
50
11.0482309
51
31.8146458
0
ARC
8
DEFAULT_255_1_234
10
6.5634781
20
-0.2309416
40
0.2410679
50
32.3035391
51
38.082671
0
ARC
8
DEFAULT_255_1_234
10
6.6055441
20
-0.1928338
40
0.1844966
50
36.825067
51
85.7415724
0
ARC
8
DEFAULT_255_1_234
10
6.5988274
20
-0.2428699
40
0.2349122
50
85.0140713
51
90.0513278
0
LINE
8
DEFAULT_255_1_234
10
7.8338983
20
0.0153343
11
7.8338983
21
-0.110764
0
LINE
8
DEFAULT_255_1_234
10
7.8338983
20
-0.110764
11
7.3270957
21
-0.110764
0
LINE
8
DEFAULT_255_1_234
10
7.3270957
20
-0.110764
11
7.3270957
21
-0.5252017
0
LINE
8
DEFAULT_255_1_234
10
7.3270957
20
-0.5252017
11
7.9158221
21
-0.5252017
0
LINE
8
DEFAULT_255_1_234
10
7.9158221
20
-0.5252017
11
7.9158221
21
-0.6513
0
LINE
8
DEFAULT_255_1_234
10
7.9158221
20
-0.6513
11
7.1728863
21
-0.6513
0
LINE
8
DEFAULT_255_1_234
10
7.1728863
20
-0.6513
11
7.1728863
21
0.5181211
0
LINE
8
DEFAULT_255_1_234
10
7.1728863
20
0.5181211
11
7.9077903
21
0.5181211
0
LINE
8
DEFAULT_255_1_234
10
7.9077903
20
0.5181211
11
7.9077903
21
0.3912196
0
LINE
8
DEFAULT_255_1_234
10
7.9077903
20
0.3912196
11
7.3270957
21
0.3912196
0
LINE
8
DEFAULT_255_1_234
10
7.3270957
20
0.3912196
11
7.3270957
21
0.0153343
0
LINE
8
DEFAULT_255_1_234
10
7.3270957
20
0.0153343
11
7.8338983
21
0.0153343
0
LINE
8
DEFAULT_255_1_234
10
8.8836465
20
0.1799849
11
8.728634
21
0.1799849
0
LINE
8
DEFAULT_255_1_234
10
8.0362981
20
-0.3123606
11
8.1913107
21
-0.3123606
0
ARC
8
DEFAULT_255_1_234
10
8.7945153
20
1.0746768
40
1.252368
50
248.9199003
51
254.1439814
0
ARC
8
DEFAULT_255_1_234
10
8.6264648
20
0.6420234
40
0.788226
50
241.633709
51
249.0064503
0
ARC
8
DEFAULT_255_1_234
10
8.4736042
20
0.3619317
40
0.4691427
50
230.498225
51
241.8087113
0
ARC
8
DEFAULT_255_1_234
10
8.3951616
20
0.2619906
40
0.3421437
50
227.4064532
51
229.9881192
0
ARC
8
DEFAULT_255_1_234
10
8.3464137
20
0.2144088
40
0.2741476
50
200.6781896
51
228.1763934
0
ARC
8
DEFAULT_255_1_234
10
8.3536447
20
0.2129077
40
0.2804109
50
179.5061581
51
199.8694617
0
ARC
8
DEFAULT_255_1_234
10
8.3527199
20
0.220321
40
0.2795204
50
132.4834203
51
181.0242172
0
ARC
8
DEFAULT_255_1_234
10
8.4122782
20
0.1640704
40
0.3612768
50
129.2532479
51
133.4242687
0
ARC
8
DEFAULT_255_1_234
10
8.4269231
20
0.1420965
40
0.3875675
50
101.98776
51
128.8742646
0
ARC
8
DEFAULT_255_1_234
10
8.4667842
20
-0.0300259
40
0.5642249
50
89.5906553
51
102.3169264
0
ARC
8
DEFAULT_255_1_234
10
8.4738334
20
0.0018148
40
0.5323783
50
77.2360837
51
90.3248275
0
ARC
8
DEFAULT_255_1_234
10
8.4945413
20
0.09854
40
0.4334697
50
63.837784
51
77.0809408
0
ARC
8
DEFAULT_255_1_234
10
8.5223175
20
0.1502911
40
0.3747796
50
45.9864267
51
64.1607727
0
ARC
8
DEFAULT_255_1_234
10
8.5484056
20
0.1800866
40
0.3352302
50
32.2747395
51
45.6547121
0
ARC
8
DEFAULT_255_1_234
10
8.5550497
20
0.181988
40
0.328603
50
359.6507365
51
32.6130309
0
ARC
8
DEFAULT_255_1_234
10
8.4607592
20
0.182466
40
0.2678863
50
359.469343
51
14.9832209
0
ARC
8
DEFAULT_255_1_234
10
8.5312654
20
0.2013539
40
0.1948938
50
14.9781179
51
48.2004265
0
ARC
8
DEFAULT_255_1_234
10
8.5148299
20
0.1806983
40
0.2212521
50
48.5927837
51
74.1241538
0
ARC
8
DEFAULT_255_1_234
10
8.4814788
20
0.0706248
40
0.3362561
50
73.7888341
51
86.6652678
0
ARC
8
DEFAULT_255_1_234
10
8.4712354
20
-0.0501119
40
0.4573953
50
86.2640471
51
90.0526343
0
ARC
8
DEFAULT_255_1_234
10
8.4684066
20
-0.0105808
40
0.4178709
50
89.6697524
51
99.2309573
0
ARC
8
DEFAULT_255_1_234
10
8.4441517
20
0.1338964
40
0.2713749
50
99.069534
51
113.7658566
0
ARC
8
DEFAULT_255_1_234
10
8.4167708
20
0.1984677
40
0.2012469
50
114.0401004
51
127.9850673
0
ARC
8
DEFAULT_255_1_234
10
8.3927272
20
0.228073
40
0.1631167
50
127.7287463
51
176.7105154
0
ARC
8
DEFAULT_255_1_234
10
8.460599
20
0.2179693
40
0.2315392
50
175.1779447
51
180.0581938
0
ARC
8
DEFAULT_255_1_234
10
8.3762836
20
0.2167428
40
0.1472271
50
179.6142195
51
228.1246017
0
ARC
8
DEFAULT_255_1_234
10
8.4204505
20
0.2576308
40
0.2072299
50
226.5779593
51
230.8800004
0
ARC
8
DEFAULT_255_1_234
10
8.4675584
20
0.3201636
40
0.2854818
50
231.4635071
51
241.9260842
0
ARC
8
DEFAULT_255_1_234
10
8.5872762
20
0.54048
40
0.53622
50
241.7178533
51
248.3259551
0
ARC
8
DEFAULT_255_1_234
10
8.7258134
20
0.8837064
40
0.9063478
50
248.2007737
51
252.4528373
0
ARC
8
DEFAULT_255_1_234
10
8.8461858
20
1.2558441
40
1.2974635
50
252.3391078
51
254.3469452
0
ARC
8
DEFAULT_255_1_234
10
8.0919561
20
-1.4418852
40
1.5037162
50
71.0197183
51
74.4087047
0
ARC
8
DEFAULT_255_1_234
10
8.2614246
20
-0.9526889
40
0.9859993
50
66.1847285
51
71.086374
0
ARC
8
DEFAULT_255_1_234
10
8.4170559
20
-0.60228
40
0.6025855
50
59.3536294
51
66.2691831
0
ARC
8
DEFAULT_255_1_234
10
8.5059211
20
-0.4519391
40
0.4279449
50
49.1020879
51
59.3293958
0
ARC
8
DEFAULT_255_1_234
10
8.5877951
20
-0.3586166
40
0.3038015
50
32.7919921
51
49.2505539
0
ARC
8
DEFAULT_255_1_234
10
8.6199041
20
-0.3357809
40
0.264448
50
31.1181161
51
32.4005348
0
ARC
8
DEFAULT_255_1_234
10
8.6110579
20
-0.3393221
40
0.2738556
50
8.1116974
51
30.7958831
0
ARC
8
DEFAULT_255_1_234
10
8.5300247
20
-0.3531247
40
0.3560327
50
359.8389159
51
8.4706516
0
ARC
8
DEFAULT_255_1_234
10
8.5926038
20
-0.3579863
40
0.2934776
50
337.4731098
51
0.7537279
0
ARC
8
DEFAULT_255_1_234
10
8.6104733
20
-0.3599613
40
0.2762607
50
307.5917067
51
336.4315538
0
ARC
8
DEFAULT_255_1_234
10
8.5644561
20
-0.3086898
40
0.3449979
50
307.6551545
51
308.4529766
0
ARC
8
DEFAULT_255_1_234
10
8.541428
20
-0.273175
40
0.3871988
50
284.3734338
51
307.1424381
0
ARC
8
DEFAULT_255_1_234
10
8.491911
20
-0.0910068
40
0.5759636
50
272.4382747
51
284.646547
0
ARC
8
DEFAULT_255_1_234
10
8.4792319
20
0.0889893
40
0.7563528
50
269.9708387
51
272.8178037
0
ARC
8
DEFAULT_255_1_234
10
8.4749358
20
-0.1148284
40
0.5525489
50
248.2707594
51
270.4055579
0
ARC
8
DEFAULT_255_1_234
10
8.46951
20
-0.1338808
40
0.5328452
50
246.1383403
51
248.0542782
0
ARC
8
DEFAULT_255_1_234
10
8.4276478
20
-0.2218157
40
0.4355005
50
233.1670131
51
246.4950969
0
ARC
8
DEFAULT_255_1_234
10
8.3722383
20
-0.2966188
40
0.3424126
50
215.3403242
51
233.0843104
0
ARC
8
DEFAULT_255_1_234
10
8.3449815
20
-0.3164451
40
0.3087104
50
179.2419209
51
215.2648451
0
ARC
8
DEFAULT_255_1_234
10
8.4217409
20
-0.3150334
40
0.2304457
50
179.335461
51
199.1045811
0
ARC
8
DEFAULT_255_1_234
10
8.3885085
20
-0.3237234
40
0.1962176
50
199.8828939
51
232.7063202
0
ARC
8
DEFAULT_255_1_234
10
8.4357353
20
-0.2643212
40
0.2720938
50
232.3738199
51
255.5136649
0
ARC
8
DEFAULT_255_1_234
10
8.469822
20
-0.1399165
40
0.4010747
50
255.2446292
51
267.5320849
0
ARC
8
DEFAULT_255_1_234
10
8.4785843
20
-0.0166298
40
0.5246356
50
267.1557994
51
270.0286766
0
ARC
8
DEFAULT_255_1_234
10
8.4813616
20
-0.061005
40
0.4802668
50
269.7000017
51
278.1660162
0
ARC
8
DEFAULT_255_1_234
10
8.506962
20
-0.2340485
40
0.3053425
50
278.0231263
51
290.625471
0
ARC
8
DEFAULT_255_1_234
10
8.5417308
20
-0.3267975
40
0.206291
50
290.6619762
51
307.0370976
0
ARC
8
DEFAULT_255_1_234
10
8.5717697
20
-0.3636496
40
0.1587906
50
306.3943566
51
355.3030547
0
ARC
8
DEFAULT_255_1_234
10
8.5205628
20
-0.3559887
40
0.2104809
50
354.3660432
51
0.0698737
0
ARC
8
DEFAULT_255_1_234
10
8.5347973
20
-0.3537383
40
0.1962563
50
359.417946
51
16.1971788
0
ARC
8
DEFAULT_255_1_234
10
8.5803284
20
-0.3412582
40
0.149053
50
16.4723299
51
52.6262157
0
ARC
8
DEFAULT_255_1_234
10
8.4982338
20
-0.4496567
40
0.2850296
50
52.7386432
51
62.4979148
0
ARC
8
DEFAULT_255_1_234
10
8.3597415
20
-0.7102717
40
0.5801521
50
62.2515216
51
68.1220564
0
ARC
8
DEFAULT_255_1_234
10
8.1877325
20
-1.1330128
40
1.0365451
50
68.0062803
51
71.8053402
0
ARC
8
DEFAULT_255_1_234
10
8.0081697
20
-1.6715242
40
1.6042013
50
71.7183119
51
73.9258742
0
LINE
8
DEFAULT_255_1_234
10
9.8000679
20
0.5181211
11
9.8000679
21
0.434591
0
LINE
8
DEFAULT_255_1_234
10
9.8000679
20
0.434591
11
9.3157541
21
-0.6513
0
LINE
8
DEFAULT_255_1_234
10
9.3157541
20
-0.6513
11
9.1599383
21
-0.6513
0
LINE
8
DEFAULT_255_1_234
10
9.1599383
20
-0.6513
11
9.6426458
21
0.3960387
0
LINE
8
DEFAULT_255_1_234
10
9.6426458
20
0.3960387
11
9.0097448
21
0.3960387
0
LINE
8
DEFAULT_255_1_234
10
9.0097448
20
0.3960387
11
9.0097448
21
0.5181211
0
LINE
8
DEFAULT_255_1_234
10
9.0097448
20
0.5181211
11
9.8000679
21
0.5181211
0
LINE
8
DEFAULT_255_1_234
10
10.4570641
20
0.5237433
11
10.4570641
21
-0.6513
0
LINE
8
DEFAULT_255_1_234
10
10.4570641
20
-0.6513
11
10.3076737
21
-0.6513
0
LINE
8
DEFAULT_255_1_234
10
10.3076737
20
-0.6513
11
10.3076737
21
0.3390133
0
LINE
8
DEFAULT_255_1_234
10
10.3076737
20
0.3390133
11
10.0080899
21
0.2289785
0
LINE
8
DEFAULT_255_1_234
10
10.0080899
20
0.2289785
11
10.0080899
21
0.3639117
0
LINE
8
DEFAULT_255_1_234
10
10.0080899
20
0.3639117
11
10.433772
21
0.5237433
0
LINE
8
DEFAULT_255_1_234
10
10.433772
20
0.5237433
11
10.4570641
21
0.5237433
0
LINE
8
DEFAULT_255_1_234
10
11.0795238
20
-0.0955037
11
10.9606541
21
-0.0649831
0
LINE
8
DEFAULT_255_1_234
10
10.9606541
20
-0.0649831
11
11.0200889
21
0.5181211
0
LINE
8
DEFAULT_255_1_234
10
11.0200889
20
0.5181211
11
11.6192566
21
0.5181211
0
LINE
8
DEFAULT_255_1_234
10
11.6192566
20
0.5181211
11
11.6192566
21
0.3807784
0
LINE
8
DEFAULT_255_1_234
10
11.6192566
20
0.3807784
11
11.1461872
21
0.3807784
0
LINE
8
DEFAULT_255_1_234
10
11.1461872
20
0.3807784
11
11.1108476
21
0.0619184
0
LINE
8
DEFAULT_255_1_234
10
10.918889
20
-0.3436844
11
11.0594444
21
-0.3436844
0
LINE
8
DEFAULT_255_1_234
10
11.1188793
20
-0.0633768
11
11.0795238
21
-0.0955037
0
ARC
8
DEFAULT_255_1_234
10
11.296326
20
-0.256077
40
0.3681349
50
93.7182161
51
120.2538958
0
ARC
8
DEFAULT_255_1_234
10
11.3057523
20
-0.3368606
40
0.449379
50
89.9660152
51
94.2496022
0
ARC
8
DEFAULT_255_1_234
10
11.3098256
20
-0.2779451
40
0.390482
50
73.8043271
51
90.5585896
0
ARC
8
DEFAULT_255_1_234
10
11.3333153
20
-0.1921398
40
0.3015334
50
41.3071453
51
73.5430202
0
ARC
8
DEFAULT_255_1_234
10
11.2916981
20
-0.2279676
40
0.3564457
50
13.5075983
51
41.2174222
0
ARC
8
DEFAULT_255_1_234
10
11.1275185
20
-0.2709514
40
0.5261351
50
1.1331335
51
13.8829381
0
ARC
8
DEFAULT_255_1_234
10
10.9863553
20
-0.2785335
40
0.6674378
50
359.9919444
51
1.544251
0
ARC
8
DEFAULT_255_1_234
10
11.114038
20
-0.282672
40
0.5397702
50
347.8572367
51
0.4293338
0
ARC
8
DEFAULT_255_1_234
10
11.2890697
20
-0.3223264
40
0.3603188
50
323.673004
51
348.1672506
0
ARC
8
DEFAULT_255_1_234
10
11.3185206
20
-0.3402832
40
0.3259678
50
316.8171152
51
323.1492751
0
ARC
8
DEFAULT_255_1_234
10
11.3246395
20
-0.343954
40
0.3189975
50
281.8396411
51
316.5457803
0
ARC
8
DEFAULT_255_1_234
10
11.2870658
20
-0.1884238
40
0.4789527
50
269.5770101
51
282.4214771
0
ARC
8
DEFAULT_255_1_234
10
11.279947
20
-0.2097875
40
0.45759
50
256.2427136
51
270.4486331
0
ARC
8
DEFAULT_255_1_234
10
11.2500372
20
-0.3297771
40
0.3339303
50
228.9023911
51
256.3314342
0
ARC
8
DEFAULT_255_1_234
10
11.2426605
20
-0.3414254
40
0.32031
50
193.753695
51
228.5271154
0
ARC
8
DEFAULT_255_1_234
10
11.3664559
20
-0.30512
40
0.4492253
50
184.924711
51
194.497588
0
ARC
8
DEFAULT_255_1_234
10
11.3857126
20
-0.3015409
40
0.3289787
50
187.3600538
51
198.6732863
0
ARC
8
DEFAULT_255_1_234
10
11.2807419
20
-0.3379326
40
0.217884
50
198.4451669
51
217.794479
0
ARC
8
DEFAULT_255_1_234
10
11.2511595
20
-0.3588915
40
0.1816698
50
218.2887171
51
228.5612368
0
ARC
8
DEFAULT_255_1_234
10
11.2609382
20
-0.3457037
40
0.1980329
50
228.9654866
51
258.1234728
0
ARC
8
DEFAULT_255_1_234
10
11.2815092
20
-0.2576167
40
0.2884748
50
257.7258293
51
270.401361
0
ARC
8
DEFAULT_255_1_234
10
11.2859978
20
-0.3021179
40
0.2439788
50
269.4204404
51
286.4209037
0
ARC
8
DEFAULT_255_1_234
10
11.3008465
20
-0.3560343
40
0.1880666
50
286.7251356
51
320.600362
0
ARC
8
DEFAULT_255_1_234
10
11.2625291
20
-0.3249405
40
0.2374121
50
320.6712579
51
344.5441685
0
ARC
8
DEFAULT_255_1_234
10
11.1468617
20
-0.2909955
40
0.3579479
50
344.2412205
51
356.7357071
0
ARC
8
DEFAULT_255_1_234
10
11.0219765
20
-0.2806556
40
0.4832297
50
356.3548756
51
0.0500261
0
ARC
8
DEFAULT_255_1_234
10
11.1556274
20
-0.277535
40
0.3495889
50
359.5576869
51
12.953486
0
ARC
8
DEFAULT_255_1_234
10
11.2611172
20
-0.2519566
40
0.2410532
50
12.6490276
51
41.6081334
0
ARC
8
DEFAULT_255_1_234
10
11.2841543
20
-0.2323679
40
0.2108218
50
41.7850273
51
85.9892764
0
ARC
8
DEFAULT_255_1_234
10
11.2718279
20
-0.3136538
40
0.2928454
50
84.6957577
51
90.0676183
0
ARC
8
DEFAULT_255_1_234
10
11.2694763
20
-0.3805284
40
0.3597255
50
89.6804936
51
99.1614436
0
ARC
8
DEFAULT_255_1_234
10
11.2489395
20
-0.2577869
40
0.235281
50
98.9830931
51
113.8908934
0
ARC
8
DEFAULT_255_1_234
10
11.2259805
20
-0.2036413
40
0.176479
50
114.1950727
51
127.3641004
0
LINE
8
DEFAULT_255_1_234
10
12.4433129
20
0.5181211
11
12.4433129
21
-0.258548
0
LINE
8
DEFAULT_255_1_234
10
12.4433129
20
-0.258548
11
12.6055541
21
-0.258548
0
LINE
8
DEFAULT_255_1_234
10
12.6055541
20
-0.258548
11
12.6055541
21
-0.3798272
0
LINE
8
DEFAULT_255_1_234
10
12.6055541
20
-0.3798272
11
12.4433129
21
-0.3798272
0
LINE
8
DEFAULT_255_1_234
10
12.4433129
20
-0.3798272
11
12.4433129
21
-0.6513
0
LINE
8
DEFAULT_255_1_234
10
12.4433129
20
-0.6513
11
12.2939226
21
-0.6513
0
LINE
8
DEFAULT_255_1_234
10
12.2939226
20
-0.6513
11
12.2939226
21
-0.3798272
0
LINE
8
DEFAULT_255_1_234
10
12.2939226
20
-0.3798272
11
11.7614184
21
-0.3798272
0
LINE
8
DEFAULT_255_1_234
10
11.7614184
20
-0.3798272
11
11.7614184
21
-0.2922813
0
LINE
8
DEFAULT_255_1_234
10
11.7614184
20
-0.2922813
11
12.2850877
21
0.5181211
0
LINE
8
DEFAULT_255_1_234
10
12.2850877
20
0.5181211
11
12.4433129
21
0.5181211
0
LINE
8
DEFAULT_255_1_234
10
12.2762528
20
0.2827912
11
11.9300849
21
-0.258548
0
LINE
8
DEFAULT_255_1_234
10
11.9300849
20
-0.258548
11
12.2939226
21
-0.258548
0
LINE
8
DEFAULT_255_1_234
10
12.2939226
20
-0.258548
11
12.2939226
21
0.3149181
0
LINE
8
DEFAULT_255_1_234
10
12.2939226
20
0.3149181
11
12.2762528
21
0.2827912
0
LINE
8
DEFAULT_255_1_234
10
13.0641663
20
-0.0938974
11
13.0641663
21
-0.2151766
0
LINE
8
DEFAULT_255_1_234
10
13.0641663
20
-0.2151766
11
12.6722175
21
-0.2151766
0
LINE
8
DEFAULT_255_1_234
10
12.6722175
20
-0.2151766
11
12.6722175
21
-0.0938974
0
LINE
8
DEFAULT_255_1_234
10
12.6722175
20
-0.0938974
11
13.0641663
21
-0.0938974
0
ARC
8
DEFAULT_255_1_234
10
13.6204556
20
0.2103703
40
0.2822356
50
338.8763615
51
0.5166041
0
ARC
8
DEFAULT_255_1_234
10
13.6373211
20
0.2058208
40
0.2648703
50
325.8412414
51
338.4795939
0
ARC
8
DEFAULT_255_1_234
10
13.5982579
20
0.2329042
40
0.3124019
50
296.7586019
51
325.753654
0
ARC
8
DEFAULT_255_1_234
10
13.5694687
20
0.2813789
40
0.368668
50
296.0902311
51
297.3618122
0
ARC
8
DEFAULT_255_1_234
10
13.5952145
20
-0.3740959
40
0.3518806
50
47.9009248
51
67.1946869
0
ARC
8
DEFAULT_255_1_234
10
13.6148387
20
-0.3494605
40
0.320451
50
35.236241
51
47.551371
0
ARC
8
DEFAULT_255_1_234
10
13.6410004
20
-0.3320007
40
0.2890103
50
359.2759738
51
35.4014081
0
ARC
8
DEFAULT_255_1_234
10
13.5665036
20
-0.3393174
40
0.3635026
50
343.1294516
51
0.5776525
0
ARC
8
DEFAULT_255_1_234
10
13.638958
20
-0.359267
40
0.2883832
50
310.8497458
51
342.744803
0
ARC
8
DEFAULT_255_1_234
10
13.5971694
20
-0.3115706
40
0.3517954
50
281.5473923
51
310.9169905
0
ARC
8
DEFAULT_255_1_234
10
13.5615143
20
-0.1562916
40
0.5110832
50
269.6192722
51
281.9789957
0
ARC
8
DEFAULT_255_1_234
10
13.5542932
20
-0.1562172
40
0.5111606
50
257.4584469
51
270.4287458
0
ARC
8
DEFAULT_255_1_234
10
13.5162075
20
-0.3165656
40
0.3463762
50
228.7553743
51
257.8484423
0
ARC
8
DEFAULT_255_1_234
10
13.4852274
20
-0.3538558
40
0.297916
50
184.0104442
51
228.5071787
0
ARC
8
DEFAULT_255_1_234
10
13.6015218
20
-0.3361488
40
0.4152734
50
179.9315461
51
185.3254504
0
ARC
8
DEFAULT_255_1_234
10
13.4838863
20
-0.3324008
40
0.2976554
50
145.6795913
51
180.6259649
0
ARC
8
DEFAULT_255_1_234
10
13.5002213
20
-0.3438071
40
0.3175776
50
115.5537925
51
145.6416199
0
ARC
8
DEFAULT_255_1_234
10
13.5343143
20
-0.4048972
40
0.3874232
50
113.2437915
51
116.2054627
0
ARC
8
DEFAULT_255_1_234
10
13.5190355
20
0.234958
40
0.3154751
50
222.9548379
51
244.1372485
0
ARC
8
DEFAULT_255_1_234
10
13.5068431
20
0.2212834
40
0.2972382
50
213.3439227
51
222.6271327
0
ARC
8
DEFAULT_255_1_234
10
13.4876365
20
0.2082308
40
0.274019
50
180.4316517
51
213.2713999
0
ARC
8
DEFAULT_255_1_234
10
13.5451367
20
0.212911
40
0.33158
50
179.9992944
51
181.1655061
0
ARC
8
DEFAULT_255_1_234
10
13.5860784
20
0.2163561
40
0.3725376
50
164.6186108
51
180.5292368
0
ARC
8
DEFAULT_255_1_234
10
13.4962646
20
0.2405101
40
0.2795349
50
132.2454369
51
164.5092287
0
ARC
8
DEFAULT_255_1_234
10
13.524975
20
0.2080028
40
0.3229019
50
100.7052766
51
132.1387266
0
ARC
8
DEFAULT_255_1_234
10
13.5554723
20
0.0702086
40
0.4639835
50
89.6732617
51
101.2449487
0
ARC
8
DEFAULT_255_1_234
10
13.5616921
20
0.087699
40
0.4464999
50
76.2876631
51
90.4586123
0
ARC
8
DEFAULT_255_1_234
10
13.5923153
20
0.209922
40
0.3205023
50
47.8240157
51
76.4266918
0
ARC
8
DEFAULT_255_1_234
10
13.6145702
20
0.235959
40
0.2862661
50
6.9168658
51
47.6261438
0
ARC
8
DEFAULT_255_1_234
10
13.4959105
20
0.214037
40
0.4067708
50
359.8419705
51
7.9694496
0
ARC
8
DEFAULT_255_1_234
10
13.5301002
20
-0.3300075
40
0.2513121
50
359.4454068
51
16.9256425
0
ARC
8
DEFAULT_255_1_234
10
13.5769813
20
-0.3170967
40
0.2027071
50
17.292259
51
45.462717
0
ARC
8
DEFAULT_255_1_234
10
13.571575
20
-0.3217566
40
0.2098212
50
45.3028762
51
83.1921472
0
ARC
8
DEFAULT_255_1_234
10
13.5572434
20
-0.4019105
40
0.2911472
50
82.2614531
51
90.143954
0
ARC
8
DEFAULT_255_1_234
10
13.5541554
20
-0.378605
40
0.2678513
50
89.4959189
51
104.8579811
0
ARC
8
DEFAULT_255_1_234
10
13.5364812
20
-0.311611
40
0.1985654
50
104.8855873
51
135.2448349
0
ARC
8
DEFAULT_255_1_234
10
13.5414585
20
-0.3160664
40
0.2052373
50
135.3398955
51
172.104394
0
ARC
8
DEFAULT_255_1_234
10
13.6221643
20
-0.3315075
40
0.2873299
50
171.2651929
51
180.1859362
0
ARC
8
DEFAULT_255_1_234
10
13.6052345
20
-0.3347267
40
0.2704083
50
179.515471
51
193.6466734
0
ARC
8
DEFAULT_255_1_234
10
13.5236114
20
-0.3555223
40
0.1861855
50
193.3540587
51
225.8256931
0
ARC
8
DEFAULT_255_1_234
10
13.5276871
20
-0.3484476
40
0.1941102
50
226.418029
51
255.8553723
0
ARC
8
DEFAULT_255_1_234
10
13.5533303
20
-0.2548002
40
0.2911917
50
255.4655572
51
268.7985967
0
ARC
8
DEFAULT_255_1_234
10
13.5580495
20
-0.1709509
40
0.3751331
50
268.3464808
51
270.0104874
0
ARC
8
DEFAULT_255_1_234
10
13.5603883
20
-0.2393862
40
0.3067064
50
269.575914
51
282.0823146
0
ARC
8
DEFAULT_255_1_234
10
13.5828793
20
-0.3388197
40
0.2047712
50
281.7522535
51
306.6056425
0
ARC
8
DEFAULT_255_1_234
10
13.5927219
20
-0.3549513
40
0.1859604
50
307.1350025
51
314.0277951
0
ARC
8
DEFAULT_255_1_234
10
13.5891303
20
-0.3523234
40
0.1903475
50
314.2553419
51
350.169324
0
ARC
8
DEFAULT_255_1_234
10
13.5039771
20
-0.3338591
40
0.2774269
50
349.4145679
51
0.2930737
0
ARC
8
DEFAULT_255_1_234
10
13.5560205
20
0.1820353
40
0.2300764
50
89.477591
51
105.729794
0
ARC
8
DEFAULT_255_1_234
10
13.5424118
20
0.2325637
40
0.1777519
50
105.922966
51
135.1662921
0
ARC
8
DEFAULT_255_1_234
10
13.544462
20
0.2311419
40
0.1802087
50
135.3053131
51
168.9882338
0
ARC
8
DEFAULT_255_1_234
10
13.6272193
20
0.2121721
40
0.2650806
50
168.3802067
51
180.3602358
0
ARC
8
DEFAULT_255_1_234
10
13.6043772
20
0.2084041
40
0.2422425
50
179.5029707
51
194.9126783
0
ARC
8
DEFAULT_255_1_234
10
13.5458433
20
0.193011
40
0.1817188
50
194.9722181
51
224.1943972
0
ARC
8
DEFAULT_255_1_234
10
13.5430301
20
0.1907169
40
0.1781027
50
224.2961434
51
262.0157375
0
ARC
8
DEFAULT_255_1_234
10
13.5572543
20
0.2638661
40
0.2525492
50
261.1250369
51
270.1959853
0
ARC
8
DEFAULT_255_1_234
10
13.5602299
20
0.2451339
40
0.233825
50
269.4825617
51
285.0988277
0
ARC
8
DEFAULT_255_1_234
10
13.5756458
20
0.187299
40
0.1739712
50
285.1585659
51
315.9484648
0
ARC
8
DEFAULT_255_1_234
10
13.5667469
20
0.1954886
40
0.1860616
50
316.0412958
51
351.9162715
0
ARC
8
DEFAULT_255_1_234
10
13.4934424
20
0.2096245
40
0.2606517
50
351.1056823
51
0.1936567
0
ARC
8
DEFAULT_255_1_234
10
13.5197253
20
0.2126369
40
0.234377
50
359.4789506
51
16.0679113
0
ARC
8
DEFAULT_255_1_234
10
13.5673212
20
0.225481
40
0.1850875
50
16.3251951
51
44.791304
0
ARC
8
DEFAULT_255_1_234
10
13.5655494
20
0.2255339
40
0.186312
50
44.3958661
51
88.2498933
0
ARC
8
DEFAULT_255_1_234
10
13.5582047
20
0.1644154
40
0.2476868
50
86.9833827
51
90.0200148
0
LINE
8
DEFAULT_255_1_234
10
14.8006281
20
-0.0087609
11
14.8006281
21
-0.1348592
0
LINE
8
DEFAULT_255_1_234
10
14.8006281
20
-0.1348592
11
14.3098889
21
-0.1348592
0
LINE
8
DEFAULT_255_1_234
10
14.3098889
20
-0.1348592
11
14.3098889
21
-0.6513
0
LINE
8
DEFAULT_255_1_234
10
14.3098889
20
-0.6513
11
14.1556795
21
-0.6513
0
LINE
8
DEFAULT_255_1_234
10
14.1556795
20
-0.6513
11
14.1556795
21
0.5181211
0
LINE
8
DEFAULT_255_1_234
10
14.1556795
20
0.5181211
11
14.8801423
21
0.5181211
0
LINE
8
DEFAULT_255_1_234
10
14.8801423
20
0.5181211
11
14.8801423
21
0.3912196
0
LINE
8
DEFAULT_255_1_234
10
14.8801423
20
0.3912196
11
14.3098889
21
0.3912196
0
LINE
8
DEFAULT_255_1_234
10
14.3098889
20
0.3912196
11
14.3098889
21
-0.0087609
0
LINE
8
DEFAULT_255_1_234
10
14.3098889
20
-0.0087609
11
14.8006281
21
-0.0087609
0
LINE
8
DEFAULT_255_1_234
10
15.4704751
20
-0.6513
11
15.0648723
21
-0.6513
0
LINE
8
DEFAULT_255_1_234
10
15.0648723
20
-0.6513
11
15.0648723
21
0.5181211
0
LINE
8
DEFAULT_255_1_234
10
15.0648723
20
0.5181211
11
15.4471831
21
0.5181211
0
LINE
8
DEFAULT_255_1_234
10
15.4760973
20
-0.1043386
11
15.2190817
21
-0.1043386
0
LINE
8
DEFAULT_255_1_234
10
15.2190817
20
-0.1043386
11
15.2190817
21
-0.5252017
0
LINE
8
DEFAULT_255_1_234
10
15.2190817
20
-0.5252017
11
15.4736878
21
-0.5252017
0
LINE
8
DEFAULT_255_1_234
10
15.2190817
20
0.3912196
11
15.2190817
21
0.0193501
0
LINE
8
DEFAULT_255_1_234
10
15.2190817
20
0.0193501
11
15.4520021
21
0.0193501
0
LINE
8
DEFAULT_255_1_234
10
15.4471831
20
0.3912196
11
15.2190817
21
0.3912196
0
ARC
8
DEFAULT_255_1_234
10
15.4509539
20
-0.2186099
40
0.7367406
50
82.1257326
51
90.2932599
0
ARC
8
DEFAULT_255_1_234
10
15.4898494
20
0.0532013
40
0.4621653
50
69.9044149
51
82.2857423
0
ARC
8
DEFAULT_255_1_234
10
15.5469172
20
0.2074637
40
0.2976871
50
51.1838526
51
70.0181538
0
ARC
8
DEFAULT_255_1_234
10
15.5724138
20
0.244524
40
0.2528517
50
12.1017251
51
50.4214761
0
ARC
8
DEFAULT_255_1_234
10
15.4340012
20
0.2097676
40
0.3955061
50
359.5251267
51
12.8211707
0
ARC
8
DEFAULT_255_1_234
10
15.5919939
20
0.2028344
40
0.2375281
50
323.4908128
51
0.8817314
0
ARC
8
DEFAULT_255_1_234
10
15.5501625
20
0.235155
40
0.2903817
50
298.6825083
51
323.2756573
0
ARC
8
DEFAULT_255_1_234
10
15.5139988
20
0.2952649
40
0.3604842
50
293.1999386
51
299.1396394
0
ARC
8
DEFAULT_255_1_234
10
15.5812961
20
-0.3132874
40
0.2871098
50
54.0011765
51
74.9167975
0
ARC
8
DEFAULT_255_1_234
10
15.592932
20
-0.2935668
40
0.2643248
50
36.3580696
51
53.5291921
0
ARC
8
DEFAULT_255_1_234
10
15.5802563
20
-0.3026002
40
0.2798884
50
4.8189881
51
36.3089977
0
ARC
8
DEFAULT_255_1_234
10
15.5023398
20
-0.313573
40
0.358478
50
359.9370252
51
5.5204067
0
ARC
8
DEFAULT_255_1_234
10
15.4698919
20
-0.3176333
40
0.3909429
50
344.7478609
51
0.5373281
0
ARC
8
DEFAULT_255_1_234
10
15.568989
20
-0.3443456
40
0.2883093
50
311.1786488
51
344.6886812
0
ARC
8
DEFAULT_255_1_234
10
15.5397938
20
-0.3080013
40
0.3348923
50
286.0418249
51
310.8441291
0
ARC
8
DEFAULT_255_1_234
10
15.4890769
20
-0.1433193
40
0.5071869
50
274.1042341
51
286.4071509
0
ARC
8
DEFAULT_255_1_234
10
15.4714025
20
0.0450229
40
0.6963234
50
269.9236873
51
274.445647
0
ARC
8
DEFAULT_255_1_234
10
15.4760026
20
-0.1889463
40
0.3362634
50
269.6055768
51
281.3740047
0
ARC
8
DEFAULT_255_1_234
10
15.4990664
20
-0.2982647
40
0.224546
50
281.1055983
51
302.5132223
0
ARC
8
DEFAULT_255_1_234
10
15.5137564
20
-0.3246177
40
0.1944357
50
303.0368945
51
311.8811219
0
ARC
8
DEFAULT_255_1_234
10
15.520897
20
-0.333111
40
0.1833454
50
311.9916004
51
351.7143462
0
ARC
8
DEFAULT_255_1_234
10
15.43922
20
-0.316607
40
0.2665871
50
350.7339597
51
0.2221581
0
ARC
8
DEFAULT_255_1_234
10
15.4284646
20
-0.3109533
40
0.2773789
50
359.0456241
51
17.2296242
0
ARC
8
DEFAULT_255_1_234
10
15.5323763
20
-0.2800837
40
0.1689915
50
17.6685481
51
78.9940892
0
ARC
8
DEFAULT_255_1_234
10
15.4806927
20
-0.4655776
40
0.3612658
50
76.5635957
51
90.6980921
0
LINE
8
DEFAULT_255_1_234
10
15.4762912
20
-0.1043387
11
15.4760973
21
-0.1043386
0
ARC
8
DEFAULT_255_1_234
10
15.4542587
20
0.3479036
40
0.3285612
50
269.6064736
51
281.4533503
0
ARC
8
DEFAULT_255_1_234
10
15.4765407
20
0.2427688
40
0.2210975
50
281.2041486
51
302.5148063
0
ARC
8
DEFAULT_255_1_234
10
15.4902257
20
0.2181241
40
0.1929674
50
303.021671
51
309.8369575
0
ARC
8
DEFAULT_255_1_234
10
15.5085719
20
0.1975488
40
0.1654181
50
309.5228395
51
356.9509836
0
ARC
8
DEFAULT_255_1_234
10
15.4422301
20
0.2070932
40
0.2322512
50
355.4701227
51
0.0492546
0
ARC
8
DEFAULT_255_1_234
10
15.4143392
20
0.2093094
40
0.2601498
50
359.5558597
51
11.2096359
0
ARC
8
DEFAULT_255_1_234
10
15.5100682
20
0.229123
40
0.1623975
50
10.9182341
51
31.3230275
0
ARC
8
DEFAULT_255_1_234
10
15.5386416
20
0.2450214
40
0.1297302
50
31.8852677
51
52.1412565
0
ARC
8
DEFAULT_255_1_234
10
15.5112148
20
0.206275
40
0.1771663
50
52.8285564
51
71.9850297
0
ARC
8
DEFAULT_255_1_234
10
15.4736325
20
0.0956664
40
0.2939794
50
71.6863486
51
82.8455995
0
ARC
8
DEFAULT_255_1_234
10
15.4496861
20
-0.0852851
40
0.476506
50
82.6984714
51
90.1729175
0
ARC
8
DEFAULT_255_1_234
10
15.4474495
20
0.0370623
40
0.3541573
50
89.8708275
51
90.0431131
0
LINE
8
DEFAULT_255_1_234
10
16.7836643
20
0.0402327
11
16.7836643
21
-0.1525291
0
LINE
8
DEFAULT_255_1_234
10
16.0455476
20
-0.1726084
11
16.0455476
21
0.0257755
0
LINE
8
DEFAULT_255_1_234
10
16.6350771
20
-0.1926877
11
16.6350771
21
0.0506739
0
LINE
8
DEFAULT_255_1_234
10
16.1941347
20
0.0619184
11
16.1941347
21
-0.1758211
0
ARC
8
DEFAULT_255_1_234
10
15.5589533
20
-0.1574195
40
1.2247208
50
353.8441951
51
0.2287902
0
ARC
8
DEFAULT_255_1_234
10
16.0229036
20
-0.2092194
40
0.7578929
50
344.4934747
51
353.9765454
0
ARC
8
DEFAULT_255_1_234
10
16.3221626
20
-0.2943019
40
0.4467846
50
329.2803592
51
344.7472793
0
ARC
8
DEFAULT_255_1_234
10
16.4214451
20
-0.3487982
40
0.3336173
50
324.9352394
51
328.6160465
0
ARC
8
DEFAULT_255_1_234
10
16.459156
20
-0.3751573
40
0.2876076
50
280.580143
51
324.9173126
0
ARC
8
DEFAULT_255_1_234
10
16.4190353
20
-0.2080901
40
0.4592847
50
269.5977311
51
281.6734359
0
ARC
8
DEFAULT_255_1_234
10
16.4118258
20
-0.2200827
40
0.4472986
50
256.6228859
51
270.51044
0
ARC
8
DEFAULT_255_1_234
10
16.3716236
20
-0.3749123
40
0.2873874
50
215.8618325
51
257.2788573
0
ARC
8
DEFAULT_255_1_234
10
16.4737268
20
-0.3064023
40
0.4102928
50
197.9693508
51
215.2623606
0
ARC
8
DEFAULT_255_1_234
10
16.7222383
20
-0.2225291
40
0.6725652
50
187.8816417
51
198.2346507
0
ARC
8
DEFAULT_255_1_234
10
17.1180592
20
-0.1653921
40
1.0724845
50
180.8976217
51
188.0055519
0
ARC
8
DEFAULT_255_1_234
10
17.398078
20
-0.1550223
40
1.3526448
50
180.7449369
51
181.1510016
0
ARC
8
DEFAULT_255_1_234
10
17.2403509
20
0.0306042
40
1.1948131
50
173.7675579
51
180.231553
0
ARC
8
DEFAULT_255_1_234
10
16.7885655
20
0.0816666
40
0.7401564
50
164.3058563
51
173.9002247
0
ARC
8
DEFAULT_255_1_234
10
16.4973724
20
0.1655656
40
0.4371288
50
148.7922025
51
164.568378
0
ARC
8
DEFAULT_255_1_234
10
16.4022176
20
0.2186929
40
0.3282386
50
144.5883898
51
148.1176286
0
ARC
8
DEFAULT_255_1_234
10
16.3679074
20
0.2426315
40
0.2864044
50
101.6440918
51
144.514236
0
ARC
8
DEFAULT_255_1_234
10
16.4104141
20
0.0737069
40
0.4604934
50
89.5284041
51
102.5819763
0
ARC
8
DEFAULT_255_1_234
10
16.4183229
20
0.0698018
40
0.464401
50
77.0437873
51
90.5081339
0
ARC
8
DEFAULT_255_1_234
10
16.4585231
20
0.2340615
40
0.2953195
50
48.2778575
51
77.4994676
0
ARC
8
DEFAULT_255_1_234
10
16.4657862
20
0.2469746
40
0.2808655
50
36.3142134
51
47.6305865
0
ARC
8
DEFAULT_255_1_234
10
16.3789169
20
0.1884515
40
0.3855453
50
18.2931786
51
35.6769206
0
ARC
8
DEFAULT_255_1_234
10
16.1245928
20
0.1011593
40
0.654423
50
8.024666
51
18.5605216
0
ARC
8
DEFAULT_255_1_234
10
15.7082848
20
0.0396792
40
1.0752407
50
1.1274072
51
8.1718305
0
ARC
8
DEFAULT_255_1_234
10
15.3847038
20
0.0269885
40
1.3990231
50
0.5424119
51
1.3863029
0
ARC
8
DEFAULT_255_1_234
10
15.5668416
20
0.0542342
40
1.0682415
50
359.8090433
51
4.9407866
0
ARC
8
DEFAULT_255_1_234
10
15.987843
20
0.0918113
40
0.6455691
50
4.8362157
51
12.2904523
0
ARC
8
DEFAULT_255_1_234
10
16.2633545
20
0.1531965
40
0.3633074
50
12.0805627
51
23.8173984
0
ARC
8
DEFAULT_255_1_234
10
16.380725
20
0.2028919
40
0.2358723
50
24.2871213
51
31.3935614
0
ARC
8
DEFAULT_255_1_234
10
16.4331947
20
0.2372233
40
0.1732111
50
30.7407893
51
82.4657128
0
ARC
8
DEFAULT_255_1_234
10
16.4152082
20
0.1488691
40
0.263235
50
81.1060089
51
90.2184952
0
ARC
8
DEFAULT_255_1_234
10
16.4116381
20
0.1746924
40
0.2374236
50
89.3806855
51
105.6762551
0
ARC
8
DEFAULT_255_1_234
10
16.3933011
20
0.2413567
40
0.1682847
50
105.7981136
51
149.7388061
0
ARC
8
DEFAULT_255_1_234
10
16.499709
20
0.177395
40
0.2924306
50
149.4208916
51
163.6286378
0
ARC
8
DEFAULT_255_1_234
10
16.7087978
20
0.113625
40
0.5110213
50
163.3763315
51
172.1410975
0
ARC
8
DEFAULT_255_1_234
10
17.0388697
20
0.0663518
40
0.8444586
50
172.0259487
51
178.0703232
0
ARC
8
DEFAULT_255_1_234
10
17.3418786
20
0.0519906
40
1.1477868
50
177.8631668
51
179.5044149
0
ARC
8
DEFAULT_255_1_234
10
17.2346191
20
-0.1794611
40
1.0404907
50
179.7995573
51
185.2460446
0
ARC
8
DEFAULT_255_1_234
10
16.830323
20
-0.2177487
40
0.6343885
50
185.1411642
51
193.0079639
0
ARC
8
DEFAULT_255_1_234
10
16.5659702
20
-0.2802359
40
0.3627568
50
192.7897626
51
205.2507664
0
ARC
8
DEFAULT_255_1_234
10
16.4613249
20
-0.3269585
40
0.2481908
50
205.8005384
51
211.2537509
0
ARC
8
DEFAULT_255_1_234
10
16.408969
20
-0.362042
40
0.1852521
50
210.3789793
51
238.4008143
0
ARC
8
DEFAULT_255_1_234
10
16.4070212
20
-0.3573624
40
0.1882621
50
239.6520629
51
265.9793761
0
ARC
8
DEFAULT_255_1_234
10
16.4155412
20
-0.2901573
40
0.2559272
50
265.1315437
51
270.060332
0
ARC
8
DEFAULT_255_1_234
10
16.4184191
20
-0.3225466
40
0.2235528
50
269.3314664
51
287.2178029
0
ARC
8
DEFAULT_255_1_234
10
16.4322043
20
-0.3728721
40
0.1714108
50
287.7958004
51
329.080874
0
ARC
8
DEFAULT_255_1_234
10
16.3364499
20
-0.313107
40
0.2842745
50
328.6634704
51
343.3325132
0
ARC
8
DEFAULT_255_1_234
10
16.119152
20
-0.2454137
40
0.5118644
50
343.0499468
51
351.9393422
0
ARC
8
DEFAULT_255_1_234
10
15.772482
20
-0.1943051
40
0.8622784
50
351.8069023
51
357.7959224
0
ARC
8
DEFAULT_255_1_234
10
15.4489376
20
-0.1775279
40
1.1862365
50
357.5871873
51
359.2677531
0
LINE
8
DEFAULT_255_1_234
10
17.4623462
20
0.5237433
11
17.4623462
21
-0.6513
0
LINE
8
DEFAULT_255_1_234
10
17.4623462
20
-0.6513
11
17.3129559
21
-0.6513
0
LINE
8
DEFAULT_255_1_234
10
17.3129559
20
-0.6513
11
17.3129559
21
0.3390133
0
LINE
8
DEFAULT_255_1_234
10
17.3129559
20
0.3390133
11
17.013372
21
0.2289785
0
LINE
8
DEFAULT_255_1_234
10
17.013372
20
0.2289785
11
17.013372
21
0.3639117
0
LINE
8
DEFAULT_255_1_234
10
17.013372
20
0.3639117
11
17.4390542
21
0.5237433
0
LINE
8
DEFAULT_255_1_234
10
17.4390542
20
0.5237433
11
17.4623462
21
0.5237433
0
LINE
8
DEFAULT_255_1_234
10
18.2221486
20
-0.0938974
11
18.2221486
21
-0.2151766
0
LINE
8
DEFAULT_255_1_234
10
18.2221486
20
-0.2151766
11
17.8301998
21
-0.2151766
0
LINE
8
DEFAULT_255_1_234
10
17.8301998
20
-0.2151766
11
17.8301998
21
-0.0938974
0
LINE
8
DEFAULT_255_1_234
10
17.8301998
20
-0.0938974
11
18.2221486
21
-0.0938974
0
LINE
8
DEFAULT_255_1_234
10
19.0847573
20
0.0402327
11
19.0847573
21
-0.1525291
0
LINE
8
DEFAULT_255_1_234
10
18.3466406
20
-0.1726084
11
18.3466406
21
0.0257755
0
LINE
8
DEFAULT_255_1_234
10
18.9361702
20
-0.1926877
11
18.9361702
21
0.0506739
0
LINE
8
DEFAULT_255_1_234
10
18.4952277
20
0.0619184
11
18.4952277
21
-0.1758211
0
ARC
8
DEFAULT_255_1_234
10
17.8600463
20
-0.1574195
40
1.2247208
50
353.8441951
51
0.2287902
0
ARC
8
DEFAULT_255_1_234
10
18.3239966
20
-0.2092194
40
0.7578929
50
344.4934747
51
353.9765454
0
ARC
8
DEFAULT_255_1_234
10
18.6232557
20
-0.2943019
40
0.4467846
50
329.2803592
51
344.7472793
0
ARC
8
DEFAULT_255_1_234
10
18.7225382
20
-0.3487982
40
0.3336173
50
324.9352394
51
328.6160465
0
ARC
8
DEFAULT_255_1_234
10
18.760249
20
-0.3751573
40
0.2876076
50
280.580143
51
324.9173126
0
ARC
8
DEFAULT_255_1_234
10
18.7201283
20
-0.2080901
40
0.4592847
50
269.5977311
51
281.6734359
0
ARC
8
DEFAULT_255_1_234
10
18.7129188
20
-0.2200827
40
0.4472986
50
256.6228859
51
270.51044
0
ARC
8
DEFAULT_255_1_234
10
18.6727166
20
-0.3749123
40
0.2873874
50
215.8618325
51
257.2788573
0
ARC
8
DEFAULT_255_1_234
10
18.7748198
20
-0.3064023
40
0.4102928
50
197.9693508
51
215.2623606
0
ARC
8
DEFAULT_255_1_234
10
19.0233313
20
-0.2225291
40
0.6725652
50
187.8816417
51
198.2346507
0
ARC
8
DEFAULT_255_1_234
10
19.4191522
20
-0.1653921
40
1.0724845
50
180.8976217
51
188.0055519
0
ARC
8
DEFAULT_255_1_234
10
19.699171
20
-0.1550223
40
1.3526448
50
180.7449369
51
181.1510016
0
ARC
8
DEFAULT_255_1_234
10
19.5414439
20
0.0306042
40
1.1948131
50
173.7675579
51
180.231553
0
ARC
8
DEFAULT_255_1_234
10
19.0896586
20
0.0816666
40
0.7401564
50
164.3058563
51
173.9002247
0
ARC
8
DEFAULT_255_1_234
10
18.7984654
20
0.1655656
40
0.4371288
50
148.7922025
51
164.568378
0
ARC
8
DEFAULT_255_1_234
10
18.7033107
20
0.2186929
40
0.3282386
50
144.5883898
51
148.1176286
0
ARC
8
DEFAULT_255_1_234
10
18.6690004
20
0.2426315
40
0.2864044
50
101.6440918
51
144.514236
0
ARC
8
DEFAULT_255_1_234
10
18.7115071
20
0.0737069
40
0.4604934
50
89.5284041
51
102.5819763
0
ARC
8
DEFAULT_255_1_234
10
18.7194159
20
0.0698018
40
0.464401
50
77.0437873
51
90.5081339
0
ARC
8
DEFAULT_255_1_234
10
18.7596161
20
0.2340615
40
0.2953195
50
48.2778575
51
77.4994676
0
ARC
8
DEFAULT_255_1_234
10
18.7668792
20
0.2469746
40
0.2808655
50
36.3142134
51
47.6305865
0
ARC
8
DEFAULT_255_1_234
10
18.6800099
20
0.1884515
40
0.3855453
50
18.2931786
51
35.6769206
0
ARC
8
DEFAULT_255_1_234
10
18.4256858
20
0.1011593
40
0.654423
50
8.024666
51
18.5605216
0
ARC
8
DEFAULT_255_1_234
10
18.0093778
20
0.0396792
40
1.0752407
50
1.1274072
51
8.1718305
0
ARC
8
DEFAULT_255_1_234
10
17.6857968
20
0.0269885
40
1.3990231
50
0.5424119
51
1.3863029
0
ARC
8
DEFAULT_255_1_234
10
17.8679346
20
0.0542342
40
1.0682415
50
359.8090433
51
4.9407866
0
ARC
8
DEFAULT_255_1_234
10
18.288936
20
0.0918113
40
0.6455691
50
4.8362157
51
12.2904523
0
ARC
8
DEFAULT_255_1_234
10
18.5644475
20
0.1531965
40
0.3633074
50
12.0805627
51
23.8173984
0
ARC
8
DEFAULT_255_1_234
10
18.681818
20
0.2028919
40
0.2358723
50
24.2871213
51
31.3935614
0
ARC
8
DEFAULT_255_1_234
10
18.7342878
20
0.2372233
40
0.1732111
50
30.7407893
51
82.4657128
0
ARC
8
DEFAULT_255_1_234
10
18.7163012
20
0.1488691
40
0.263235
50
81.1060089
51
90.2184952
0
ARC
8
DEFAULT_255_1_234
10
18.7127311
20
0.1746924
40
0.2374236
50
89.3806855
51
105.6762551
0
ARC
8
DEFAULT_255_1_234
10
18.6943941
20
0.2413567
40
0.1682847
50
105.7981136
51
149.7388061
0
ARC
8
DEFAULT_255_1_234
10
18.800802
20
0.177395
40
0.2924306
50
149.4208916
51
163.6286378
0
ARC
8
DEFAULT_255_1_234
10
19.0098908
20
0.113625
40
0.5110213
50
163.3763315
51
172.1410975
0
ARC
8
DEFAULT_255_1_234
10
19.3399627
20
0.0663518
40
0.8444586
50
172.0259487
51
178.0703232
0
ARC
8
DEFAULT_255_1_234
10
19.6429716
20
0.0519906
40
1.1477868
50
177.8631668
51
179.5044149
0
ARC
8
DEFAULT_255_1_234
10
19.5357121
20
-0.1794611
40
1.0404907
50
179.7995573
51
185.2460446
0
ARC
8
DEFAULT_255_1_234
10
19.131416
20
-0.2177487
40
0.6343885
50
185.1411642
51
193.0079639
0
ARC
8
DEFAULT_255_1_234
10
18.8670633
20
-0.2802359
40
0.3627568
50
192.7897626
51
205.2507664
0
ARC
8
DEFAULT_255_1_234
10
18.762418
20
-0.3269585
40
0.2481908
50
205.8005384
51
211.2537509
0
ARC
8
DEFAULT_255_1_234
10
18.710062
20
-0.362042
40
0.1852521
50
210.3789793
51
238.4008143
0
ARC
8
DEFAULT_255_1_234
10
18.7081142
20
-0.3573624
40
0.1882621
50
239.6520629
51
265.9793761
0
ARC
8
DEFAULT_255_1_234
10
18.7166342
20
-0.2901573
40
0.2559272
50
265.1315437
51
270.060332
0
ARC
8
DEFAULT_255_1_234
10
18.7195121
20
-0.3225466
40
0.2235528
50
269.3314664
51
287.2178029
0
ARC
8
DEFAULT_255_1_234
10
18.7332973
20
-0.3728721
40
0.1714108
50
287.7958004
51
329.080874
0
ARC
8
DEFAULT_255_1_234
10
18.637543
20
-0.313107
40
0.2842745
50
328.6634704
51
343.3325132
0
ARC
8
DEFAULT_255_1_234
10
18.420245
20
-0.2454137
40
0.5118644
50
343.0499468
51
351.9393422
0
ARC
8
DEFAULT_255_1_234
10
18.073575
20
-0.1943051
40
0.8622784
50
351.8069023
51
357.7959224
0
ARC
8
DEFAULT_255_1_234
10
17.7500306
20
-0.1775279
40
1.1862365
50
357.5871873
51
359.2677531
0
LINE
8
DEFAULT_255_1_234
10
20.0710548
20
-0.6513
11
19.9594136
21
-0.3460939
0
LINE
8
DEFAULT_255_1_234
10
19.9594136
20
-0.3460939
11
19.4694776
21
-0.3460939
0
LINE
8
DEFAULT_255_1_234
10
19.4694776
20
-0.3460939
11
19.3594428
21
-0.6513
0
LINE
8
DEFAULT_255_1_234
10
19.3594428
20
-0.6513
11
19.2004144
21
-0.6513
0
LINE
8
DEFAULT_255_1_234
10
19.2004144
20
-0.6513
11
19.646979
21
0.5181211
0
LINE
8
DEFAULT_255_1_234
10
19.646979
20
0.5181211
11
19.7819122
21
0.5181211
0
LINE
8
DEFAULT_255_1_234
10
19.7819122
20
0.5181211
11
20.22928
21
-0.6513
0
LINE
8
DEFAULT_255_1_234
10
20.22928
20
-0.6513
11
20.0710548
21
-0.6513
0
LINE
8
DEFAULT_255_1_234
10
19.7144456
20
0.3277689
11
19.5160617
21
-0.2191925
0
LINE
8
DEFAULT_255_1_234
10
19.5160617
20
-0.2191925
11
19.9136327
21
-0.2191925
0
LINE
8
DEFAULT_255_1_234
10
19.9136327
20
-0.2191925
11
19.7144456
21
0.3277689
0
LINE
8
DEFAULT_255_1_234
10
20.7923049
20
-0.6513
11
20.3867021
21
-0.6513
0
LINE
8
DEFAULT_255_1_234
10
20.3867021
20
-0.6513
11
20.3867021
21
0.5181211
0
LINE
8
DEFAULT_255_1_234
10
20.3867021
20
0.5181211
11
20.7690128
21
0.5181211
0
LINE
8
DEFAULT_255_1_234
10
20.7979271
20
-0.1043386
11
20.5409115
21
-0.1043386
0
LINE
8
DEFAULT_255_1_234
10
20.5409115
20
-0.1043386
11
20.5409115
21
-0.5252017
0
LINE
8
DEFAULT_255_1_234
10
20.5409115
20
-0.5252017
11
20.7955176
21
-0.5252017
0
LINE
8
DEFAULT_255_1_234
10
20.5409115
20
0.3912196
11
20.5409115
21
0.0193501
0
LINE
8
DEFAULT_255_1_234
10
20.5409115
20
0.0193501
11
20.7738319
21
0.0193501
0
LINE
8
DEFAULT_255_1_234
10
20.7690128
20
0.3912196
11
20.5409115
21
0.3912196
0
ARC
8
DEFAULT_255_1_234
10
20.7727837
20
-0.2186099
40
0.7367406
50
82.1257326
51
90.2932599
0
ARC
8
DEFAULT_255_1_234
10
20.8116792
20
0.0532013
40
0.4621653
50
69.9044149
51
82.2857423
0
ARC
8
DEFAULT_255_1_234
10
20.868747
20
0.2074637
40
0.2976871
50
51.1838526
51
70.0181538
0
ARC
8
DEFAULT_255_1_234
10
20.8942436
20
0.244524
40
0.2528517
50
12.1017251
51
50.4214761
0
ARC
8
DEFAULT_255_1_234
10
20.755831
20
0.2097676
40
0.3955061
50
359.5251267
51
12.8211707
0
ARC
8
DEFAULT_255_1_234
10
20.9138237
20
0.2028344
40
0.2375281
50
323.4908128
51
0.8817314
0
ARC
8
DEFAULT_255_1_234
10
20.8719923
20
0.235155
40
0.2903817
50
298.6825083
51
323.2756573
0
ARC
8
DEFAULT_255_1_234
10
20.8358286
20
0.2952649
40
0.3604842
50
293.1999386
51
299.1396394
0
ARC
8
DEFAULT_255_1_234
10
20.9031259
20
-0.3132874
40
0.2871098
50
54.0011765
51
74.9167975
0
ARC
8
DEFAULT_255_1_234
10
20.9147618
20
-0.2935668
40
0.2643248
50
36.3580696
51
53.5291921
0
ARC
8
DEFAULT_255_1_234
10
20.902086
20
-0.3026002
40
0.2798884
50
4.8189881
51
36.3089977
0
ARC
8
DEFAULT_255_1_234
10
20.8241696
20
-0.313573
40
0.358478
50
359.9370252
51
5.5204067
0
ARC
8
DEFAULT_255_1_234
10
20.7917217
20
-0.3176333
40
0.3909429
50
344.7478609
51
0.5373281
0
ARC
8
DEFAULT_255_1_234
10
20.8908188
20
-0.3443456
40
0.2883093
50
311.1786488
51
344.6886812
0
ARC
8
DEFAULT_255_1_234
10
20.8616236
20
-0.3080013
40
0.3348923
50
286.0418249
51
310.8441291
0
ARC
8
DEFAULT_255_1_234
10
20.8109067
20
-0.1433193
40
0.5071869
50
274.1042341
51
286.4071509
0
ARC
8
DEFAULT_255_1_234
10
20.7932323
20
0.0450229
40
0.6963234
50
269.9236873
51
274.445647
0
ARC
8
DEFAULT_255_1_234
10
20.7978324
20
-0.1889463
40
0.3362634
50
269.6055768
51
281.3740047
0
ARC
8
DEFAULT_255_1_234
10
20.8208962
20
-0.2982647
40
0.224546
50
281.1055983
51
302.5132223
0
ARC
8
DEFAULT_255_1_234
10
20.8355861
20
-0.3246177
40
0.1944357
50
303.0368945
51
311.8811219
0
ARC
8
DEFAULT_255_1_234
10
20.8427268
20
-0.333111
40
0.1833454
50
311.9916004
51
351.7143462
0
ARC
8
DEFAULT_255_1_234
10
20.7610498
20
-0.316607
40
0.2665871
50
350.7339597
51
0.2221581
0
ARC
8
DEFAULT_255_1_234
10
20.7502944
20
-0.3109533
40
0.2773789
50
359.0456241
51
17.2296242
0
ARC
8
DEFAULT_255_1_234
10
20.8542061
20
-0.2800837
40
0.1689915
50
17.6685481
51
78.9940892
0
ARC
8
DEFAULT_255_1_234
10
20.8025225
20
-0.4655776
40
0.3612658
50
76.5635957
51
90.6980921
0
LINE
8
DEFAULT_255_1_234
10
20.7981209
20
-0.1043387
11
20.7979271
21
-0.1043386
0
ARC
8
DEFAULT_255_1_234
10
20.7760885
20
0.3479036
40
0.3285612
50
269.6064736
51
281.4533503
0
ARC
8
DEFAULT_255_1_234
10
20.7983705
20
0.2427688
40
0.2210975
50
281.2041486
51
302.5148063
0
ARC
8
DEFAULT_255_1_234
10
20.8120555
20
0.2181241
40
0.1929674
50
303.021671
51
309.8369575
0
ARC
8
DEFAULT_255_1_234
10
20.8304017
20
0.1975488
40
0.1654181
50
309.5228395
51
356.9509836
0
ARC
8
DEFAULT_255_1_234
10
20.7640599
20
0.2070932
40
0.2322512
50
355.4701227
51
0.0492546
0
ARC
8
DEFAULT_255_1_234
10
20.736169
20
0.2093094
40
0.2601498
50
359.5558597
51
11.2096359
0
ARC
8
DEFAULT_255_1_234
10
20.831898
20
0.229123
40
0.1623975
50
10.9182341
51
31.3230275
0
ARC
8
DEFAULT_255_1_234
10
20.8604713
20
0.2450214
40
0.1297302
50
31.8852677
51
52.1412565
0
ARC
8
DEFAULT_255_1_234
10
20.8330446
20
0.206275
40
0.1771663
50
52.8285564
51
71.9850297
0
ARC
8
DEFAULT_255_1_234
10
20.7954623
20
0.0956664
40
0.2939794
50
71.6863486
51
82.8455995
0
ARC
8
DEFAULT_255_1_234
10
20.7715159
20
-0.0852851
40
0.476506
50
82.6984714
51
90.1729175
0
ARC
8
DEFAULT_255_1_234
10
20.7692793
20
0.0370623
40
0.3541573
50
89.8708275
51
90.0431131
0
LINE
8
DEFAULT_255_1_234
10
22.1054941
20
0.0402327
11
22.1054941
21
-0.1525291
0
LINE
8
DEFAULT_255_1_234
10
21.3673773
20
-0.1726084
11
21.3673773
21
0.0257755
0
LINE
8
DEFAULT_255_1_234
10
21.9569069
20
-0.1926877
11
21.9569069
21
0.0506739
0
LINE
8
DEFAULT_255_1_234
10
21.5159645
20
0.0619184
11
21.5159645
21
-0.1758211
0
ARC
8
DEFAULT_255_1_234
10
20.880783
20
-0.1574195
40
1.2247208
50
353.8441951
51
0.2287902
0
ARC
8
DEFAULT_255_1_234
10
21.3447334
20
-0.2092194
40
0.7578929
50
344.4934747
51
353.9765454
0
ARC
8
DEFAULT_255_1_234
10
21.6439924
20
-0.2943019
40
0.4467846
50
329.2803592
51
344.7472793
0
ARC
8
DEFAULT_255_1_234
10
21.7432749
20
-0.3487982
40
0.3336173
50
324.9352394
51
328.6160465
0
ARC
8
DEFAULT_255_1_234
10
21.7809858
20
-0.3751573
40
0.2876076
50
280.580143
51
324.9173126
0
ARC
8
DEFAULT_255_1_234
10
21.7408651
20
-0.2080901
40
0.4592847
50
269.5977311
51
281.6734359
0
ARC
8
DEFAULT_255_1_234
10
21.7336556
20
-0.2200827
40
0.4472986
50
256.6228859
51
270.51044
0
ARC
8
DEFAULT_255_1_234
10
21.6934534
20
-0.3749123
40
0.2873874
50
215.8618325
51
257.2788573
0
ARC
8
DEFAULT_255_1_234
10
21.7955566
20
-0.3064023
40
0.4102928
50
197.9693508
51
215.2623606
0
ARC
8
DEFAULT_255_1_234
10
22.0440681
20
-0.2225291
40
0.6725652
50
187.8816417
51
198.2346507
0
ARC
8
DEFAULT_255_1_234
10
22.4398889
20
-0.1653921
40
1.0724845
50
180.8976217
51
188.0055519
0
ARC
8
DEFAULT_255_1_234
10
22.7199078
20
-0.1550223
40
1.3526448
50
180.7449369
51
181.1510016
0
ARC
8
DEFAULT_255_1_234
10
22.5621807
20
0.0306042
40
1.1948131
50
173.7675579
51
180.231553
0
ARC
8
DEFAULT_255_1_234
10
22.1103953
20
0.0816666
40
0.7401564
50
164.3058563
51
173.9002247
0
ARC
8
DEFAULT_255_1_234
10
21.8192022
20
0.1655656
40
0.4371288
50
148.7922025
51
164.568378
0
ARC
8
DEFAULT_255_1_234
10
21.7240474
20
0.2186929
40
0.3282386
50
144.5883898
51
148.1176286
0
ARC
8
DEFAULT_255_1_234
10
21.6897372
20
0.2426315
40
0.2864044
50
101.6440918
51
144.514236
0
ARC
8
DEFAULT_255_1_234
10
21.7322439
20
0.0737069
40
0.4604934
50
89.5284041
51
102.5819763
0
ARC
8
DEFAULT_255_1_234
10
21.7401527
20
0.0698018
40
0.464401
50
77.0437873
51
90.5081339
0
ARC
8
DEFAULT_255_1_234
10
21.7803528
20
0.2340615
40
0.2953195
50
48.2778575
51
77.4994676
0
ARC
8
DEFAULT_255_1_234
10
21.787616
20
0.2469746
40
0.2808655
50
36.3142134
51
47.6305865
0
ARC
8
DEFAULT_255_1_234
10
21.7007467
20
0.1884515
40
0.3855453
50
18.2931786
51
35.6769206
0
ARC
8
DEFAULT_255_1_234
10
21.4464225
20
0.1011593
40
0.654423
50
8.024666
51
18.5605216
0
ARC
8
DEFAULT_255_1_234
10
21.0301146
20
0.0396792
40
1.0752407
50
1.1274072
51
8.1718305
0
ARC
8
DEFAULT_255_1_234
10
20.7065336
20
0.0269885
40
1.3990231
50
0.5424119
51
1.3863029
0
ARC
8
DEFAULT_255_1_234
10
20.8886714
20
0.0542342
40
1.0682415
50
359.8090433
51
4.9407866
0
ARC
8
DEFAULT_255_1_234
10
21.3096728
20
0.0918113
40
0.6455691
50
4.8362157
51
12.2904523
0
ARC
8
DEFAULT_255_1_234
10
21.5851843
20
0.1531965
40
0.3633074
50
12.0805627
51
23.8173984
0
ARC
8
DEFAULT_255_1_234
10
21.7025548
20
0.2028919
40
0.2358723
50
24.2871213
51
31.3935614
0
ARC
8
DEFAULT_255_1_234
10
21.7550245
20
0.2372233
40
0.1732111
50
30.7407893
51
82.4657128
0
ARC
8
DEFAULT_255_1_234
10
21.737038
20
0.1488691
40
0.263235
50
81.1060089
51
90.2184952
0
ARC
8
DEFAULT_255_1_234
10
21.7334679
20
0.1746924
40
0.2374236
50
89.3806855
51
105.6762551
0
ARC
8
DEFAULT_255_1_234
10
21.7151309
20
0.2413567
40
0.1682847
50
105.7981136
51
149.7388061
0
ARC
8
DEFAULT_255_1_234
10
21.8215387
20
0.177395
40
0.2924306
50
149.4208916
51
163.6286378
0
ARC
8
DEFAULT_255_1_234
10
22.0306275
20
0.113625
40
0.5110213
50
163.3763315
51
172.1410975
0
ARC
8
DEFAULT_255_1_234
10
22.3606994
20
0.0663518
40
0.8444586
50
172.0259487
51
178.0703232
0
ARC
8
DEFAULT_255_1_234
10
22.6637084
20
0.0519906
40
1.1477868
50
177.8631668
51
179.5044149
0
ARC
8
DEFAULT_255_1_234
10
22.5564488
20
-0.1794611
40
1.0404907
50
179.7995573
51
185.2460446
0
ARC
8
DEFAULT_255_1_234
10
22.1521528
20
-0.2177487
40
0.6343885
50
185.1411642
51
193.0079639
0
ARC
8
DEFAULT_255_1_234
10
21.8878
20
-0.2802359
40
0.3627568
50
192.7897626
51
205.2507664
0
ARC
8
DEFAULT_255_1_234
10
21.7831547
20
-0.3269585
40
0.2481908
50
205.8005384
51
211.2537509
0
ARC
8
DEFAULT_255_1_234
10
21.7307988
20
-0.362042
40
0.1852521
50
210.3789793
51
238.4008143
0
ARC
8
DEFAULT_255_1_234
10
21.728851
20
-0.3573624
40
0.1882621
50
239.6520629
51
265.9793761
0
ARC
8
DEFAULT_255_1_234
10
21.737371
20
-0.2901573
40
0.2559272
50
265.1315437
51
270.060332
0
ARC
8
DEFAULT_255_1_234
10
21.7402489
20
-0.3225466
40
0.2235528
50
269.3314664
51
287.2178029
0
ARC
8
DEFAULT_255_1_234
10
21.7540341
20
-0.3728721
40
0.1714108
50
287.7958004
51
329.080874
0
ARC
8
DEFAULT_255_1_234
10
21.6582797
20
-0.313107
40
0.2842745
50
328.6634704
51
343.3325132
0
ARC
8
DEFAULT_255_1_234
10
21.4409817
20
-0.2454137
40
0.5118644
50
343.0499468
51
351.9393422
0
ARC
8
DEFAULT_255_1_234
10
21.0943117
20
-0.1943051
40
0.8622784
50
351.8069023
51
357.7959224
0
ARC
8
DEFAULT_255_1_234
10
20.7707673
20
-0.1775279
40
1.1862365
50
357.5871873
51
359.2677531
0
ARC
8
DEFAULT_255_2_778
10
7.7537338
20
99.9637992
40
3.0484709
50
251.6854144
51
258.6071955
0
ARC
8
DEFAULT_255_2_778
10
7.539521
20
98.8821738
40
1.9458471
50
258.4992492
51
268.3986479
0
ARC
8
DEFAULT_255_2_778
10
7.5172314
20
98.4519206
40
1.5151737
50
268.7865272
51
269.9950384
0
ARC
8
DEFAULT_255_2_778
10
7.5277432
20
98.0007355
40
1.0640417
50
269.426895
51
279.6711067
0
ARC
8
DEFAULT_255_2_778
10
7.6417753
20
97.3711746
40
0.4243233
50
278.7731084
51
300.3324923
0
ARC
8
DEFAULT_255_2_778
10
7.760746
20
97.1685552
40
0.1893587
50
300.2240287
51
1.9041213
0
ARC
8
DEFAULT_255_2_778
10
7.7452705
20
97.1777089
40
0.2047497
50
359.1991369
51
359.99965
0
ARC
8
DEFAULT_255_2_778
10
7.7523233
20
97.1785378
40
0.1976988
50
359.7594145
51
47.1793976
0
ARC
8
DEFAULT_255_2_778
10
7.6187277
20
97.029931
40
0.3975169
50
47.6144502
51
60.8366176
0
ARC
8
DEFAULT_255_2_778
10
7.0190958
20
96.0139865
40
1.5771337
50
59.799464
51
64.8885807
0
ARC
8
DEFAULT_255_2_778
10
6.0948833
20
94.0849682
40
3.7160912
50
64.6076081
51
66.8386974
0
ARC
8
DEFAULT_255_2_778
10
9.6419609
20
102.4480052
40
5.368109
50
244.3032309
51
247.1393781
0
ARC
8
DEFAULT_255_2_778
10
8.5507088
20
100.188018
40
2.8584574
50
240.2323579
51
244.3709759
0
ARC
8
DEFAULT_255_2_778
10
7.7800475
20
98.8511591
40
1.315392
50
233.2209971
51
240.4606284
0
ARC
8
DEFAULT_255_2_778
10
7.3561477
20
98.2800187
40
0.6041399
50
225.6990744
51
232.9899679
0
ARC
8
DEFAULT_255_2_778
10
7.3965073
20
98.3044214
40
0.6499005
50
178.2783416
51
224.6550883
0
ARC
8
DEFAULT_255_2_778
10
7.5059624
20
98.3377974
40
0.7591885
50
157.033673
51
181.0453383
0
ARC
8
DEFAULT_255_2_778
10
7.378439
20
98.3786396
40
0.6259551
50
124.9113017
51
155.9211516
0
ARC
8
DEFAULT_255_2_778
10
7.5960466
20
98.0700681
40
1.0035357
50
100.4079723
51
125.0168617
0
ARC
8
DEFAULT_255_2_778
10
7.6991199
20
97.5760046
40
1.5081396
50
89.6483922
51
100.8684975
0
ARC
8
DEFAULT_255_2_778
10
7.7083242
20
97.2237988
40
1.8603169
50
89.5079487
51
89.9984402
0
ARC
8
DEFAULT_255_2_778
10
7.7099573
20
97.1585694
40
1.9255311
50
83.9170631
51
89.5732113
0
ARC
8
DEFAULT_255_2_778
10
7.5071517
20
95.1509957
40
3.9433074
50
80.7325723
51
84.0779772
0
ARC
8
DEFAULT_255_2_778
10
7.0208457
20
92.128082
40
7.0050837
50
78.5086351
51
80.7886813
0
ARC
8
DEFAULT_255_2_778
10
7.6620177
20
96.7275544
40
1.9415426
50
67.135818
51
78.0934208
0
ARC
8
DEFAULT_255_2_778
10
7.7851814
20
97.2979809
40
1.3579807
50
78.2126325
51
89.7333975
0
ARC
8
DEFAULT_255_2_778
10
7.7793853
20
97.7131211
40
0.9429038
50
89.2638155
51
100.5666868
0
ARC
8
DEFAULT_255_2_778
10
7.6660949
20
98.2829419
40
0.362036
50
99.4784875
51
124.329414
0
ARC
8
DEFAULT_255_2_778
10
7.5705593
20
98.431051
40
0.1859067
50
125.7571195
51
182.2824883
0
ARC
8
DEFAULT_255_2_778
10
7.5493239
20
98.4243629
40
0.1645253
50
180.2492993
51
239.8144161
0
ARC
8
DEFAULT_255_2_778
10
7.932718
20
99.0244128
40
0.876484
50
237.8725734
51
242.8068846
0
ARC
8
DEFAULT_255_2_778
10
9.4175857
20
101.8409958
40
4.0604642
50
242.3328458
51
244.031083
0
ARC
8
DEFAULT_255_2_778
10
12.3804066
20
107.8894314
40
10.7955807
50
243.950624
51
244.8024316
0
ARC
8
DEFAULT_255_2_778
10
15.4009918
20
114.2734175
40
17.8580926
50
244.7535425
51
244.9563234
0
ARC
8
DEFAULT_255_2_778
10
5.8652927
20
93.7718264
40
4.7527588
50
62.2505456
51
65.4301556
0
ARC
8
DEFAULT_255_2_778
10
6.9275435
20
95.7799172
40
2.4810291
50
57.2951304
51
62.3684211
0
ARC
8
DEFAULT_255_2_778
10
7.6807233
20
96.9432235
40
1.0952081
50
48.7345704
51
57.5685367
0
ARC
8
DEFAULT_255_2_778
10
8.0117486
20
97.3307722
40
0.5856147
50
44.3236031
51
48.0704418
0
ARC
8
DEFAULT_255_2_778
10
7.9783002
20
97.3107468
40
0.6236013
50
1.3523843
51
43.4925744
0
ARC
8
DEFAULT_255_2_778
10
7.7103531
20
97.2778151
40
0.8926473
50
359.9763756
51
3.0599076
0
ARC
8
DEFAULT_255_2_778
10
7.8645343
20
97.2627407
40
0.7386124
50
333.0361889
51
1.1408766
0
ARC
8
DEFAULT_255_2_778
10
7.8947908
20
97.2696919
40
0.7150741
50
300.8430083
51
331.4403095
0
ARC
8
DEFAULT_255_2_778
10
7.694568
20
97.5832162
40
1.0869673
50
281.4258583
51
301.4316118
0
ARC
8
DEFAULT_255_2_778
10
7.5632666
20
98.1914414
40
1.7091691
50
270.2273513
51
281.7010805
0
ARC
8
DEFAULT_255_2_778
10
7.5453797
20
98.6681043
40
2.1859577
50
269.9983113
51
270.6466065
0
LINE
8
DEFAULT_255_2_778
10
7.5453153
20
96.4821465
11
7.5438002
21
96.482147
0
ARC
8
DEFAULT_255_2_778
10
7.5509161
20
99.6650969
40
3.1829579
50
256.2431122
51
269.871909
0
ARC
8
DEFAULT_255_2_778
10
21.7538511
20
99.8896629
40
2.9720345
50
251.5709223
51
258.7508181
0
ARC
8
DEFAULT_255_2_778
10
21.5538128
20
98.8664385
40
1.9294488
50
258.6495077
51
268.8281511
0
ARC
8
DEFAULT_255_2_778
10
21.5355488
20
98.4716193
40
1.5343723
50
269.2085037
51
269.9981866
0
ARC
8
DEFAULT_255_2_778
10
21.5473849
20
98.0032184
40
1.0660376
50
269.3612297
51
279.5899087
0
ARC
8
DEFAULT_255_2_778
10
21.6608439
20
97.3717324
40
0.424527
50
278.6895227
51
300.2363944
0
ARC
8
DEFAULT_255_2_778
10
21.7799083
20
97.1682793
40
0.188796
50
300.1108484
51
1.9024905
0
ARC
8
DEFAULT_255_2_778
10
21.7439577
20
97.1789221
40
0.2246851
50
358.8842611
51
0.0019649
0
ARC
8
DEFAULT_255_2_778
10
21.7769791
20
97.1828385
40
0.1917038
50
358.831716
51
47.0900458
0
ARC
8
DEFAULT_255_2_778
10
21.6364654
20
97.023484
40
0.4041259
50
47.8812665
51
61.174665
0
ARC
8
DEFAULT_255_2_778
10
21.0418848
20
96.0035117
40
1.5846568
50
60.1210877
51
65.1917015
0
ARC
8
DEFAULT_255_2_778
10
20.1415278
20
94.0979122
40
3.6922188
50
64.9168629
51
67.1565628
0
ARC
8
DEFAULT_255_2_778
10
23.6275467
20
102.3694888
40
5.2839333
50
244.2656926
51
247.1407051
0
ARC
8
DEFAULT_255_2_778
10
22.5594997
20
100.161265
40
2.8309849
50
240.1545061
51
244.3326325
0
ARC
8
DEFAULT_255_2_778
10
21.7856548
20
98.8252346
40
1.2870531
50
232.697515
51
240.4357497
0
ARC
8
DEFAULT_255_2_778
10
21.3705506
20
98.2742218
40
0.5972006
50
225.5850892
51
232.3393736
0
ARC
8
DEFAULT_255_2_778
10
21.4133941
20
98.3037933
40
0.6483829
50
178.7795739
51
224.7095916
0
ARC
8
DEFAULT_255_2_778
10
21.6669319
20
98.3278135
40
0.9018316
50
179.997867
51
180.6487041
0
ARC
8
DEFAULT_255_2_778
10
21.5167738
20
98.3416249
40
0.7517998
50
156.9195758
51
181.050088
0
ARC
8
DEFAULT_255_2_778
10
21.3928482
20
98.3810712
40
0.6224513
50
124.7111133
51
155.7879672
0
ARC
8
DEFAULT_255_2_778
10
21.6055459
20
98.0891942
40
0.9835402
50
101.7934503
51
125.2143527
0
ARC
8
DEFAULT_255_2_778
10
21.729848
20
97.5366326
40
1.5498677
50
89.5248728
51
102.1166783
0
ARC
8
DEFAULT_255_2_778
10
21.7283109
20
96.9830834
40
2.1034129
50
83.2889725
51
89.6080411
0
ARC
8
DEFAULT_255_2_778
10
21.529975
20
95.2152668
40
3.8823067
50
79.4764054
51
83.4308492
0
ARC
8
DEFAULT_255_2_778
10
21.2186357
20
93.4620673
40
5.6628977
50
78.2224868
51
79.6190915
0
ARC
8
DEFAULT_255_2_778
10
21.6838473
20
96.7395715
40
1.9311543
50
67.1323814
51
78.3148813
0
ARC
8
DEFAULT_255_2_778
10
21.801359
20
97.2910614
40
1.3672981
50
78.4565774
51
89.7552271
0
ARC
8
DEFAULT_255_2_778
10
21.7951366
20
97.721947
40
0.9364778
50
89.2619009
51
100.5950934
0
ARC
8
DEFAULT_255_2_778
10
21.6824182
20
98.2874169
40
0.3599879
50
99.5087086
51
124.406715
0
ARC
8
DEFAULT_255_2_778
10
21.5878565
20
98.433843
40
0.1858061
50
125.8630185
51
182.2986975
0
ARC
8
DEFAULT_255_2_778
10
21.5497296
20
98.4263047
40
0.1475296
50
179.9666559
51
180.100057
0
ARC
8
DEFAULT_255_2_778
10
21.566185
20
98.426293
40
0.163985
50
180.0859454
51
239.8819968
0
ARC
8
DEFAULT_255_2_778
10
21.9379018
20
99.0130619
40
0.8584853
50
238.072871
51
243.0442008
0
ARC
8
DEFAULT_255_2_778
10
23.4872034
20
101.9780845
40
4.2038426
50
242.5409111
51
244.1884903
0
ARC
8
DEFAULT_255_2_778
10
26.6463384
20
108.472696
40
11.4260319
50
244.1076525
51
244.9219574
0
ARC
8
DEFAULT_255_2_778
10
29.9038827
20
115.396355
40
19.0777309
50
244.8743531
51
245.066969
0
ARC
8
DEFAULT_255_2_778
10
19.8865272
20
93.8041274
40
4.7250654
50
62.0340028
51
65.293009
0
ARC
8
DEFAULT_255_2_778
10
20.9507744
20
95.7990758
40
2.464003
50
57.1127289
51
62.13736
0
ARC
8
DEFAULT_255_2_778
10
21.7037139
20
96.9527906
40
1.0863604
50
48.3695509
51
57.4197129
0
ARC
8
DEFAULT_255_2_778
10
22.0286268
20
97.3295419
40
0.5889589
50
44.472493
51
47.6467012
0
ARC
8
DEFAULT_255_2_778
10
21.9979457
20
97.3124032
40
0.6229283
50
1.2061613
51
43.6203607
0
ARC
8
DEFAULT_255_2_778
10
21.7312413
20
97.2799903
40
0.890659
50
359.9779196
51
2.9299178
0
ARC
8
DEFAULT_255_2_778
10
21.8802547
20
97.2648837
40
0.7417924
50
333.172934
51
1.140392
0
ARC
8
DEFAULT_255_2_778
10
21.9146167
20
97.2695736
40
0.7135172
50
300.9808035
51
331.5913995
0
ARC
8
DEFAULT_255_2_778
10
21.7182603
20
97.5794862
40
1.0803281
50
281.9040909
51
301.4483918
0
ARC
8
DEFAULT_255_2_778
10
21.5848425
20
98.1780518
40
1.6935565
50
270.5796874
51
282.1436175
0
ARC
8
DEFAULT_255_2_778
10
21.5636722
20
98.6729735
40
2.1887267
50
269.9959074
51
271.0027751
0
LINE
8
DEFAULT_255_2_778
10
21.5635158
20
96.4842468
11
21.5625002
21
96.484247
0
ARC
8
DEFAULT_255_2_778
10
21.5700221
20
99.6730174
40
3.1887792
50
256.2556596
51
269.8648469
0
LINE
8
DEFAULT_255_2_778
10
6.7958002
20
96.575047
11
6.7958002
21
97.069747
0
LINE
8
DEFAULT_255_2_778
10
8.4164002
20
98.992747
11
8.4164002
21
98.516547
0
LINE
8
DEFAULT_255_2_778
10
6.7940002
20
96.573447
11
6.7958002
21
96.575047
0
LINE
8
DEFAULT_255_2_778
10
8.9866002
20
99.042247
11
9.6629002
21
99.042247
0
LINE
8
DEFAULT_255_2_778
10
9.6629002
20
99.042247
11
9.6629002
21
96.534847
0
LINE
8
DEFAULT_255_2_778
10
9.6629002
20
96.534847
11
8.9866002
21
96.534847
0
LINE
8
DEFAULT_255_2_778
10
8.9866002
20
96.534847
11
8.9866002
21
99.042247
0
LINE
8
DEFAULT_255_2_778
10
10.2809002
20
96.534847
11
10.2809002
21
99.042247
0
LINE
8
DEFAULT_255_2_778
10
10.2809002
20
99.042247
11
12.0132002
21
99.042247
0
LINE
8
DEFAULT_255_2_778
10
12.0132002
20
99.042247
11
12.0132002
21
98.588547
0
LINE
8
DEFAULT_255_2_778
10
12.0132002
20
98.588547
11
10.9321002
21
98.588547
0
LINE
8
DEFAULT_255_2_778
10
10.9321002
20
98.588547
11
10.9321002
21
98.022247
0
LINE
8
DEFAULT_255_2_778
10
10.9321002
20
98.022247
11
11.8735002
21
98.022247
0
LINE
8
DEFAULT_255_2_778
10
11.8735002
20
98.022247
11
11.8735002
21
97.608747
0
LINE
8
DEFAULT_255_2_778
10
11.8735002
20
97.608747
11
10.9321002
21
97.608747
0
LINE
8
DEFAULT_255_2_778
10
10.9321002
20
97.608747
11
10.9321002
21
97.013447
0
LINE
8
DEFAULT_255_2_778
10
10.9321002
20
97.013447
11
12.0412002
21
97.013447
0
LINE
8
DEFAULT_255_2_778
10
12.0412002
20
97.013447
11
12.0412002
21
96.533247
0
LINE
8
DEFAULT_255_2_778
10
12.0412002
20
96.533247
11
10.2809002
21
96.534847
0
LINE
8
DEFAULT_255_2_778
10
12.4817002
20
96.534847
11
12.4817002
21
99.042247
0
LINE
8
DEFAULT_255_2_778
10
12.4817002
20
99.042247
11
13.3575002
21
99.042247
0
LINE
8
DEFAULT_255_2_778
10
13.3575002
20
99.042247
11
13.9671002
21
97.439947
0
LINE
8
DEFAULT_255_2_778
10
13.9671002
20
97.439947
11
14.5897002
21
99.042247
0
LINE
8
DEFAULT_255_2_778
10
14.5897002
20
99.042247
11
15.4215002
21
99.042247
0
LINE
8
DEFAULT_255_2_778
10
15.4215002
20
99.042247
11
15.4215002
21
96.534847
0
LINE
8
DEFAULT_255_2_778
10
15.4215002
20
96.534847
11
14.7812002
21
96.534847
0
LINE
8
DEFAULT_255_2_778
10
14.7812002
20
96.534847
11
14.7812002
21
98.310647
0
LINE
8
DEFAULT_255_2_778
10
14.7812002
20
98.310647
11
14.0724002
21
96.510447
0
LINE
8
DEFAULT_255_2_778
10
14.0724002
20
96.510447
11
13.6515002
21
96.510447
0
LINE
8
DEFAULT_255_2_778
10
13.6515002
20
96.510447
11
12.9559002
21
98.310647
0
LINE
8
DEFAULT_255_2_778
10
12.9559002
20
98.310647
11
12.9559002
21
96.534547
0
LINE
8
DEFAULT_255_2_778
10
12.9559002
20
96.534547
11
12.4817002
21
96.534847
0
LINE
8
DEFAULT_255_2_778
10
16.0409002
20
96.534847
11
16.0409002
21
99.042247
0
LINE
8
DEFAULT_255_2_778
10
16.0409002
20
99.042247
11
17.7731002
21
99.042247
0
LINE
8
DEFAULT_255_2_778
10
17.7731002
20
99.042247
11
17.7731002
21
98.588547
0
LINE
8
DEFAULT_255_2_778
10
17.7731002
20
98.588547
11
16.6921002
21
98.588547
0
LINE
8
DEFAULT_255_2_778
10
16.6921002
20
98.588547
11
16.6921002
21
98.022247
0
LINE
8
DEFAULT_255_2_778
10
16.6921002
20
98.022247
11
17.6334002
21
98.022247
0
LINE
8
DEFAULT_255_2_778
10
17.6334002
20
98.022247
11
17.6334002
21
97.608747
0
LINE
8
DEFAULT_255_2_778
10
17.6334002
20
97.608747
11
16.6921002
21
97.608747
0
LINE
8
DEFAULT_255_2_778
10
16.6921002
20
97.608747
11
16.6921002
21
97.013447
0
LINE
8
DEFAULT_255_2_778
10
16.6921002
20
97.013447
11
17.8030002
21
97.013447
0
LINE
8
DEFAULT_255_2_778
10
17.8030002
20
97.013447
11
17.8030002
21
96.533247
0
LINE
8
DEFAULT_255_2_778
10
17.8030002
20
96.533247
11
16.0409002
21
96.534847
0
LINE
8
DEFAULT_255_2_778
10
18.2454002
20
96.534847
11
18.2454002
21
99.042247
0
LINE
8
DEFAULT_255_2_778
10
18.2454002
20
99.042247
11
19.0283002
21
99.042247
0
LINE
8
DEFAULT_255_2_778
10
19.0283002
20
99.042247
11
19.8586002
21
97.363447
0
LINE
8
DEFAULT_255_2_778
10
19.8586002
20
97.363447
11
19.8586002
21
99.042247
0
LINE
8
DEFAULT_255_2_778
10
19.8586002
20
99.042247
11
20.3343002
21
99.042247
0
LINE
8
DEFAULT_255_2_778
10
20.3343002
20
99.042247
11
20.3343002
21
96.534847
0
LINE
8
DEFAULT_255_2_778
10
20.3343002
20
96.534847
11
19.5739002
21
96.534847
0
LINE
8
DEFAULT_255_2_778
10
19.5739002
20
96.534847
11
18.7214002
21
98.236047
0
LINE
8
DEFAULT_255_2_778
10
18.7214002
20
98.236047
11
18.7214002
21
96.534847
0
LINE
8
DEFAULT_255_2_778
10
18.7214002
20
96.534847
11
18.2454002
21
96.534847
0
LINE
8
DEFAULT_255_2_778
10
20.8143002
20
96.575247
11
20.8143002
21
97.070047
0
LINE
8
DEFAULT_255_2_778
10
22.3745002
20
99.005747
11
22.4343002
21
98.995147
0
LINE
8
DEFAULT_255_2_778
10
22.4343002
20
98.995147
11
22.4343002
21
98.518947
0
LINE
8
DEFAULT_255_2_778
10
20.8124002
20
96.575547
11
20.8143002
21
96.575247
0
LINE
8
DEFAULT_255_1_234
10
7.7494023
20
94.7684849
11
7.5943897
21
94.7684849
0
LINE
8
DEFAULT_255_1_234
10
6.9020539
20
94.2761394
11
7.0570665
21
94.2761394
0
ARC
8
DEFAULT_255_1_234
10
7.660271
20
95.6631768
40
1.252368
50
248.9199003
51
254.1439814
0
ARC
8
DEFAULT_255_1_234
10
7.4922205
20
95.2305234
40
0.788226
50
241.633709
51
249.0064503
0
ARC
8
DEFAULT_255_1_234
10
7.33936
20
94.9504317
40
0.4691427
50
230.498225
51
241.8087113
0
ARC
8
DEFAULT_255_1_234
10
7.2609174
20
94.8504906
40
0.3421437
50
227.4064532
51
229.9881192
0
ARC
8
DEFAULT_255_1_234
10
7.2121694
20
94.8029088
40
0.2741476
50
200.6781896
51
228.1763934
0
ARC
8
DEFAULT_255_1_234
10
7.2194005
20
94.8014077
40
0.2804109
50
179.5061581
51
199.8694617
0
ARC
8
DEFAULT_255_1_234
10
7.2184757
20
94.808821
40
0.2795204
50
132.4834203
51
181.0242172
0
ARC
8
DEFAULT_255_1_234
10
7.2780339
20
94.7525704
40
0.3612768
50
129.2532479
51
133.4242687
0
ARC
8
DEFAULT_255_1_234
10
7.2926789
20
94.7305965
40
0.3875675
50
101.98776
51
128.8742646
0
ARC
8
DEFAULT_255_1_234
10
7.3325399
20
94.5584741
40
0.5642249
50
89.5906553
51
102.3169264
0
ARC
8
DEFAULT_255_1_234
10
7.3395891
20
94.5903148
40
0.5323783
50
77.2360837
51
90.3248275
0
ARC
8
DEFAULT_255_1_234
10
7.3602971
20
94.68704
40
0.4334697
50
63.837784
51
77.0809408
0
ARC
8
DEFAULT_255_1_234
10
7.3880732
20
94.7387911
40
0.3747796
50
45.9864267
51
64.1607727
0
ARC
8
DEFAULT_255_1_234
10
7.4141614
20
94.7685866
40
0.3352302
50
32.2747395
51
45.6547121
0
ARC
8
DEFAULT_255_1_234
10
7.4208054
20
94.770488
40
0.328603
50
359.6507365
51
32.6130309
0
ARC
8
DEFAULT_255_1_234
10
7.326515
20
94.770966
40
0.2678863
50
359.469343
51
14.9832209
0
ARC
8
DEFAULT_255_1_234
10
7.3970212
20
94.7898539
40
0.1948938
50
14.9781179
51
48.2004265
0
ARC
8
DEFAULT_255_1_234
10
7.3805856
20
94.7691983
40
0.2212521
50
48.5927837
51
74.1241538
0
ARC
8
DEFAULT_255_1_234
10
7.3472346
20
94.6591248
40
0.3362561
50
73.7888341
51
86.6652678
0
ARC
8
DEFAULT_255_1_234
10
7.3369911
20
94.5383881
40
0.4573953
50
86.2640471
51
90.0526343
0
ARC
8
DEFAULT_255_1_234
10
7.3341624
20
94.5779192
40
0.4178709
50
89.6697524
51
99.2309573
0
ARC
8
DEFAULT_255_1_234
10
7.3099075
20
94.7223964
40
0.2713749
50
99.069534
51
113.7658566
0
ARC
8
DEFAULT_255_1_234
10
7.2825266
20
94.7869677
40
0.2012469
50
114.0401004
51
127.9850673
0
ARC
8
DEFAULT_255_1_234
10
7.258483
20
94.816573
40
0.1631167
50
127.7287463
51
176.7105154
0
ARC
8
DEFAULT_255_1_234
10
7.3263547
20
94.8064693
40
0.2315392
50
175.1779447
51
180.0581938
0
ARC
8
DEFAULT_255_1_234
10
7.2420394
20
94.8052428
40
0.1472271
50
179.6142195
51
228.1246017
0
ARC
8
DEFAULT_255_1_234
10
7.2862063
20
94.8461308
40
0.2072299
50
226.5779593
51
230.8800004
0
ARC
8
DEFAULT_255_1_234
10
7.3333141
20
94.9086636
40
0.2854818
50
231.4635071
51
241.9260842
0
ARC
8
DEFAULT_255_1_234
10
7.4530319
20
95.12898
40
0.53622
50
241.7178533
51
248.3259551
0
ARC
8
DEFAULT_255_1_234
10
7.5915691
20
95.4722064
40
0.9063478
50
248.2007737
51
252.4528373
0
ARC
8
DEFAULT_255_1_234
10
7.7119416
20
95.8443441
40
1.2974635
50
252.3391078
51
254.3469452
0
ARC
8
DEFAULT_255_1_234
10
6.9577119
20
93.1466148
40
1.5037162
50
71.0197183
51
74.4087047
0
ARC
8
DEFAULT_255_1_234
10
7.1271804
20
93.6358111
40
0.9859993
50
66.1847285
51
71.086374
0
ARC
8
DEFAULT_255_1_234
10
7.2828116
20
93.98622
40
0.6025855
50
59.3536294
51
66.2691831
0
ARC
8
DEFAULT_255_1_234
10
7.3716769
20
94.1365609
40
0.4279449
50
49.1020879
51
59.3293958
0
ARC
8
DEFAULT_255_1_234
10
7.4535509
20
94.2298834
40
0.3038015
50
32.7919921
51
49.2505539
0
ARC
8
DEFAULT_255_1_234
10
7.4856599
20
94.2527191
40
0.264448
50
31.1181161
51
32.4005348
0
ARC
8
DEFAULT_255_1_234
10
7.4768136
20
94.2491779
40
0.2738556
50
8.1116974
51
30.7958831
0
ARC
8
DEFAULT_255_1_234
10
7.3957804
20
94.2353753
40
0.3560327
50
359.8389159
51
8.4706516
0
ARC
8
DEFAULT_255_1_234
10
7.4583596
20
94.2305137
40
0.2934776
50
337.4731098
51
0.7537279
0
ARC
8
DEFAULT_255_1_234
10
7.4762291
20
94.2285387
40
0.2762607
50
307.5917067
51
336.4315538
0
ARC
8
DEFAULT_255_1_234
10
7.4302119
20
94.2798102
40
0.3449979
50
307.6551545
51
308.4529766
0
ARC
8
DEFAULT_255_1_234
10
7.4071838
20
94.315325
40
0.3871988
50
284.3734338
51
307.1424381
0
ARC
8
DEFAULT_255_1_234
10
7.3576668
20
94.4974932
40
0.5759636
50
272.4382747
51
284.646547
0
ARC
8
DEFAULT_255_1_234
10
7.3449876
20
94.6774893
40
0.7563528
50
269.9708387
51
272.8178037
0
ARC
8
DEFAULT_255_1_234
10
7.3406916
20
94.4736716
40
0.5525489
50
248.2707594
51
270.4055579
0
ARC
8
DEFAULT_255_1_234
10
7.3352657
20
94.4546192
40
0.5328452
50
246.1383403
51
248.0542782
0
ARC
8
DEFAULT_255_1_234
10
7.2934036
20
94.3666843
40
0.4355005
50
233.1670131
51
246.4950969
0
ARC
8
DEFAULT_255_1_234
10
7.2379941
20
94.2918812
40
0.3424126
50
215.3403242
51
233.0843104
0
ARC
8
DEFAULT_255_1_234
10
7.2107372
20
94.2720549
40
0.3087104
50
179.2419209
51
215.2648451
0
ARC
8
DEFAULT_255_1_234
10
7.2874966
20
94.2734666
40
0.2304457
50
179.335461
51
199.1045811
0
ARC
8
DEFAULT_255_1_234
10
7.2542643
20
94.2647766
40
0.1962176
50
199.8828939
51
232.7063202
0
ARC
8
DEFAULT_255_1_234
10
7.3014911
20
94.3241788
40
0.2720938
50
232.3738199
51
255.5136649
0
ARC
8
DEFAULT_255_1_234
10
7.3355778
20
94.4485835
40
0.4010747
50
255.2446292
51
267.5320849
0
ARC
8
DEFAULT_255_1_234
10
7.3443401
20
94.5718702
40
0.5246356
50
267.1557994
51
270.0286766
0
ARC
8
DEFAULT_255_1_234
10
7.3471173
20
94.527495
40
0.4802668
50
269.7000017
51
278.1660162
0
ARC
8
DEFAULT_255_1_234
10
7.3727178
20
94.3544515
40
0.3053425
50
278.0231263
51
290.625471
0
ARC
8
DEFAULT_255_1_234
10
7.4074865
20
94.2617025
40
0.206291
50
290.6619762
51
307.0370976
0
ARC
8
DEFAULT_255_1_234
10
7.4375254
20
94.2248504
40
0.1587906
50
306.3943566
51
355.3030547
0
ARC
8
DEFAULT_255_1_234
10
7.3863186
20
94.2325113
40
0.2104809
50
354.3660432
51
0.0698737
0
ARC
8
DEFAULT_255_1_234
10
7.4005531
20
94.2347617
40
0.1962563
50
359.417946
51
16.1971788
0
ARC
8
DEFAULT_255_1_234
10
7.4460841
20
94.2472418
40
0.149053
50
16.4723299
51
52.6262157
0
ARC
8
DEFAULT_255_1_234
10
7.3639895
20
94.1388433
40
0.2850296
50
52.7386432
51
62.4979148
0
ARC
8
DEFAULT_255_1_234
10
7.2254972
20
93.8782283
40
0.5801521
50
62.2515216
51
68.1220564
0
ARC
8
DEFAULT_255_1_234
10
7.0534883
20
93.4554872
40
1.0365451
50
68.0062803
51
71.8053402
0
ARC
8
DEFAULT_255_1_234
10
6.8739255
20
92.9169758
40
1.6042013
50
71.7183119
51
73.9258742
0
LINE
8
DEFAULT_255_1_234
10
8.1148464
20
95.1066211
11
8.1148464
21
93.9372
0
LINE
8
DEFAULT_255_1_234
10
8.1148464
20
93.9372
11
7.960637
21
93.9372
0
LINE
8
DEFAULT_255_1_234
10
7.960637
20
93.9372
11
7.960637
21
95.1066211
0
LINE
8
DEFAULT_255_1_234
10
7.960637
20
95.1066211
11
8.1148464
21
95.1066211
0
LINE
8
DEFAULT_255_1_234
10
8.3967604
20
95.1066211
11
8.5959475
21
95.1066211
0
LINE
8
DEFAULT_255_1_234
10
8.5959475
20
95.1066211
11
8.9782583
21
94.1524506
0
LINE
8
DEFAULT_255_1_234
10
8.9782583
20
94.1524506
11
9.360569
21
95.1066211
0
LINE
8
DEFAULT_255_1_234
10
9.360569
20
95.1066211
11
9.5605593
21
95.1066211
0
LINE
8
DEFAULT_255_1_234
10
9.5605593
20
95.1066211
11
9.5605593
21
93.9372
0
LINE
8
DEFAULT_255_1_234
10
9.5605593
20
93.9372
11
9.4063499
21
93.9372
0
LINE
8
DEFAULT_255_1_234
10
9.4063499
20
93.9372
11
9.4063499
21
94.3925996
0
LINE
8
DEFAULT_255_1_234
10
9.4063499
20
94.3925996
11
9.420807
21
94.8841419
0
LINE
8
DEFAULT_255_1_234
10
9.420807
20
94.8841419
11
9.0368899
21
93.9372
0
LINE
8
DEFAULT_255_1_234
10
9.0368899
20
93.9372
11
8.9188234
21
93.9372
0
LINE
8
DEFAULT_255_1_234
10
8.9188234
20
93.9372
11
8.5357095
21
94.8817324
0
LINE
8
DEFAULT_255_1_234
10
8.5357095
20
94.8817324
11
8.5509698
21
94.3925996
0
LINE
8
DEFAULT_255_1_234
10
8.5509698
20
94.3925996
11
8.5509698
21
93.9372
0
LINE
8
DEFAULT_255_1_234
10
8.5509698
20
93.9372
11
8.3967604
21
93.9372
0
LINE
8
DEFAULT_255_1_234
10
8.3967604
20
93.9372
11
8.3967604
21
95.1066211
0
LINE
8
DEFAULT_255_1_234
10
10.6046853
20
93.9372
11
10.4930441
21
94.2424061
0
LINE
8
DEFAULT_255_1_234
10
10.4930441
20
94.2424061
11
10.0031081
21
94.2424061
0
LINE
8
DEFAULT_255_1_234
10
10.0031081
20
94.2424061
11
9.8930732
21
93.9372
0
LINE
8
DEFAULT_255_1_234
10
9.8930732
20
93.9372
11
9.7340448
21
93.9372
0
LINE
8
DEFAULT_255_1_234
10
9.7340448
20
93.9372
11
10.1806095
21
95.1066211
0
LINE
8
DEFAULT_255_1_234
10
10.1806095
20
95.1066211
11
10.3155427
21
95.1066211
0
LINE
8
DEFAULT_255_1_234
10
10.3155427
20
95.1066211
11
10.7629105
21
93.9372
0
LINE
8
DEFAULT_255_1_234
10
10.7629105
20
93.9372
11
10.6046853
21
93.9372
0
LINE
8
DEFAULT_255_1_234
10
10.2480761
20
94.9162689
11
10.0496921
21
94.3693075
0
LINE
8
DEFAULT_255_1_234
10
10.0496921
20
94.3693075
11
10.4472632
21
94.3693075
0
LINE
8
DEFAULT_255_1_234
10
10.4472632
20
94.3693075
11
10.2480761
21
94.9162689
0
LINE
8
DEFAULT_255_1_234
10
11.624716
20
95.1066211
11
11.624716
21
94.9797196
0
LINE
8
DEFAULT_255_1_234
10
11.624716
20
94.9797196
11
11.2488307
21
94.9797196
0
LINE
8
DEFAULT_255_1_234
10
11.2488307
20
94.9797196
11
11.2488307
21
93.9372
0
LINE
8
DEFAULT_255_1_234
10
11.2488307
20
93.9372
11
11.0954245
21
93.9372
0
LINE
8
DEFAULT_255_1_234
10
11.0954245
20
93.9372
11
11.0954245
21
94.9797196
0
LINE
8
DEFAULT_255_1_234
10
11.0954245
20
94.9797196
11
10.7203423
21
94.9797196
0
LINE
8
DEFAULT_255_1_234
10
10.7203423
20
94.9797196
11
10.7203423
21
95.1066211
0
LINE
8
DEFAULT_255_1_234
10
10.7203423
20
95.1066211
11
11.624716
21
95.1066211
0
LINE
8
DEFAULT_255_1_234
10
11.9636554
20
95.1066211
11
11.9636554
21
93.9372
0
LINE
8
DEFAULT_255_1_234
10
11.9636554
20
93.9372
11
11.809446
21
93.9372
0
LINE
8
DEFAULT_255_1_234
10
11.809446
20
93.9372
11
11.809446
21
95.1066211
0
LINE
8
DEFAULT_255_1_234
10
11.809446
20
95.1066211
11
11.9636554
21
95.1066211
0
LINE
8
DEFAULT_255_1_234
10
12.950756
20
94.3082663
11
13.1057686
21
94.3082663
0
LINE
8
DEFAULT_255_1_234
10
12.2054107
20
94.4672947
11
12.2054107
21
94.5797391
0
LINE
8
DEFAULT_255_1_234
10
13.1057686
20
94.7307357
11
12.950756
21
94.7307357
0
LINE
8
DEFAULT_255_1_234
10
12.3604232
20
94.5757232
11
12.3604232
21
94.4624757
0
ARC
8
DEFAULT_255_1_234
10
12.5577072
20
94.3679846
40
0.5513052
50
340.1774281
51
353.7814284
0
ARC
8
DEFAULT_255_1_234
10
12.7148425
20
94.3094582
40
0.3836379
50
311.4558989
51
340.4421614
0
ARC
8
DEFAULT_255_1_234
10
12.7115093
20
94.3205528
40
0.3941894
50
282.4333181
51
310.7513653
0
ARC
8
DEFAULT_255_1_234
10
12.6675832
20
94.5020679
40
0.5809175
50
269.9358511
51
282.809604
0
ARC
8
DEFAULT_255_1_234
10
12.6623899
20
94.6478212
40
0.7266847
50
270.0021091
51
270.3581957
0
ARC
8
DEFAULT_255_1_234
10
12.6571315
20
94.3877585
40
0.4666519
50
250.7884749
51
270.6489167
0
ARC
8
DEFAULT_255_1_234
10
12.640315
20
94.3240319
40
0.4009729
50
219.3627325
51
250.0611886
0
ARC
8
DEFAULT_255_1_234
10
12.7232361
20
94.3945042
40
0.5097822
50
193.5479632
51
219.5756669
0
ARC
8
DEFAULT_255_1_234
10
12.9603982
20
94.4560919
40
0.7547848
50
181.1218675
51
193.87563
0
ARC
8
DEFAULT_255_1_234
10
13.1674163
20
94.467158
40
0.9620055
50
179.9918545
51
181.5394234
0
ARC
8
DEFAULT_255_1_234
10
12.9823265
20
94.5834788
40
0.7769248
50
169.5837241
51
180.2757934
0
ARC
8
DEFAULT_255_1_234
10
12.7986203
20
94.6174229
40
0.590109
50
155.0365899
51
169.6003176
0
ARC
8
DEFAULT_255_1_234
10
12.6850667
20
94.6721677
40
0.4640625
50
136.783148
51
155.2472683
0
ARC
8
DEFAULT_255_1_234
10
12.6461144
20
94.7052562
40
0.4130255
50
121.7633186
51
136.428115
0
ARC
8
DEFAULT_255_1_234
10
12.6596106
20
94.6803227
40
0.4413323
50
95.6459699
51
121.5490577
0
ARC
8
DEFAULT_255_1_234
10
12.6753388
20
94.5694949
40
0.55319
50
89.924208
51
96.1377933
0
ARC
8
DEFAULT_255_1_234
10
12.6803821
20
94.5813542
40
0.5413475
50
76.6779277
51
90.4563316
0
ARC
8
DEFAULT_255_1_234
10
12.7197444
20
94.7404114
40
0.3775041
50
47.485847
51
76.9287264
0
ARC
8
DEFAULT_255_1_234
10
12.7050417
20
94.7304159
40
0.3948286
50
16.5424086
51
46.8933463
0
ARC
8
DEFAULT_255_1_234
10
12.5442574
20
94.6775861
40
0.564021
50
5.4072051
51
17.0365086
0
ARC
8
DEFAULT_255_1_234
10
12.4003591
20
94.6544679
40
0.5556559
50
7.8891745
51
15.9239216
0
ARC
8
DEFAULT_255_1_234
10
12.5990605
20
94.7121631
40
0.3487515
50
15.7653144
51
27.9410532
0
ARC
8
DEFAULT_255_1_234
10
12.7094822
20
94.771279
40
0.2235026
50
27.8166557
51
46.4008329
0
ARC
8
DEFAULT_255_1_234
10
12.7144465
20
94.7707082
40
0.2205286
50
47.4371857
51
75.0698205
0
ARC
8
DEFAULT_255_1_234
10
12.683586
20
94.6632765
40
0.3322915
50
74.7008593
51
87.8124495
0
ARC
8
DEFAULT_255_1_234
10
12.6762547
20
94.5576844
40
0.4380987
50
87.3814673
51
90.0240855
0
ARC
8
DEFAULT_255_1_234
10
12.6724091
20
94.6754291
40
0.3203749
50
89.3451631
51
108.5745436
0
ARC
8
DEFAULT_255_1_234
10
12.6587196
20
94.7267908
40
0.2673494
50
109.2998449
51
143.3037509
0
ARC
8
DEFAULT_255_1_234
10
12.7349268
20
94.6681881
40
0.3634757
50
143.0753173
51
163.1916937
0
ARC
8
DEFAULT_255_1_234
10
12.9300996
20
94.6065967
40
0.5681262
50
162.9373603
51
174.6208611
0
ARC
8
DEFAULT_255_1_234
10
13.1927038
20
94.577801
40
0.8322832
50
174.3419979
51
180.1430411
0
ARC
8
DEFAULT_255_1_234
10
13.0996194
20
94.4583698
40
0.7392076
50
179.6817502
51
189.150529
0
ARC
8
DEFAULT_255_1_234
10
12.8495443
20
94.416719
40
0.4856932
50
188.9910863
51
203.5773039
0
ARC
8
DEFAULT_255_1_234
10
12.7415775
20
94.3719211
40
0.3688271
50
203.9077269
51
215.1312379
0
ARC
8
DEFAULT_255_1_234
10
12.6492869
20
94.3003941
40
0.2522457
50
213.9071664
51
263.8849284
0
ARC
8
DEFAULT_255_1_234
10
12.6618198
20
94.3788518
40
0.3316174
50
263.1758525
51
270.1031083
0
ARC
8
DEFAULT_255_1_234
10
12.665029
20
94.5035365
40
0.4563091
50
269.6719807
51
279.0609165
0
ARC
8
DEFAULT_255_1_234
10
12.6917058
20
94.3422907
40
0.2928759
50
278.8750225
51
293.6346586
0
ARC
8
DEFAULT_255_1_234
10
12.7237266
20
94.26709
40
0.2111472
50
293.8553404
51
310.0518804
0
ARC
8
DEFAULT_255_1_234
10
12.724212
20
94.2608516
40
0.2060917
50
311.0646779
51
332.0108348
0
ARC
8
DEFAULT_255_1_234
10
12.6049847
20
94.3265978
40
0.3422352
50
331.6588543
51
343.2878891
0
ARC
8
DEFAULT_255_1_234
10
12.3987362
20
94.3899798
40
0.5580003
50
343.1446044
51
351.010618
0
ARC
8
DEFAULT_255_1_234
10
12.2446008
20
94.4180871
40
0.7146438
50
350.7157277
51
351.1602153
0
LINE
8
DEFAULT_255_1_234
10
14.3844213
20
94.6038343
11
14.3844213
21
94.477736
0
LINE
8
DEFAULT_255_1_234
10
14.3844213
20
94.477736
11
13.8776186
21
94.477736
0
LINE
8
DEFAULT_255_1_234
10
13.8776186
20
94.477736
11
13.8776186
21
94.0632983
0
LINE
8
DEFAULT_255_1_234
10
13.8776186
20
94.0632983
11
14.466345
21
94.0632983
0
LINE
8
DEFAULT_255_1_234
10
14.466345
20
94.0632983
11
14.466345
21
93.9372
0
LINE
8
DEFAULT_255_1_234
10
14.466345
20
93.9372
11
13.7234092
21
93.9372
0
LINE
8
DEFAULT_255_1_234
10
13.7234092
20
93.9372
11
13.7234092
21
95.1066211
0
LINE
8
DEFAULT_255_1_234
10
13.7234092
20
95.1066211
11
14.4583133
21
95.1066211
0
LINE
8
DEFAULT_255_1_234
10
14.4583133
20
95.1066211
11
14.4583133
21
94.9797196
0
LINE
8
DEFAULT_255_1_234
10
14.4583133
20
94.9797196
11
13.8776186
21
94.9797196
0
LINE
8
DEFAULT_255_1_234
10
13.8776186
20
94.9797196
11
13.8776186
21
94.6038343
0
LINE
8
DEFAULT_255_1_234
10
13.8776186
20
94.6038343
11
14.3844213
21
94.6038343
0
LINE
8
DEFAULT_255_1_234
10
15.4823599
20
95.1066211
11
15.4823599
21
94.9797196
0
LINE
8
DEFAULT_255_1_234
10
15.4823599
20
94.9797196
11
15.1064746
21
94.9797196
0
LINE
8
DEFAULT_255_1_234
10
15.1064746
20
94.9797196
11
15.1064746
21
93.9372
0
LINE
8
DEFAULT_255_1_234
10
15.1064746
20
93.9372
11
14.9530684
21
93.9372
0
LINE
8
DEFAULT_255_1_234
10
14.9530684
20
93.9372
11
14.9530684
21
94.9797196
0
LINE
8
DEFAULT_255_1_234
10
14.9530684
20
94.9797196
11
14.5779862
21
94.9797196
0
LINE
8
DEFAULT_255_1_234
10
14.5779862
20
94.9797196
11
14.5779862
21
95.1066211
0
LINE
8
DEFAULT_255_1_234
10
14.5779862
20
95.1066211
11
15.4823599
21
95.1066211
0
LINE
8
DEFAULT_255_1_234
10
16.3835209
20
94.0584792
11
16.3835209
21
93.9372
0
LINE
8
DEFAULT_255_1_234
10
16.3835209
20
93.9372
11
15.6172931
21
93.9372
0
LINE
8
DEFAULT_255_1_234
10
15.6172931
20
93.9372
11
15.6172931
21
94.0440221
0
LINE
8
DEFAULT_255_1_234
10
15.6172931
20
94.0440221
11
16.0220927
21
94.4937995
0
LINE
8
DEFAULT_255_1_234
10
15.7433914
20
94.7620595
11
15.5948042
21
94.7620595
0
LINE
8
DEFAULT_255_1_234
10
16.1096387
20
94.3982218
11
15.7964009
21
94.0584792
0
LINE
8
DEFAULT_255_1_234
10
15.7964009
20
94.0584792
11
16.3835209
21
94.0584792
0
ARC
8
DEFAULT_255_1_234
10
14.6730761
20
95.6867527
40
1.8008286
50
318.5132453
51
320.7828378
0
ARC
8
DEFAULT_255_1_234
10
15.2017735
20
95.2564426
40
1.1191493
50
320.7372736
51
323.9737074
0
ARC
8
DEFAULT_255_1_234
10
15.5937591
20
94.9724361
40
0.6350923
50
323.8961724
51
328.6421089
0
ARC
8
DEFAULT_255_1_234
10
15.7984187
20
94.8462031
40
0.3946393
50
328.8299013
51
331.789948
0
ARC
8
DEFAULT_255_1_234
10
15.8981365
20
94.7947509
40
0.2824501
50
331.4255242
51
352.9364833
0
ARC
8
DEFAULT_255_1_234
10
15.9117866
20
94.7916976
40
0.2685315
50
353.2248685
51
0.0169286
0
ARC
8
DEFAULT_255_1_234
10
15.9327743
20
94.793995
40
0.2475536
50
359.4866256
51
15.9339782
0
ARC
8
DEFAULT_255_1_234
10
15.9834728
20
94.8076286
40
0.1950618
50
16.1714718
51
43.5284424
0
ARC
8
DEFAULT_255_1_234
10
15.9912037
20
94.8153573
40
0.184134
50
43.4415429
51
83.1661404
0
ARC
8
DEFAULT_255_1_234
10
15.9777955
20
94.7416771
40
0.258926
50
82.160215
51
90.1505798
0
ARC
8
DEFAULT_255_1_234
10
15.9746382
20
94.6879865
40
0.3126255
50
89.5460705
51
102.5418777
0
ARC
8
DEFAULT_255_1_234
10
15.9503468
20
94.7910665
40
0.2067346
50
102.1739365
51
129.2061916
0
ARC
8
DEFAULT_255_1_234
10
15.942454
20
94.8035094
40
0.1921118
50
129.7279328
51
135.7542026
0
ARC
8
DEFAULT_255_1_234
10
15.9546068
20
94.7938045
40
0.2075944
50
136.175737
51
166.3674722
0
ARC
8
DEFAULT_255_1_234
10
16.0552987
20
94.7668182
40
0.3118201
50
165.9092917
51
178.8683903
0
ARC
8
DEFAULT_255_1_234
10
16.1417848
20
94.7621179
40
0.3983935
50
178.438168
51
180.0083905
0
ARC
8
DEFAULT_255_1_234
10
16.001645
20
94.7660231
40
0.4068601
50
163.2878735
51
180.5581814
0
ARC
8
DEFAULT_255_1_234
10
15.9214712
20
94.788084
40
0.3237344
50
133.454115
51
162.9470031
0
ARC
8
DEFAULT_255_1_234
10
15.9393253
20
94.7691
40
0.349795
50
100.7869394
51
133.4384016
0
ARC
8
DEFAULT_255_1_234
10
15.9741024
20
94.6142319
40
0.5084616
50
89.6605301
51
101.3704185
0
ARC
8
DEFAULT_255_1_234
10
15.9807363
20
94.6203496
40
0.502348
50
78.2171172
51
90.4130393
0
ARC
8
DEFAULT_255_1_234
10
16.0162442
20
94.7827637
40
0.3361092
50
55.9268222
51
78.4888551
0
ARC
8
DEFAULT_255_1_234
10
16.0358882
20
94.8166324
40
0.2970617
50
47.9292255
51
55.4054003
0
ARC
8
DEFAULT_255_1_234
10
16.0460442
20
94.8269502
40
0.2825983
50
4.3347696
51
48.0560701
0
ARC
8
DEFAULT_255_1_234
10
15.9364836
20
94.8099601
40
0.393225
50
359.925209
51
5.5967654
0
ARC
8
DEFAULT_255_1_234
10
15.9793728
20
94.8155816
40
0.3503892
50
337.8914096
51
358.9967724
0
ARC
8
DEFAULT_255_1_234
10
15.708014
20
94.9202706
40
0.6412172
50
326.9135351
51
338.3505194
0
ARC
8
DEFAULT_255_1_234
10
15.3094444
20
95.1757284
40
1.1146189
50
319.6472867
51
327.095818
0
ARC
8
DEFAULT_255_1_234
10
14.9261447
20
95.4919
40
1.6114559
50
317.2586784
51
319.9046139
0
LINE
8
DEFAULT_255_1_234
10
17.2742407
20
94.6287327
11
17.2742407
21
94.4359709
0
LINE
8
DEFAULT_255_1_234
10
16.536124
20
94.4158916
11
16.536124
21
94.6142755
0
LINE
8
DEFAULT_255_1_234
10
17.1256536
20
94.3958123
11
17.1256536
21
94.6391739
0
LINE
8
DEFAULT_255_1_234
10
16.6847111
20
94.6504184
11
16.6847111
21
94.4126789
0
ARC
8
DEFAULT_255_1_234
10
16.0495297
20
94.4310805
40
1.2247208
50
353.8441951
51
0.2287902
0
ARC
8
DEFAULT_255_1_234
10
16.51348
20
94.3792806
40
0.7578929
50
344.4934747
51
353.9765454
0
ARC
8
DEFAULT_255_1_234
10
16.8127391
20
94.2941981
40
0.4467846
50
329.2803592
51
344.7472793
0
ARC
8
DEFAULT_255_1_234
10
16.9120216
20
94.2397018
40
0.3336173
50
324.9352394
51
328.6160465
0
ARC
8
DEFAULT_255_1_234
10
16.9497324
20
94.2133427
40
0.2876076
50
280.580143
51
324.9173126
0
ARC
8
DEFAULT_255_1_234
10
16.9096117
20
94.3804099
40
0.4592847
50
269.5977311
51
281.6734359
0
ARC
8
DEFAULT_255_1_234
10
16.9024022
20
94.3684173
40
0.4472986
50
256.6228859
51
270.51044
0
ARC
8
DEFAULT_255_1_234
10
16.8622
20
94.2135877
40
0.2873874
50
215.8618325
51
257.2788573
0
ARC
8
DEFAULT_255_1_234
10
16.9643032
20
94.2820977
40
0.4102928
50
197.9693508
51
215.2623606
0
ARC
8
DEFAULT_255_1_234
10
17.2128147
20
94.3659709
40
0.6725652
50
187.8816417
51
198.2346507
0
ARC
8
DEFAULT_255_1_234
10
17.6086356
20
94.4231079
40
1.0724845
50
180.8976217
51
188.0055519
0
ARC
8
DEFAULT_255_1_234
10
17.8886544
20
94.4334777
40
1.3526448
50
180.7449369
51
181.1510016
0
ARC
8
DEFAULT_255_1_234
10
17.7309273
20
94.6191042
40
1.1948131
50
173.7675579
51
180.231553
0
ARC
8
DEFAULT_255_1_234
10
17.279142
20
94.6701666
40
0.7401564
50
164.3058563
51
173.9002247
0
ARC
8
DEFAULT_255_1_234
10
16.9879488
20
94.7540656
40
0.4371288
50
148.7922025
51
164.568378
0
ARC
8
DEFAULT_255_1_234
10
16.8927941
20
94.8071929
40
0.3282386
50
144.5883898
51
148.1176286
0
ARC
8
DEFAULT_255_1_234
10
16.8584838
20
94.8311315
40
0.2864044
50
101.6440918
51
144.514236
0
ARC
8
DEFAULT_255_1_234
10
16.9009905
20
94.6622069
40
0.4604934
50
89.5284041
51
102.5819763
0
ARC
8
DEFAULT_255_1_234
10
16.9088993
20
94.6583018
40
0.464401
50
77.0437873
51
90.5081339
0
ARC
8
DEFAULT_255_1_234
10
16.9490995
20
94.8225615
40
0.2953195
50
48.2778575
51
77.4994676
0
ARC
8
DEFAULT_255_1_234
10
16.9563626
20
94.8354746
40
0.2808655
50
36.3142134
51
47.6305865
0
ARC
8
DEFAULT_255_1_234
10
16.8694933
20
94.7769515
40
0.3855453
50
18.2931786
51
35.6769206
0
ARC
8
DEFAULT_255_1_234
10
16.6151692
20
94.6896593
40
0.654423
50
8.024666
51
18.5605216
0
ARC
8
DEFAULT_255_1_234
10
16.1988612
20
94.6281792
40
1.0752407
50
1.1274072
51
8.1718305
0
ARC
8
DEFAULT_255_1_234
10
15.8752802
20
94.6154885
40
1.3990231
50
0.5424119
51
1.3863029
0
ARC
8
DEFAULT_255_1_234
10
16.057418
20
94.6427342
40
1.0682415
50
359.8090433
51
4.9407866
0
ARC
8
DEFAULT_255_1_234
10
16.4784194
20
94.6803113
40
0.6455691
50
4.8362157
51
12.2904523
0
ARC
8
DEFAULT_255_1_234
10
16.7539309
20
94.7416965
40
0.3633074
50
12.0805627
51
23.8173984
0
ARC
8
DEFAULT_255_1_234
10
16.8713014
20
94.7913919
40
0.2358723
50
24.2871213
51
31.3935614
0
ARC
8
DEFAULT_255_1_234
10
16.9237712
20
94.8257233
40
0.1732111
50
30.7407893
51
82.4657128
0
ARC
8
DEFAULT_255_1_234
10
16.9057846
20
94.7373691
40
0.263235
50
81.1060089
51
90.2184952
0
ARC
8
DEFAULT_255_1_234
10
16.9022145
20
94.7631924
40
0.2374236
50
89.3806855
51
105.6762551
0
ARC
8
DEFAULT_255_1_234
10
16.8838775
20
94.8298567
40
0.1682847
50
105.7981136
51
149.7388061
0
ARC
8
DEFAULT_255_1_234
10
16.9902854
20
94.765895
40
0.2924306
50
149.4208916
51
163.6286378
0
ARC
8
DEFAULT_255_1_234
10
17.1993742
20
94.702125
40
0.5110213
50
163.3763315
51
172.1410975
0
ARC
8
DEFAULT_255_1_234
10
17.5294461
20
94.6548518
40
0.8444586
50
172.0259487
51
178.0703232
0
ARC
8
DEFAULT_255_1_234
10
17.832455
20
94.6404906
40
1.1477868
50
177.8631668
51
179.5044149
0
ARC
8
DEFAULT_255_1_234
10
17.7251955
20
94.4090389
40
1.0404907
50
179.7995573
51
185.2460446
0
ARC
8
DEFAULT_255_1_234
10
17.3208994
20
94.3707513
40
0.6343885
50
185.1411642
51
193.0079639
0
ARC
8
DEFAULT_255_1_234
10
17.0565467
20
94.3082641
40
0.3627568
50
192.7897626
51
205.2507664
0
ARC
8
DEFAULT_255_1_234
10
16.9519014
20
94.2615415
40
0.2481908
50
205.8005384
51
211.2537509
0
ARC
8
DEFAULT_255_1_234
10
16.8995454
20
94.226458
40
0.1852521
50
210.3789793
51
238.4008143
0
ARC
8
DEFAULT_255_1_234
10
16.8975976
20
94.2311376
40
0.1882621
50
239.6520629
51
265.9793761
0
ARC
8
DEFAULT_255_1_234
10
16.9061176
20
94.2983427
40
0.2559272
50
265.1315437
51
270.060332
0
ARC
8
DEFAULT_255_1_234
10
16.9089955
20
94.2659534
40
0.2235528
50
269.3314664
51
287.2178029
0
ARC
8
DEFAULT_255_1_234
10
16.9227807
20
94.2156279
40
0.1714108
50
287.7958004
51
329.080874
0
ARC
8
DEFAULT_255_1_234
10
16.8270264
20
94.275393
40
0.2842745
50
328.6634704
51
343.3325132
0
ARC
8
DEFAULT_255_1_234
10
16.6097284
20
94.3430863
40
0.5118644
50
343.0499468
51
351.9393422
0
ARC
8
DEFAULT_255_1_234
10
16.2630584
20
94.3941949
40
0.8622784
50
351.8069023
51
357.7959224
0
ARC
8
DEFAULT_255_1_234
10
15.939514
20
94.4109721
40
1.1862365
50
357.5871873
51
359.2677531
0
LINE
8
DEFAULT_255_1_234
10
18.1978906
20
94.6287327
11
18.1978906
21
94.4359709
0
LINE
8
DEFAULT_255_1_234
10
17.4597739
20
94.4158916
11
17.4597739
21
94.6142755
0
LINE
8
DEFAULT_255_1_234
10
18.0493035
20
94.3958123
11
18.0493035
21
94.6391739
0
LINE
8
DEFAULT_255_1_234
10
17.608361
20
94.6504184
11
17.608361
21
94.4126789
0
ARC
8
DEFAULT_255_1_234
10
16.9731796
20
94.4310805
40
1.2247208
50
353.8441951
51
0.2287902
0
ARC
8
DEFAULT_255_1_234
10
17.4371299
20
94.3792806
40
0.7578929
50
344.4934747
51
353.9765454
0
ARC
8
DEFAULT_255_1_234
10
17.736389
20
94.2941981
40
0.4467846
50
329.2803592
51
344.7472793
0
ARC
8
DEFAULT_255_1_234
10
17.8356715
20
94.2397018
40
0.3336173
50
324.9352394
51
328.6160465
0
ARC
8
DEFAULT_255_1_234
10
17.8733823
20
94.2133427
40
0.2876076
50
280.580143
51
324.9173126
0
ARC
8
DEFAULT_255_1_234
10
17.8332616
20
94.3804099
40
0.4592847
50
269.5977311
51
281.6734359
0
ARC
8
DEFAULT_255_1_234
10
17.8260521
20
94.3684173
40
0.4472986
50
256.6228859
51
270.51044
0
ARC
8
DEFAULT_255_1_234
10
17.7858499
20
94.2135877
40
0.2873874
50
215.8618325
51
257.2788573
0
ARC
8
DEFAULT_255_1_234
10
17.8879531
20
94.2820977
40
0.4102928
50
197.9693508
51
215.2623606
0
ARC
8
DEFAULT_255_1_234
10
18.1364647
20
94.3659709
40
0.6725652
50
187.8816417
51
198.2346507
0
ARC
8
DEFAULT_255_1_234
10
18.5322855
20
94.4231079
40
1.0724845
50
180.8976217
51
188.0055519
0
ARC
8
DEFAULT_255_1_234
10
18.8123043
20
94.4334777
40
1.3526448
50
180.7449369
51
181.1510016
0
ARC
8
DEFAULT_255_1_234
10
18.6545772
20
94.6191042
40
1.1948131
50
173.7675579
51
180.231553
0
ARC
8
DEFAULT_255_1_234
10
18.2027919
20
94.6701666
40
0.7401564
50
164.3058563
51
173.9002247
0
ARC
8
DEFAULT_255_1_234
10
17.9115987
20
94.7540656
40
0.4371288
50
148.7922025
51
164.568378
0
ARC
8
DEFAULT_255_1_234
10
17.816444
20
94.8071929
40
0.3282386
50
144.5883898
51
148.1176286
0
ARC
8
DEFAULT_255_1_234
10
17.7821337
20
94.8311315
40
0.2864044
50
101.6440918
51
144.514236
0
ARC
8
DEFAULT_255_1_234
10
17.8246404
20
94.6622069
40
0.4604934
50
89.5284041
51
102.5819763
0
ARC
8
DEFAULT_255_1_234
10
17.8325492
20
94.6583018
40
0.464401
50
77.0437873
51
90.5081339
0
ARC
8
DEFAULT_255_1_234
10
17.8727494
20
94.8225615
40
0.2953195
50
48.2778575
51
77.4994676
0
ARC
8
DEFAULT_255_1_234
10
17.8800125
20
94.8354746
40
0.2808655
50
36.3142134
51
47.6305865
0
ARC
8
DEFAULT_255_1_234
10
17.7931432
20
94.7769515
40
0.3855453
50
18.2931786
51
35.6769206
0
ARC
8
DEFAULT_255_1_234
10
17.5388191
20
94.6896593
40
0.654423
50
8.024666
51
18.5605216
0
ARC
8
DEFAULT_255_1_234
10
17.1225111
20
94.6281792
40
1.0752407
50
1.1274072
51
8.1718305
0
ARC
8
DEFAULT_255_1_234
10
16.7989301
20
94.6154885
40
1.3990231
50
0.5424119
51
1.3863029
0
ARC
8
DEFAULT_255_1_234
10
16.9810679
20
94.6427342
40
1.0682415
50
359.8090433
51
4.9407866
0
ARC
8
DEFAULT_255_1_234
10
17.4020693
20
94.6803113
40
0.6455691
50
4.8362157
51
12.2904523
0
ARC
8
DEFAULT_255_1_234
10
17.6775808
20
94.7416965
40
0.3633074
50
12.0805627
51
23.8173984
0
ARC
8
DEFAULT_255_1_234
10
17.7949513
20
94.7913919
40
0.2358723
50
24.2871213
51
31.3935614
0
ARC
8
DEFAULT_255_1_234
10
17.8474211
20
94.8257233
40
0.1732111
50
30.7407893
51
82.4657128
0
ARC
8
DEFAULT_255_1_234
10
17.8294345
20
94.7373691
40
0.263235
50
81.1060089
51
90.2184952
0
ARC
8
DEFAULT_255_1_234
10
17.8258644
20
94.7631924
40
0.2374236
50
89.3806855
51
105.6762551
0
ARC
8
DEFAULT_255_1_234
10
17.8075274
20
94.8298567
40
0.1682847
50
105.7981136
51
149.7388061
0
ARC
8
DEFAULT_255_1_234
10
17.9139353
20
94.765895
40
0.2924306
50
149.4208916
51
163.6286378
0
ARC
8
DEFAULT_255_1_234
10
18.1230241
20
94.702125
40
0.5110213
50
163.3763315
51
172.1410975
0
ARC
8
DEFAULT_255_1_234
10
18.453096
20
94.6548518
40
0.8444586
50
172.0259487
51
178.0703232
0
ARC
8
DEFAULT_255_1_234
10
18.7561049
20
94.6404906
40
1.1477868
50
177.8631668
51
179.5044149
0
ARC
8
DEFAULT_255_1_234
10
18.6488454
20
94.4090389
40
1.0404907
50
179.7995573
51
185.2460446
0
ARC
8
DEFAULT_255_1_234
10
18.2445493
20
94.3707513
40
0.6343885
50
185.1411642
51
193.0079639
0
ARC
8
DEFAULT_255_1_234
10
17.9801966
20
94.3082641
40
0.3627568
50
192.7897626
51
205.2507664
0
ARC
8
DEFAULT_255_1_234
10
17.8755513
20
94.2615415
40
0.2481908
50
205.8005384
51
211.2537509
0
ARC
8
DEFAULT_255_1_234
10
17.8231953
20
94.226458
40
0.1852521
50
210.3789793
51
238.4008143
0
ARC
8
DEFAULT_255_1_234
10
17.8212475
20
94.2311376
40
0.1882621
50
239.6520629
51
265.9793761
0
ARC
8
DEFAULT_255_1_234
10
17.8297675
20
94.2983427
40
0.2559272
50
265.1315437
51
270.060332
0
ARC
8
DEFAULT_255_1_234
10
17.8326454
20
94.2659534
40
0.2235528
50
269.3314664
51
287.2178029
0
ARC
8
DEFAULT_255_1_234
10
17.8464306
20
94.2156279
40
0.1714108
50
287.7958004
51
329.080874
0
ARC
8
DEFAULT_255_1_234
10
17.7506763
20
94.275393
40
0.2842745
50
328.6634704
51
343.3325132
0
ARC
8
DEFAULT_255_1_234
10
17.5333783
20
94.3430863
40
0.5118644
50
343.0499468
51
351.9393422
0
ARC
8
DEFAULT_255_1_234
10
17.1867083
20
94.3941949
40
0.8622784
50
351.8069023
51
357.7959224
0
ARC
8
DEFAULT_255_1_234
10
16.8631639
20
94.4109721
40
1.1862365
50
357.5871873
51
359.2677531
0
LINE
8
DEFAULT_255_1_234
10
18.8564932
20
94.3950091
11
18.5810045
21
94.3950091
0
LINE
8
DEFAULT_255_1_234
10
18.5810045
20
94.3950091
11
18.5810045
21
93.9372
0
LINE
8
DEFAULT_255_1_234
10
18.5810045
20
93.9372
11
18.4267952
21
93.9372
0
LINE
8
DEFAULT_255_1_234
10
18.4267952
20
93.9372
11
18.4267952
21
95.1066211
0
LINE
8
DEFAULT_255_1_234
10
18.4267952
20
95.1066211
11
18.8580995
21
95.1066211
0
LINE
8
DEFAULT_255_1_234
10
18.5810045
20
94.9797196
11
18.5810045
21
94.5211074
0
LINE
8
DEFAULT_255_1_234
10
18.5810045
20
94.5211074
11
18.8580995
21
94.5211074
0
LINE
8
DEFAULT_255_1_234
10
18.8669344
20
94.9797196
11
18.5810045
21
94.9797196
0
ARC
8
DEFAULT_255_1_234
10
18.8623122
20
94.5007195
40
0.6059162
50
78.8378113
51
90.3983573
0
ARC
8
DEFAULT_255_1_234
10
18.9039135
20
94.7027879
40
0.3996205
50
58.9632738
51
79.0810598
0
ARC
8
DEFAULT_255_1_234
10
18.9340678
20
94.7587721
40
0.3361177
50
48.0197965
51
58.447194
0
ARC
8
DEFAULT_255_1_234
10
18.9429539
20
94.7673225
40
0.3238191
50
3.3375044
51
48.1766626
0
ARC
8
DEFAULT_255_1_234
10
18.8199378
20
94.7496171
40
0.4477806
50
359.9477528
51
4.6829065
0
ARC
8
DEFAULT_255_1_234
10
18.8322695
20
94.7453628
40
0.4354656
50
346.1877825
51
0.5060252
0
ARC
8
DEFAULT_255_1_234
10
18.9681563
20
94.7100731
40
0.295089
50
310.8831995
51
346.5426355
0
ARC
8
DEFAULT_255_1_234
10
18.9372983
20
94.7517695
40
0.3468331
50
286.6925341
51
310.2288297
0
ARC
8
DEFAULT_255_1_234
10
18.8803813
20
94.9307882
40
0.5346654
50
274.6850312
51
287.0245141
0
ARC
8
DEFAULT_255_1_234
10
18.8578537
20
95.1516932
40
0.7566852
50
269.8969846
51
275.018904
0
ARC
8
DEFAULT_255_1_234
10
18.8606128
20
94.9437707
40
0.4226708
50
269.6593078
51
279.4153575
0
ARC
8
DEFAULT_255_1_234
10
18.8863403
20
94.7947133
40
0.2714146
50
279.2049762
51
294.9900808
0
ARC
8
DEFAULT_255_1_234
10
18.9153729
20
94.7299508
40
0.2004525
50
295.2888114
51
311.2911209
0
ARC
8
DEFAULT_255_1_234
10
18.9224623
20
94.719422
40
0.1878703
50
311.7854996
51
347.2861051
0
ARC
8
DEFAULT_255_1_234
10
18.8240782
20
94.7447092
40
0.2894234
50
346.6893224
51
0.1059443
0
ARC
8
DEFAULT_255_1_234
10
18.7485677
20
94.7475685
40
0.3649409
50
359.6350983
51
0.0053152
0
ARC
8
DEFAULT_255_1_234
10
18.8456005
20
94.7500937
40
0.2679199
50
359.4672059
51
15.5933957
0
ARC
8
DEFAULT_255_1_234
10
18.9080894
20
94.7669779
40
0.2031932
50
15.7442113
51
46.6203375
0
ARC
8
DEFAULT_255_1_234
10
18.8933114
20
94.7499484
40
0.2257226
50
46.8628658
51
75.6676503
0
ARC
8
DEFAULT_255_1_234
10
18.8638935
20
94.6440718
40
0.3355939
50
75.276167
51
88.2915297
0
ARC
8
DEFAULT_255_1_234
10
18.8580642
20
94.5562524
40
0.4235602
50
87.8575022
51
88.8000139
0
LINE
8
DEFAULT_255_1_234
10
20.1471935
20
93.9372
11
19.8933906
21
94.4102694
0
LINE
8
DEFAULT_255_1_234
10
19.8933906
20
94.4102694
11
19.6187051
21
94.4102694
0
LINE
8
DEFAULT_255_1_234
10
19.6187051
20
94.4102694
11
19.6187051
21
93.9372
0
LINE
8
DEFAULT_255_1_234
10
19.6187051
20
93.9372
11
19.4636926
21
93.9372
0
LINE
8
DEFAULT_255_1_234
10
19.4636926
20
93.9372
11
19.4636926
21
95.1066211
0
LINE
8
DEFAULT_255_1_234
10
19.4636926
20
95.1066211
11
19.8508224
21
95.1066211
0
LINE
8
DEFAULT_255_1_234
10
20.0379619
20
94.4431995
11
20.3126473
21
93.9468381
0
LINE
8
DEFAULT_255_1_234
10
20.3126473
20
93.9468381
11
20.3126473
21
93.9372
0
LINE
8
DEFAULT_255_1_234
10
20.3126473
20
93.9372
11
20.1471935
21
93.9372
0
LINE
8
DEFAULT_255_1_234
10
19.6187051
20
94.9797196
11
19.6187051
21
94.5363677
0
LINE
8
DEFAULT_255_1_234
10
19.6187051
20
94.5363677
11
19.8556414
21
94.5363677
0
LINE
8
DEFAULT_255_1_234
10
19.8548382
20
94.9797196
11
19.6187051
21
94.9797196
0
ARC
8
DEFAULT_255_1_234
10
19.8549863
20
94.4104761
40
0.6961575
50
80.653586
51
90.3427061
0
ARC
8
DEFAULT_255_1_234
10
19.8969338
20
94.6567348
40
0.4463577
50
65.6987447
51
80.8329603
0
ARC
8
DEFAULT_255_1_234
10
19.9446978
20
94.7662322
40
0.3269094
50
50.0017161
51
65.4305835
0
ARC
8
DEFAULT_255_1_234
10
19.9665443
20
94.7957482
40
0.2902647
50
11.628416
51
49.5603263
0
ARC
8
DEFAULT_255_1_234
10
19.8129779
20
94.7582299
40
0.4482792
50
359.5655735
51
12.3691
0
ARC
8
DEFAULT_255_1_234
10
19.9206639
20
94.7519644
40
0.3405924
50
341.9983148
51
0.4822259
0
ARC
8
DEFAULT_255_1_234
10
19.9601479
20
94.7412471
40
0.2997359
50
323.8609373
51
341.61416
0
ARC
8
DEFAULT_255_1_234
10
19.9299723
20
94.7645484
40
0.3378487
50
296.7018614
51
323.6876402
0
ARC
8
DEFAULT_255_1_234
10
19.8858618
20
94.8434235
40
0.4281516
50
290.8086567
51
297.2323311
0
ARC
8
DEFAULT_255_1_234
10
19.8582147
20
94.8957351
40
0.3593766
50
269.589728
51
281.8058135
0
ARC
8
DEFAULT_255_1_234
10
19.8833047
20
94.7809743
40
0.2419125
50
281.5501019
51
303.9357432
0
ARC
8
DEFAULT_255_1_234
10
19.8970234
20
94.7571936
40
0.2145323
50
304.4415616
51
311.2106213
0
ARC
8
DEFAULT_255_1_234
10
19.910234
20
94.7432632
40
0.1953505
50
310.9875673
51
356.2715578
0
ARC
8
DEFAULT_255_1_234
10
19.8345988
20
94.7545422
40
0.2716331
50
354.9348262
51
0.0609027
0
ARC
8
DEFAULT_255_1_234
10
19.8158863
20
94.7572435
40
0.2903554
50
359.5239371
51
12.8808918
0
ARC
8
DEFAULT_255_1_234
10
19.9136418
20
94.7811728
40
0.1897315
50
12.4173452
51
43.1022135
0
ARC
8
DEFAULT_255_1_234
10
19.9198023
20
94.7848724
40
0.1827118
50
43.5751728
51
48.203944
0
ARC
8
DEFAULT_255_1_234
10
19.9028515
20
94.7627302
40
0.2105272
50
48.7809703
51
72.6969569
0
ARC
8
DEFAULT_255_1_234
10
19.8674139
20
94.655182
40
0.3237537
50
72.3702241
51
84.8791103
0
ARC
8
DEFAULT_255_1_234
10
19.8526616
20
94.5209769
40
0.4587478
50
84.5400526
51
89.7281406
0
LINE
8
DEFAULT_255_1_234
10
21.3768526
20
94.5580534
11
21.3768526
21
94.4841614
0
LINE
8
DEFAULT_255_1_234
10
20.4363361
20
94.4737201
11
20.4363361
21
94.5580534
0
LINE
8
DEFAULT_255_1_234
10
21.2234464
20
94.4729169
11
21.2234464
21
94.5596597
0
LINE
8
DEFAULT_255_1_234
10
20.5897423
20
94.570101
11
20.5897423
21
94.4841614
0
ARC
8
DEFAULT_255_1_234
10
20.5126553
20
94.4802015
40
0.8642064
50
350.487711
51
0.2625388
0
ARC
8
DEFAULT_255_1_234
10
20.7419794
20
94.4407578
40
0.631518
50
336.0277639
51
350.5787438
0
ARC
8
DEFAULT_255_1_234
10
20.8764617
20
94.3799892
40
0.4839466
50
319.8877444
51
336.1328423
0
ARC
8
DEFAULT_255_1_234
10
20.9367258
20
94.331758
40
0.4067874
50
302.4806467
51
319.6143626
0
ARC
8
DEFAULT_255_1_234
10
20.9252269
20
94.3539202
40
0.4316636
50
275.8195682
51
302.1884709
0
ARC
8
DEFAULT_255_1_234
10
20.9085902
20
94.4681665
40
0.5470306
50
269.9171439
51
276.3397983
0
ARC
8
DEFAULT_255_1_234
10
20.9041112
20
94.3995681
40
0.4784458
50
252.5219675
51
270.4416499
0
ARC
8
DEFAULT_255_1_234
10
20.8897371
20
94.3456592
40
0.422716
50
237.5352116
51
252.1857531
0
ARC
8
DEFAULT_255_1_234
10
20.8986566
20
94.3570363
40
0.4371052
50
209.063312
51
237.3492538
0
ARC
8
DEFAULT_255_1_234
10
20.9856415
20
94.4116685
40
0.5397041
50
205.1183774
51
209.6470015
0
ARC
8
DEFAULT_255_1_234
10
21.0653451
20
94.445483
40
0.6262326
50
188.7215458
51
204.8240747
0
ARC
8
DEFAULT_255_1_234
10
21.265098
20
94.4791067
40
0.8287794
50
180.3723947
51
188.9252049
0
ARC
8
DEFAULT_255_1_234
10
21.2623731
20
94.5620402
40
0.8260467
50
169.5253763
51
180.2765336
0
ARC
8
DEFAULT_255_1_234
10
21.072118
20
94.5970309
40
0.6326007
50
155.8315255
51
169.5089989
0
ARC
8
DEFAULT_255_1_234
10
20.9440681
20
94.6564348
40
0.4914567
50
139.6258461
51
156.0379525
0
ARC
8
DEFAULT_255_1_234
10
20.8851015
20
94.7038799
40
0.4158054
50
122.6416387
51
139.3430715
0
ARC
8
DEFAULT_255_1_234
10
20.8951635
20
94.6855451
40
0.4366739
50
93.0223692
51
122.455762
0
ARC
8
DEFAULT_255_1_234
10
20.9059631
20
94.5890709
40
0.5336137
50
89.975342
51
93.6341897
0
ARC
8
DEFAULT_255_1_234
10
20.9098411
20
94.6289242
40
0.4937738
50
73.746375
51
90.4233405
0
ARC
8
DEFAULT_255_1_234
10
20.9273989
20
94.6969287
40
0.4235786
50
57.662753
51
73.4518111
0
ARC
8
DEFAULT_255_1_234
10
20.9265995
20
94.6990832
40
0.4221899
50
29.1440151
51
57.414694
0
ARC
8
DEFAULT_255_1_234
10
20.833119
20
94.6407005
40
0.5322966
50
24.0982783
51
29.7323517
0
ARC
8
DEFAULT_255_1_234
10
20.7297465
20
94.5978399
40
0.6441673
50
8.6655297
51
23.8241346
0
ARC
8
DEFAULT_255_1_234
10
20.5063204
20
94.5613854
40
0.8705386
50
359.7806941
51
8.8218784
0
ARC
8
DEFAULT_255_1_234
10
20.3916202
20
94.5639345
40
0.8318373
50
359.7055579
51
8.036044
0
ARC
8
DEFAULT_255_1_234
10
20.6916208
20
94.6076239
40
0.5286768
50
7.8928306
51
20.2962107
0
ARC
8
DEFAULT_255_1_234
10
20.8543778
20
94.6676395
40
0.3552073
50
20.3231126
51
36.4992797
0
ARC
8
DEFAULT_255_1_234
10
20.9229324
20
94.7204402
40
0.2686974
50
36.1437156
51
85.6627023
0
ARC
8
DEFAULT_255_1_234
10
20.906687
20
94.6164221
40
0.373739
50
84.3852322
51
90.0757696
0
ARC
8
DEFAULT_255_1_234
10
20.9024543
20
94.6824839
40
0.3076997
50
89.3038458
51
109.9045693
0
ARC
8
DEFAULT_255_1_234
10
20.8931933
20
94.7207062
40
0.2686424
50
110.8228367
51
143.9179474
0
ARC
8
DEFAULT_255_1_234
10
20.9865594
20
94.6494236
40
0.3860887
50
143.5289163
51
163.2980757
0
ARC
8
DEFAULT_255_1_234
10
21.1773415
20
94.5894433
40
0.5860659
50
163.0418846
51
174.3140048
0
ARC
8
DEFAULT_255_1_234
10
21.4177527
20
94.5616854
40
0.8280531
50
174.0509143
51
179.4176892
0
ARC
8
DEFAULT_255_1_234
10
21.3673265
20
94.4799954
40
0.7775954
50
179.6930361
51
188.7906598
0
ARC
8
DEFAULT_255_1_234
10
21.1009745
20
94.4373935
40
0.5078633
50
188.6331305
51
202.5629587
0
ARC
8
DEFAULT_255_1_234
10
20.9755336
20
94.3869996
40
0.3726913
50
202.8081362
51
216.1193925
0
ARC
8
DEFAULT_255_1_234
10
20.8945907
20
94.3218676
40
0.2689577
50
215.0755913
51
264.6379694
0
ARC
8
DEFAULT_255_1_234
10
20.9072856
20
94.4049513
40
0.3528978
50
263.846392
51
270.0833719
0
ARC
8
DEFAULT_255_1_234
10
20.9114246
20
94.3791374
40
0.3271036
50
269.3649385
51
287.5152008
0
ARC
8
DEFAULT_255_1_234
10
20.9292404
20
94.3144238
40
0.2600406
50
288.0630309
51
323.8113348
0
ARC
8
DEFAULT_255_1_234
10
20.8421246
20
94.3794049
40
0.3687189
50
323.6547608
51
342.6590488
0
ARC
8
DEFAULT_255_1_234
10
20.6389861
20
94.4454952
40
0.5823286
50
342.4091907
51
353.6451149
0
ARC
8
DEFAULT_255_1_234
10
20.3558372
20
94.480719
40
0.8676442
50
353.4029884
51
359.4847795
0
LINE
8
DEFAULT_255_1_234
10
4.5988137
20
93.1279433
11
4.5988137
21
91.9529
0
LINE
8
DEFAULT_255_1_234
10
4.5988137
20
91.9529
11
4.4494234
21
91.9529
0
LINE
8
DEFAULT_255_1_234
10
4.4494234
20
91.9529
11
4.4494234
21
92.9432133
0
LINE
8
DEFAULT_255_1_234
10
4.4494234
20
92.9432133
11
4.1498396
21
92.8331785
0
LINE
8
DEFAULT_255_1_234
10
4.1498396
20
92.8331785
11
4.1498396
21
92.9681117
0
LINE
8
DEFAULT_255_1_234
10
4.1498396
20
92.9681117
11
4.5755217
21
93.1279433
0
LINE
8
DEFAULT_255_1_234
10
4.5755217
20
93.1279433
11
4.5988137
21
93.1279433
0
LINE
8
DEFAULT_255_1_234
10
5.2276988
20
93.1223211
11
5.2276988
21
92.0789983
0
LINE
8
DEFAULT_255_1_234
10
5.2276988
20
92.0789983
11
5.7818888
21
92.0789983
0
LINE
8
DEFAULT_255_1_234
10
5.7818888
20
92.0789983
11
5.7818888
21
91.9529
0
LINE
8
DEFAULT_255_1_234
10
5.7818888
20
91.9529
11
5.0726863
21
91.9529
0
LINE
8
DEFAULT_255_1_234
10
5.0726863
20
91.9529
11
5.0726863
21
93.1223211
0
LINE
8
DEFAULT_255_1_234
10
5.0726863
20
93.1223211
11
5.2276988
21
93.1223211
0
LINE
8
DEFAULT_255_1_234
10
6.3601739
20
92.9215276
11
6.3601739
21
92.5801788
0
LINE
8
DEFAULT_255_1_234
10
6.3601739
20
92.5801788
11
6.6862625
21
92.5801788
0
LINE
8
DEFAULT_255_1_234
10
6.6862625
20
92.5801788
11
6.6862625
21
92.4396233
0
LINE
8
DEFAULT_255_1_234
10
6.6862625
20
92.4396233
11
6.3601739
21
92.4396233
0
LINE
8
DEFAULT_255_1_234
10
6.3601739
20
92.4396233
11
6.3601739
21
92.0701634
0
LINE
8
DEFAULT_255_1_234
10
6.3601739
20
92.0701634
11
6.2107836
21
92.0701634
0
LINE
8
DEFAULT_255_1_234
10
6.2107836
20
92.0701634
11
6.2107836
21
92.4396233
0
LINE
8
DEFAULT_255_1_234
10
6.2107836
20
92.4396233
11
5.884695
21
92.4396233
0
LINE
8
DEFAULT_255_1_234
10
5.884695
20
92.4396233
11
5.884695
21
92.5801788
0
LINE
8
DEFAULT_255_1_234
10
5.884695
20
92.5801788
11
6.2107836
21
92.5801788
0
LINE
8
DEFAULT_255_1_234
10
6.2107836
20
92.5801788
11
6.2107836
21
92.9215276
0
LINE
8
DEFAULT_255_1_234
10
6.2107836
20
92.9215276
11
6.3601739
21
92.9215276
0
LINE
8
DEFAULT_255_1_234
10
4.5349344
20
5.0982091
11
4.2594458
21
5.0982091
0
LINE
8
DEFAULT_255_1_234
10
4.2594458
20
5.0982091
11
4.2594458
21
4.6404
0
LINE
8
DEFAULT_255_1_234
10
4.2594458
20
4.6404
11
4.1052364
21
4.6404
0
LINE
8
DEFAULT_255_1_234
10
4.1052364
20
4.6404
11
4.1052364
21
5.8098211
0
LINE
8
DEFAULT_255_1_234
10
4.1052364
20
5.8098211
11
4.5365407
21
5.8098211
0
LINE
8
DEFAULT_255_1_234
10
4.2594458
20
5.6829196
11
4.2594458
21
5.2243074
0
LINE
8
DEFAULT_255_1_234
10
4.2594458
20
5.2243074
11
4.5365407
21
5.2243074
0
LINE
8
DEFAULT_255_1_234
10
4.5453756
20
5.6829196
11
4.2594458
21
5.6829196
0
ARC
8
DEFAULT_255_1_234
10
4.5407534
20
5.2039195
40
0.6059162
50
78.8378113
51
90.3983573
0
ARC
8
DEFAULT_255_1_234
10
4.5823548
20
5.4059879
40
0.3996205
50
58.9632738
51
79.0810598
0
ARC
8
DEFAULT_255_1_234
10
4.612509
20
5.4619721
40
0.3361177
50
48.0197965
51
58.447194
0
ARC
8
DEFAULT_255_1_234
10
4.6213951
20
5.4705225
40
0.3238191
50
3.3375044
51
48.1766626
0
ARC
8
DEFAULT_255_1_234
10
4.498379
20
5.4528171
40
0.4477806
50
359.9477528
51
4.6829065
0
ARC
8
DEFAULT_255_1_234
10
4.5107107
20
5.4485628
40
0.4354656
50
346.1877825
51
0.5060252
0
ARC
8
DEFAULT_255_1_234
10
4.6465975
20
5.4132731
40
0.295089
50
310.8831995
51
346.5426355
0
ARC
8
DEFAULT_255_1_234
10
4.6157395
20
5.4549695
40
0.3468331
50
286.6925341
51
310.2288297
0
ARC
8
DEFAULT_255_1_234
10
4.5588226
20
5.6339882
40
0.5346654
50
274.6850312
51
287.0245141
0
ARC
8
DEFAULT_255_1_234
10
4.5362949
20
5.8548932
40
0.7566852
50
269.8969846
51
275.018904
0
ARC
8
DEFAULT_255_1_234
10
4.539054
20
5.6469707
40
0.4226708
50
269.6593078
51
279.4153575
0
ARC
8
DEFAULT_255_1_234
10
4.5647815
20
5.4979133
40
0.2714146
50
279.2049762
51
294.9900808
0
ARC
8
DEFAULT_255_1_234
10
4.5938141
20
5.4331508
40
0.2004525
50
295.2888114
51
311.2911209
0
ARC
8
DEFAULT_255_1_234
10
4.6009035
20
5.422622
40
0.1878703
50
311.7854996
51
347.2861051
0
ARC
8
DEFAULT_255_1_234
10
4.5025194
20
5.4479092
40
0.2894234
50
346.6893224
51
0.1059443
0
ARC
8
DEFAULT_255_1_234
10
4.4270089
20
5.4507685
40
0.3649409
50
359.6350983
51
0.0053152
0
ARC
8
DEFAULT_255_1_234
10
4.5240417
20
5.4532937
40
0.2679199
50
359.4672059
51
15.5933957
0
ARC
8
DEFAULT_255_1_234
10
4.5865306
20
5.4701779
40
0.2031932
50
15.7442113
51
46.6203375
0
ARC
8
DEFAULT_255_1_234
10
4.5717527
20
5.4531484
40
0.2257226
50
46.8628658
51
75.6676503
0
ARC
8
DEFAULT_255_1_234
10
4.5423347
20
5.3472718
40
0.3355939
50
75.276167
51
88.2915297
0
ARC
8
DEFAULT_255_1_234
10
4.5365054
20
5.2594524
40
0.4235602
50
87.8575022
51
88.8000139
0
LINE
8
DEFAULT_255_1_234
10
5.8706125
20
4.7616792
11
5.8706125
21
4.6404
0
LINE
8
DEFAULT_255_1_234
10
5.8706125
20
4.6404
11
5.1043846
21
4.6404
0
LINE
8
DEFAULT_255_1_234
10
5.1043846
20
4.6404
11
5.1043846
21
4.7472221
0
LINE
8
DEFAULT_255_1_234
10
5.1043846
20
4.7472221
11
5.5091842
21
5.1969995
0
LINE
8
DEFAULT_255_1_234
10
5.2304829
20
5.4652595
11
5.0818958
21
5.4652595
0
LINE
8
DEFAULT_255_1_234
10
5.5967302
20
5.1014218
11
5.2834924
21
4.7616792
0
LINE
8
DEFAULT_255_1_234
10
5.2834924
20
4.7616792
11
5.8706125
21
4.7616792
0
ARC
8
DEFAULT_255_1_234
10
4.1601676
20
6.3899527
40
1.8008286
50
318.5132453
51
320.7828378
0
ARC
8
DEFAULT_255_1_234
10
4.688865
20
5.9596426
40
1.1191493
50
320.7372736
51
323.9737074
0
ARC
8
DEFAULT_255_1_234
10
5.0808506
20
5.6756361
40
0.6350923
50
323.8961724
51
328.6421089
0
ARC
8
DEFAULT_255_1_234
10
5.2855102
20
5.5494031
40
0.3946393
50
328.8299013
51
331.789948
0
ARC
8
DEFAULT_255_1_234
10
5.385228
20
5.4979509
40
0.2824501
50
331.4255242
51
352.9364833
0
ARC
8
DEFAULT_255_1_234
10
5.3988781
20
5.4948976
40
0.2685315
50
353.2248685
51
0.0169286
0
ARC
8
DEFAULT_255_1_234
10
5.4198658
20
5.497195
40
0.2475536
50
359.4866256
51
15.9339782
0
ARC
8
DEFAULT_255_1_234
10
5.4705643
20
5.5108286
40
0.1950618
50
16.1714718
51
43.5284424
0
ARC
8
DEFAULT_255_1_234
10
5.4782952
20
5.5185573
40
0.184134
50
43.4415429
51
83.1661404
0
ARC
8
DEFAULT_255_1_234
10
5.464887
20
5.4448771
40
0.258926
50
82.160215
51
90.1505798
0
ARC
8
DEFAULT_255_1_234
10
5.4617297
20
5.3911865
40
0.3126255
50
89.5460705
51
102.5418777
0
ARC
8
DEFAULT_255_1_234
10
5.4374383
20
5.4942665
40
0.2067346
50
102.1739365
51
129.2061916
0
ARC
8
DEFAULT_255_1_234
10
5.4295455
20
5.5067094
40
0.1921118
50
129.7279328
51
135.7542026
0
ARC
8
DEFAULT_255_1_234
10
5.4416983
20
5.4970045
40
0.2075944
50
136.175737
51
166.3674722
0
ARC
8
DEFAULT_255_1_234
10
5.5423902
20
5.4700182
40
0.3118201
50
165.9092917
51
178.8683903
0
ARC
8
DEFAULT_255_1_234
10
5.6288763
20
5.4653179
40
0.3983935
50
178.438168
51
180.0083905
0
ARC
8
DEFAULT_255_1_234
10
5.4887365
20
5.4692231
40
0.4068601
50
163.2878735
51
180.5581814
0
ARC
8
DEFAULT_255_1_234
10
5.4085627
20
5.491284
40
0.3237344
50
133.454115
51
162.9470031
0
ARC
8
DEFAULT_255_1_234
10
5.4264168
20
5.4723
40
0.349795
50
100.7869394
51
133.4384016
0
ARC
8
DEFAULT_255_1_234
10
5.4611939
20
5.3174319
40
0.5084616
50
89.6605301
51
101.3704185
0
ARC
8
DEFAULT_255_1_234
10
5.4678278
20
5.3235496
40
0.502348
50
78.2171172
51
90.4130393
0
ARC
8
DEFAULT_255_1_234
10
5.5033357
20
5.4859637
40
0.3361092
50
55.9268222
51
78.4888551
0
ARC
8
DEFAULT_255_1_234
10
5.5229797
20
5.5198324
40
0.2970617
50
47.9292255
51
55.4054003
0
ARC
8
DEFAULT_255_1_234
10
5.5331357
20
5.5301502
40
0.2825983
50
4.3347696
51
48.0560701
0
ARC
8
DEFAULT_255_1_234
10
5.4235751
20
5.5131601
40
0.393225
50
359.925209
51
5.5967654
0
ARC
8
DEFAULT_255_1_234
10
5.4664643
20
5.5187816
40
0.3503892
50
337.8914096
51
358.9967724
0
ARC
8
DEFAULT_255_1_234
10
5.1951055
20
5.6234706
40
0.6412172
50
326.9135351
51
338.3505194
0
ARC
8
DEFAULT_255_1_234
10
4.7965359
20
5.8789284
40
1.1146189
50
319.6472867
51
327.095818
0
ARC
8
DEFAULT_255_1_234
10
4.4132362
20
6.1951
40
1.6114559
50
317.2586784
51
319.9046139
0
LINE
8
DEFAULT_255_1_234
10
4.5261344
20
13.0357091
11
4.2506458
21
13.0357091
0
LINE
8
DEFAULT_255_1_234
10
4.2506458
20
13.0357091
11
4.2506458
21
12.5779
0
LINE
8
DEFAULT_255_1_234
10
4.2506458
20
12.5779
11
4.0964364
21
12.5779
0
LINE
8
DEFAULT_255_1_234
10
4.0964364
20
12.5779
11
4.0964364
21
13.7473211
0
LINE
8
DEFAULT_255_1_234
10
4.0964364
20
13.7473211
11
4.5277407
21
13.7473211
0
LINE
8
DEFAULT_255_1_234
10
4.2506458
20
13.6204196
11
4.2506458
21
13.1618074
0
LINE
8
DEFAULT_255_1_234
10
4.2506458
20
13.1618074
11
4.5277407
21
13.1618074
0
LINE
8
DEFAULT_255_1_234
10
4.5365756
20
13.6204196
11
4.2506458
21
13.6204196
0
ARC
8
DEFAULT_255_1_234
10
4.5319534
20
13.1414195
40
0.6059162
50
78.8378113
51
90.3983573
0
ARC
8
DEFAULT_255_1_234
10
4.5735548
20
13.3434879
40
0.3996205
50
58.9632738
51
79.0810598
0
ARC
8
DEFAULT_255_1_234
10
4.603709
20
13.3994721
40
0.3361177
50
48.0197965
51
58.447194
0
ARC
8
DEFAULT_255_1_234
10
4.6125951
20
13.4080225
40
0.3238191
50
3.3375044
51
48.1766626
0
ARC
8
DEFAULT_255_1_234
10
4.489579
20
13.3903171
40
0.4477806
50
359.9477528
51
4.6829065
0
ARC
8
DEFAULT_255_1_234
10
4.5019107
20
13.3860628
40
0.4354656
50
346.1877825
51
0.5060252
0
ARC
8
DEFAULT_255_1_234
10
4.6377975
20
13.3507731
40
0.295089
50
310.8831995
51
346.5426355
0
ARC
8
DEFAULT_255_1_234
10
4.6069395
20
13.3924695
40
0.3468331
50
286.6925341
51
310.2288297
0
ARC
8
DEFAULT_255_1_234
10
4.5500226
20
13.5714882
40
0.5346654
50
274.6850312
51
287.0245141
0
ARC
8
DEFAULT_255_1_234
10
4.5274949
20
13.7923932
40
0.7566852
50
269.8969846
51
275.018904
0
ARC
8
DEFAULT_255_1_234
10
4.530254
20
13.5844707
40
0.4226708
50
269.6593078
51
279.4153575
0
ARC
8
DEFAULT_255_1_234
10
4.5559815
20
13.4354133
40
0.2714146
50
279.2049762
51
294.9900808
0
ARC
8
DEFAULT_255_1_234
10
4.5850141
20
13.3706508
40
0.2004525
50
295.2888114
51
311.2911209
0
ARC
8
DEFAULT_255_1_234
10
4.5921035
20
13.360122
40
0.1878703
50
311.7854996
51
347.2861051
0
ARC
8
DEFAULT_255_1_234
10
4.4937194
20
13.3854092
40
0.2894234
50
346.6893224
51
0.1059443
0
ARC
8
DEFAULT_255_1_234
10
4.4182089
20
13.3882685
40
0.3649409
50
359.6350983
51
0.0053152
0
ARC
8
DEFAULT_255_1_234
10
4.5152417
20
13.3907937
40
0.2679199
50
359.4672059
51
15.5933957
0
ARC
8
DEFAULT_255_1_234
10
4.5777306
20
13.4076779
40
0.2031932
50
15.7442113
51
46.6203375
0
ARC
8
DEFAULT_255_1_234
10
4.5629527
20
13.3906484
40
0.2257226
50
46.8628658
51
75.6676503
0
ARC
8
DEFAULT_255_1_234
10
4.5335347
20
13.2847718
40
0.3355939
50
75.276167
51
88.2915297
0
ARC
8
DEFAULT_255_1_234
10
4.5277054
20
13.1969524
40
0.4235602
50
87.8575022
51
88.8000139
0
LINE
8
DEFAULT_255_1_234
10
5.5839143
20
13.7529433
11
5.5839143
21
12.5779
0
LINE
8
DEFAULT_255_1_234
10
5.5839143
20
12.5779
11
5.434524
21
12.5779
0
LINE
8
DEFAULT_255_1_234
10
5.434524
20
12.5779
11
5.434524
21
13.5682133
0
LINE
8
DEFAULT_255_1_234
10
5.434524
20
13.5682133
11
5.1349401
21
13.4581785
0
LINE
8
DEFAULT_255_1_234
10
5.1349401
20
13.4581785
11
5.1349401
21
13.5931117
0
LINE
8
DEFAULT_255_1_234
10
5.1349401
20
13.5931117
11
5.5606223
21
13.7529433
0
LINE
8
DEFAULT_255_1_234
10
5.5606223
20
13.7529433
11
5.5839143
21
13.7529433
0
LINE
8
DEFAULT_255_1_234
10
5.0571023
20
21.3466849
11
4.9020897
21
21.3466849
0
LINE
8
DEFAULT_255_1_234
10
4.2097539
20
20.8543394
11
4.3647665
21
20.8543394
0
ARC
8
DEFAULT_255_1_234
10
4.967971
20
22.2413768
40
1.252368
50
248.9199003
51
254.1439814
0
ARC
8
DEFAULT_255_1_234
10
4.7999205
20
21.8087234
40
0.788226
50
241.633709
51
249.0064503
0
ARC
8
DEFAULT_255_1_234
10
4.64706
20
21.5286317
40
0.4691427
50
230.498225
51
241.8087113
0
ARC
8
DEFAULT_255_1_234
10
4.5686174
20
21.4286906
40
0.3421437
50
227.4064532
51
229.9881192
0
ARC
8
DEFAULT_255_1_234
10
4.5198694
20
21.3811088
40
0.2741476
50
200.6781896
51
228.1763934
0
ARC
8
DEFAULT_255_1_234
10
4.5271005
20
21.3796077
40
0.2804109
50
179.5061581
51
199.8694617
0
ARC
8
DEFAULT_255_1_234
10
4.5261757
20
21.387021
40
0.2795204
50
132.4834203
51
181.0242172
0
ARC
8
DEFAULT_255_1_234
10
4.5857339
20
21.3307704
40
0.3612768
50
129.2532479
51
133.4242687
0
ARC
8
DEFAULT_255_1_234
10
4.6003789
20
21.3087965
40
0.3875675
50
101.98776
51
128.8742646
0
ARC
8
DEFAULT_255_1_234
10
4.6402399
20
21.1366741
40
0.5642249
50
89.5906553
51
102.3169264
0
ARC
8
DEFAULT_255_1_234
10
4.6472891
20
21.1685148
40
0.5323783
50
77.2360837
51
90.3248275
0
ARC
8
DEFAULT_255_1_234
10
4.6679971
20
21.26524
40
0.4334697
50
63.837784
51
77.0809408
0
ARC
8
DEFAULT_255_1_234
10
4.6957732
20
21.3169911
40
0.3747796
50
45.9864267
51
64.1607727
0
ARC
8
DEFAULT_255_1_234
10
4.7218614
20
21.3467866
40
0.3352302
50
32.2747395
51
45.6547121
0
ARC
8
DEFAULT_255_1_234
10
4.7285054
20
21.348688
40
0.328603
50
359.6507365
51
32.6130309
0
ARC
8
DEFAULT_255_1_234
10
4.634215
20
21.349166
40
0.2678863
50
359.469343
51
14.9832209
0
ARC
8
DEFAULT_255_1_234
10
4.7047212
20
21.3680539
40
0.1948938
50
14.9781179
51
48.2004265
0
ARC
8
DEFAULT_255_1_234
10
4.6882856
20
21.3473983
40
0.2212521
50
48.5927837
51
74.1241538
0
ARC
8
DEFAULT_255_1_234
10
4.6549346
20
21.2373248
40
0.3362561
50
73.7888341
51
86.6652678
0
ARC
8
DEFAULT_255_1_234
10
4.6446911
20
21.1165881
40
0.4573953
50
86.2640471
51
90.0526343
0
ARC
8
DEFAULT_255_1_234
10
4.6418624
20
21.1561192
40
0.4178709
50
89.6697524
51
99.2309573
0
ARC
8
DEFAULT_255_1_234
10
4.6176075
20
21.3005964
40
0.2713749
50
99.069534
51
113.7658566
0
ARC
8
DEFAULT_255_1_234
10
4.5902266
20
21.3651677
40
0.2012469
50
114.0401004
51
127.9850673
0
ARC
8
DEFAULT_255_1_234
10
4.566183
20
21.394773
40
0.1631167
50
127.7287463
51
176.7105154
0
ARC
8
DEFAULT_255_1_234
10
4.6340547
20
21.3846693
40
0.2315392
50
175.1779447
51
180.0581938
0
ARC
8
DEFAULT_255_1_234
10
4.5497394
20
21.3834428
40
0.1472271
50
179.6142195
51
228.1246017
0
ARC
8
DEFAULT_255_1_234
10
4.5939063
20
21.4243308
40
0.2072299
50
226.5779593
51
230.8800004
0
ARC
8
DEFAULT_255_1_234
10
4.6410141
20
21.4868636
40
0.2854818
50
231.4635071
51
241.9260842
0
ARC
8
DEFAULT_255_1_234
10
4.7607319
20
21.70718
40
0.53622
50
241.7178533
51
248.3259551
0
ARC
8
DEFAULT_255_1_234
10
4.8992691
20
22.0504064
40
0.9063478
50
248.2007737
51
252.4528373
0
ARC
8
DEFAULT_255_1_234
10
5.0196416
20
22.4225441
40
1.2974635
50
252.3391078
51
254.3469452
0
ARC
8
DEFAULT_255_1_234
10
4.2654119
20
19.7248148
40
1.5037162
50
71.0197183
51
74.4087047
0
ARC
8
DEFAULT_255_1_234
10
4.4348804
20
20.2140111
40
0.9859993
50
66.1847285
51
71.086374
0
ARC
8
DEFAULT_255_1_234
10
4.5905116
20
20.56442
40
0.6025855
50
59.3536294
51
66.2691831
0
ARC
8
DEFAULT_255_1_234
10
4.6793769
20
20.7147609
40
0.4279449
50
49.1020879
51
59.3293958
0
ARC
8
DEFAULT_255_1_234
10
4.7612509
20
20.8080834
40
0.3038015
50
32.7919921
51
49.2505539
0
ARC
8
DEFAULT_255_1_234
10
4.7933599
20
20.8309191
40
0.264448
50
31.1181161
51
32.4005348
0
ARC
8
DEFAULT_255_1_234
10
4.7845136
20
20.8273779
40
0.2738556
50
8.1116974
51
30.7958831
0
ARC
8
DEFAULT_255_1_234
10
4.7034804
20
20.8135753
40
0.3560327
50
359.8389159
51
8.4706516
0
ARC
8
DEFAULT_255_1_234
10
4.7660596
20
20.8087137
40
0.2934776
50
337.4731098
51
0.7537279
0
ARC
8
DEFAULT_255_1_234
10
4.7839291
20
20.8067387
40
0.2762607
50
307.5917067
51
336.4315538
0
ARC
8
DEFAULT_255_1_234
10
4.7379119
20
20.8580102
40
0.3449979
50
307.6551545
51
308.4529766
0
ARC
8
DEFAULT_255_1_234
10
4.7148838
20
20.893525
40
0.3871988
50
284.3734338
51
307.1424381
0
ARC
8
DEFAULT_255_1_234
10
4.6653668
20
21.0756932
40
0.5759636
50
272.4382747
51
284.646547
0
ARC
8
DEFAULT_255_1_234
10
4.6526876
20
21.2556893
40
0.7563528
50
269.9708387
51
272.8178037
0
ARC
8
DEFAULT_255_1_234
10
4.6483916
20
21.0518716
40
0.5525489
50
248.2707594
51
270.4055579
0
ARC
8
DEFAULT_255_1_234
10
4.6429657
20
21.0328192
40
0.5328452
50
246.1383403
51
248.0542782
0
ARC
8
DEFAULT_255_1_234
10
4.6011036
20
20.9448843
40
0.4355005
50
233.1670131
51
246.4950969
0
ARC
8
DEFAULT_255_1_234
10
4.5456941
20
20.8700812
40
0.3424126
50
215.3403242
51
233.0843104
0
ARC
8
DEFAULT_255_1_234
10
4.5184372
20
20.8502549
40
0.3087104
50
179.2419209
51
215.2648451
0
ARC
8
DEFAULT_255_1_234
10
4.5951966
20
20.8516666
40
0.2304457
50
179.335461
51
199.1045811
0
ARC
8
DEFAULT_255_1_234
10
4.5619643
20
20.8429766
40
0.1962176
50
199.8828939
51
232.7063202
0
ARC
8
DEFAULT_255_1_234
10
4.6091911
20
20.9023788
40
0.2720938
50
232.3738199
51
255.5136649
0
ARC
8
DEFAULT_255_1_234
10
4.6432778
20
21.0267835
40
0.4010747
50
255.2446292
51
267.5320849
0
ARC
8
DEFAULT_255_1_234
10
4.6520401
20
21.1500702
40
0.5246356
50
267.1557994
51
270.0286766
0
ARC
8
DEFAULT_255_1_234
10
4.6548173
20
21.105695
40
0.4802668
50
269.7000017
51
278.1660162
0
ARC
8
DEFAULT_255_1_234
10
4.6804178
20
20.9326515
40
0.3053425
50
278.0231263
51
290.625471
0
ARC
8
DEFAULT_255_1_234
10
4.7151865
20
20.8399025
40
0.206291
50
290.6619762
51
307.0370976
0
ARC
8
DEFAULT_255_1_234
10
4.7452254
20
20.8030504
40
0.1587906
50
306.3943566
51
355.3030547
0
ARC
8
DEFAULT_255_1_234
10
4.6940186
20
20.8107113
40
0.2104809
50
354.3660432
51
0.0698737
0
ARC
8
DEFAULT_255_1_234
10
4.7082531
20
20.8129617
40
0.1962563
50
359.417946
51
16.1971788
0
ARC
8
DEFAULT_255_1_234
10
4.7537841
20
20.8254418
40
0.149053
50
16.4723299
51
52.6262157
0
ARC
8
DEFAULT_255_1_234
10
4.6716895
20
20.7170433
40
0.2850296
50
52.7386432
51
62.4979148
0
ARC
8
DEFAULT_255_1_234
10
4.5331972
20
20.4564283
40
0.5801521
50
62.2515216
51
68.1220564
0
ARC
8
DEFAULT_255_1_234
10
4.3611883
20
20.0336872
40
1.0365451
50
68.0062803
51
71.8053402
0
ARC
8
DEFAULT_255_1_234
10
4.1816255
20
19.4951758
40
1.6042013
50
71.7183119
51
73.9258742
0
LINE
8
DEFAULT_255_1_234
10
6.0650854
20
21.6848211
11
6.0650854
21
21.5579196
0
LINE
8
DEFAULT_255_1_234
10
6.0650854
20
21.5579196
11
5.6892001
21
21.5579196
0
LINE
8
DEFAULT_255_1_234
10
5.6892001
20
21.5579196
11
5.6892001
21
20.5154
0
LINE
8
DEFAULT_255_1_234
10
5.6892001
20
20.5154
11
5.5357939
21
20.5154
0
LINE
8
DEFAULT_255_1_234
10
5.5357939
20
20.5154
11
5.5357939
21
21.5579196
0
LINE
8
DEFAULT_255_1_234
10
5.5357939
20
21.5579196
11
5.1607117
21
21.5579196
0
LINE
8
DEFAULT_255_1_234
10
5.1607117
20
21.5579196
11
5.1607117
21
21.6848211
0
LINE
8
DEFAULT_255_1_234
10
5.1607117
20
21.6848211
11
6.0650854
21
21.6848211
0
LINE
8
DEFAULT_255_1_234
10
7.1156368
20
21.1362534
11
7.1156368
21
21.0623614
0
LINE
8
DEFAULT_255_1_234
10
6.1751203
20
21.0519201
11
6.1751203
21
21.1362534
0
LINE
8
DEFAULT_255_1_234
10
6.9622306
20
21.0511169
11
6.9622306
21
21.1378597
0
LINE
8
DEFAULT_255_1_234
10
6.3285265
20
21.148301
11
6.3285265
21
21.0623614
0
ARC
8
DEFAULT_255_1_234
10
6.2514395
20
21.0584015
40
0.8642064
50
350.487711
51
0.2625388
0
ARC
8
DEFAULT_255_1_234
10
6.4807636
20
21.0189578
40
0.631518
50
336.0277639
51
350.5787438
0
ARC
8
DEFAULT_255_1_234
10
6.6152459
20
20.9581892
40
0.4839466
50
319.8877444
51
336.1328423
0
ARC
8
DEFAULT_255_1_234
10
6.67551
20
20.909958
40
0.4067874
50
302.4806467
51
319.6143626
0
ARC
8
DEFAULT_255_1_234
10
6.6640111
20
20.9321202
40
0.4316636
50
275.8195682
51
302.1884709
0
ARC
8
DEFAULT_255_1_234
10
6.6473744
20
21.0463665
40
0.5470306
50
269.9171439
51
276.3397983
0
ARC
8
DEFAULT_255_1_234
10
6.6428954
20
20.9777681
40
0.4784458
50
252.5219675
51
270.4416499
0
ARC
8
DEFAULT_255_1_234
10
6.6285213
20
20.9238592
40
0.422716
50
237.5352116
51
252.1857531
0
ARC
8
DEFAULT_255_1_234
10
6.6374408
20
20.9352363
40
0.4371052
50
209.063312
51
237.3492538
0
ARC
8
DEFAULT_255_1_234
10
6.7244256
20
20.9898685
40
0.5397041
50
205.1183774
51
209.6470015
0
ARC
8
DEFAULT_255_1_234
10
6.8041293
20
21.023683
40
0.6262326
50
188.7215458
51
204.8240747
0
ARC
8
DEFAULT_255_1_234
10
7.0038821
20
21.0573067
40
0.8287794
50
180.3723947
51
188.9252049
0
ARC
8
DEFAULT_255_1_234
10
7.0011573
20
21.1402402
40
0.8260467
50
169.5253763
51
180.2765336
0
ARC
8
DEFAULT_255_1_234
10
6.8109022
20
21.1752309
40
0.6326007
50
155.8315255
51
169.5089989
0
ARC
8
DEFAULT_255_1_234
10
6.6828523
20
21.2346348
40
0.4914567
50
139.6258461
51
156.0379525
0
ARC
8
DEFAULT_255_1_234
10
6.6238856
20
21.2820799
40
0.4158054
50
122.6416387
51
139.3430715
0
ARC
8
DEFAULT_255_1_234
10
6.6339476
20
21.2637451
40
0.4366739
50
93.0223692
51
122.455762
0
ARC
8
DEFAULT_255_1_234
10
6.6447473
20
21.1672709
40
0.5336137
50
89.975342
51
93.6341897
0
ARC
8
DEFAULT_255_1_234
10
6.6486253
20
21.2071242
40
0.4937738
50
73.746375
51
90.4233405
0
ARC
8
DEFAULT_255_1_234
10
6.6661831
20
21.2751287
40
0.4235786
50
57.662753
51
73.4518111
0
ARC
8
DEFAULT_255_1_234
10
6.6653837
20
21.2772832
40
0.4221899
50
29.1440151
51
57.414694
0
ARC
8
DEFAULT_255_1_234
10
6.5719032
20
21.2189005
40
0.5322966
50
24.0982783
51
29.7323517
0
ARC
8
DEFAULT_255_1_234
10
6.4685307
20
21.1760399
40
0.6441673
50
8.6655297
51
23.8241346
0
ARC
8
DEFAULT_255_1_234
10
6.2451045
20
21.1395854
40
0.8705386
50
359.7806941
51
8.8218784
0
ARC
8
DEFAULT_255_1_234
10
6.1304043
20
21.1421345
40
0.8318373
50
359.7055579
51
8.036044
0
ARC
8
DEFAULT_255_1_234
10
6.4304049
20
21.1858239
40
0.5286768
50
7.8928306
51
20.2962107
0
ARC
8
DEFAULT_255_1_234
10
6.593162
20
21.2458395
40
0.3552073
50
20.3231126
51
36.4992797
0
ARC
8
DEFAULT_255_1_234
10
6.6617166
20
21.2986402
40
0.2686974
50
36.1437156
51
85.6627023
0
ARC
8
DEFAULT_255_1_234
10
6.6454712
20
21.1946221
40
0.373739
50
84.3852322
51
90.0757696
0
ARC
8
DEFAULT_255_1_234
10
6.6412384
20
21.2606839
40
0.3076997
50
89.3038458
51
109.9045693
0
ARC
8
DEFAULT_255_1_234
10
6.6319775
20
21.2989062
40
0.2686424
50
110.8228367
51
143.9179474
0
ARC
8
DEFAULT_255_1_234
10
6.7253436
20
21.2276236
40
0.3860887
50
143.5289163
51
163.2980757
0
ARC
8
DEFAULT_255_1_234
10
6.9161256
20
21.1676433
40
0.5860659
50
163.0418846
51
174.3140048
0
ARC
8
DEFAULT_255_1_234
10
7.1565368
20
21.1398854
40
0.8280531
50
174.0509143
51
179.4176892
0
ARC
8
DEFAULT_255_1_234
10
7.1061107
20
21.0581954
40
0.7775954
50
179.6930361
51
188.7906598
0
ARC
8
DEFAULT_255_1_234
10
6.8397586
20
21.0155935
40
0.5078633
50
188.6331305
51
202.5629587
0
ARC
8
DEFAULT_255_1_234
10
6.7143178
20
20.9651996
40
0.3726913
50
202.8081362
51
216.1193925
0
ARC
8
DEFAULT_255_1_234
10
6.6333748
20
20.9000676
40
0.2689577
50
215.0755913
51
264.6379694
0
ARC
8
DEFAULT_255_1_234
10
6.6460698
20
20.9831513
40
0.3528978
50
263.846392
51
270.0833719
0
ARC
8
DEFAULT_255_1_234
10
6.6502088
20
20.9573374
40
0.3271036
50
269.3649385
51
287.5152008
0
ARC
8
DEFAULT_255_1_234
10
6.6680246
20
20.8926238
40
0.2600406
50
288.0630309
51
323.8113348
0
ARC
8
DEFAULT_255_1_234
10
6.5809088
20
20.9576049
40
0.3687189
50
323.6547608
51
342.6590488
0
ARC
8
DEFAULT_255_1_234
10
6.3777703
20
21.0236952
40
0.5823286
50
342.4091907
51
353.6451149
0
ARC
8
DEFAULT_255_1_234
10
6.0946214
20
21.058919
40
0.8676442
50
353.4029884
51
359.4847795
0
LINE
8
DEFAULT_255_1_234
10
7.7766489
20
20.9732091
11
7.5011603
21
20.9732091
0
LINE
8
DEFAULT_255_1_234
10
7.5011603
20
20.9732091
11
7.5011603
21
20.5154
0
LINE
8
DEFAULT_255_1_234
10
7.5011603
20
20.5154
11
7.3469509
21
20.5154
0
LINE
8
DEFAULT_255_1_234
10
7.3469509
20
20.5154
11
7.3469509
21
21.6848211
0
LINE
8
DEFAULT_255_1_234
10
7.3469509
20
21.6848211
11
7.7782552
21
21.6848211
0
LINE
8
DEFAULT_255_1_234
10
7.5011603
20
21.5579196
11
7.5011603
21
21.0993074
0
LINE
8
DEFAULT_255_1_234
10
7.5011603
20
21.0993074
11
7.7782552
21
21.0993074
0
LINE
8
DEFAULT_255_1_234
10
7.7870901
20
21.5579196
11
7.5011603
21
21.5579196
0
ARC
8
DEFAULT_255_1_234
10
7.7824679
20
21.0789195
40
0.6059162
50
78.8378113
51
90.3983573
0
ARC
8
DEFAULT_255_1_234
10
7.8240693
20
21.2809879
40
0.3996205
50
58.9632738
51
79.0810598
0
ARC
8
DEFAULT_255_1_234
10
7.8542235
20
21.3369721
40
0.3361177
50
48.0197965
51
58.447194
0
ARC
8
DEFAULT_255_1_234
10
7.8631096
20
21.3455225
40
0.3238191
50
3.3375044
51
48.1766626
0
ARC
8
DEFAULT_255_1_234
10
7.7400935
20
21.3278171
40
0.4477806
50
359.9477528
51
4.6829065
0
ARC
8
DEFAULT_255_1_234
10
7.7524252
20
21.3235628
40
0.4354656
50
346.1877825
51
0.5060252
0
ARC
8
DEFAULT_255_1_234
10
7.888312
20
21.2882731
40
0.295089
50
310.8831995
51
346.5426355
0
ARC
8
DEFAULT_255_1_234
10
7.857454
20
21.3299695
40
0.3468331
50
286.6925341
51
310.2288297
0
ARC
8
DEFAULT_255_1_234
10
7.8005371
20
21.5089882
40
0.5346654
50
274.6850312
51
287.0245141
0
ARC
8
DEFAULT_255_1_234
10
7.7780094
20
21.7298932
40
0.7566852
50
269.8969846
51
275.018904
0
ARC
8
DEFAULT_255_1_234
10
7.7807685
20
21.5219707
40
0.4226708
50
269.6593078
51
279.4153575
0
ARC
8
DEFAULT_255_1_234
10
7.806496
20
21.3729133
40
0.2714146
50
279.2049762
51
294.9900808
0
ARC
8
DEFAULT_255_1_234
10
7.8355286
20
21.3081508
40
0.2004525
50
295.2888114
51
311.2911209
0
ARC
8
DEFAULT_255_1_234
10
7.842618
20
21.297622
40
0.1878703
50
311.7854996
51
347.2861051
0
ARC
8
DEFAULT_255_1_234
10
7.7442339
20
21.3229092
40
0.2894234
50
346.6893224
51
0.1059443
0
ARC
8
DEFAULT_255_1_234
10
7.6687234
20
21.3257685
40
0.3649409
50
359.6350983
51
0.0053152
0
ARC
8
DEFAULT_255_1_234
10
7.7657562
20
21.3282937
40
0.2679199
50
359.4672059
51
15.5933957
0
ARC
8
DEFAULT_255_1_234
10
7.8282451
20
21.3451779
40
0.2031932
50
15.7442113
51
46.6203375
0
ARC
8
DEFAULT_255_1_234
10
7.8134672
20
21.3281484
40
0.2257226
50
46.8628658
51
75.6676503
0
ARC
8
DEFAULT_255_1_234
10
7.7840492
20
21.2222718
40
0.3355939
50
75.276167
51
88.2915297
0
ARC
8
DEFAULT_255_1_234
10
7.7782199
20
21.1344524
40
0.4235602
50
87.8575022
51
88.8000139
0
LINE
8
DEFAULT_255_1_234
10
4.8602341
20
28.4529
11
4.6064312
21
28.9259694
0
LINE
8
DEFAULT_255_1_234
10
4.6064312
20
28.9259694
11
4.3317458
21
28.9259694
0
LINE
8
DEFAULT_255_1_234
10
4.3317458
20
28.9259694
11
4.3317458
21
28.4529
0
LINE
8
DEFAULT_255_1_234
10
4.3317458
20
28.4529
11
4.1767332
21
28.4529
0
LINE
8
DEFAULT_255_1_234
10
4.1767332
20
28.4529
11
4.1767332
21
29.6223211
0
LINE
8
DEFAULT_255_1_234
10
4.1767332
20
29.6223211
11
4.563863
21
29.6223211
0
LINE
8
DEFAULT_255_1_234
10
4.7510025
20
28.9588995
11
5.0256879
21
28.4625381
0
LINE
8
DEFAULT_255_1_234
10
5.0256879
20
28.4625381
11
5.0256879
21
28.4529
0
LINE
8
DEFAULT_255_1_234
10
5.0256879
20
28.4529
11
4.8602341
21
28.4529
0
LINE
8
DEFAULT_255_1_234
10
4.3317458
20
29.4954196
11
4.3317458
21
29.0520677
0
LINE
8
DEFAULT_255_1_234
10
4.3317458
20
29.0520677
11
4.568682
21
29.0520677
0
LINE
8
DEFAULT_255_1_234
10
4.5678789
20
29.4954196
11
4.3317458
21
29.4954196
0
ARC
8
DEFAULT_255_1_234
10
4.5680269
20
28.9261761
40
0.6961575
50
80.653586
51
90.3427061
0
ARC
8
DEFAULT_255_1_234
10
4.6099744
20
29.1724348
40
0.4463577
50
65.6987447
51
80.8329603
0
ARC
8
DEFAULT_255_1_234
10
4.6577385
20
29.2819322
40
0.3269094
50
50.0017161
51
65.4305835
0
ARC
8
DEFAULT_255_1_234
10
4.6795849
20
29.3114482
40
0.2902647
50
11.628416
51
49.5603263
0
ARC
8
DEFAULT_255_1_234
10
4.5260185
20
29.2739299
40
0.4482792
50
359.5655735
51
12.3691
0
ARC
8
DEFAULT_255_1_234
10
4.6337045
20
29.2676644
40
0.3405924
50
341.9983148
51
0.4822259
0
ARC
8
DEFAULT_255_1_234
10
4.6731885
20
29.2569471
40
0.2997359
50
323.8609373
51
341.61416
0
ARC
8
DEFAULT_255_1_234
10
4.6430129
20
29.2802484
40
0.3378487
50
296.7018614
51
323.6876402
0
ARC
8
DEFAULT_255_1_234
10
4.5989024
20
29.3591235
40
0.4281516
50
290.8086567
51
297.2323311
0
ARC
8
DEFAULT_255_1_234
10
4.5712554
20
29.4114351
40
0.3593766
50
269.589728
51
281.8058135
0
ARC
8
DEFAULT_255_1_234
10
4.5963453
20
29.2966743
40
0.2419125
50
281.5501019
51
303.9357432
0
ARC
8
DEFAULT_255_1_234
10
4.6100641
20
29.2728936
40
0.2145323
50
304.4415616
51
311.2106213
0
ARC
8
DEFAULT_255_1_234
10
4.6232746
20
29.2589632
40
0.1953505
50
310.9875673
51
356.2715578
0
ARC
8
DEFAULT_255_1_234
10
4.5476395
20
29.2702422
40
0.2716331
50
354.9348262
51
0.0609027
0
ARC
8
DEFAULT_255_1_234
10
4.5289269
20
29.2729435
40
0.2903554
50
359.5239371
51
12.8808918
0
ARC
8
DEFAULT_255_1_234
10
4.6266824
20
29.2968728
40
0.1897315
50
12.4173452
51
43.1022135
0
ARC
8
DEFAULT_255_1_234
10
4.6328429
20
29.3005724
40
0.1827118
50
43.5751728
51
48.203944
0
ARC
8
DEFAULT_255_1_234
10
4.6158921
20
29.2784302
40
0.2105272
50
48.7809703
51
72.6969569
0
ARC
8
DEFAULT_255_1_234
10
4.5804546
20
29.170882
40
0.3237537
50
72.3702241
51
84.8791103
0
ARC
8
DEFAULT_255_1_234
10
4.5657022
20
29.0366769
40
0.4587478
50
84.5400526
51
89.7281406
0
LINE
8
DEFAULT_255_1_234
10
5.8585792
20
29.6223211
11
6.0135917
21
29.6223211
0
LINE
8
DEFAULT_255_1_234
10
6.0135917
20
29.6223211
11
6.0135917
21
28.827179
0
LINE
8
DEFAULT_255_1_234
10
5.6296747
20
28.4384429
11
5.5887128
21
28.4368365
0
LINE
8
DEFAULT_255_1_234
10
5.1670465
20
28.8255727
11
5.1670465
21
29.6223211
0
LINE
8
DEFAULT_255_1_234
10
5.1670465
20
29.6223211
11
5.3196496
21
29.6223211
0
LINE
8
DEFAULT_255_1_234
10
5.3196496
20
29.6223211
11
5.3196496
21
28.8303917
0
LINE
8
DEFAULT_255_1_234
10
5.8585792
20
28.8295885
11
5.8585792
21
29.6223211
0
ARC
8
DEFAULT_255_1_234
10
5.5782816
20
28.8251928
40
0.4353147
50
343.0898354
51
0.2614217
0
ARC
8
DEFAULT_255_1_234
10
5.6611217
20
28.8020837
40
0.3493402
50
315.3345598
51
342.7641223
0
ARC
8
DEFAULT_255_1_234
10
5.6387666
20
28.8252682
40
0.3815385
50
284.6606969
51
315.2182466
0
ARC
8
DEFAULT_255_1_234
10
5.5932379
20
28.9798755
40
0.5426573
50
273.8500273
51
285.1797701
0
ARC
8
DEFAULT_255_1_234
10
5.584443
20
29.0140475
40
0.5772268
50
257.6317484
51
270.4238298
0
ARC
8
DEFAULT_255_1_234
10
5.5419628
20
28.8319198
40
0.3902347
50
230.6087562
51
257.9964012
0
ARC
8
DEFAULT_255_1_234
10
5.528763
20
28.8112802
40
0.3659186
50
227.7440991
51
230.1551448
0
ARC
8
DEFAULT_255_1_234
10
5.5153461
20
28.7951471
40
0.3449568
50
189.2524587
51
227.5916061
0
ARC
8
DEFAULT_255_1_234
10
5.6675148
20
28.8279013
40
0.5004737
50
180.2665968
51
190.1525252
0
ARC
8
DEFAULT_255_1_234
10
5.6897168
20
28.8275918
40
0.3700778
50
179.5665184
51
191.9952995
0
ARC
8
DEFAULT_255_1_234
10
5.5669274
20
28.8002043
40
0.2442808
50
191.6974072
51
215.1404042
0
ARC
8
DEFAULT_255_1_234
10
5.5431189
20
28.7860108
40
0.2166522
50
215.6950207
51
224.8513522
0
ARC
8
DEFAULT_255_1_234
10
5.5486932
20
28.7939697
40
0.2262237
50
225.2846858
51
255.0111758
0
ARC
8
DEFAULT_255_1_234
10
5.5810892
20
28.9053455
40
0.3421979
50
254.5944985
51
267.9129803
0
ARC
8
DEFAULT_255_1_234
10
5.5885373
20
29.0137903
40
0.4508556
50
267.4689655
51
270.0223026
0
ARC
8
DEFAULT_255_1_234
10
5.5915518
20
28.9548849
40
0.3919604
50
269.5849941
51
281.1843768
0
ARC
8
DEFAULT_255_1_234
10
5.6194283
20
28.8196059
40
0.2538457
50
280.9344262
51
300.9743589
0
ARC
8
DEFAULT_255_1_234
10
5.6406888
20
28.7804688
40
0.2093566
50
301.4980046
51
315.1466847
0
ARC
8
DEFAULT_255_1_234
10
5.6262427
20
28.7923236
40
0.2279656
50
315.5952539
51
345.6678731
0
ARC
8
DEFAULT_255_1_234
10
5.5142943
20
28.8235009
40
0.3441564
50
345.2524969
51
358.6304371
0
ARC
8
DEFAULT_255_1_234
10
5.4125297
20
28.8294916
40
0.4460494
50
358.1735671
51
0.0124524
0
LINE
8
DEFAULT_255_1_234
10
7.1557049
20
29.6223211
11
7.1557049
21
28.4529
0
LINE
8
DEFAULT_255_1_234
10
7.1557049
20
28.4529
11
7.0006924
21
28.4529
0
LINE
8
DEFAULT_255_1_234
10
7.0006924
20
28.4529
11
6.411966
21
29.354061
0
LINE
8
DEFAULT_255_1_234
10
6.411966
20
29.354061
11
6.411966
21
28.4529
0
LINE
8
DEFAULT_255_1_234
10
6.411966
20
28.4529
11
6.2569534
21
28.4529
0
LINE
8
DEFAULT_255_1_234
10
6.2569534
20
28.4529
11
6.2569534
21
29.6223211
0
LINE
8
DEFAULT_255_1_234
10
6.2569534
20
29.6223211
11
6.411966
21
29.6223211
0
LINE
8
DEFAULT_255_1_234
10
6.411966
20
29.6223211
11
7.0022987
21
28.7171442
0
LINE
8
DEFAULT_255_1_234
10
7.0022987
20
28.7171442
11
7.0022987
21
29.6223211
0
LINE
8
DEFAULT_255_1_234
10
7.0022987
20
29.6223211
11
7.1557049
21
29.6223211
0
LINE
8
DEFAULT_255_1_234
10
4.972685
20
37.0329391
11
4.972685
21
36.9068408
0
LINE
8
DEFAULT_255_1_234
10
4.972685
20
36.9068408
11
4.4819458
21
36.9068408
0
LINE
8
DEFAULT_255_1_234
10
4.4819458
20
36.9068408
11
4.4819458
21
36.3904
0
LINE
8
DEFAULT_255_1_234
10
4.4819458
20
36.3904
11
4.3277364
21
36.3904
0
LINE
8
DEFAULT_255_1_234
10
4.3277364
20
36.3904
11
4.3277364
21
37.5598211
0
LINE
8
DEFAULT_255_1_234
10
4.3277364
20
37.5598211
11
5.0521992
21
37.5598211
0
LINE
8
DEFAULT_255_1_234
10
5.0521992
20
37.5598211
11
5.0521992
21
37.4329196
0
LINE
8
DEFAULT_255_1_234
10
5.0521992
20
37.4329196
11
4.4819458
21
37.4329196
0
LINE
8
DEFAULT_255_1_234
10
4.4819458
20
37.4329196
11
4.4819458
21
37.0329391
0
LINE
8
DEFAULT_255_1_234
10
4.4819458
20
37.0329391
11
4.972685
21
37.0329391
0
LINE
8
DEFAULT_255_1_234
10
5.9196269
20
36.3904
11
5.665824
21
36.8634694
0
LINE
8
DEFAULT_255_1_234
10
5.665824
20
36.8634694
11
5.3911385
21
36.8634694
0
LINE
8
DEFAULT_255_1_234
10
5.3911385
20
36.8634694
11
5.3911385
21
36.3904
0
LINE
8
DEFAULT_255_1_234
10
5.3911385
20
36.3904
11
5.236126
21
36.3904
0
LINE
8
DEFAULT_255_1_234
10
5.236126
20
36.3904
11
5.236126
21
37.5598211
0
LINE
8
DEFAULT_255_1_234
10
5.236126
20
37.5598211
11
5.6232558
21
37.5598211
0
LINE
8
DEFAULT_255_1_234
10
5.8103953
20
36.8963995
11
6.0850807
21
36.4000381
0
LINE
8
DEFAULT_255_1_234
10
6.0850807
20
36.4000381
11
6.0850807
21
36.3904
0
LINE
8
DEFAULT_255_1_234
10
6.0850807
20
36.3904
11
5.9196269
21
36.3904
0
LINE
8
DEFAULT_255_1_234
10
5.3911385
20
37.4329196
11
5.3911385
21
36.9895677
0
LINE
8
DEFAULT_255_1_234
10
5.3911385
20
36.9895677
11
5.6280748
21
36.9895677
0
LINE
8
DEFAULT_255_1_234
10
5.6272716
20
37.4329196
11
5.3911385
21
37.4329196
0
ARC
8
DEFAULT_255_1_234
10
5.6274197
20
36.8636761
40
0.6961575
50
80.653586
51
90.3427061
0
ARC
8
DEFAULT_255_1_234
10
5.6693672
20
37.1099348
40
0.4463577
50
65.6987447
51
80.8329603
0
ARC
8
DEFAULT_255_1_234
10
5.7171312
20
37.2194322
40
0.3269094
50
50.0017161
51
65.4305835
0
ARC
8
DEFAULT_255_1_234
10
5.7389777
20
37.2489482
40
0.2902647
50
11.628416
51
49.5603263
0
ARC
8
DEFAULT_255_1_234
10
5.5854113
20
37.2114299
40
0.4482792
50
359.5655735
51
12.3691
0
ARC
8
DEFAULT_255_1_234
10
5.6930972
20
37.2051644
40
0.3405924
50
341.9983148
51
0.4822259
0
ARC
8
DEFAULT_255_1_234
10
5.7325813
20
37.1944471
40
0.2997359
50
323.8609373
51
341.61416
0
ARC
8
DEFAULT_255_1_234
10
5.7024057
20
37.2177484
40
0.3378487
50
296.7018614
51
323.6876402
0
ARC
8
DEFAULT_255_1_234
10
5.6582952
20
37.2966235
40
0.4281516
50
290.8086567
51
297.2323311
0
ARC
8
DEFAULT_255_1_234
10
5.6306481
20
37.3489351
40
0.3593766
50
269.589728
51
281.8058135
0
ARC
8
DEFAULT_255_1_234
10
5.6557381
20
37.2341743
40
0.2419125
50
281.5501019
51
303.9357432
0
ARC
8
DEFAULT_255_1_234
10
5.6694568
20
37.2103936
40
0.2145323
50
304.4415616
51
311.2106213
0
ARC
8
DEFAULT_255_1_234
10
5.6826674
20
37.1964632
40
0.1953505
50
310.9875673
51
356.2715578
0
ARC
8
DEFAULT_255_1_234
10
5.6070322
20
37.2077422
40
0.2716331
50
354.9348262
51
0.0609027
0
ARC
8
DEFAULT_255_1_234
10
5.5883197
20
37.2104435
40
0.2903554
50
359.5239371
51
12.8808918
0
ARC
8
DEFAULT_255_1_234
10
5.6860752
20
37.2343728
40
0.1897315
50
12.4173452
51
43.1022135
0
ARC
8
DEFAULT_255_1_234
10
5.6922357
20
37.2380724
40
0.1827118
50
43.5751728
51
48.203944
0
ARC
8
DEFAULT_255_1_234
10
5.6752849
20
37.2159302
40
0.2105272
50
48.7809703
51
72.6969569
0
ARC
8
DEFAULT_255_1_234
10
5.6398473
20
37.108382
40
0.3237537
50
72.3702241
51
84.8791103
0
ARC
8
DEFAULT_255_1_234
10
5.625095
20
36.9741769
40
0.4587478
50
84.5400526
51
89.7281406
0
LINE
8
DEFAULT_255_1_234
10
6.954918
20
36.7614663
11
7.1099305
21
36.7614663
0
LINE
8
DEFAULT_255_1_234
10
6.2095727
20
36.9204947
11
6.2095727
21
37.0329391
0
LINE
8
DEFAULT_255_1_234
10
7.1099305
20
37.1839357
11
6.954918
21
37.1839357
0
LINE
8
DEFAULT_255_1_234
10
6.3645852
20
37.0289232
11
6.3645852
21
36.9156757
0
ARC
8
DEFAULT_255_1_234
10
6.5618692
20
36.8211846
40
0.5513052
50
340.1774281
51
353.7814284
0
ARC
8
DEFAULT_255_1_234
10
6.7190044
20
36.7626582
40
0.3836379
50
311.4558989
51
340.4421614
0
ARC
8
DEFAULT_255_1_234
10
6.7156713
20
36.7737528
40
0.3941894
50
282.4333181
51
310.7513653
0
ARC
8
DEFAULT_255_1_234
10
6.6717452
20
36.9552679
40
0.5809175
50
269.9358511
51
282.809604
0
ARC
8
DEFAULT_255_1_234
10
6.6665518
20
37.1010212
40
0.7266847
50
270.0021091
51
270.3581957
0
ARC
8
DEFAULT_255_1_234
10
6.6612935
20
36.8409585
40
0.4666519
50
250.7884749
51
270.6489167
0
ARC
8
DEFAULT_255_1_234
10
6.6444769
20
36.7772319
40
0.4009729
50
219.3627325
51
250.0611886
0
ARC
8
DEFAULT_255_1_234
10
6.7273981
20
36.8477042
40
0.5097822
50
193.5479632
51
219.5756669
0
ARC
8
DEFAULT_255_1_234
10
6.9645601
20
36.9092919
40
0.7547848
50
181.1218675
51
193.87563
0
ARC
8
DEFAULT_255_1_234
10
7.1715782
20
36.920358
40
0.9620055
50
179.9918545
51
181.5394234
0
ARC
8
DEFAULT_255_1_234
10
6.9864885
20
37.0366788
40
0.7769248
50
169.5837241
51
180.2757934
0
ARC
8
DEFAULT_255_1_234
10
6.8027823
20
37.0706229
40
0.590109
50
155.0365899
51
169.6003176
0
ARC
8
DEFAULT_255_1_234
10
6.6892287
20
37.1253677
40
0.4640625
50
136.783148
51
155.2472683
0
ARC
8
DEFAULT_255_1_234
10
6.6502764
20
37.1584562
40
0.4130255
50
121.7633186
51
136.428115
0
ARC
8
DEFAULT_255_1_234
10
6.6637726
20
37.1335227
40
0.4413323
50
95.6459699
51
121.5490577
0
ARC
8
DEFAULT_255_1_234
10
6.6795007
20
37.0226949
40
0.55319
50
89.924208
51
96.1377933
0
ARC
8
DEFAULT_255_1_234
10
6.684544
20
37.0345542
40
0.5413475
50
76.6779277
51
90.4563316
0
ARC
8
DEFAULT_255_1_234
10
6.7239064
20
37.1936114
40
0.3775041
50
47.485847
51
76.9287264
0
ARC
8
DEFAULT_255_1_234
10
6.7092037
20
37.1836159
40
0.3948286
50
16.5424086
51
46.8933463
0
ARC
8
DEFAULT_255_1_234
10
6.5484193
20
37.1307861
40
0.564021
50
5.4072051
51
17.0365086
0
ARC
8
DEFAULT_255_1_234
10
6.4045211
20
37.1076679
40
0.5556559
50
7.8891745
51
15.9239216
0
ARC
8
DEFAULT_255_1_234
10
6.6032224
20
37.1653631
40
0.3487515
50
15.7653144
51
27.9410532
0
ARC
8
DEFAULT_255_1_234
10
6.7136442
20
37.224479
40
0.2235026
50
27.8166557
51
46.4008329
0
ARC
8
DEFAULT_255_1_234
10
6.7186085
20
37.2239082
40
0.2205286
50
47.4371857
51
75.0698205
0
ARC
8
DEFAULT_255_1_234
10
6.6877479
20
37.1164765
40
0.3322915
50
74.7008593
51
87.8124495
0
ARC
8
DEFAULT_255_1_234
10
6.6804167
20
37.0108844
40
0.4380987
50
87.3814673
51
90.0240855
0
ARC
8
DEFAULT_255_1_234
10
6.676571
20
37.1286291
40
0.3203749
50
89.3451631
51
108.5745436
0
ARC
8
DEFAULT_255_1_234
10
6.6628815
20
37.1799908
40
0.2673494
50
109.2998449
51
143.3037509
0
ARC
8
DEFAULT_255_1_234
10
6.7390888
20
37.1213881
40
0.3634757
50
143.0753173
51
163.1916937
0
ARC
8
DEFAULT_255_1_234
10
6.9342615
20
37.0597967
40
0.5681262
50
162.9373603
51
174.6208611
0
ARC
8
DEFAULT_255_1_234
10
7.1968658
20
37.031001
40
0.8322832
50
174.3419979
51
180.1430411
0
ARC
8
DEFAULT_255_1_234
10
7.1037814
20
36.9115698
40
0.7392076
50
179.6817502
51
189.150529
0
ARC
8
DEFAULT_255_1_234
10
6.8537062
20
36.869919
40
0.4856932
50
188.9910863
51
203.5773039
0
ARC
8
DEFAULT_255_1_234
10
6.7457395
20
36.8251211
40
0.3688271
50
203.9077269
51
215.1312379
0
ARC
8
DEFAULT_255_1_234
10
6.6534488
20
36.7535941
40
0.2522457
50
213.9071664
51
263.8849284
0
ARC
8
DEFAULT_255_1_234
10
6.6659818
20
36.8320518
40
0.3316174
50
263.1758525
51
270.1031083
0
ARC
8
DEFAULT_255_1_234
10
6.6691909
20
36.9567365
40
0.4563091
50
269.6719807
51
279.0609165
0
ARC
8
DEFAULT_255_1_234
10
6.6958677
20
36.7954907
40
0.2928759
50
278.8750225
51
293.6346586
0
ARC
8
DEFAULT_255_1_234
10
6.7278886
20
36.72029
40
0.2111472
50
293.8553404
51
310.0518804
0
ARC
8
DEFAULT_255_1_234
10
6.7283739
20
36.7140516
40
0.2060917
50
311.0646779
51
332.0108348
0
ARC
8
DEFAULT_255_1_234
10
6.6091466
20
36.7797978
40
0.3422352
50
331.6588543
51
343.2878891
0
ARC
8
DEFAULT_255_1_234
10
6.4028981
20
36.8431798
40
0.5580003
50
343.1446044
51
351.010618
0
ARC
8
DEFAULT_255_1_234
10
6.2487628
20
36.8712871
40
0.7146438
50
350.7157277
51
351.1602153
0
LINE
8
DEFAULT_255_1_234
10
7.9813741
20
37.0570343
11
7.9813741
21
36.930936
0
LINE
8
DEFAULT_255_1_234
10
7.9813741
20
36.930936
11
7.4745714
21
36.930936
0
LINE
8
DEFAULT_255_1_234
10
7.4745714
20
36.930936
11
7.4745714
21
36.5164983
0
LINE
8
DEFAULT_255_1_234
10
7.4745714
20
36.5164983
11
8.0632979
21
36.5164983
0
LINE
8
DEFAULT_255_1_234
10
8.0632979
20
36.5164983
11
8.0632979
21
36.3904
0
LINE
8
DEFAULT_255_1_234
10
8.0632979
20
36.3904
11
7.3203621
21
36.3904
0
LINE
8
DEFAULT_255_1_234
10
7.3203621
20
36.3904
11
7.3203621
21
37.5598211
0
LINE
8
DEFAULT_255_1_234
10
7.3203621
20
37.5598211
11
8.0552661
21
37.5598211
0
LINE
8
DEFAULT_255_1_234
10
8.0552661
20
37.5598211
11
8.0552661
21
37.4329196
0
LINE
8
DEFAULT_255_1_234
10
8.0552661
20
37.4329196
11
7.4745714
21
37.4329196
0
LINE
8
DEFAULT_255_1_234
10
7.4745714
20
37.4329196
11
7.4745714
21
37.0570343
0
LINE
8
DEFAULT_255_1_234
10
7.4745714
20
37.0570343
11
7.9813741
21
37.0570343
0
LINE
8
DEFAULT_255_1_234
10
5.0175911
20
44.9487534
11
5.0175911
21
44.8748614
0
LINE
8
DEFAULT_255_1_234
10
4.0770745
20
44.8644201
11
4.0770745
21
44.9487534
0
LINE
8
DEFAULT_255_1_234
10
4.8641849
20
44.8636169
11
4.8641849
21
44.9503597
0
LINE
8
DEFAULT_255_1_234
10
4.2304807
20
44.960801
11
4.2304807
21
44.8748614
0
ARC
8
DEFAULT_255_1_234
10
4.1533937
20
44.8709015
40
0.8642064
50
350.487711
51
0.2625388
0
ARC
8
DEFAULT_255_1_234
10
4.3827178
20
44.8314578
40
0.631518
50
336.0277639
51
350.5787438
0
ARC
8
DEFAULT_255_1_234
10
4.5172002
20
44.7706892
40
0.4839466
50
319.8877444
51
336.1328423
0
ARC
8
DEFAULT_255_1_234
10
4.5774643
20
44.722458
40
0.4067874
50
302.4806467
51
319.6143626
0
ARC
8
DEFAULT_255_1_234
10
4.5659653
20
44.7446202
40
0.4316636
50
275.8195682
51
302.1884709
0
ARC
8
DEFAULT_255_1_234
10
4.5493286
20
44.8588665
40
0.5470306
50
269.9171439
51
276.3397983
0
ARC
8
DEFAULT_255_1_234
10
4.5448496
20
44.7902681
40
0.4784458
50
252.5219675
51
270.4416499
0
ARC
8
DEFAULT_255_1_234
10
4.5304755
20
44.7363592
40
0.422716
50
237.5352116
51
252.1857531
0
ARC
8
DEFAULT_255_1_234
10
4.5393951
20
44.7477363
40
0.4371052
50
209.063312
51
237.3492538
0
ARC
8
DEFAULT_255_1_234
10
4.6263799
20
44.8023685
40
0.5397041
50
205.1183774
51
209.6470015
0
ARC
8
DEFAULT_255_1_234
10
4.7060836
20
44.836183
40
0.6262326
50
188.7215458
51
204.8240747
0
ARC
8
DEFAULT_255_1_234
10
4.9058364
20
44.8698067
40
0.8287794
50
180.3723947
51
188.9252049
0
ARC
8
DEFAULT_255_1_234
10
4.9031116
20
44.9527402
40
0.8260467
50
169.5253763
51
180.2765336
0
ARC
8
DEFAULT_255_1_234
10
4.7128564
20
44.9877309
40
0.6326007
50
155.8315255
51
169.5089989
0
ARC
8
DEFAULT_255_1_234
10
4.5848066
20
45.0471348
40
0.4914567
50
139.6258461
51
156.0379525
0
ARC
8
DEFAULT_255_1_234
10
4.5258399
20
45.0945799
40
0.4158054
50
122.6416387
51
139.3430715
0
ARC
8
DEFAULT_255_1_234
10
4.5359019
20
45.0762451
40
0.4366739
50
93.0223692
51
122.455762
0
ARC
8
DEFAULT_255_1_234
10
4.5467016
20
44.9797709
40
0.5336137
50
89.975342
51
93.6341897
0
ARC
8
DEFAULT_255_1_234
10
4.5505795
20
45.0196242
40
0.4937738
50
73.746375
51
90.4233405
0
ARC
8
DEFAULT_255_1_234
10
4.5681373
20
45.0876287
40
0.4235786
50
57.662753
51
73.4518111
0
ARC
8
DEFAULT_255_1_234
10
4.567338
20
45.0897832
40
0.4221899
50
29.1440151
51
57.414694
0
ARC
8
DEFAULT_255_1_234
10
4.4738574
20
45.0314005
40
0.5322966
50
24.0982783
51
29.7323517
0
ARC
8
DEFAULT_255_1_234
10
4.370485
20
44.9885399
40
0.6441673
50
8.6655297
51
23.8241346
0
ARC
8
DEFAULT_255_1_234
10
4.1470588
20
44.9520854
40
0.8705386
50
359.7806941
51
8.8218784
0
ARC
8
DEFAULT_255_1_234
10
4.0323586
20
44.9546345
40
0.8318373
50
359.7055579
51
8.036044
0
ARC
8
DEFAULT_255_1_234
10
4.3323592
20
44.9983239
40
0.5286768
50
7.8928306
51
20.2962107
0
ARC
8
DEFAULT_255_1_234
10
4.4951162
20
45.0583395
40
0.3552073
50
20.3231126
51
36.4992797
0
ARC
8
DEFAULT_255_1_234
10
4.5636708
20
45.1111402
40
0.2686974
50
36.1437156
51
85.6627023
0
ARC
8
DEFAULT_255_1_234
10
4.5474254
20
45.0071221
40
0.373739
50
84.3852322
51
90.0757696
0
ARC
8
DEFAULT_255_1_234
10
4.5431927
20
45.0731839
40
0.3076997
50
89.3038458
51
109.9045693
0
ARC
8
DEFAULT_255_1_234
10
4.5339318
20
45.1114062
40
0.2686424
50
110.8228367
51
143.9179474
0
ARC
8
DEFAULT_255_1_234
10
4.6272978
20
45.0401236
40
0.3860887
50
143.5289163
51
163.2980757
0
ARC
8
DEFAULT_255_1_234
10
4.8180799
20
44.9801433
40
0.5860659
50
163.0418846
51
174.3140048
0
ARC
8
DEFAULT_255_1_234
10
5.0584911
20
44.9523854
40
0.8280531
50
174.0509143
51
179.4176892
0
ARC
8
DEFAULT_255_1_234
10
5.008065
20
44.8706954
40
0.7775954
50
179.6930361
51
188.7906598
0
ARC
8
DEFAULT_255_1_234
10
4.7417129
20
44.8280935
40
0.5078633
50
188.6331305
51
202.5629587
0
ARC
8
DEFAULT_255_1_234
10
4.6162721
20
44.7776996
40
0.3726913
50
202.8081362
51
216.1193925
0
ARC
8
DEFAULT_255_1_234
10
4.5353291
20
44.7125676
40
0.2689577
50
215.0755913
51
264.6379694
0
ARC
8
DEFAULT_255_1_234
10
4.548024
20
44.7956513
40
0.3528978
50
263.846392
51
270.0833719
0
ARC
8
DEFAULT_255_1_234
10
4.5521631
20
44.7698374
40
0.3271036
50
269.3649385
51
287.5152008
0
ARC
8
DEFAULT_255_1_234
10
4.5699788
20
44.7051238
40
0.2600406
50
288.0630309
51
323.8113348
0
ARC
8
DEFAULT_255_1_234
10
4.482863
20
44.7701049
40
0.3687189
50
323.6547608
51
342.6590488
0
ARC
8
DEFAULT_255_1_234
10
4.2797245
20
44.8361952
40
0.5823286
50
342.4091907
51
353.6451149
0
ARC
8
DEFAULT_255_1_234
10
3.9965756
20
44.871419
40
0.8676442
50
353.4029884
51
359.4847795
0
LINE
8
DEFAULT_255_1_234
10
6.1476566
20
45.4973211
11
6.1476566
21
44.3279
0
LINE
8
DEFAULT_255_1_234
10
6.1476566
20
44.3279
11
5.9926441
21
44.3279
0
LINE
8
DEFAULT_255_1_234
10
5.9926441
20
44.3279
11
5.4039177
21
45.229061
0
LINE
8
DEFAULT_255_1_234
10
5.4039177
20
45.229061
11
5.4039177
21
44.3279
0
LINE
8
DEFAULT_255_1_234
10
5.4039177
20
44.3279
11
5.2489051
21
44.3279
0
LINE
8
DEFAULT_255_1_234
10
5.2489051
20
44.3279
11
5.2489051
21
45.4973211
0
LINE
8
DEFAULT_255_1_234
10
5.2489051
20
45.4973211
11
5.4039177
21
45.4973211
0
LINE
8
DEFAULT_255_1_234
10
5.4039177
20
45.4973211
11
5.9942504
21
44.5921442
0
LINE
8
DEFAULT_255_1_234
10
5.9942504
20
44.5921442
11
5.9942504
21
45.4973211
0
LINE
8
DEFAULT_255_1_234
10
5.9942504
20
45.4973211
11
6.1476566
21
45.4973211
0
LINE
8
DEFAULT_255_1_234
10
4.2787364
20
53.4348211
11
4.4779235
21
53.4348211
0
LINE
8
DEFAULT_255_1_234
10
4.4779235
20
53.4348211
11
4.8602342
21
52.4806506
0
LINE
8
DEFAULT_255_1_234
10
4.8602342
20
52.4806506
11
5.242545
21
53.4348211
0
LINE
8
DEFAULT_255_1_234
10
5.242545
20
53.4348211
11
5.4425353
21
53.4348211
0
LINE
8
DEFAULT_255_1_234
10
5.4425353
20
53.4348211
11
5.4425353
21
52.2654
0
LINE
8
DEFAULT_255_1_234
10
5.4425353
20
52.2654
11
5.2883259
21
52.2654
0
LINE
8
DEFAULT_255_1_234
10
5.2883259
20
52.2654
11
5.2883259
21
52.7207996
0
LINE
8
DEFAULT_255_1_234
10
5.2883259
20
52.7207996
11
5.302783
21
53.2123419
0
LINE
8
DEFAULT_255_1_234
10
5.302783
20
53.2123419
11
4.9188659
21
52.2654
0
LINE
8
DEFAULT_255_1_234
10
4.9188659
20
52.2654
11
4.8007994
21
52.2654
0
LINE
8
DEFAULT_255_1_234
10
4.8007994
20
52.2654
11
4.4176854
21
53.2099324
0
LINE
8
DEFAULT_255_1_234
10
4.4176854
20
53.2099324
11
4.4329458
21
52.7207996
0
LINE
8
DEFAULT_255_1_234
10
4.4329458
20
52.7207996
11
4.4329458
21
52.2654
0
LINE
8
DEFAULT_255_1_234
10
4.4329458
20
52.2654
11
4.2787364
21
52.2654
0
LINE
8
DEFAULT_255_1_234
10
4.2787364
20
52.2654
11
4.2787364
21
53.4348211
0
LINE
8
DEFAULT_255_1_234
10
6.6135627
20
53.4348211
11
6.6135627
21
52.2654
0
LINE
8
DEFAULT_255_1_234
10
6.6135627
20
52.2654
11
6.4585501
21
52.2654
0
LINE
8
DEFAULT_255_1_234
10
6.4585501
20
52.2654
11
5.8698237
21
53.166561
0
LINE
8
DEFAULT_255_1_234
10
5.8698237
20
53.166561
11
5.8698237
21
52.2654
0
LINE
8
DEFAULT_255_1_234
10
5.8698237
20
52.2654
11
5.7148112
21
52.2654
0
LINE
8
DEFAULT_255_1_234
10
5.7148112
20
52.2654
11
5.7148112
21
53.4348211
0
LINE
8
DEFAULT_255_1_234
10
5.7148112
20
53.4348211
11
5.8698237
21
53.4348211
0
LINE
8
DEFAULT_255_1_234
10
5.8698237
20
53.4348211
11
6.4601565
21
52.5296442
0
LINE
8
DEFAULT_255_1_234
10
6.4601565
20
52.5296442
11
6.4601565
21
53.4348211
0
LINE
8
DEFAULT_255_1_234
10
6.4601565
20
53.4348211
11
6.6135627
21
53.4348211
0
LINE
8
DEFAULT_255_1_234
10
7.6721458
20
53.4348211
11
7.6721458
21
53.3079196
0
LINE
8
DEFAULT_255_1_234
10
7.6721458
20
53.3079196
11
7.2962604
21
53.3079196
0
LINE
8
DEFAULT_255_1_234
10
7.2962604
20
53.3079196
11
7.2962604
21
52.2654
0
LINE
8
DEFAULT_255_1_234
10
7.2962604
20
52.2654
11
7.1428542
21
52.2654
0
LINE
8
DEFAULT_255_1_234
10
7.1428542
20
52.2654
11
7.1428542
21
53.3079196
0
LINE
8
DEFAULT_255_1_234
10
7.1428542
20
53.3079196
11
6.7677721
21
53.3079196
0
LINE
8
DEFAULT_255_1_234
10
6.7677721
20
53.3079196
11
6.7677721
21
53.4348211
0
LINE
8
DEFAULT_255_1_234
10
6.7677721
20
53.4348211
11
7.6721458
21
53.4348211
0
LINE
8
DEFAULT_255_1_234
10
4.6393392
20
60.2029
11
4.2337364
21
60.2029
0
LINE
8
DEFAULT_255_1_234
10
4.2337364
20
60.2029
11
4.2337364
21
61.3723211
0
LINE
8
DEFAULT_255_1_234
10
4.2337364
20
61.3723211
11
4.6160471
21
61.3723211
0
LINE
8
DEFAULT_255_1_234
10
4.6449614
20
60.7498614
11
4.3879458
21
60.7498614
0
LINE
8
DEFAULT_255_1_234
10
4.3879458
20
60.7498614
11
4.3879458
21
60.3289983
0
LINE
8
DEFAULT_255_1_234
10
4.3879458
20
60.3289983
11
4.6425519
21
60.3289983
0
LINE
8
DEFAULT_255_1_234
10
4.3879458
20
61.2454196
11
4.3879458
21
60.8735501
0
LINE
8
DEFAULT_255_1_234
10
4.3879458
20
60.8735501
11
4.6208662
21
60.8735501
0
LINE
8
DEFAULT_255_1_234
10
4.6160471
20
61.2454196
11
4.3879458
21
61.2454196
0
ARC
8
DEFAULT_255_1_234
10
4.619818
20
60.6355901
40
0.7367406
50
82.1257326
51
90.2932599
0
ARC
8
DEFAULT_255_1_234
10
4.6587135
20
60.9074013
40
0.4621653
50
69.9044149
51
82.2857423
0
ARC
8
DEFAULT_255_1_234
10
4.7157813
20
61.0616637
40
0.2976871
50
51.1838526
51
70.0181538
0
ARC
8
DEFAULT_255_1_234
10
4.7412779
20
61.098724
40
0.2528517
50
12.1017251
51
50.4214761
0
ARC
8
DEFAULT_255_1_234
10
4.6028653
20
61.0639676
40
0.3955061
50
359.5251267
51
12.8211707
0
ARC
8
DEFAULT_255_1_234
10
4.7608579
20
61.0570344
40
0.2375281
50
323.4908128
51
0.8817314
0
ARC
8
DEFAULT_255_1_234
10
4.7190266
20
61.089355
40
0.2903817
50
298.6825083
51
323.2756573
0
ARC
8
DEFAULT_255_1_234
10
4.6828629
20
61.1494649
40
0.3604842
50
293.1999386
51
299.1396394
0
ARC
8
DEFAULT_255_1_234
10
4.7501602
20
60.5409126
40
0.2871098
50
54.0011765
51
74.9167975
0
ARC
8
DEFAULT_255_1_234
10
4.7617961
20
60.5606332
40
0.2643248
50
36.3580696
51
53.5291921
0
ARC
8
DEFAULT_255_1_234
10
4.7491203
20
60.5515998
40
0.2798884
50
4.8189881
51
36.3089977
0
ARC
8
DEFAULT_255_1_234
10
4.6712038
20
60.540627
40
0.358478
50
359.9370252
51
5.5204067
0
ARC
8
DEFAULT_255_1_234
10
4.638756
20
60.5365667
40
0.3909429
50
344.7478609
51
0.5373281
0
ARC
8
DEFAULT_255_1_234
10
4.7378531
20
60.5098544
40
0.2883093
50
311.1786488
51
344.6886812
0
ARC
8
DEFAULT_255_1_234
10
4.7086578
20
60.5461987
40
0.3348923
50
286.0418249
51
310.8441291
0
ARC
8
DEFAULT_255_1_234
10
4.657941
20
60.7108807
40
0.5071869
50
274.1042341
51
286.4071509
0
ARC
8
DEFAULT_255_1_234
10
4.6402666
20
60.8992229
40
0.6963234
50
269.9236873
51
274.445647
0
ARC
8
DEFAULT_255_1_234
10
4.6448667
20
60.6652537
40
0.3362634
50
269.6055768
51
281.3740047
0
ARC
8
DEFAULT_255_1_234
10
4.6679305
20
60.5559353
40
0.224546
50
281.1055983
51
302.5132223
0
ARC
8
DEFAULT_255_1_234
10
4.6826204
20
60.5295823
40
0.1944357
50
303.0368945
51
311.8811219
0
ARC
8
DEFAULT_255_1_234
10
4.6897611
20
60.521089
40
0.1833454
50
311.9916004
51
351.7143462
0
ARC
8
DEFAULT_255_1_234
10
4.6080841
20
60.537593
40
0.2665871
50
350.7339597
51
0.2221581
0
ARC
8
DEFAULT_255_1_234
10
4.5973287
20
60.5432467
40
0.2773789
50
359.0456241
51
17.2296242
0
ARC
8
DEFAULT_255_1_234
10
4.7012404
20
60.5741163
40
0.1689915
50
17.6685481
51
78.9940892
0
ARC
8
DEFAULT_255_1_234
10
4.6495568
20
60.3886224
40
0.3612658
50
76.5635957
51
90.6980921
0
LINE
8
DEFAULT_255_1_234
10
4.6451552
20
60.7498613
11
4.6449614
21
60.7498614
0
ARC
8
DEFAULT_255_1_234
10
4.6231228
20
61.2021036
40
0.3285612
50
269.6064736
51
281.4533503
0
ARC
8
DEFAULT_255_1_234
10
4.6454048
20
61.0969688
40
0.2210975
50
281.2041486
51
302.5148063
0
ARC
8
DEFAULT_255_1_234
10
4.6590898
20
61.0723241
40
0.1929674
50
303.021671
51
309.8369575
0
ARC
8
DEFAULT_255_1_234
10
4.6774359
20
61.0517488
40
0.1654181
50
309.5228395
51
356.9509836
0
ARC
8
DEFAULT_255_1_234
10
4.6110942
20
61.0612932
40
0.2322512
50
355.4701227
51
0.0492546
0
ARC
8
DEFAULT_255_1_234
10
4.5832033
20
61.0635094
40
0.2601498
50
359.5558597
51
11.2096359
0
ARC
8
DEFAULT_255_1_234
10
4.6789323
20
61.083323
40
0.1623975
50
10.9182341
51
31.3230275
0
ARC
8
DEFAULT_255_1_234
10
4.7075056
20
61.0992214
40
0.1297302
50
31.8852677
51
52.1412565
0
ARC
8
DEFAULT_255_1_234
10
4.6800789
20
61.060475
40
0.1771663
50
52.8285564
51
71.9850297
0
ARC
8
DEFAULT_255_1_234
10
4.6424965
20
60.9498664
40
0.2939794
50
71.6863486
51
82.8455995
0
ARC
8
DEFAULT_255_1_234
10
4.6185501
20
60.7689149
40
0.476506
50
82.6984714
51
90.1729175
0
ARC
8
DEFAULT_255_1_234
10
4.6163136
20
60.8912623
40
0.3541573
50
89.8708275
51
90.0431131
0
LINE
8
DEFAULT_255_1_234
10
5.9027316
20
60.8454391
11
5.9027316
21
60.7193408
0
LINE
8
DEFAULT_255_1_234
10
5.9027316
20
60.7193408
11
5.4119924
21
60.7193408
0
LINE
8
DEFAULT_255_1_234
10
5.4119924
20
60.7193408
11
5.4119924
21
60.2029
0
LINE
8
DEFAULT_255_1_234
10
5.4119924
20
60.2029
11
5.257783
21
60.2029
0
LINE
8
DEFAULT_255_1_234
10
5.257783
20
60.2029
11
5.257783
21
61.3723211
0
LINE
8
DEFAULT_255_1_234
10
5.257783
20
61.3723211
11
5.9822458
21
61.3723211
0
LINE
8
DEFAULT_255_1_234
10
5.9822458
20
61.3723211
11
5.9822458
21
61.2454196
0
LINE
8
DEFAULT_255_1_234
10
5.9822458
20
61.2454196
11
5.4119924
21
61.2454196
0
LINE
8
DEFAULT_255_1_234
10
5.4119924
20
61.2454196
11
5.4119924
21
60.8454391
0
LINE
8
DEFAULT_255_1_234
10
5.4119924
20
60.8454391
11
5.9027316
21
60.8454391
0
LINE
8
DEFAULT_255_1_234
10
6.5966738
20
60.6607091
11
6.3211852
21
60.6607091
0
LINE
8
DEFAULT_255_1_234
10
6.3211852
20
60.6607091
11
6.3211852
21
60.2029
0
LINE
8
DEFAULT_255_1_234
10
6.3211852
20
60.2029
11
6.1669758
21
60.2029
0
LINE
8
DEFAULT_255_1_234
10
6.1669758
20
60.2029
11
6.1669758
21
61.3723211
0
LINE
8
DEFAULT_255_1_234
10
6.1669758
20
61.3723211
11
6.5982801
21
61.3723211
0
LINE
8
DEFAULT_255_1_234
10
6.3211852
20
61.2454196
11
6.3211852
21
60.7868074
0
LINE
8
DEFAULT_255_1_234
10
6.3211852
20
60.7868074
11
6.5982801
21
60.7868074
0
LINE
8
DEFAULT_255_1_234
10
6.607115
20
61.2454196
11
6.3211852
21
61.2454196
0
ARC
8
DEFAULT_255_1_234
10
6.6024928
20
60.7664195
40
0.6059162
50
78.8378113
51
90.3983573
0
ARC
8
DEFAULT_255_1_234
10
6.6440942
20
60.9684879
40
0.3996205
50
58.9632738
51
79.0810598
0
ARC
8
DEFAULT_255_1_234
10
6.6742484
20
61.0244721
40
0.3361177
50
48.0197965
51
58.447194
0
ARC
8
DEFAULT_255_1_234
10
6.6831345
20
61.0330225
40
0.3238191
50
3.3375044
51
48.1766626
0
ARC
8
DEFAULT_255_1_234
10
6.5601184
20
61.0153171
40
0.4477806
50
359.9477528
51
4.6829065
0
ARC
8
DEFAULT_255_1_234
10
6.5724501
20
61.0110628
40
0.4354656
50
346.1877825
51
0.5060252
0
ARC
8
DEFAULT_255_1_234
10
6.7083369
20
60.9757731
40
0.295089
50
310.8831995
51
346.5426355
0
ARC
8
DEFAULT_255_1_234
10
6.6774789
20
61.0174695
40
0.3468331
50
286.6925341
51
310.2288297
0
ARC
8
DEFAULT_255_1_234
10
6.620562
20
61.1964882
40
0.5346654
50
274.6850312
51
287.0245141
0
ARC
8
DEFAULT_255_1_234
10
6.5980343
20
61.4173932
40
0.7566852
50
269.8969846
51
275.018904
0
ARC
8
DEFAULT_255_1_234
10
6.6007934
20
61.2094707
40
0.4226708
50
269.6593078
51
279.4153575
0
ARC
8
DEFAULT_255_1_234
10
6.6265209
20
61.0604133
40
0.2714146
50
279.2049762
51
294.9900808
0
ARC
8
DEFAULT_255_1_234
10
6.6555535
20
60.9956508
40
0.2004525
50
295.2888114
51
311.2911209
0
ARC
8
DEFAULT_255_1_234
10
6.6626429
20
60.985122
40
0.1878703
50
311.7854996
51
347.2861051
0
ARC
8
DEFAULT_255_1_234
10
6.5642588
20
61.0104092
40
0.2894234
50
346.6893224
51
0.1059443
0
ARC
8
DEFAULT_255_1_234
10
6.4887483
20
61.0132685
40
0.3649409
50
359.6350983
51
0.0053152
0
ARC
8
DEFAULT_255_1_234
10
6.5857811
20
61.0157937
40
0.2679199
50
359.4672059
51
15.5933957
0
ARC
8
DEFAULT_255_1_234
10
6.64827
20
61.0326779
40
0.2031932
50
15.7442113
51
46.6203375
0
ARC
8
DEFAULT_255_1_234
10
6.6334921
20
61.0156484
40
0.2257226
50
46.8628658
51
75.6676503
0
ARC
8
DEFAULT_255_1_234
10
6.6040741
20
60.9097718
40
0.3355939
50
75.276167
51
88.2915297
0
ARC
8
DEFAULT_255_1_234
10
6.5982448
20
60.8219524
40
0.4235602
50
87.8575022
51
88.8000139
0
LINE
8
DEFAULT_255_1_234
10
8.1034279
20
61.3723211
11
8.1034279
21
60.2029
0
LINE
8
DEFAULT_255_1_234
10
8.1034279
20
60.2029
11
7.9484153
21
60.2029
0
LINE
8
DEFAULT_255_1_234
10
7.9484153
20
60.2029
11
7.3596889
21
61.104061
0
LINE
8
DEFAULT_255_1_234
10
7.3596889
20
61.104061
11
7.3596889
21
60.2029
0
LINE
8
DEFAULT_255_1_234
10
7.3596889
20
60.2029
11
7.2046764
21
60.2029
0
LINE
8
DEFAULT_255_1_234
10
7.2046764
20
60.2029
11
7.2046764
21
61.3723211
0
LINE
8
DEFAULT_255_1_234
10
7.2046764
20
61.3723211
11
7.3596889
21
61.3723211
0
LINE
8
DEFAULT_255_1_234
10
7.3596889
20
61.3723211
11
7.9500217
21
60.4671442
0
LINE
8
DEFAULT_255_1_234
10
7.9500217
20
60.4671442
11
7.9500217
21
61.3723211
0
LINE
8
DEFAULT_255_1_234
10
7.9500217
20
61.3723211
11
8.1034279
21
61.3723211
0
LINE
8
DEFAULT_255_1_234
10
4.6829392
20
68.1404
11
4.2773364
21
68.1404
0
LINE
8
DEFAULT_255_1_234
10
4.2773364
20
68.1404
11
4.2773364
21
69.3098211
0
LINE
8
DEFAULT_255_1_234
10
4.2773364
20
69.3098211
11
4.6596471
21
69.3098211
0
LINE
8
DEFAULT_255_1_234
10
4.6885614
20
68.6873614
11
4.4315458
21
68.6873614
0
LINE
8
DEFAULT_255_1_234
10
4.4315458
20
68.6873614
11
4.4315458
21
68.2664983
0
LINE
8
DEFAULT_255_1_234
10
4.4315458
20
68.2664983
11
4.6861519
21
68.2664983
0
LINE
8
DEFAULT_255_1_234
10
4.4315458
20
69.1829196
11
4.4315458
21
68.8110501
0
LINE
8
DEFAULT_255_1_234
10
4.4315458
20
68.8110501
11
4.6644662
21
68.8110501
0
LINE
8
DEFAULT_255_1_234
10
4.6596471
20
69.1829196
11
4.4315458
21
69.1829196
0
ARC
8
DEFAULT_255_1_234
10
4.663418
20
68.5730901
40
0.7367406
50
82.1257326
51
90.2932599
0
ARC
8
DEFAULT_255_1_234
10
4.7023135
20
68.8449013
40
0.4621653
50
69.9044149
51
82.2857423
0
ARC
8
DEFAULT_255_1_234
10
4.7593813
20
68.9991637
40
0.2976871
50
51.1838526
51
70.0181538
0
ARC
8
DEFAULT_255_1_234
10
4.7848779
20
69.036224
40
0.2528517
50
12.1017251
51
50.4214761
0
ARC
8
DEFAULT_255_1_234
10
4.6464653
20
69.0014676
40
0.3955061
50
359.5251267
51
12.8211707
0
ARC
8
DEFAULT_255_1_234
10
4.8044579
20
68.9945344
40
0.2375281
50
323.4908128
51
0.8817314
0
ARC
8
DEFAULT_255_1_234
10
4.7626266
20
69.026855
40
0.2903817
50
298.6825083
51
323.2756573
0
ARC
8
DEFAULT_255_1_234
10
4.7264629
20
69.0869649
40
0.3604842
50
293.1999386
51
299.1396394
0
ARC
8
DEFAULT_255_1_234
10
4.7937602
20
68.4784126
40
0.2871098
50
54.0011765
51
74.9167975
0
ARC
8
DEFAULT_255_1_234
10
4.8053961
20
68.4981332
40
0.2643248
50
36.3580696
51
53.5291921
0
ARC
8
DEFAULT_255_1_234
10
4.7927203
20
68.4890998
40
0.2798884
50
4.8189881
51
36.3089977
0
ARC
8
DEFAULT_255_1_234
10
4.7148038
20
68.478127
40
0.358478
50
359.9370252
51
5.5204067
0
ARC
8
DEFAULT_255_1_234
10
4.682356
20
68.4740667
40
0.3909429
50
344.7478609
51
0.5373281
0
ARC
8
DEFAULT_255_1_234
10
4.7814531
20
68.4473544
40
0.2883093
50
311.1786488
51
344.6886812
0
ARC
8
DEFAULT_255_1_234
10
4.7522578
20
68.4836987
40
0.3348923
50
286.0418249
51
310.8441291
0
ARC
8
DEFAULT_255_1_234
10
4.701541
20
68.6483807
40
0.5071869
50
274.1042341
51
286.4071509
0
ARC
8
DEFAULT_255_1_234
10
4.6838666
20
68.8367229
40
0.6963234
50
269.9236873
51
274.445647
0
ARC
8
DEFAULT_255_1_234
10
4.6884667
20
68.6027537
40
0.3362634
50
269.6055768
51
281.3740047
0
ARC
8
DEFAULT_255_1_234
10
4.7115305
20
68.4934353
40
0.224546
50
281.1055983
51
302.5132223
0
ARC
8
DEFAULT_255_1_234
10
4.7262204
20
68.4670823
40
0.1944357
50
303.0368945
51
311.8811219
0
ARC
8
DEFAULT_255_1_234
10
4.7333611
20
68.458589
40
0.1833454
50
311.9916004
51
351.7143462
0
ARC
8
DEFAULT_255_1_234
10
4.6516841
20
68.475093
40
0.2665871
50
350.7339597
51
0.2221581
0
ARC
8
DEFAULT_255_1_234
10
4.6409287
20
68.4807467
40
0.2773789
50
359.0456241
51
17.2296242
0
ARC
8
DEFAULT_255_1_234
10
4.7448404
20
68.5116163
40
0.1689915
50
17.6685481
51
78.9940892
0
ARC
8
DEFAULT_255_1_234
10
4.6931568
20
68.3261224
40
0.3612658
50
76.5635957
51
90.6980921
0
LINE
8
DEFAULT_255_1_234
10
4.6887552
20
68.6873613
11
4.6885614
21
68.6873614
0
ARC
8
DEFAULT_255_1_234
10
4.6667228
20
69.1396036
40
0.3285612
50
269.6064736
51
281.4533503
0
ARC
8
DEFAULT_255_1_234
10
4.6890048
20
69.0344688
40
0.2210975
50
281.2041486
51
302.5148063
0
ARC
8
DEFAULT_255_1_234
10
4.7026898
20
69.0098241
40
0.1929674
50
303.021671
51
309.8369575
0
ARC
8
DEFAULT_255_1_234
10
4.7210359
20
68.9892488
40
0.1654181
50
309.5228395
51
356.9509836
0
ARC
8
DEFAULT_255_1_234
10
4.6546942
20
68.9987932
40
0.2322512
50
355.4701227
51
0.0492546
0
ARC
8
DEFAULT_255_1_234
10
4.6268033
20
69.0010094
40
0.2601498
50
359.5558597
51
11.2096359
0
ARC
8
DEFAULT_255_1_234
10
4.7225323
20
69.020823
40
0.1623975
50
10.9182341
51
31.3230275
0
ARC
8
DEFAULT_255_1_234
10
4.7511056
20
69.0367214
40
0.1297302
50
31.8852677
51
52.1412565
0
ARC
8
DEFAULT_255_1_234
10
4.7236789
20
68.997975
40
0.1771663
50
52.8285564
51
71.9850297
0
ARC
8
DEFAULT_255_1_234
10
4.6860965
20
68.8873664
40
0.2939794
50
71.6863486
51
82.8455995
0
ARC
8
DEFAULT_255_1_234
10
4.6621501
20
68.7064149
40
0.476506
50
82.6984714
51
90.1729175
0
ARC
8
DEFAULT_255_1_234
10
4.6599136
20
68.8287623
40
0.3541573
50
89.8708275
51
90.0431131
0
LINE
8
DEFAULT_255_1_234
10
5.9463316
20
68.7829391
11
5.9463316
21
68.6568408
0
LINE
8
DEFAULT_255_1_234
10
5.9463316
20
68.6568408
11
5.4555924
21
68.6568408
0
LINE
8
DEFAULT_255_1_234
10
5.4555924
20
68.6568408
11
5.4555924
21
68.1404
0
LINE
8
DEFAULT_255_1_234
10
5.4555924
20
68.1404
11
5.301383
21
68.1404
0
LINE
8
DEFAULT_255_1_234
10
5.301383
20
68.1404
11
5.301383
21
69.3098211
0
LINE
8
DEFAULT_255_1_234
10
5.301383
20
69.3098211
11
6.0258458
21
69.3098211
0
LINE
8
DEFAULT_255_1_234
10
6.0258458
20
69.3098211
11
6.0258458
21
69.1829196
0
LINE
8
DEFAULT_255_1_234
10
6.0258458
20
69.1829196
11
5.4555924
21
69.1829196
0
LINE
8
DEFAULT_255_1_234
10
5.4555924
20
69.1829196
11
5.4555924
21
68.7829391
0
LINE
8
DEFAULT_255_1_234
10
5.4555924
20
68.7829391
11
5.9463316
21
68.7829391
0
LINE
8
DEFAULT_255_1_234
10
6.5342548
20
68.1404
11
6.2105758
21
68.1404
0
LINE
8
DEFAULT_255_1_234
10
6.2105758
20
68.1404
11
6.2105758
21
69.3098211
0
LINE
8
DEFAULT_255_1_234
10
6.2105758
20
69.3098211
11
6.5406802
21
69.3098211
0
LINE
8
DEFAULT_255_1_234
10
7.0563178
20
68.7644661
11
7.0563178
21
68.6897709
0
LINE
8
DEFAULT_255_1_234
10
6.5446961
20
69.1829196
11
6.3647852
21
69.1829196
0
LINE
8
DEFAULT_255_1_234
10
6.3647852
20
69.1829196
11
6.3647852
21
68.2664983
0
LINE
8
DEFAULT_255_1_234
10
6.3647852
20
68.2664983
11
6.5270263
21
68.2664983
0
LINE
8
DEFAULT_255_1_234
10
6.9037148
20
68.6929836
11
6.9037148
21
68.7612534
0
ARC
8
DEFAULT_255_1_234
10
6.5445745
20
68.7232894
40
0.5865446
50
75.4101064
51
90.3804066
0
ARC
8
DEFAULT_255_1_234
10
6.5675258
20
68.8189492
40
0.4881916
50
60.145586
51
75.1888407
0
ARC
8
DEFAULT_255_1_234
10
6.5834034
20
68.8466199
40
0.4562893
50
26.5253612
51
60.1450928
0
ARC
8
DEFAULT_255_1_234
10
6.4713783
20
68.7872158
40
0.5830602
50
7.4030428
51
26.8320788
0
ARC
8
DEFAULT_255_1_234
10
6.311954
20
68.7623804
40
0.7443669
50
0.1605367
51
7.7176192
0
ARC
8
DEFAULT_255_1_234
10
6.3283444
20
68.6859434
40
0.7279835
50
348.7289388
51
0.3012466
0
ARC
8
DEFAULT_255_1_234
10
6.4939875
20
68.6530386
40
0.559104
50
333.0706509
51
348.7181832
0
ARC
8
DEFAULT_255_1_234
10
6.5906632
20
68.6005319
40
0.4491417
50
299.2531685
51
333.4571258
0
ARC
8
DEFAULT_255_1_234
10
6.5545772
20
68.6690828
40
0.5265881
50
278.107187
51
299.0339503
0
ARC
8
DEFAULT_255_1_234
10
6.5289851
20
68.8198216
40
0.679442
50
270.4443897
51
278.4511052
0
ARC
8
DEFAULT_255_1_234
10
6.5310681
20
68.7269213
40
0.4604407
50
269.4970433
51
284.0205042
0
ARC
8
DEFAULT_255_1_234
10
6.5665982
20
68.5903978
40
0.3193797
50
283.7700273
51
318.1555492
0
ARC
8
DEFAULT_255_1_234
10
6.532874
20
68.6156367
40
0.3613588
50
318.7415601
51
343.6873628
0
ARC
8
DEFAULT_255_1_234
10
6.3524763
20
68.6719832
40
0.5503313
50
343.3325091
51
355.8548958
0
ARC
8
DEFAULT_255_1_234
10
6.1426448
20
68.6919319
40
0.7610708
50
355.4988528
51
0.0791727
0
ARC
8
DEFAULT_255_1_234
10
6.220907
20
68.765478
40
0.6828208
50
359.6455037
51
9.8607896
0
ARC
8
DEFAULT_255_1_234
10
6.4569768
20
68.8081099
40
0.4429406
50
9.6571907
51
26.1932807
0
ARC
8
DEFAULT_255_1_234
10
6.5497757
20
68.8512118
40
0.3406537
50
26.5777228
51
40.1532208
0
ARC
8
DEFAULT_255_1_234
10
6.5753483
20
68.8711619
40
0.308246
50
40.3840491
51
80.1431104
0
ARC
8
DEFAULT_255_1_234
10
6.5426601
20
68.7262333
40
0.4566909
50
79.2152159
51
89.7445637
0
LINE
8
DEFAULT_255_1_234
10
7.7189362
20
68.5982091
11
7.4434476
21
68.5982091
0
LINE
8
DEFAULT_255_1_234
10
7.4434476
20
68.5982091
11
7.4434476
21
68.1404
0
LINE
8
DEFAULT_255_1_234
10
7.4434476
20
68.1404
11
7.2892382
21
68.1404
0
LINE
8
DEFAULT_255_1_234
10
7.2892382
20
68.1404
11
7.2892382
21
69.3098211
0
LINE
8
DEFAULT_255_1_234
10
7.2892382
20
69.3098211
11
7.7205426
21
69.3098211
0
LINE
8
DEFAULT_255_1_234
10
7.4434476
20
69.1829196
11
7.4434476
21
68.7243074
0
LINE
8
DEFAULT_255_1_234
10
7.4434476
20
68.7243074
11
7.7205426
21
68.7243074
0
LINE
8
DEFAULT_255_1_234
10
7.7293775
20
69.1829196
11
7.4434476
21
69.1829196
0
ARC
8
DEFAULT_255_1_234
10
7.7247553
20
68.7039195
40
0.6059162
50
78.8378113
51
90.3983573
0
ARC
8
DEFAULT_255_1_234
10
7.7663566
20
68.9059879
40
0.3996205
50
58.9632738
51
79.0810598
0
ARC
8
DEFAULT_255_1_234
10
7.7965108
20
68.9619721
40
0.3361177
50
48.0197965
51
58.447194
0
ARC
8
DEFAULT_255_1_234
10
7.8053969
20
68.9705225
40
0.3238191
50
3.3375044
51
48.1766626
0
ARC
8
DEFAULT_255_1_234
10
7.6823809
20
68.9528171
40
0.4477806
50
359.9477528
51
4.6829065
0
ARC
8
DEFAULT_255_1_234
10
7.6947126
20
68.9485628
40
0.4354656
50
346.1877825
51
0.5060252
0
ARC
8
DEFAULT_255_1_234
10
7.8305993
20
68.9132731
40
0.295089
50
310.8831995
51
346.5426355
0
ARC
8
DEFAULT_255_1_234
10
7.7997413
20
68.9549695
40
0.3468331
50
286.6925341
51
310.2288297
0
ARC
8
DEFAULT_255_1_234
10
7.7428244
20
69.1339882
40
0.5346654
50
274.6850312
51
287.0245141
0
ARC
8
DEFAULT_255_1_234
10
7.7202967
20
69.3548932
40
0.7566852
50
269.8969846
51
275.018904
0
ARC
8
DEFAULT_255_1_234
10
7.7230558
20
69.1469707
40
0.4226708
50
269.6593078
51
279.4153575
0
ARC
8
DEFAULT_255_1_234
10
7.7487834
20
68.9979133
40
0.2714146
50
279.2049762
51
294.9900808
0
ARC
8
DEFAULT_255_1_234
10
7.7778159
20
68.9331508
40
0.2004525
50
295.2888114
51
311.2911209
0
ARC
8
DEFAULT_255_1_234
10
7.7849054
20
68.922622
40
0.1878703
50
311.7854996
51
347.2861051
0
ARC
8
DEFAULT_255_1_234
10
7.6865212
20
68.9479092
40
0.2894234
50
346.6893224
51
0.1059443
0
ARC
8
DEFAULT_255_1_234
10
7.6110107
20
68.9507685
40
0.3649409
50
359.6350983
51
0.0053152
0
ARC
8
DEFAULT_255_1_234
10
7.7080436
20
68.9532937
40
0.2679199
50
359.4672059
51
15.5933957
0
ARC
8
DEFAULT_255_1_234
10
7.7705324
20
68.9701779
40
0.2031932
50
15.7442113
51
46.6203375
0
ARC
8
DEFAULT_255_1_234
10
7.7557545
20
68.9531484
40
0.2257226
50
46.8628658
51
75.6676503
0
ARC
8
DEFAULT_255_1_234
10
7.7263366
20
68.8472718
40
0.3355939
50
75.276167
51
88.2915297
0
ARC
8
DEFAULT_255_1_234
10
7.7205072
20
68.7594524
40
0.4235602
50
87.8575022
51
88.8000139
0
LINE
8
DEFAULT_255_1_234
10
4.8843023
20
76.9091849
11
4.7292897
21
76.9091849
0
LINE
8
DEFAULT_255_1_234
10
4.0369539
20
76.4168394
11
4.1919665
21
76.4168394
0
ARC
8
DEFAULT_255_1_234
10
4.795171
20
77.8038768
40
1.252368
50
248.9199003
51
254.1439814
0
ARC
8
DEFAULT_255_1_234
10
4.6271205
20
77.3712234
40
0.788226
50
241.633709
51
249.0064503
0
ARC
8
DEFAULT_255_1_234
10
4.47426
20
77.0911317
40
0.4691427
50
230.498225
51
241.8087113
0
ARC
8
DEFAULT_255_1_234
10
4.3958174
20
76.9911906
40
0.3421437
50
227.4064532
51
229.9881192
0
ARC
8
DEFAULT_255_1_234
10
4.3470694
20
76.9436088
40
0.2741476
50
200.6781896
51
228.1763934
0
ARC
8
DEFAULT_255_1_234
10
4.3543005
20
76.9421077
40
0.2804109
50
179.5061581
51
199.8694617
0
ARC
8
DEFAULT_255_1_234
10
4.3533757
20
76.949521
40
0.2795204
50
132.4834203
51
181.0242172
0
ARC
8
DEFAULT_255_1_234
10
4.4129339
20
76.8932704
40
0.3612768
50
129.2532479
51
133.4242687
0
ARC
8
DEFAULT_255_1_234
10
4.4275789
20
76.8712965
40
0.3875675
50
101.98776
51
128.8742646
0
ARC
8
DEFAULT_255_1_234
10
4.4674399
20
76.6991741
40
0.5642249
50
89.5906553
51
102.3169264
0
ARC
8
DEFAULT_255_1_234
10
4.4744891
20
76.7310148
40
0.5323783
50
77.2360837
51
90.3248275
0
ARC
8
DEFAULT_255_1_234
10
4.4951971
20
76.82774
40
0.4334697
50
63.837784
51
77.0809408
0
ARC
8
DEFAULT_255_1_234
10
4.5229732
20
76.8794911
40
0.3747796
50
45.9864267
51
64.1607727
0
ARC
8
DEFAULT_255_1_234
10
4.5490614
20
76.9092866
40
0.3352302
50
32.2747395
51
45.6547121
0
ARC
8
DEFAULT_255_1_234
10
4.5557054
20
76.911188
40
0.328603
50
359.6507365
51
32.6130309
0
ARC
8
DEFAULT_255_1_234
10
4.461415
20
76.911666
40
0.2678863
50
359.469343
51
14.9832209
0
ARC
8
DEFAULT_255_1_234
10
4.5319212
20
76.9305539
40
0.1948938
50
14.9781179
51
48.2004265
0
ARC
8
DEFAULT_255_1_234
10
4.5154856
20
76.9098983
40
0.2212521
50
48.5927837
51
74.1241538
0
ARC
8
DEFAULT_255_1_234
10
4.4821346
20
76.7998248
40
0.3362561
50
73.7888341
51
86.6652678
0
ARC
8
DEFAULT_255_1_234
10
4.4718911
20
76.6790881
40
0.4573953
50
86.2640471
51
90.0526343
0
ARC
8
DEFAULT_255_1_234
10
4.4690624
20
76.7186192
40
0.4178709
50
89.6697524
51
99.2309573
0
ARC
8
DEFAULT_255_1_234
10
4.4448075
20
76.8630964
40
0.2713749
50
99.069534
51
113.7658566
0
ARC
8
DEFAULT_255_1_234
10
4.4174266
20
76.9276677
40
0.2012469
50
114.0401004
51
127.9850673
0
ARC
8
DEFAULT_255_1_234
10
4.393383
20
76.957273
40
0.1631167
50
127.7287463
51
176.7105154
0
ARC
8
DEFAULT_255_1_234
10
4.4612547
20
76.9471693
40
0.2315392
50
175.1779447
51
180.0581938
0
ARC
8
DEFAULT_255_1_234
10
4.3769394
20
76.9459428
40
0.1472271
50
179.6142195
51
228.1246017
0
ARC
8
DEFAULT_255_1_234
10
4.4211063
20
76.9868308
40
0.2072299
50
226.5779593
51
230.8800004
0
ARC
8
DEFAULT_255_1_234
10
4.4682141
20
77.0493636
40
0.2854818
50
231.4635071
51
241.9260842
0
ARC
8
DEFAULT_255_1_234
10
4.5879319
20
77.26968
40
0.53622
50
241.7178533
51
248.3259551
0
ARC
8
DEFAULT_255_1_234
10
4.7264691
20
77.6129064
40
0.9063478
50
248.2007737
51
252.4528373
0
ARC
8
DEFAULT_255_1_234
10
4.8468416
20
77.9850441
40
1.2974635
50
252.3391078
51
254.3469452
0
ARC
8
DEFAULT_255_1_234
10
4.0926119
20
75.2873148
40
1.5037162
50
71.0197183
51
74.4087047
0
ARC
8
DEFAULT_255_1_234
10
4.2620804
20
75.7765111
40
0.9859993
50
66.1847285
51
71.086374
0
ARC
8
DEFAULT_255_1_234
10
4.4177116
20
76.12692
40
0.6025855
50
59.3536294
51
66.2691831
0
ARC
8
DEFAULT_255_1_234
10
4.5065769
20
76.2772609
40
0.4279449
50
49.1020879
51
59.3293958
0
ARC
8
DEFAULT_255_1_234
10
4.5884509
20
76.3705834
40
0.3038015
50
32.7919921
51
49.2505539
0
ARC
8
DEFAULT_255_1_234
10
4.6205599
20
76.3934191
40
0.264448
50
31.1181161
51
32.4005348
0
ARC
8
DEFAULT_255_1_234
10
4.6117136
20
76.3898779
40
0.2738556
50
8.1116974
51
30.7958831
0
ARC
8
DEFAULT_255_1_234
10
4.5306804
20
76.3760753
40
0.3560327
50
359.8389159
51
8.4706516
0
ARC
8
DEFAULT_255_1_234
10
4.5932596
20
76.3712137
40
0.2934776
50
337.4731098
51
0.7537279
0
ARC
8
DEFAULT_255_1_234
10
4.6111291
20
76.3692387
40
0.2762607
50
307.5917067
51
336.4315538
0
ARC
8
DEFAULT_255_1_234
10
4.5651119
20
76.4205102
40
0.3449979
50
307.6551545
51
308.4529766
0
ARC
8
DEFAULT_255_1_234
10
4.5420838
20
76.456025
40
0.3871988
50
284.3734338
51
307.1424381
0
ARC
8
DEFAULT_255_1_234
10
4.4925668
20
76.6381932
40
0.5759636
50
272.4382747
51
284.646547
0
ARC
8
DEFAULT_255_1_234
10
4.4798876
20
76.8181893
40
0.7563528
50
269.9708387
51
272.8178037
0
ARC
8
DEFAULT_255_1_234
10
4.4755916
20
76.6143716
40
0.5525489
50
248.2707594
51
270.4055579
0
ARC
8
DEFAULT_255_1_234
10
4.4701657
20
76.5953192
40
0.5328452
50
246.1383403
51
248.0542782
0
ARC
8
DEFAULT_255_1_234
10
4.4283036
20
76.5073843
40
0.4355005
50
233.1670131
51
246.4950969
0
ARC
8
DEFAULT_255_1_234
10
4.3728941
20
76.4325812
40
0.3424126
50
215.3403242
51
233.0843104
0
ARC
8
DEFAULT_255_1_234
10
4.3456372
20
76.4127549
40
0.3087104
50
179.2419209
51
215.2648451
0
ARC
8
DEFAULT_255_1_234
10
4.4223966
20
76.4141666
40
0.2304457
50
179.335461
51
199.1045811
0
ARC
8
DEFAULT_255_1_234
10
4.3891643
20
76.4054766
40
0.1962176
50
199.8828939
51
232.7063202
0
ARC
8
DEFAULT_255_1_234
10
4.4363911
20
76.4648788
40
0.2720938
50
232.3738199
51
255.5136649
0
ARC
8
DEFAULT_255_1_234
10
4.4704778
20
76.5892835
40
0.4010747
50
255.2446292
51
267.5320849
0
ARC
8
DEFAULT_255_1_234
10
4.4792401
20
76.7125702
40
0.5246356
50
267.1557994
51
270.0286766
0
ARC
8
DEFAULT_255_1_234
10
4.4820173
20
76.668195
40
0.4802668
50
269.7000017
51
278.1660162
0
ARC
8
DEFAULT_255_1_234
10
4.5076178
20
76.4951515
40
0.3053425
50
278.0231263
51
290.625471
0
ARC
8
DEFAULT_255_1_234
10
4.5423865
20
76.4024025
40
0.206291
50
290.6619762
51
307.0370976
0
ARC
8
DEFAULT_255_1_234
10
4.5724254
20
76.3655504
40
0.1587906
50
306.3943566
51
355.3030547
0
ARC
8
DEFAULT_255_1_234
10
4.5212186
20
76.3732113
40
0.2104809
50
354.3660432
51
0.0698737
0
ARC
8
DEFAULT_255_1_234
10
4.5354531
20
76.3754617
40
0.1962563
50
359.417946
51
16.1971788
0
ARC
8
DEFAULT_255_1_234
10
4.5809841
20
76.3879418
40
0.149053
50
16.4723299
51
52.6262157
0
ARC
8
DEFAULT_255_1_234
10
4.4988895
20
76.2795433
40
0.2850296
50
52.7386432
51
62.4979148
0
ARC
8
DEFAULT_255_1_234
10
4.3603972
20
76.0189283
40
0.5801521
50
62.2515216
51
68.1220564
0
ARC
8
DEFAULT_255_1_234
10
4.1883883
20
75.5961872
40
1.0365451
50
68.0062803
51
71.8053402
0
ARC
8
DEFAULT_255_1_234
10
4.0088255
20
75.0576758
40
1.6042013
50
71.7183119
51
73.9258742
0
LINE
8
DEFAULT_255_1_234
10
5.7292412
20
76.7204391
11
5.7292412
21
76.5943408
0
LINE
8
DEFAULT_255_1_234
10
5.7292412
20
76.5943408
11
5.238502
21
76.5943408
0
LINE
8
DEFAULT_255_1_234
10
5.238502
20
76.5943408
11
5.238502
21
76.0779
0
LINE
8
DEFAULT_255_1_234
10
5.238502
20
76.0779
11
5.0842926
21
76.0779
0
LINE
8
DEFAULT_255_1_234
10
5.0842926
20
76.0779
11
5.0842926
21
77.2473211
0
LINE
8
DEFAULT_255_1_234
10
5.0842926
20
77.2473211
11
5.8087554
21
77.2473211
0
LINE
8
DEFAULT_255_1_234
10
5.8087554
20
77.2473211
11
5.8087554
21
77.1204196
0
LINE
8
DEFAULT_255_1_234
10
5.8087554
20
77.1204196
11
5.238502
21
77.1204196
0
LINE
8
DEFAULT_255_1_234
10
5.238502
20
77.1204196
11
5.238502
21
76.7204391
0
LINE
8
DEFAULT_255_1_234
10
5.238502
20
76.7204391
11
5.7292412
21
76.7204391
0
LINE
8
DEFAULT_255_1_234
10
4.8767119
20
84.1366792
11
4.8767119
21
84.0154
0
LINE
8
DEFAULT_255_1_234
10
4.8767119
20
84.0154
11
4.110484
21
84.0154
0
LINE
8
DEFAULT_255_1_234
10
4.110484
20
84.0154
11
4.110484
21
84.1222221
0
LINE
8
DEFAULT_255_1_234
10
4.110484
20
84.1222221
11
4.5152836
21
84.5719995
0
LINE
8
DEFAULT_255_1_234
10
4.2365823
20
84.8402595
11
4.0879952
21
84.8402595
0
LINE
8
DEFAULT_255_1_234
10
4.6028296
20
84.4764218
11
4.2895918
21
84.1366792
0
LINE
8
DEFAULT_255_1_234
10
4.2895918
20
84.1366792
11
4.8767119
21
84.1366792
0
ARC
8
DEFAULT_255_1_234
10
3.166267
20
85.7649527
40
1.8008286
50
318.5132453
51
320.7828378
0
ARC
8
DEFAULT_255_1_234
10
3.6949644
20
85.3346426
40
1.1191493
50
320.7372736
51
323.9737074
0
ARC
8
DEFAULT_255_1_234
10
4.0869501
20
85.0506361
40
0.6350923
50
323.8961724
51
328.6421089
0
ARC
8
DEFAULT_255_1_234
10
4.2916096
20
84.9244031
40
0.3946393
50
328.8299013
51
331.789948
0
ARC
8
DEFAULT_255_1_234
10
4.3913274
20
84.8729509
40
0.2824501
50
331.4255242
51
352.9364833
0
ARC
8
DEFAULT_255_1_234
10
4.4049775
20
84.8698976
40
0.2685315
50
353.2248685
51
0.0169286
0
ARC
8
DEFAULT_255_1_234
10
4.4259652
20
84.872195
40
0.2475536
50
359.4866256
51
15.9339782
0
ARC
8
DEFAULT_255_1_234
10
4.4766637
20
84.8858286
40
0.1950618
50
16.1714718
51
43.5284424
0
ARC
8
DEFAULT_255_1_234
10
4.4843946
20
84.8935573
40
0.184134
50
43.4415429
51
83.1661404
0
ARC
8
DEFAULT_255_1_234
10
4.4709864
20
84.8198771
40
0.258926
50
82.160215
51
90.1505798
0
ARC
8
DEFAULT_255_1_234
10
4.4678291
20
84.7661865
40
0.3126255
50
89.5460705
51
102.5418777
0
ARC
8
DEFAULT_255_1_234
10
4.4435377
20
84.8692665
40
0.2067346
50
102.1739365
51
129.2061916
0
ARC
8
DEFAULT_255_1_234
10
4.4356449
20
84.8817094
40
0.1921118
50
129.7279328
51
135.7542026
0
ARC
8
DEFAULT_255_1_234
10
4.4477977
20
84.8720045
40
0.2075944
50
136.175737
51
166.3674722
0
ARC
8
DEFAULT_255_1_234
10
4.5484896
20
84.8450182
40
0.3118201
50
165.9092917
51
178.8683903
0
ARC
8
DEFAULT_255_1_234
10
4.6349757
20
84.8403179
40
0.3983935
50
178.438168
51
180.0083905
0
ARC
8
DEFAULT_255_1_234
10
4.4948359
20
84.8442231
40
0.4068601
50
163.2878735
51
180.5581814
0
ARC
8
DEFAULT_255_1_234
10
4.4146621
20
84.866284
40
0.3237344
50
133.454115
51
162.9470031
0
ARC
8
DEFAULT_255_1_234
10
4.4325162
20
84.8473
40
0.349795
50
100.7869394
51
133.4384016
0
ARC
8
DEFAULT_255_1_234
10
4.4672934
20
84.6924319
40
0.5084616
50
89.6605301
51
101.3704185
0
ARC
8
DEFAULT_255_1_234
10
4.4739273
20
84.6985496
40
0.502348
50
78.2171172
51
90.4130393
0
ARC
8
DEFAULT_255_1_234
10
4.5094351
20
84.8609637
40
0.3361092
50
55.9268222
51
78.4888551
0
ARC
8
DEFAULT_255_1_234
10
4.5290791
20
84.8948324
40
0.2970617
50
47.9292255
51
55.4054003
0
ARC
8
DEFAULT_255_1_234
10
4.5392352
20
84.9051502
40
0.2825983
50
4.3347696
51
48.0560701
0
ARC
8
DEFAULT_255_1_234
10
4.4296745
20
84.8881601
40
0.393225
50
359.925209
51
5.5967654
0
ARC
8
DEFAULT_255_1_234
10
4.4725637
20
84.8937816
40
0.3503892
50
337.8914096
51
358.9967724
0
ARC
8
DEFAULT_255_1_234
10
4.2012049
20
84.9984706
40
0.6412172
50
326.9135351
51
338.3505194
0
ARC
8
DEFAULT_255_1_234
10
3.8026353
20
85.2539284
40
1.1146189
50
319.6472867
51
327.095818
0
ARC
8
DEFAULT_255_1_234
10
3.4193356
20
85.5701
40
1.6114559
50
317.2586784
51
319.9046139
0
LINE
8
DEFAULT_255_1_234
10
5.2276988
20
85.1848211
11
5.2276988
21
84.1414983
0
LINE
8
DEFAULT_255_1_234
10
5.2276988
20
84.1414983
11
5.7818888
21
84.1414983
0
LINE
8
DEFAULT_255_1_234
10
5.7818888
20
84.1414983
11
5.7818888
21
84.0154
0
LINE
8
DEFAULT_255_1_234
10
5.7818888
20
84.0154
11
5.0726863
21
84.0154
0
LINE
8
DEFAULT_255_1_234
10
5.0726863
20
84.0154
11
5.0726863
21
85.1848211
0
LINE
8
DEFAULT_255_1_234
10
5.0726863
20
85.1848211
11
5.2276988
21
85.1848211
0
LINE
8
DEFAULT_255_1_234
10
6.3601739
20
84.9840276
11
6.3601739
21
84.6426788
0
LINE
8
DEFAULT_255_1_234
10
6.3601739
20
84.6426788
11
6.6862625
21
84.6426788
0
LINE
8
DEFAULT_255_1_234
10
6.6862625
20
84.6426788
11
6.6862625
21
84.5021233
0
LINE
8
DEFAULT_255_1_234
10
6.6862625
20
84.5021233
11
6.3601739
21
84.5021233
0
LINE
8
DEFAULT_255_1_234
10
6.3601739
20
84.5021233
11
6.3601739
21
84.1326634
0
LINE
8
DEFAULT_255_1_234
10
6.3601739
20
84.1326634
11
6.2107836
21
84.1326634
0
LINE
8
DEFAULT_255_1_234
10
6.2107836
20
84.1326634
11
6.2107836
21
84.5021233
0
LINE
8
DEFAULT_255_1_234
10
6.2107836
20
84.5021233
11
5.884695
21
84.5021233
0
LINE
8
DEFAULT_255_1_234
10
5.884695
20
84.5021233
11
5.884695
21
84.6426788
0
LINE
8
DEFAULT_255_1_234
10
5.884695
20
84.6426788
11
6.2107836
21
84.6426788
0
LINE
8
DEFAULT_255_1_234
10
6.2107836
20
84.6426788
11
6.2107836
21
84.9840276
0
LINE
8
DEFAULT_255_1_234
10
6.2107836
20
84.9840276
11
6.3601739
21
84.9840276
0
LINE
8
DEFAULT_255_1_234
10
22.5118137
20
93.1279433
11
22.5118137
21
91.9529
0
LINE
8
DEFAULT_255_1_234
10
22.5118137
20
91.9529
11
22.3624234
21
91.9529
0
LINE
8
DEFAULT_255_1_234
10
22.3624234
20
91.9529
11
22.3624234
21
92.9432133
0
LINE
8
DEFAULT_255_1_234
10
22.3624234
20
92.9432133
11
22.0628396
21
92.8331785
0
LINE
8
DEFAULT_255_1_234
10
22.0628396
20
92.8331785
11
22.0628396
21
92.9681117
0
LINE
8
DEFAULT_255_1_234
10
22.0628396
20
92.9681117
11
22.4885217
21
93.1279433
0
LINE
8
DEFAULT_255_1_234
10
22.4885217
20
93.1279433
11
22.5118137
21
93.1279433
0
LINE
8
DEFAULT_255_1_234
10
22.9856863
20
93.1223211
11
23.1848734
21
93.1223211
0
LINE
8
DEFAULT_255_1_234
10
23.1848734
20
93.1223211
11
23.5671841
21
92.1681506
0
LINE
8
DEFAULT_255_1_234
10
23.5671841
20
92.1681506
11
23.9494949
21
93.1223211
0
LINE
8
DEFAULT_255_1_234
10
23.9494949
20
93.1223211
11
24.1494852
21
93.1223211
0
LINE
8
DEFAULT_255_1_234
10
24.1494852
20
93.1223211
11
24.1494852
21
91.9529
0
LINE
8
DEFAULT_255_1_234
10
24.1494852
20
91.9529
11
23.9952758
21
91.9529
0
LINE
8
DEFAULT_255_1_234
10
23.9952758
20
91.9529
11
23.9952758
21
92.4082996
0
LINE
8
DEFAULT_255_1_234
10
23.9952758
20
92.4082996
11
24.0097329
21
92.8998419
0
LINE
8
DEFAULT_255_1_234
10
24.0097329
20
92.8998419
11
23.6258158
21
91.9529
0
LINE
8
DEFAULT_255_1_234
10
23.6258158
20
91.9529
11
23.5077493
21
91.9529
0
LINE
8
DEFAULT_255_1_234
10
23.5077493
20
91.9529
11
23.1246354
21
92.8974324
0
LINE
8
DEFAULT_255_1_234
10
23.1246354
20
92.8974324
11
23.1398957
21
92.4082996
0
LINE
8
DEFAULT_255_1_234
10
23.1398957
20
92.4082996
11
23.1398957
21
91.9529
0
LINE
8
DEFAULT_255_1_234
10
23.1398957
20
91.9529
11
22.9856863
21
91.9529
0
LINE
8
DEFAULT_255_1_234
10
22.9856863
20
91.9529
11
22.9856863
21
93.1223211
0
LINE
8
DEFAULT_255_1_234
10
22.7897119
20
84.1366792
11
22.7897119
21
84.0154
0
LINE
8
DEFAULT_255_1_234
10
22.7897119
20
84.0154
11
22.023484
21
84.0154
0
LINE
8
DEFAULT_255_1_234
10
22.023484
20
84.0154
11
22.023484
21
84.1222221
0
LINE
8
DEFAULT_255_1_234
10
22.023484
20
84.1222221
11
22.4282836
21
84.5719995
0
LINE
8
DEFAULT_255_1_234
10
22.1495823
20
84.8402595
11
22.0009952
21
84.8402595
0
LINE
8
DEFAULT_255_1_234
10
22.5158296
20
84.4764218
11
22.2025918
21
84.1366792
0
LINE
8
DEFAULT_255_1_234
10
22.2025918
20
84.1366792
11
22.7897119
21
84.1366792
0
ARC
8
DEFAULT_255_1_234
10
21.079267
20
85.7649527
40
1.8008286
50
318.5132453
51
320.7828378
0
ARC
8
DEFAULT_255_1_234
10
21.6079644
20
85.3346426
40
1.1191493
50
320.7372736
51
323.9737074
0
ARC
8
DEFAULT_255_1_234
10
21.9999501
20
85.0506361
40
0.6350923
50
323.8961724
51
328.6421089
0
ARC
8
DEFAULT_255_1_234
10
22.2046096
20
84.9244031
40
0.3946393
50
328.8299013
51
331.789948
0
ARC
8
DEFAULT_255_1_234
10
22.3043274
20
84.8729509
40
0.2824501
50
331.4255242
51
352.9364833
0
ARC
8
DEFAULT_255_1_234
10
22.3179775
20
84.8698976
40
0.2685315
50
353.2248685
51
0.0169286
0
ARC
8
DEFAULT_255_1_234
10
22.3389652
20
84.872195
40
0.2475536
50
359.4866256
51
15.9339782
0
ARC
8
DEFAULT_255_1_234
10
22.3896637
20
84.8858286
40
0.1950618
50
16.1714718
51
43.5284424
0
ARC
8
DEFAULT_255_1_234
10
22.3973946
20
84.8935573
40
0.184134
50
43.4415429
51
83.1661404
0
ARC
8
DEFAULT_255_1_234
10
22.3839864
20
84.8198771
40
0.258926
50
82.160215
51
90.1505798
0
ARC
8
DEFAULT_255_1_234
10
22.3808291
20
84.7661865
40
0.3126255
50
89.5460705
51
102.5418777
0
ARC
8
DEFAULT_255_1_234
10
22.3565377
20
84.8692665
40
0.2067346
50
102.1739365
51
129.2061916
0
ARC
8
DEFAULT_255_1_234
10
22.3486449
20
84.8817094
40
0.1921118
50
129.7279328
51
135.7542026
0
ARC
8
DEFAULT_255_1_234
10
22.3607977
20
84.8720045
40
0.2075944
50
136.175737
51
166.3674722
0
ARC
8
DEFAULT_255_1_234
10
22.4614896
20
84.8450182
40
0.3118201
50
165.9092917
51
178.8683903
0
ARC
8
DEFAULT_255_1_234
10
22.5479757
20
84.8403179
40
0.3983935
50
178.438168
51
180.0083905
0
ARC
8
DEFAULT_255_1_234
10
22.4078359
20
84.8442231
40
0.4068601
50
163.2878735
51
180.5581814
0
ARC
8
DEFAULT_255_1_234
10
22.3276621
20
84.866284
40
0.3237344
50
133.454115
51
162.9470031
0
ARC
8
DEFAULT_255_1_234
10
22.3455162
20
84.8473
40
0.349795
50
100.7869394
51
133.4384016
0
ARC
8
DEFAULT_255_1_234
10
22.3802934
20
84.6924319
40
0.5084616
50
89.6605301
51
101.3704185
0
ARC
8
DEFAULT_255_1_234
10
22.3869273
20
84.6985496
40
0.502348
50
78.2171172
51
90.4130393
0
ARC
8
DEFAULT_255_1_234
10
22.4224351
20
84.8609637
40
0.3361092
50
55.9268222
51
78.4888551
0
ARC
8
DEFAULT_255_1_234
10
22.4420791
20
84.8948324
40
0.2970617
50
47.9292255
51
55.4054003
0
ARC
8
DEFAULT_255_1_234
10
22.4522352
20
84.9051502
40
0.2825983
50
4.3347696
51
48.0560701
0
ARC
8
DEFAULT_255_1_234
10
22.3426745
20
84.8881601
40
0.393225
50
359.925209
51
5.5967654
0
ARC
8
DEFAULT_255_1_234
10
22.3855637
20
84.8937816
40
0.3503892
50
337.8914096
51
358.9967724
0
ARC
8
DEFAULT_255_1_234
10
22.1142049
20
84.9984706
40
0.6412172
50
326.9135351
51
338.3505194
0
ARC
8
DEFAULT_255_1_234
10
21.7156353
20
85.2539284
40
1.1146189
50
319.6472867
51
327.095818
0
ARC
8
DEFAULT_255_1_234
10
21.3323356
20
85.5701
40
1.6114559
50
317.2586784
51
319.9046139
0
LINE
8
DEFAULT_255_1_234
10
22.9856863
20
85.1848211
11
23.1848734
21
85.1848211
0
LINE
8
DEFAULT_255_1_234
10
23.1848734
20
85.1848211
11
23.5671841
21
84.2306506
0
LINE
8
DEFAULT_255_1_234
10
23.5671841
20
84.2306506
11
23.9494949
21
85.1848211
0
LINE
8
DEFAULT_255_1_234
10
23.9494949
20
85.1848211
11
24.1494852
21
85.1848211
0
LINE
8
DEFAULT_255_1_234
10
24.1494852
20
85.1848211
11
24.1494852
21
84.0154
0
LINE
8
DEFAULT_255_1_234
10
24.1494852
20
84.0154
11
23.9952758
21
84.0154
0
LINE
8
DEFAULT_255_1_234
10
23.9952758
20
84.0154
11
23.9952758
21
84.4707996
0
LINE
8
DEFAULT_255_1_234
10
23.9952758
20
84.4707996
11
24.0097329
21
84.9623419
0
LINE
8
DEFAULT_255_1_234
10
24.0097329
20
84.9623419
11
23.6258158
21
84.0154
0
LINE
8
DEFAULT_255_1_234
10
23.6258158
20
84.0154
11
23.5077493
21
84.0154
0
LINE
8
DEFAULT_255_1_234
10
23.5077493
20
84.0154
11
23.1246354
21
84.9599324
0
LINE
8
DEFAULT_255_1_234
10
23.1246354
20
84.9599324
11
23.1398957
21
84.4707996
0
LINE
8
DEFAULT_255_1_234
10
23.1398957
20
84.4707996
11
23.1398957
21
84.0154
0
LINE
8
DEFAULT_255_1_234
10
23.1398957
20
84.0154
11
22.9856863
21
84.0154
0
LINE
8
DEFAULT_255_1_234
10
22.9856863
20
84.0154
11
22.9856863
21
85.1848211
0
ENDSEC
0
EOF