0
SECTION
2
HEADER
9
$MEASUREMENT
70
1
0
ENDSEC
0
SECTION
2
TABLES
0
TABLE
2
LTYPE
0
LTYPE
72
65
70
64
2
CONTINUOUS
3
______
73
0
40
0
0
ENDTAB
0
TABLE
2
LAYER
0
LAYER
2
DEFAULT_255_2_778
70
0
62
255
6
CONTINUOUS
0
LAYER
2
DEFAULT_255_1_234
70
0
62
255
6
CONTINUOUS
0
ENDTAB
0
ENDSEC
0
SECTION
2
ENTITIES
0
ARC
8
DEFAULT_255_2_778
10
3.5695693
20
75.805203
40
0.7914215
50
129.1312896
51
180.1450914
0
ARC
8
DEFAULT_255_2_778
10
3.5698345
20
75.8056901
40
0.7912112
50
89.854026
51
129.1684493
0
ARC
8
DEFAULT_255_2_778
10
25.7988937
20
75.8053767
40
0.7915249
50
39.4792447
51
90.147911
0
ARC
8
DEFAULT_255_2_778
10
25.7994935
20
75.8052233
40
0.7911595
50
359.8533901
51
39.5154338
0
ARC
8
DEFAULT_255_2_778
10
25.7991693
20
-1.9863492
40
0.7914836
50
309.4761667
51
0.1482649
0
ARC
8
DEFAULT_255_2_778
10
25.798898
20
-1.9867803
40
0.7913235
50
269.8517415
51
309.511178
0
ARC
8
DEFAULT_255_2_778
10
3.569842
20
-1.9867221
40
0.7913815
50
219.1282118
51
270.1454017
0
ARC
8
DEFAULT_255_2_778
10
3.5695247
20
-1.9863397
40
0.7913769
50
179.8524075
51
219.1641908
0
LINE
8
DEFAULT_255_2_778
10
3.5718503
20
76.5968989
11
25.7968503
21
76.5968989
0
LINE
8
DEFAULT_255_2_778
10
26.5906503
20
75.8031989
11
26.5906503
21
-1.9843011
0
LINE
8
DEFAULT_255_2_778
10
25.7968503
20
-2.7781011
11
3.5718503
21
-2.7781011
0
LINE
8
DEFAULT_255_2_778
10
2.7781503
20
-1.9843011
11
2.7781503
21
75.8031989
0
LINE
8
DEFAULT_255_1_234
10
6.7460835
20
0.5189243
11
6.7725882
21
0.5189243
0
LINE
8
DEFAULT_255_1_234
10
6.7725882
20
0.5189243
11
6.7725882
21
0.392826
0
LINE
8
DEFAULT_255_1_234
10
6.7725882
20
0.392826
11
6.7452803
21
0.392826
0
LINE
8
DEFAULT_255_1_234
10
6.1983189
20
-0.2063417
11
6.1983189
21
-0.1493164
0
LINE
8
DEFAULT_255_1_234
10
6.3477093
20
-0.1685925
11
6.3477093
21
-0.2232083
0
ARC
8
DEFAULT_255_1_234
10
6.7505151
20
-0.1069545
40
0.4998079
50
90.6001036
51
104.514704
0
ARC
8
DEFAULT_255_1_234
10
6.7116667
20
0.0375131
40
0.3502176
50
104.2855254
51
133.862935
0
ARC
8
DEFAULT_255_1_234
10
6.7280424
20
0.026683
40
0.3693984
50
134.5302688
51
161.6210873
0
ARC
8
DEFAULT_255_1_234
10
6.8933613
20
-0.0316105
40
0.5446739
50
161.2849839
51
174.2076652
0
ARC
8
DEFAULT_255_1_234
10
7.034055
20
-0.0510213
40
0.6866274
50
173.7810589
51
174.9254635
0
ARC
8
DEFAULT_255_1_234
10
6.5790382
20
-0.1893161
40
0.3033419
50
95.8330959
51
138.9954921
0
ARC
8
DEFAULT_255_1_234
10
6.6013738
20
-0.3171625
40
0.4328947
50
89.8753725
51
97.0544009
0
ARC
8
DEFAULT_255_1_234
10
6.6061204
20
-0.2336252
40
0.3493769
50
71.6407809
51
90.6240094
0
ARC
8
DEFAULT_255_1_234
10
6.6211777
20
-0.1781918
40
0.2920396
50
39.6367836
51
71.019018
0
ARC
8
DEFAULT_255_1_234
10
6.557525
20
-0.2332002
40
0.3761538
50
10.658731
51
39.9043955
0
ARC
8
DEFAULT_255_1_234
10
6.4027333
20
-0.2668314
40
0.5345136
50
359.682601
51
11.132623
0
ARC
8
DEFAULT_255_1_234
10
6.3987464
20
-0.273899
40
0.5385081
50
347.2486944
51
0.4369317
0
ARC
8
DEFAULT_255_1_234
10
6.5654941
20
-0.3140193
40
0.3670249
50
318.1409698
51
347.6118597
0
ARC
8
DEFAULT_255_1_234
10
6.5979934
20
-0.3407298
40
0.3250007
50
275.6342139
51
317.8248465
0
ARC
8
DEFAULT_255_1_234
10
6.5759045
20
-0.2107781
40
0.4565864
50
269.8874292
51
276.7917694
0
ARC
8
DEFAULT_255_1_234
10
6.5704116
20
-0.3133257
40
0.3540676
50
246.9140195
51
270.7437342
0
ARC
8
DEFAULT_255_1_234
10
6.5710506
20
-0.3275616
40
0.3412781
50
218.1665114
51
245.878116
0
ARC
8
DEFAULT_255_1_234
10
6.6589967
20
-0.2539721
40
0.455911
50
191.4115814
51
218.6077802
0
ARC
8
DEFAULT_255_1_234
10
6.8528056
20
-0.2105167
40
0.6545001
50
179.6345085
51
191.7836486
0
ARC
8
DEFAULT_255_1_234
10
7.4110393
20
-0.1426303
40
1.2127388
50
171.4525249
51
180.3158839
0
ARC
8
DEFAULT_255_1_234
10
6.9715269
20
-0.0742392
40
0.7679464
50
157.9802646
51
171.6246686
0
ARC
8
DEFAULT_255_1_234
10
6.750129
20
0.0140421
40
0.5296008
50
141.4298019
51
157.854097
0
ARC
8
DEFAULT_255_1_234
10
6.685961
20
0.0594381
40
0.4511509
50
102.8715806
51
140.8564722
0
ARC
8
DEFAULT_255_1_234
10
6.7507226
20
-0.1845448
40
0.7034845
50
90.3778349
51
103.5869322
0
ARC
8
DEFAULT_255_1_234
10
6.5769002
20
-0.245027
40
0.2370698
50
89.8751008
51
126.2071704
0
ARC
8
DEFAULT_255_1_234
10
6.5814792
20
-0.2604697
40
0.2522934
50
124.9745049
51
144.895901
0
ARC
8
DEFAULT_255_1_234
10
6.5638982
20
-0.246144
40
0.2296779
50
145.2974905
51
160.2660252
0
ARC
8
DEFAULT_255_1_234
10
6.8711521
20
-0.2263929
40
0.5234525
50
179.6514266
51
190.2855912
0
ARC
8
DEFAULT_255_1_234
10
6.7017658
20
-0.2583214
40
0.3510893
50
190.0945431
51
207.5098196
0
ARC
8
DEFAULT_255_1_234
10
6.6451928
20
-0.2852377
40
0.288489
50
207.9583163
51
216.3251085
0
ARC
8
DEFAULT_255_1_234
10
6.6112036
20
-0.3131895
40
0.2445587
50
215.7661442
51
232.5456785
0
ARC
8
DEFAULT_255_1_234
10
6.5729019
20
-0.3618518
40
0.1826382
50
232.8005391
51
270.6605633
0
ARC
8
DEFAULT_255_1_234
10
6.577472
20
-0.3254388
40
0.2190529
50
269.35537
51
288.4744281
0
ARC
8
DEFAULT_255_1_234
10
6.5867617
20
-0.3603882
40
0.1829749
50
289.1833337
51
322.9683818
0
ARC
8
DEFAULT_255_1_234
10
6.5256139
20
-0.3121609
40
0.2608399
50
322.6007884
51
346.5182367
0
ARC
8
DEFAULT_255_1_234
10
6.4098735
20
-0.2826384
40
0.3802777
50
346.2582162
51
358.7741648
0
ARC
8
DEFAULT_255_1_234
10
6.3080404
20
-0.2771035
40
0.4822176
50
358.3755224
51
0.0098023
0
ARC
8
DEFAULT_255_1_234
10
6.3836591
20
-0.2743343
40
0.4066078
50
359.6214041
51
11.2839074
0
ARC
8
DEFAULT_255_1_234
10
6.5113738
20
-0.2476934
40
0.2761514
50
11.0482309
51
31.8146458
0
ARC
8
DEFAULT_255_1_234
10
6.5422781
20
-0.2309416
40
0.2410679
50
32.3035391
51
38.082671
0
ARC
8
DEFAULT_255_1_234
10
6.5843441
20
-0.1928338
40
0.1844966
50
36.825067
51
85.7415724
0
ARC
8
DEFAULT_255_1_234
10
6.5776274
20
-0.2428699
40
0.2349122
50
85.0140713
51
90.0513278
0
LINE
8
DEFAULT_255_1_234
10
7.8126983
20
0.0153343
11
7.8126983
21
-0.110764
0
LINE
8
DEFAULT_255_1_234
10
7.8126983
20
-0.110764
11
7.3058957
21
-0.110764
0
LINE
8
DEFAULT_255_1_234
10
7.3058957
20
-0.110764
11
7.3058957
21
-0.5252017
0
LINE
8
DEFAULT_255_1_234
10
7.3058957
20
-0.5252017
11
7.8946221
21
-0.5252017
0
LINE
8
DEFAULT_255_1_234
10
7.8946221
20
-0.5252017
11
7.8946221
21
-0.6513
0
LINE
8
DEFAULT_255_1_234
10
7.8946221
20
-0.6513
11
7.1516863
21
-0.6513
0
LINE
8
DEFAULT_255_1_234
10
7.1516863
20
-0.6513
11
7.1516863
21
0.5181211
0
LINE
8
DEFAULT_255_1_234
10
7.1516863
20
0.5181211
11
7.8865903
21
0.5181211
0
LINE
8
DEFAULT_255_1_234
10
7.8865903
20
0.5181211
11
7.8865903
21
0.3912196
0
LINE
8
DEFAULT_255_1_234
10
7.8865903
20
0.3912196
11
7.3058957
21
0.3912196
0
LINE
8
DEFAULT_255_1_234
10
7.3058957
20
0.3912196
11
7.3058957
21
0.0153343
0
LINE
8
DEFAULT_255_1_234
10
7.3058957
20
0.0153343
11
7.8126983
21
0.0153343
0
LINE
8
DEFAULT_255_1_234
10
8.8624465
20
0.1799849
11
8.707434
21
0.1799849
0
LINE
8
DEFAULT_255_1_234
10
8.0150981
20
-0.3123606
11
8.1701107
21
-0.3123606
0
ARC
8
DEFAULT_255_1_234
10
8.7733153
20
1.0746768
40
1.252368
50
248.9199003
51
254.1439814
0
ARC
8
DEFAULT_255_1_234
10
8.6052648
20
0.6420234
40
0.788226
50
241.633709
51
249.0064503
0
ARC
8
DEFAULT_255_1_234
10
8.4524042
20
0.3619317
40
0.4691427
50
230.498225
51
241.8087113
0
ARC
8
DEFAULT_255_1_234
10
8.3739616
20
0.2619906
40
0.3421437
50
227.4064532
51
229.9881192
0
ARC
8
DEFAULT_255_1_234
10
8.3252137
20
0.2144088
40
0.2741476
50
200.6781896
51
228.1763934
0
ARC
8
DEFAULT_255_1_234
10
8.3324447
20
0.2129077
40
0.2804109
50
179.5061581
51
199.8694617
0
ARC
8
DEFAULT_255_1_234
10
8.3315199
20
0.220321
40
0.2795204
50
132.4834203
51
181.0242172
0
ARC
8
DEFAULT_255_1_234
10
8.3910782
20
0.1640704
40
0.3612768
50
129.2532479
51
133.4242687
0
ARC
8
DEFAULT_255_1_234
10
8.4057231
20
0.1420965
40
0.3875675
50
101.98776
51
128.8742646
0
ARC
8
DEFAULT_255_1_234
10
8.4455842
20
-0.0300259
40
0.5642249
50
89.5906553
51
102.3169264
0
ARC
8
DEFAULT_255_1_234
10
8.4526334
20
0.0018148
40
0.5323783
50
77.2360837
51
90.3248275
0
ARC
8
DEFAULT_255_1_234
10
8.4733413
20
0.09854
40
0.4334697
50
63.837784
51
77.0809408
0
ARC
8
DEFAULT_255_1_234
10
8.5011175
20
0.1502911
40
0.3747796
50
45.9864267
51
64.1607727
0
ARC
8
DEFAULT_255_1_234
10
8.5272056
20
0.1800866
40
0.3352302
50
32.2747395
51
45.6547121
0
ARC
8
DEFAULT_255_1_234
10
8.5338497
20
0.181988
40
0.328603
50
359.6507365
51
32.6130309
0
ARC
8
DEFAULT_255_1_234
10
8.4395592
20
0.182466
40
0.2678863
50
359.469343
51
14.9832209
0
ARC
8
DEFAULT_255_1_234
10
8.5100654
20
0.2013539
40
0.1948938
50
14.9781179
51
48.2004265
0
ARC
8
DEFAULT_255_1_234
10
8.4936299
20
0.1806983
40
0.2212521
50
48.5927837
51
74.1241538
0
ARC
8
DEFAULT_255_1_234
10
8.4602788
20
0.0706248
40
0.3362561
50
73.7888341
51
86.6652678
0
ARC
8
DEFAULT_255_1_234
10
8.4500354
20
-0.0501119
40
0.4573953
50
86.2640471
51
90.0526343
0
ARC
8
DEFAULT_255_1_234
10
8.4472066
20
-0.0105808
40
0.4178709
50
89.6697524
51
99.2309573
0
ARC
8
DEFAULT_255_1_234
10
8.4229517
20
0.1338964
40
0.2713749
50
99.069534
51
113.7658566
0
ARC
8
DEFAULT_255_1_234
10
8.3955708
20
0.1984677
40
0.2012469
50
114.0401004
51
127.9850673
0
ARC
8
DEFAULT_255_1_234
10
8.3715272
20
0.228073
40
0.1631167
50
127.7287463
51
176.7105154
0
ARC
8
DEFAULT_255_1_234
10
8.439399
20
0.2179693
40
0.2315392
50
175.1779447
51
180.0581938
0
ARC
8
DEFAULT_255_1_234
10
8.3550836
20
0.2167428
40
0.1472271
50
179.6142195
51
228.1246017
0
ARC
8
DEFAULT_255_1_234
10
8.3992505
20
0.2576308
40
0.2072299
50
226.5779593
51
230.8800004
0
ARC
8
DEFAULT_255_1_234
10
8.4463584
20
0.3201636
40
0.2854818
50
231.4635071
51
241.9260842
0
ARC
8
DEFAULT_255_1_234
10
8.5660762
20
0.54048
40
0.53622
50
241.7178533
51
248.3259551
0
ARC
8
DEFAULT_255_1_234
10
8.7046134
20
0.8837064
40
0.9063478
50
248.2007737
51
252.4528373
0
ARC
8
DEFAULT_255_1_234
10
8.8249858
20
1.2558441
40
1.2974635
50
252.3391078
51
254.3469452
0
ARC
8
DEFAULT_255_1_234
10
8.0707561
20
-1.4418852
40
1.5037162
50
71.0197183
51
74.4087047
0
ARC
8
DEFAULT_255_1_234
10
8.2402246
20
-0.9526889
40
0.9859993
50
66.1847285
51
71.086374
0
ARC
8
DEFAULT_255_1_234
10
8.3958559
20
-0.60228
40
0.6025855
50
59.3536294
51
66.2691831
0
ARC
8
DEFAULT_255_1_234
10
8.4847211
20
-0.4519391
40
0.4279449
50
49.1020879
51
59.3293958
0
ARC
8
DEFAULT_255_1_234
10
8.5665951
20
-0.3586166
40
0.3038015
50
32.7919921
51
49.2505539
0
ARC
8
DEFAULT_255_1_234
10
8.5987041
20
-0.3357809
40
0.264448
50
31.1181161
51
32.4005348
0
ARC
8
DEFAULT_255_1_234
10
8.5898579
20
-0.3393221
40
0.2738556
50
8.1116974
51
30.7958831
0
ARC
8
DEFAULT_255_1_234
10
8.5088247
20
-0.3531247
40
0.3560327
50
359.8389159
51
8.4706516
0
ARC
8
DEFAULT_255_1_234
10
8.5714038
20
-0.3579863
40
0.2934776
50
337.4731098
51
0.7537279
0
ARC
8
DEFAULT_255_1_234
10
8.5892733
20
-0.3599613
40
0.2762607
50
307.5917067
51
336.4315538
0
ARC
8
DEFAULT_255_1_234
10
8.5432561
20
-0.3086898
40
0.3449979
50
307.6551545
51
308.4529766
0
ARC
8
DEFAULT_255_1_234
10
8.520228
20
-0.273175
40
0.3871988
50
284.3734338
51
307.1424381
0
ARC
8
DEFAULT_255_1_234
10
8.470711
20
-0.0910068
40
0.5759636
50
272.4382747
51
284.646547
0
ARC
8
DEFAULT_255_1_234
10
8.4580319
20
0.0889893
40
0.7563528
50
269.9708387
51
272.8178037
0
ARC
8
DEFAULT_255_1_234
10
8.4537358
20
-0.1148284
40
0.5525489
50
248.2707594
51
270.4055579
0
ARC
8
DEFAULT_255_1_234
10
8.44831
20
-0.1338808
40
0.5328452
50
246.1383403
51
248.0542782
0
ARC
8
DEFAULT_255_1_234
10
8.4064478
20
-0.2218157
40
0.4355005
50
233.1670131
51
246.4950969
0
ARC
8
DEFAULT_255_1_234
10
8.3510383
20
-0.2966188
40
0.3424126
50
215.3403242
51
233.0843104
0
ARC
8
DEFAULT_255_1_234
10
8.3237815
20
-0.3164451
40
0.3087104
50
179.2419209
51
215.2648451
0
ARC
8
DEFAULT_255_1_234
10
8.4005409
20
-0.3150334
40
0.2304457
50
179.335461
51
199.1045811
0
ARC
8
DEFAULT_255_1_234
10
8.3673085
20
-0.3237234
40
0.1962176
50
199.8828939
51
232.7063202
0
ARC
8
DEFAULT_255_1_234
10
8.4145353
20
-0.2643212
40
0.2720938
50
232.3738199
51
255.5136649
0
ARC
8
DEFAULT_255_1_234
10
8.448622
20
-0.1399165
40
0.4010747
50
255.2446292
51
267.5320849
0
ARC
8
DEFAULT_255_1_234
10
8.4573843
20
-0.0166298
40
0.5246356
50
267.1557994
51
270.0286766
0
ARC
8
DEFAULT_255_1_234
10
8.4601616
20
-0.061005
40
0.4802668
50
269.7000017
51
278.1660162
0
ARC
8
DEFAULT_255_1_234
10
8.485762
20
-0.2340485
40
0.3053425
50
278.0231263
51
290.625471
0
ARC
8
DEFAULT_255_1_234
10
8.5205308
20
-0.3267975
40
0.206291
50
290.6619762
51
307.0370976
0
ARC
8
DEFAULT_255_1_234
10
8.5505697
20
-0.3636496
40
0.1587906
50
306.3943566
51
355.3030547
0
ARC
8
DEFAULT_255_1_234
10
8.4993628
20
-0.3559887
40
0.2104809
50
354.3660432
51
0.0698737
0
ARC
8
DEFAULT_255_1_234
10
8.5135973
20
-0.3537383
40
0.1962563
50
359.417946
51
16.1971788
0
ARC
8
DEFAULT_255_1_234
10
8.5591284
20
-0.3412582
40
0.149053
50
16.4723299
51
52.6262157
0
ARC
8
DEFAULT_255_1_234
10
8.4770338
20
-0.4496567
40
0.2850296
50
52.7386432
51
62.4979148
0
ARC
8
DEFAULT_255_1_234
10
8.3385415
20
-0.7102717
40
0.5801521
50
62.2515216
51
68.1220564
0
ARC
8
DEFAULT_255_1_234
10
8.1665325
20
-1.1330128
40
1.0365451
50
68.0062803
51
71.8053402
0
ARC
8
DEFAULT_255_1_234
10
7.9869697
20
-1.6715242
40
1.6042013
50
71.7183119
51
73.9258742
0
LINE
8
DEFAULT_255_1_234
10
9.7788679
20
0.5181211
11
9.7788679
21
0.434591
0
LINE
8
DEFAULT_255_1_234
10
9.7788679
20
0.434591
11
9.2945541
21
-0.6513
0
LINE
8
DEFAULT_255_1_234
10
9.2945541
20
-0.6513
11
9.1387383
21
-0.6513
0
LINE
8
DEFAULT_255_1_234
10
9.1387383
20
-0.6513
11
9.6214458
21
0.3960387
0
LINE
8
DEFAULT_255_1_234
10
9.6214458
20
0.3960387
11
8.9885448
21
0.3960387
0
LINE
8
DEFAULT_255_1_234
10
8.9885448
20
0.3960387
11
8.9885448
21
0.5181211
0
LINE
8
DEFAULT_255_1_234
10
8.9885448
20
0.5181211
11
9.7788679
21
0.5181211
0
LINE
8
DEFAULT_255_1_234
10
10.4358641
20
0.5237433
11
10.4358641
21
-0.6513
0
LINE
8
DEFAULT_255_1_234
10
10.4358641
20
-0.6513
11
10.2864737
21
-0.6513
0
LINE
8
DEFAULT_255_1_234
10
10.2864737
20
-0.6513
11
10.2864737
21
0.3390133
0
LINE
8
DEFAULT_255_1_234
10
10.2864737
20
0.3390133
11
9.9868899
21
0.2289785
0
LINE
8
DEFAULT_255_1_234
10
9.9868899
20
0.2289785
11
9.9868899
21
0.3639117
0
LINE
8
DEFAULT_255_1_234
10
9.9868899
20
0.3639117
11
10.412572
21
0.5237433
0
LINE
8
DEFAULT_255_1_234
10
10.412572
20
0.5237433
11
10.4358641
21
0.5237433
0
LINE
8
DEFAULT_255_1_234
10
11.498463
20
0.5181211
11
11.498463
21
-0.258548
0
LINE
8
DEFAULT_255_1_234
10
11.498463
20
-0.258548
11
11.6607042
21
-0.258548
0
LINE
8
DEFAULT_255_1_234
10
11.6607042
20
-0.258548
11
11.6607042
21
-0.3798272
0
LINE
8
DEFAULT_255_1_234
10
11.6607042
20
-0.3798272
11
11.498463
21
-0.3798272
0
LINE
8
DEFAULT_255_1_234
10
11.498463
20
-0.3798272
11
11.498463
21
-0.6513
0
LINE
8
DEFAULT_255_1_234
10
11.498463
20
-0.6513
11
11.3490727
21
-0.6513
0
LINE
8
DEFAULT_255_1_234
10
11.3490727
20
-0.6513
11
11.3490727
21
-0.3798272
0
LINE
8
DEFAULT_255_1_234
10
11.3490727
20
-0.3798272
11
10.8165685
21
-0.3798272
0
LINE
8
DEFAULT_255_1_234
10
10.8165685
20
-0.3798272
11
10.8165685
21
-0.2922813
0
LINE
8
DEFAULT_255_1_234
10
10.8165685
20
-0.2922813
11
11.3402378
21
0.5181211
0
LINE
8
DEFAULT_255_1_234
10
11.3402378
20
0.5181211
11
11.498463
21
0.5181211
0
LINE
8
DEFAULT_255_1_234
10
11.3314029
20
0.2827912
11
10.985235
21
-0.258548
0
LINE
8
DEFAULT_255_1_234
10
10.985235
20
-0.258548
11
11.3490727
21
-0.258548
0
LINE
8
DEFAULT_255_1_234
10
11.3490727
20
-0.258548
11
11.3490727
21
0.3149181
0
LINE
8
DEFAULT_255_1_234
10
11.3490727
20
0.3149181
11
11.3314029
21
0.2827912
0
LINE
8
DEFAULT_255_1_234
10
12.2831639
20
0.5237433
11
12.2831639
21
-0.6513
0
LINE
8
DEFAULT_255_1_234
10
12.2831639
20
-0.6513
11
12.1337735
21
-0.6513
0
LINE
8
DEFAULT_255_1_234
10
12.1337735
20
-0.6513
11
12.1337735
21
0.3390133
0
LINE
8
DEFAULT_255_1_234
10
12.1337735
20
0.3390133
11
11.8341897
21
0.2289785
0
LINE
8
DEFAULT_255_1_234
10
11.8341897
20
0.2289785
11
11.8341897
21
0.3639117
0
LINE
8
DEFAULT_255_1_234
10
11.8341897
20
0.3639117
11
12.2598718
21
0.5237433
0
LINE
8
DEFAULT_255_1_234
10
12.2598718
20
0.5237433
11
12.2831639
21
0.5237433
0
LINE
8
DEFAULT_255_1_234
10
13.0429663
20
-0.0938974
11
13.0429663
21
-0.2151766
0
LINE
8
DEFAULT_255_1_234
10
13.0429663
20
-0.2151766
11
12.6510175
21
-0.2151766
0
LINE
8
DEFAULT_255_1_234
10
12.6510175
20
-0.2151766
11
12.6510175
21
-0.0938974
0
LINE
8
DEFAULT_255_1_234
10
12.6510175
20
-0.0938974
11
13.0429663
21
-0.0938974
0
LINE
8
DEFAULT_255_1_234
10
13.7995561
20
0.5181211
11
13.7995561
21
-0.258548
0
LINE
8
DEFAULT_255_1_234
10
13.7995561
20
-0.258548
11
13.9617972
21
-0.258548
0
LINE
8
DEFAULT_255_1_234
10
13.9617972
20
-0.258548
11
13.9617972
21
-0.3798272
0
LINE
8
DEFAULT_255_1_234
10
13.9617972
20
-0.3798272
11
13.7995561
21
-0.3798272
0
LINE
8
DEFAULT_255_1_234
10
13.7995561
20
-0.3798272
11
13.7995561
21
-0.6513
0
LINE
8
DEFAULT_255_1_234
10
13.7995561
20
-0.6513
11
13.6501657
21
-0.6513
0
LINE
8
DEFAULT_255_1_234
10
13.6501657
20
-0.6513
11
13.6501657
21
-0.3798272
0
LINE
8
DEFAULT_255_1_234
10
13.6501657
20
-0.3798272
11
13.1176615
21
-0.3798272
0
LINE
8
DEFAULT_255_1_234
10
13.1176615
20
-0.3798272
11
13.1176615
21
-0.2922813
0
LINE
8
DEFAULT_255_1_234
10
13.1176615
20
-0.2922813
11
13.6413308
21
0.5181211
0
LINE
8
DEFAULT_255_1_234
10
13.6413308
20
0.5181211
11
13.7995561
21
0.5181211
0
LINE
8
DEFAULT_255_1_234
10
13.6324959
20
0.2827912
11
13.286328
21
-0.258548
0
LINE
8
DEFAULT_255_1_234
10
13.286328
20
-0.258548
11
13.6501657
21
-0.258548
0
LINE
8
DEFAULT_255_1_234
10
13.6501657
20
-0.258548
11
13.6501657
21
0.3149181
0
LINE
8
DEFAULT_255_1_234
10
13.6501657
20
0.3149181
11
13.6324959
21
0.2827912
0
LINE
8
DEFAULT_255_1_234
10
14.5400823
20
-0.6513
11
14.1344795
21
-0.6513
0
LINE
8
DEFAULT_255_1_234
10
14.1344795
20
-0.6513
11
14.1344795
21
0.5181211
0
LINE
8
DEFAULT_255_1_234
10
14.1344795
20
0.5181211
11
14.5167903
21
0.5181211
0
LINE
8
DEFAULT_255_1_234
10
14.5457045
20
-0.1043386
11
14.2886889
21
-0.1043386
0
LINE
8
DEFAULT_255_1_234
10
14.2886889
20
-0.1043386
11
14.2886889
21
-0.5252017
0
LINE
8
DEFAULT_255_1_234
10
14.2886889
20
-0.5252017
11
14.543295
21
-0.5252017
0
LINE
8
DEFAULT_255_1_234
10
14.2886889
20
0.3912196
11
14.2886889
21
0.0193501
0
LINE
8
DEFAULT_255_1_234
10
14.2886889
20
0.0193501
11
14.5216093
21
0.0193501
0
LINE
8
DEFAULT_255_1_234
10
14.5167903
20
0.3912196
11
14.2886889
21
0.3912196
0
ARC
8
DEFAULT_255_1_234
10
14.5205612
20
-0.2186099
40
0.7367406
50
82.1257326
51
90.2932599
0
ARC
8
DEFAULT_255_1_234
10
14.5594566
20
0.0532013
40
0.4621653
50
69.9044149
51
82.2857423
0
ARC
8
DEFAULT_255_1_234
10
14.6165244
20
0.2074637
40
0.2976871
50
51.1838526
51
70.0181538
0
ARC
8
DEFAULT_255_1_234
10
14.642021
20
0.244524
40
0.2528517
50
12.1017251
51
50.4214761
0
ARC
8
DEFAULT_255_1_234
10
14.5036084
20
0.2097676
40
0.3955061
50
359.5251267
51
12.8211707
0
ARC
8
DEFAULT_255_1_234
10
14.6616011
20
0.2028344
40
0.2375281
50
323.4908128
51
0.8817314
0
ARC
8
DEFAULT_255_1_234
10
14.6197698
20
0.235155
40
0.2903817
50
298.6825083
51
323.2756573
0
ARC
8
DEFAULT_255_1_234
10
14.5836061
20
0.2952649
40
0.3604842
50
293.1999386
51
299.1396394
0
ARC
8
DEFAULT_255_1_234
10
14.6509033
20
-0.3132874
40
0.2871098
50
54.0011765
51
74.9167975
0
ARC
8
DEFAULT_255_1_234
10
14.6625393
20
-0.2935668
40
0.2643248
50
36.3580696
51
53.5291921
0
ARC
8
DEFAULT_255_1_234
10
14.6498635
20
-0.3026002
40
0.2798884
50
4.8189881
51
36.3089977
0
ARC
8
DEFAULT_255_1_234
10
14.571947
20
-0.313573
40
0.358478
50
359.9370252
51
5.5204067
0
ARC
8
DEFAULT_255_1_234
10
14.5394991
20
-0.3176333
40
0.3909429
50
344.7478609
51
0.5373281
0
ARC
8
DEFAULT_255_1_234
10
14.6385963
20
-0.3443456
40
0.2883093
50
311.1786488
51
344.6886812
0
ARC
8
DEFAULT_255_1_234
10
14.609401
20
-0.3080013
40
0.3348923
50
286.0418249
51
310.8441291
0
ARC
8
DEFAULT_255_1_234
10
14.5586842
20
-0.1433193
40
0.5071869
50
274.1042341
51
286.4071509
0
ARC
8
DEFAULT_255_1_234
10
14.5410098
20
0.0450229
40
0.6963234
50
269.9236873
51
274.445647
0
ARC
8
DEFAULT_255_1_234
10
14.5456098
20
-0.1889463
40
0.3362634
50
269.6055768
51
281.3740047
0
ARC
8
DEFAULT_255_1_234
10
14.5686736
20
-0.2982647
40
0.224546
50
281.1055983
51
302.5132223
0
ARC
8
DEFAULT_255_1_234
10
14.5833636
20
-0.3246177
40
0.1944357
50
303.0368945
51
311.8811219
0
ARC
8
DEFAULT_255_1_234
10
14.5905042
20
-0.333111
40
0.1833454
50
311.9916004
51
351.7143462
0
ARC
8
DEFAULT_255_1_234
10
14.5088272
20
-0.316607
40
0.2665871
50
350.7339597
51
0.2221581
0
ARC
8
DEFAULT_255_1_234
10
14.4980718
20
-0.3109533
40
0.2773789
50
359.0456241
51
17.2296242
0
ARC
8
DEFAULT_255_1_234
10
14.6019836
20
-0.2800837
40
0.1689915
50
17.6685481
51
78.9940892
0
ARC
8
DEFAULT_255_1_234
10
14.5502999
20
-0.4655776
40
0.3612658
50
76.5635957
51
90.6980921
0
LINE
8
DEFAULT_255_1_234
10
14.5458984
20
-0.1043387
11
14.5457045
21
-0.1043386
0
ARC
8
DEFAULT_255_1_234
10
14.523866
20
0.3479036
40
0.3285612
50
269.6064736
51
281.4533503
0
ARC
8
DEFAULT_255_1_234
10
14.5461479
20
0.2427688
40
0.2210975
50
281.2041486
51
302.5148063
0
ARC
8
DEFAULT_255_1_234
10
14.5598329
20
0.2181241
40
0.1929674
50
303.021671
51
309.8369575
0
ARC
8
DEFAULT_255_1_234
10
14.5781791
20
0.1975488
40
0.1654181
50
309.5228395
51
356.9509836
0
ARC
8
DEFAULT_255_1_234
10
14.5118373
20
0.2070932
40
0.2322512
50
355.4701227
51
0.0492546
0
ARC
8
DEFAULT_255_1_234
10
14.4839465
20
0.2093094
40
0.2601498
50
359.5558597
51
11.2096359
0
ARC
8
DEFAULT_255_1_234
10
14.5796754
20
0.229123
40
0.1623975
50
10.9182341
51
31.3230275
0
ARC
8
DEFAULT_255_1_234
10
14.6082488
20
0.2450214
40
0.1297302
50
31.8852677
51
52.1412565
0
ARC
8
DEFAULT_255_1_234
10
14.5808221
20
0.206275
40
0.1771663
50
52.8285564
51
71.9850297
0
ARC
8
DEFAULT_255_1_234
10
14.5432397
20
0.0956664
40
0.2939794
50
71.6863486
51
82.8455995
0
ARC
8
DEFAULT_255_1_234
10
14.5192933
20
-0.0852851
40
0.476506
50
82.6984714
51
90.1729175
0
ARC
8
DEFAULT_255_1_234
10
14.5170568
20
0.0370623
40
0.3541573
50
89.8708275
51
90.0431131
0
LINE
8
DEFAULT_255_1_234
10
15.8034748
20
-0.0087609
11
15.8034748
21
-0.1348592
0
LINE
8
DEFAULT_255_1_234
10
15.8034748
20
-0.1348592
11
15.3127355
21
-0.1348592
0
LINE
8
DEFAULT_255_1_234
10
15.3127355
20
-0.1348592
11
15.3127355
21
-0.6513
0
LINE
8
DEFAULT_255_1_234
10
15.3127355
20
-0.6513
11
15.1585262
21
-0.6513
0
LINE
8
DEFAULT_255_1_234
10
15.1585262
20
-0.6513
11
15.1585262
21
0.5181211
0
LINE
8
DEFAULT_255_1_234
10
15.1585262
20
0.5181211
11
15.882989
21
0.5181211
0
LINE
8
DEFAULT_255_1_234
10
15.882989
20
0.5181211
11
15.882989
21
0.3912196
0
LINE
8
DEFAULT_255_1_234
10
15.882989
20
0.3912196
11
15.3127355
21
0.3912196
0
LINE
8
DEFAULT_255_1_234
10
15.3127355
20
0.3912196
11
15.3127355
21
-0.0087609
0
LINE
8
DEFAULT_255_1_234
10
15.3127355
20
-0.0087609
11
15.8034748
21
-0.0087609
0
LINE
8
DEFAULT_255_1_234
10
16.7624643
20
0.0402327
11
16.7624643
21
-0.1525291
0
LINE
8
DEFAULT_255_1_234
10
16.0243476
20
-0.1726084
11
16.0243476
21
0.0257755
0
LINE
8
DEFAULT_255_1_234
10
16.6138771
20
-0.1926877
11
16.6138771
21
0.0506739
0
LINE
8
DEFAULT_255_1_234
10
16.1729347
20
0.0619184
11
16.1729347
21
-0.1758211
0
ARC
8
DEFAULT_255_1_234
10
15.5377533
20
-0.1574195
40
1.2247208
50
353.8441951
51
0.2287902
0
ARC
8
DEFAULT_255_1_234
10
16.0017036
20
-0.2092194
40
0.7578929
50
344.4934747
51
353.9765454
0
ARC
8
DEFAULT_255_1_234
10
16.3009626
20
-0.2943019
40
0.4467846
50
329.2803592
51
344.7472793
0
ARC
8
DEFAULT_255_1_234
10
16.4002451
20
-0.3487982
40
0.3336173
50
324.9352394
51
328.6160465
0
ARC
8
DEFAULT_255_1_234
10
16.437956
20
-0.3751573
40
0.2876076
50
280.580143
51
324.9173126
0
ARC
8
DEFAULT_255_1_234
10
16.3978353
20
-0.2080901
40
0.4592847
50
269.5977311
51
281.6734359
0
ARC
8
DEFAULT_255_1_234
10
16.3906258
20
-0.2200827
40
0.4472986
50
256.6228859
51
270.51044
0
ARC
8
DEFAULT_255_1_234
10
16.3504236
20
-0.3749123
40
0.2873874
50
215.8618325
51
257.2788573
0
ARC
8
DEFAULT_255_1_234
10
16.4525268
20
-0.3064023
40
0.4102928
50
197.9693508
51
215.2623606
0
ARC
8
DEFAULT_255_1_234
10
16.7010383
20
-0.2225291
40
0.6725652
50
187.8816417
51
198.2346507
0
ARC
8
DEFAULT_255_1_234
10
17.0968592
20
-0.1653921
40
1.0724845
50
180.8976217
51
188.0055519
0
ARC
8
DEFAULT_255_1_234
10
17.376878
20
-0.1550223
40
1.3526448
50
180.7449369
51
181.1510016
0
ARC
8
DEFAULT_255_1_234
10
17.2191509
20
0.0306042
40
1.1948131
50
173.7675579
51
180.231553
0
ARC
8
DEFAULT_255_1_234
10
16.7673655
20
0.0816666
40
0.7401564
50
164.3058563
51
173.9002247
0
ARC
8
DEFAULT_255_1_234
10
16.4761724
20
0.1655656
40
0.4371288
50
148.7922025
51
164.568378
0
ARC
8
DEFAULT_255_1_234
10
16.3810176
20
0.2186929
40
0.3282386
50
144.5883898
51
148.1176286
0
ARC
8
DEFAULT_255_1_234
10
16.3467074
20
0.2426315
40
0.2864044
50
101.6440918
51
144.514236
0
ARC
8
DEFAULT_255_1_234
10
16.3892141
20
0.0737069
40
0.4604934
50
89.5284041
51
102.5819763
0
ARC
8
DEFAULT_255_1_234
10
16.3971229
20
0.0698018
40
0.464401
50
77.0437873
51
90.5081339
0
ARC
8
DEFAULT_255_1_234
10
16.4373231
20
0.2340615
40
0.2953195
50
48.2778575
51
77.4994676
0
ARC
8
DEFAULT_255_1_234
10
16.4445862
20
0.2469746
40
0.2808655
50
36.3142134
51
47.6305865
0
ARC
8
DEFAULT_255_1_234
10
16.3577169
20
0.1884515
40
0.3855453
50
18.2931786
51
35.6769206
0
ARC
8
DEFAULT_255_1_234
10
16.1033928
20
0.1011593
40
0.654423
50
8.024666
51
18.5605216
0
ARC
8
DEFAULT_255_1_234
10
15.6870848
20
0.0396792
40
1.0752407
50
1.1274072
51
8.1718305
0
ARC
8
DEFAULT_255_1_234
10
15.3635038
20
0.0269885
40
1.3990231
50
0.5424119
51
1.3863029
0
ARC
8
DEFAULT_255_1_234
10
15.5456416
20
0.0542342
40
1.0682415
50
359.8090433
51
4.9407866
0
ARC
8
DEFAULT_255_1_234
10
15.966643
20
0.0918113
40
0.6455691
50
4.8362157
51
12.2904523
0
ARC
8
DEFAULT_255_1_234
10
16.2421545
20
0.1531965
40
0.3633074
50
12.0805627
51
23.8173984
0
ARC
8
DEFAULT_255_1_234
10
16.359525
20
0.2028919
40
0.2358723
50
24.2871213
51
31.3935614
0
ARC
8
DEFAULT_255_1_234
10
16.4119947
20
0.2372233
40
0.1732111
50
30.7407893
51
82.4657128
0
ARC
8
DEFAULT_255_1_234
10
16.3940082
20
0.1488691
40
0.263235
50
81.1060089
51
90.2184952
0
ARC
8
DEFAULT_255_1_234
10
16.3904381
20
0.1746924
40
0.2374236
50
89.3806855
51
105.6762551
0
ARC
8
DEFAULT_255_1_234
10
16.3721011
20
0.2413567
40
0.1682847
50
105.7981136
51
149.7388061
0
ARC
8
DEFAULT_255_1_234
10
16.478509
20
0.177395
40
0.2924306
50
149.4208916
51
163.6286378
0
ARC
8
DEFAULT_255_1_234
10
16.6875978
20
0.113625
40
0.5110213
50
163.3763315
51
172.1410975
0
ARC
8
DEFAULT_255_1_234
10
17.0176697
20
0.0663518
40
0.8444586
50
172.0259487
51
178.0703232
0
ARC
8
DEFAULT_255_1_234
10
17.3206786
20
0.0519906
40
1.1477868
50
177.8631668
51
179.5044149
0
ARC
8
DEFAULT_255_1_234
10
17.2134191
20
-0.1794611
40
1.0404907
50
179.7995573
51
185.2460446
0
ARC
8
DEFAULT_255_1_234
10
16.809123
20
-0.2177487
40
0.6343885
50
185.1411642
51
193.0079639
0
ARC
8
DEFAULT_255_1_234
10
16.5447702
20
-0.2802359
40
0.3627568
50
192.7897626
51
205.2507664
0
ARC
8
DEFAULT_255_1_234
10
16.4401249
20
-0.3269585
40
0.2481908
50
205.8005384
51
211.2537509
0
ARC
8
DEFAULT_255_1_234
10
16.387769
20
-0.362042
40
0.1852521
50
210.3789793
51
238.4008143
0
ARC
8
DEFAULT_255_1_234
10
16.3858212
20
-0.3573624
40
0.1882621
50
239.6520629
51
265.9793761
0
ARC
8
DEFAULT_255_1_234
10
16.3943412
20
-0.2901573
40
0.2559272
50
265.1315437
51
270.060332
0
ARC
8
DEFAULT_255_1_234
10
16.3972191
20
-0.3225466
40
0.2235528
50
269.3314664
51
287.2178029
0
ARC
8
DEFAULT_255_1_234
10
16.4110043
20
-0.3728721
40
0.1714108
50
287.7958004
51
329.080874
0
ARC
8
DEFAULT_255_1_234
10
16.3152499
20
-0.313107
40
0.2842745
50
328.6634704
51
343.3325132
0
ARC
8
DEFAULT_255_1_234
10
16.097952
20
-0.2454137
40
0.5118644
50
343.0499468
51
351.9393422
0
ARC
8
DEFAULT_255_1_234
10
15.751282
20
-0.1943051
40
0.8622784
50
351.8069023
51
357.7959224
0
ARC
8
DEFAULT_255_1_234
10
15.4277376
20
-0.1775279
40
1.1862365
50
357.5871873
51
359.2677531
0
LINE
8
DEFAULT_255_1_234
10
17.6861142
20
0.0402327
11
17.6861142
21
-0.1525291
0
LINE
8
DEFAULT_255_1_234
10
16.9479975
20
-0.1726084
11
16.9479975
21
0.0257755
0
LINE
8
DEFAULT_255_1_234
10
17.5375271
20
-0.1926877
11
17.5375271
21
0.0506739
0
LINE
8
DEFAULT_255_1_234
10
17.0965846
20
0.0619184
11
17.0965846
21
-0.1758211
0
ARC
8
DEFAULT_255_1_234
10
16.4614032
20
-0.1574195
40
1.2247208
50
353.8441951
51
0.2287902
0
ARC
8
DEFAULT_255_1_234
10
16.9253535
20
-0.2092194
40
0.7578929
50
344.4934747
51
353.9765454
0
ARC
8
DEFAULT_255_1_234
10
17.2246126
20
-0.2943019
40
0.4467846
50
329.2803592
51
344.7472793
0
ARC
8
DEFAULT_255_1_234
10
17.323895
20
-0.3487982
40
0.3336173
50
324.9352394
51
328.6160465
0
ARC
8
DEFAULT_255_1_234
10
17.3616059
20
-0.3751573
40
0.2876076
50
280.580143
51
324.9173126
0
ARC
8
DEFAULT_255_1_234
10
17.3214852
20
-0.2080901
40
0.4592847
50
269.5977311
51
281.6734359
0
ARC
8
DEFAULT_255_1_234
10
17.3142757
20
-0.2200827
40
0.4472986
50
256.6228859
51
270.51044
0
ARC
8
DEFAULT_255_1_234
10
17.2740735
20
-0.3749123
40
0.2873874
50
215.8618325
51
257.2788573
0
ARC
8
DEFAULT_255_1_234
10
17.3761767
20
-0.3064023
40
0.4102928
50
197.9693508
51
215.2623606
0
ARC
8
DEFAULT_255_1_234
10
17.6246882
20
-0.2225291
40
0.6725652
50
187.8816417
51
198.2346507
0
ARC
8
DEFAULT_255_1_234
10
18.0205091
20
-0.1653921
40
1.0724845
50
180.8976217
51
188.0055519
0
ARC
8
DEFAULT_255_1_234
10
18.3005279
20
-0.1550223
40
1.3526448
50
180.7449369
51
181.1510016
0
ARC
8
DEFAULT_255_1_234
10
18.1428008
20
0.0306042
40
1.1948131
50
173.7675579
51
180.231553
0
ARC
8
DEFAULT_255_1_234
10
17.6910154
20
0.0816666
40
0.7401564
50
164.3058563
51
173.9002247
0
ARC
8
DEFAULT_255_1_234
10
17.3998223
20
0.1655656
40
0.4371288
50
148.7922025
51
164.568378
0
ARC
8
DEFAULT_255_1_234
10
17.3046675
20
0.2186929
40
0.3282386
50
144.5883898
51
148.1176286
0
ARC
8
DEFAULT_255_1_234
10
17.2703573
20
0.2426315
40
0.2864044
50
101.6440918
51
144.514236
0
ARC
8
DEFAULT_255_1_234
10
17.312864
20
0.0737069
40
0.4604934
50
89.5284041
51
102.5819763
0
ARC
8
DEFAULT_255_1_234
10
17.3207728
20
0.0698018
40
0.464401
50
77.0437873
51
90.5081339
0
ARC
8
DEFAULT_255_1_234
10
17.360973
20
0.2340615
40
0.2953195
50
48.2778575
51
77.4994676
0
ARC
8
DEFAULT_255_1_234
10
17.3682361
20
0.2469746
40
0.2808655
50
36.3142134
51
47.6305865
0
ARC
8
DEFAULT_255_1_234
10
17.2813668
20
0.1884515
40
0.3855453
50
18.2931786
51
35.6769206
0
ARC
8
DEFAULT_255_1_234
10
17.0270427
20
0.1011593
40
0.654423
50
8.024666
51
18.5605216
0
ARC
8
DEFAULT_255_1_234
10
16.6107347
20
0.0396792
40
1.0752407
50
1.1274072
51
8.1718305
0
ARC
8
DEFAULT_255_1_234
10
16.2871537
20
0.0269885
40
1.3990231
50
0.5424119
51
1.3863029
0
ARC
8
DEFAULT_255_1_234
10
16.4692915
20
0.0542342
40
1.0682415
50
359.8090433
51
4.9407866
0
ARC
8
DEFAULT_255_1_234
10
16.8902929
20
0.0918113
40
0.6455691
50
4.8362157
51
12.2904523
0
ARC
8
DEFAULT_255_1_234
10
17.1658044
20
0.1531965
40
0.3633074
50
12.0805627
51
23.8173984
0
ARC
8
DEFAULT_255_1_234
10
17.2831749
20
0.2028919
40
0.2358723
50
24.2871213
51
31.3935614
0
ARC
8
DEFAULT_255_1_234
10
17.3356446
20
0.2372233
40
0.1732111
50
30.7407893
51
82.4657128
0
ARC
8
DEFAULT_255_1_234
10
17.3176581
20
0.1488691
40
0.263235
50
81.1060089
51
90.2184952
0
ARC
8
DEFAULT_255_1_234
10
17.314088
20
0.1746924
40
0.2374236
50
89.3806855
51
105.6762551
0
ARC
8
DEFAULT_255_1_234
10
17.295751
20
0.2413567
40
0.1682847
50
105.7981136
51
149.7388061
0
ARC
8
DEFAULT_255_1_234
10
17.4021589
20
0.177395
40
0.2924306
50
149.4208916
51
163.6286378
0
ARC
8
DEFAULT_255_1_234
10
17.6112477
20
0.113625
40
0.5110213
50
163.3763315
51
172.1410975
0
ARC
8
DEFAULT_255_1_234
10
17.9413196
20
0.0663518
40
0.8444586
50
172.0259487
51
178.0703232
0
ARC
8
DEFAULT_255_1_234
10
18.2443285
20
0.0519906
40
1.1477868
50
177.8631668
51
179.5044149
0
ARC
8
DEFAULT_255_1_234
10
18.137069
20
-0.1794611
40
1.0404907
50
179.7995573
51
185.2460446
0
ARC
8
DEFAULT_255_1_234
10
17.7327729
20
-0.2177487
40
0.6343885
50
185.1411642
51
193.0079639
0
ARC
8
DEFAULT_255_1_234
10
17.4684201
20
-0.2802359
40
0.3627568
50
192.7897626
51
205.2507664
0
ARC
8
DEFAULT_255_1_234
10
17.3637748
20
-0.3269585
40
0.2481908
50
205.8005384
51
211.2537509
0
ARC
8
DEFAULT_255_1_234
10
17.3114189
20
-0.362042
40
0.1852521
50
210.3789793
51
238.4008143
0
ARC
8
DEFAULT_255_1_234
10
17.3094711
20
-0.3573624
40
0.1882621
50
239.6520629
51
265.9793761
0
ARC
8
DEFAULT_255_1_234
10
17.3179911
20
-0.2901573
40
0.2559272
50
265.1315437
51
270.060332
0
ARC
8
DEFAULT_255_1_234
10
17.320869
20
-0.3225466
40
0.2235528
50
269.3314664
51
287.2178029
0
ARC
8
DEFAULT_255_1_234
10
17.3346542
20
-0.3728721
40
0.1714108
50
287.7958004
51
329.080874
0
ARC
8
DEFAULT_255_1_234
10
17.2388998
20
-0.313107
40
0.2842745
50
328.6634704
51
343.3325132
0
ARC
8
DEFAULT_255_1_234
10
17.0216019
20
-0.2454137
40
0.5118644
50
343.0499468
51
351.9393422
0
ARC
8
DEFAULT_255_1_234
10
16.6749319
20
-0.1943051
40
0.8622784
50
351.8069023
51
357.7959224
0
ARC
8
DEFAULT_255_1_234
10
16.3513875
20
-0.1775279
40
1.1862365
50
357.5871873
51
359.2677531
0
LINE
8
DEFAULT_255_1_234
10
18.2009486
20
-0.0938974
11
18.2009486
21
-0.2151766
0
LINE
8
DEFAULT_255_1_234
10
18.2009486
20
-0.2151766
11
17.8089998
21
-0.2151766
0
LINE
8
DEFAULT_255_1_234
10
17.8089998
20
-0.2151766
11
17.8089998
21
-0.0938974
0
LINE
8
DEFAULT_255_1_234
10
17.8089998
20
-0.0938974
11
18.2009486
21
-0.0938974
0
LINE
8
DEFAULT_255_1_234
10
19.0635573
20
0.0402327
11
19.0635573
21
-0.1525291
0
LINE
8
DEFAULT_255_1_234
10
18.3254406
20
-0.1726084
11
18.3254406
21
0.0257755
0
LINE
8
DEFAULT_255_1_234
10
18.9149702
20
-0.1926877
11
18.9149702
21
0.0506739
0
LINE
8
DEFAULT_255_1_234
10
18.4740277
20
0.0619184
11
18.4740277
21
-0.1758211
0
ARC
8
DEFAULT_255_1_234
10
17.8388463
20
-0.1574195
40
1.2247208
50
353.8441951
51
0.2287902
0
ARC
8
DEFAULT_255_1_234
10
18.3027966
20
-0.2092194
40
0.7578929
50
344.4934747
51
353.9765454
0
ARC
8
DEFAULT_255_1_234
10
18.6020557
20
-0.2943019
40
0.4467846
50
329.2803592
51
344.7472793
0
ARC
8
DEFAULT_255_1_234
10
18.7013382
20
-0.3487982
40
0.3336173
50
324.9352394
51
328.6160465
0
ARC
8
DEFAULT_255_1_234
10
18.739049
20
-0.3751573
40
0.2876076
50
280.580143
51
324.9173126
0
ARC
8
DEFAULT_255_1_234
10
18.6989283
20
-0.2080901
40
0.4592847
50
269.5977311
51
281.6734359
0
ARC
8
DEFAULT_255_1_234
10
18.6917188
20
-0.2200827
40
0.4472986
50
256.6228859
51
270.51044
0
ARC
8
DEFAULT_255_1_234
10
18.6515166
20
-0.3749123
40
0.2873874
50
215.8618325
51
257.2788573
0
ARC
8
DEFAULT_255_1_234
10
18.7536198
20
-0.3064023
40
0.4102928
50
197.9693508
51
215.2623606
0
ARC
8
DEFAULT_255_1_234
10
19.0021313
20
-0.2225291
40
0.6725652
50
187.8816417
51
198.2346507
0
ARC
8
DEFAULT_255_1_234
10
19.3979522
20
-0.1653921
40
1.0724845
50
180.8976217
51
188.0055519
0
ARC
8
DEFAULT_255_1_234
10
19.677971
20
-0.1550223
40
1.3526448
50
180.7449369
51
181.1510016
0
ARC
8
DEFAULT_255_1_234
10
19.5202439
20
0.0306042
40
1.1948131
50
173.7675579
51
180.231553
0
ARC
8
DEFAULT_255_1_234
10
19.0684586
20
0.0816666
40
0.7401564
50
164.3058563
51
173.9002247
0
ARC
8
DEFAULT_255_1_234
10
18.7772654
20
0.1655656
40
0.4371288
50
148.7922025
51
164.568378
0
ARC
8
DEFAULT_255_1_234
10
18.6821107
20
0.2186929
40
0.3282386
50
144.5883898
51
148.1176286
0
ARC
8
DEFAULT_255_1_234
10
18.6478004
20
0.2426315
40
0.2864044
50
101.6440918
51
144.514236
0
ARC
8
DEFAULT_255_1_234
10
18.6903071
20
0.0737069
40
0.4604934
50
89.5284041
51
102.5819763
0
ARC
8
DEFAULT_255_1_234
10
18.6982159
20
0.0698018
40
0.464401
50
77.0437873
51
90.5081339
0
ARC
8
DEFAULT_255_1_234
10
18.7384161
20
0.2340615
40
0.2953195
50
48.2778575
51
77.4994676
0
ARC
8
DEFAULT_255_1_234
10
18.7456792
20
0.2469746
40
0.2808655
50
36.3142134
51
47.6305865
0
ARC
8
DEFAULT_255_1_234
10
18.6588099
20
0.1884515
40
0.3855453
50
18.2931786
51
35.6769206
0
ARC
8
DEFAULT_255_1_234
10
18.4044858
20
0.1011593
40
0.654423
50
8.024666
51
18.5605216
0
ARC
8
DEFAULT_255_1_234
10
17.9881778
20
0.0396792
40
1.0752407
50
1.1274072
51
8.1718305
0
ARC
8
DEFAULT_255_1_234
10
17.6645968
20
0.0269885
40
1.3990231
50
0.5424119
51
1.3863029
0
ARC
8
DEFAULT_255_1_234
10
17.8467346
20
0.0542342
40
1.0682415
50
359.8090433
51
4.9407866
0
ARC
8
DEFAULT_255_1_234
10
18.267736
20
0.0918113
40
0.6455691
50
4.8362157
51
12.2904523
0
ARC
8
DEFAULT_255_1_234
10
18.5432475
20
0.1531965
40
0.3633074
50
12.0805627
51
23.8173984
0
ARC
8
DEFAULT_255_1_234
10
18.660618
20
0.2028919
40
0.2358723
50
24.2871213
51
31.3935614
0
ARC
8
DEFAULT_255_1_234
10
18.7130878
20
0.2372233
40
0.1732111
50
30.7407893
51
82.4657128
0
ARC
8
DEFAULT_255_1_234
10
18.6951012
20
0.1488691
40
0.263235
50
81.1060089
51
90.2184952
0
ARC
8
DEFAULT_255_1_234
10
18.6915311
20
0.1746924
40
0.2374236
50
89.3806855
51
105.6762551
0
ARC
8
DEFAULT_255_1_234
10
18.6731941
20
0.2413567
40
0.1682847
50
105.7981136
51
149.7388061
0
ARC
8
DEFAULT_255_1_234
10
18.779602
20
0.177395
40
0.2924306
50
149.4208916
51
163.6286378
0
ARC
8
DEFAULT_255_1_234
10
18.9886908
20
0.113625
40
0.5110213
50
163.3763315
51
172.1410975
0
ARC
8
DEFAULT_255_1_234
10
19.3187627
20
0.0663518
40
0.8444586
50
172.0259487
51
178.0703232
0
ARC
8
DEFAULT_255_1_234
10
19.6217716
20
0.0519906
40
1.1477868
50
177.8631668
51
179.5044149
0
ARC
8
DEFAULT_255_1_234
10
19.5145121
20
-0.1794611
40
1.0404907
50
179.7995573
51
185.2460446
0
ARC
8
DEFAULT_255_1_234
10
19.110216
20
-0.2177487
40
0.6343885
50
185.1411642
51
193.0079639
0
ARC
8
DEFAULT_255_1_234
10
18.8458633
20
-0.2802359
40
0.3627568
50
192.7897626
51
205.2507664
0
ARC
8
DEFAULT_255_1_234
10
18.741218
20
-0.3269585
40
0.2481908
50
205.8005384
51
211.2537509
0
ARC
8
DEFAULT_255_1_234
10
18.688862
20
-0.362042
40
0.1852521
50
210.3789793
51
238.4008143
0
ARC
8
DEFAULT_255_1_234
10
18.6869142
20
-0.3573624
40
0.1882621
50
239.6520629
51
265.9793761
0
ARC
8
DEFAULT_255_1_234
10
18.6954342
20
-0.2901573
40
0.2559272
50
265.1315437
51
270.060332
0
ARC
8
DEFAULT_255_1_234
10
18.6983121
20
-0.3225466
40
0.2235528
50
269.3314664
51
287.2178029
0
ARC
8
DEFAULT_255_1_234
10
18.7120973
20
-0.3728721
40
0.1714108
50
287.7958004
51
329.080874
0
ARC
8
DEFAULT_255_1_234
10
18.616343
20
-0.313107
40
0.2842745
50
328.6634704
51
343.3325132
0
ARC
8
DEFAULT_255_1_234
10
18.399045
20
-0.2454137
40
0.5118644
50
343.0499468
51
351.9393422
0
ARC
8
DEFAULT_255_1_234
10
18.052375
20
-0.1943051
40
0.8622784
50
351.8069023
51
357.7959224
0
ARC
8
DEFAULT_255_1_234
10
17.7288306
20
-0.1775279
40
1.1862365
50
357.5871873
51
359.2677531
0
LINE
8
DEFAULT_255_1_234
10
20.0498548
20
-0.6513
11
19.9382136
21
-0.3460939
0
LINE
8
DEFAULT_255_1_234
10
19.9382136
20
-0.3460939
11
19.4482776
21
-0.3460939
0
LINE
8
DEFAULT_255_1_234
10
19.4482776
20
-0.3460939
11
19.3382428
21
-0.6513
0
LINE
8
DEFAULT_255_1_234
10
19.3382428
20
-0.6513
11
19.1792144
21
-0.6513
0
LINE
8
DEFAULT_255_1_234
10
19.1792144
20
-0.6513
11
19.625779
21
0.5181211
0
LINE
8
DEFAULT_255_1_234
10
19.625779
20
0.5181211
11
19.7607122
21
0.5181211
0
LINE
8
DEFAULT_255_1_234
10
19.7607122
20
0.5181211
11
20.20808
21
-0.6513
0
LINE
8
DEFAULT_255_1_234
10
20.20808
20
-0.6513
11
20.0498548
21
-0.6513
0
LINE
8
DEFAULT_255_1_234
10
19.6932456
20
0.3277689
11
19.4948617
21
-0.2191925
0
LINE
8
DEFAULT_255_1_234
10
19.4948617
20
-0.2191925
11
19.8924327
21
-0.2191925
0
LINE
8
DEFAULT_255_1_234
10
19.8924327
20
-0.2191925
11
19.6932456
21
0.3277689
0
LINE
8
DEFAULT_255_1_234
10
21.122895
20
-0.6513
11
21.0112539
21
-0.3460939
0
LINE
8
DEFAULT_255_1_234
10
21.0112539
20
-0.3460939
11
20.5213178
21
-0.3460939
0
LINE
8
DEFAULT_255_1_234
10
20.5213178
20
-0.3460939
11
20.411283
21
-0.6513
0
LINE
8
DEFAULT_255_1_234
10
20.411283
20
-0.6513
11
20.2522546
21
-0.6513
0
LINE
8
DEFAULT_255_1_234
10
20.2522546
20
-0.6513
11
20.6988192
21
0.5181211
0
LINE
8
DEFAULT_255_1_234
10
20.6988192
20
0.5181211
11
20.8337524
21
0.5181211
0
LINE
8
DEFAULT_255_1_234
10
20.8337524
20
0.5181211
11
21.2811203
21
-0.6513
0
LINE
8
DEFAULT_255_1_234
10
21.2811203
20
-0.6513
11
21.122895
21
-0.6513
0
LINE
8
DEFAULT_255_1_234
10
20.7662858
20
0.3277689
11
20.5679019
21
-0.2191925
0
LINE
8
DEFAULT_255_1_234
10
20.5679019
20
-0.2191925
11
20.9654729
21
-0.2191925
0
LINE
8
DEFAULT_255_1_234
10
20.9654729
20
-0.2191925
11
20.7662858
21
0.3277689
0
LINE
8
DEFAULT_255_1_234
10
22.1332877
20
0.0402327
11
22.1332877
21
-0.1525291
0
LINE
8
DEFAULT_255_1_234
10
21.3951709
20
-0.1726084
11
21.3951709
21
0.0257755
0
LINE
8
DEFAULT_255_1_234
10
21.9847005
20
-0.1926877
11
21.9847005
21
0.0506739
0
LINE
8
DEFAULT_255_1_234
10
21.5437581
20
0.0619184
11
21.5437581
21
-0.1758211
0
ARC
8
DEFAULT_255_1_234
10
20.9085767
20
-0.1574195
40
1.2247208
50
353.8441951
51
0.2287902
0
ARC
8
DEFAULT_255_1_234
10
21.372527
20
-0.2092194
40
0.7578929
50
344.4934747
51
353.9765454
0
ARC
8
DEFAULT_255_1_234
10
21.671786
20
-0.2943019
40
0.4467846
50
329.2803592
51
344.7472793
0
ARC
8
DEFAULT_255_1_234
10
21.7710685
20
-0.3487982
40
0.3336173
50
324.9352394
51
328.6160465
0
ARC
8
DEFAULT_255_1_234
10
21.8087794
20
-0.3751573
40
0.2876076
50
280.580143
51
324.9173126
0
ARC
8
DEFAULT_255_1_234
10
21.7686587
20
-0.2080901
40
0.4592847
50
269.5977311
51
281.6734359
0
ARC
8
DEFAULT_255_1_234
10
21.7614492
20
-0.2200827
40
0.4472986
50
256.6228859
51
270.51044
0
ARC
8
DEFAULT_255_1_234
10
21.721247
20
-0.3749123
40
0.2873874
50
215.8618325
51
257.2788573
0
ARC
8
DEFAULT_255_1_234
10
21.8233502
20
-0.3064023
40
0.4102928
50
197.9693508
51
215.2623606
0
ARC
8
DEFAULT_255_1_234
10
22.0718617
20
-0.2225291
40
0.6725652
50
187.8816417
51
198.2346507
0
ARC
8
DEFAULT_255_1_234
10
22.4676825
20
-0.1653921
40
1.0724845
50
180.8976217
51
188.0055519
0
ARC
8
DEFAULT_255_1_234
10
22.7477014
20
-0.1550223
40
1.3526448
50
180.7449369
51
181.1510016
0
ARC
8
DEFAULT_255_1_234
10
22.5899743
20
0.0306042
40
1.1948131
50
173.7675579
51
180.231553
0
ARC
8
DEFAULT_255_1_234
10
22.1381889
20
0.0816666
40
0.7401564
50
164.3058563
51
173.9002247
0
ARC
8
DEFAULT_255_1_234
10
21.8469958
20
0.1655656
40
0.4371288
50
148.7922025
51
164.568378
0
ARC
8
DEFAULT_255_1_234
10
21.751841
20
0.2186929
40
0.3282386
50
144.5883898
51
148.1176286
0
ARC
8
DEFAULT_255_1_234
10
21.7175308
20
0.2426315
40
0.2864044
50
101.6440918
51
144.514236
0
ARC
8
DEFAULT_255_1_234
10
21.7600375
20
0.0737069
40
0.4604934
50
89.5284041
51
102.5819763
0
ARC
8
DEFAULT_255_1_234
10
21.7679463
20
0.0698018
40
0.464401
50
77.0437873
51
90.5081339
0
ARC
8
DEFAULT_255_1_234
10
21.8081464
20
0.2340615
40
0.2953195
50
48.2778575
51
77.4994676
0
ARC
8
DEFAULT_255_1_234
10
21.8154096
20
0.2469746
40
0.2808655
50
36.3142134
51
47.6305865
0
ARC
8
DEFAULT_255_1_234
10
21.7285403
20
0.1884515
40
0.3855453
50
18.2931786
51
35.6769206
0
ARC
8
DEFAULT_255_1_234
10
21.4742162
20
0.1011593
40
0.654423
50
8.024666
51
18.5605216
0
ARC
8
DEFAULT_255_1_234
10
21.0579082
20
0.0396792
40
1.0752407
50
1.1274072
51
8.1718305
0
ARC
8
DEFAULT_255_1_234
10
20.7343272
20
0.0269885
40
1.3990231
50
0.5424119
51
1.3863029
0
ARC
8
DEFAULT_255_1_234
10
20.916465
20
0.0542342
40
1.0682415
50
359.8090433
51
4.9407866
0
ARC
8
DEFAULT_255_1_234
10
21.3374664
20
0.0918113
40
0.6455691
50
4.8362157
51
12.2904523
0
ARC
8
DEFAULT_255_1_234
10
21.6129779
20
0.1531965
40
0.3633074
50
12.0805627
51
23.8173984
0
ARC
8
DEFAULT_255_1_234
10
21.7303484
20
0.2028919
40
0.2358723
50
24.2871213
51
31.3935614
0
ARC
8
DEFAULT_255_1_234
10
21.7828181
20
0.2372233
40
0.1732111
50
30.7407893
51
82.4657128
0
ARC
8
DEFAULT_255_1_234
10
21.7648316
20
0.1488691
40
0.263235
50
81.1060089
51
90.2184952
0
ARC
8
DEFAULT_255_1_234
10
21.7612615
20
0.1746924
40
0.2374236
50
89.3806855
51
105.6762551
0
ARC
8
DEFAULT_255_1_234
10
21.7429245
20
0.2413567
40
0.1682847
50
105.7981136
51
149.7388061
0
ARC
8
DEFAULT_255_1_234
10
21.8493323
20
0.177395
40
0.2924306
50
149.4208916
51
163.6286378
0
ARC
8
DEFAULT_255_1_234
10
22.0584212
20
0.113625
40
0.5110213
50
163.3763315
51
172.1410975
0
ARC
8
DEFAULT_255_1_234
10
22.388493
20
0.0663518
40
0.8444586
50
172.0259487
51
178.0703232
0
ARC
8
DEFAULT_255_1_234
10
22.691502
20
0.0519906
40
1.1477868
50
177.8631668
51
179.5044149
0
ARC
8
DEFAULT_255_1_234
10
22.5842424
20
-0.1794611
40
1.0404907
50
179.7995573
51
185.2460446
0
ARC
8
DEFAULT_255_1_234
10
22.1799464
20
-0.2177487
40
0.6343885
50
185.1411642
51
193.0079639
0
ARC
8
DEFAULT_255_1_234
10
21.9155936
20
-0.2802359
40
0.3627568
50
192.7897626
51
205.2507664
0
ARC
8
DEFAULT_255_1_234
10
21.8109483
20
-0.3269585
40
0.2481908
50
205.8005384
51
211.2537509
0
ARC
8
DEFAULT_255_1_234
10
21.7585924
20
-0.362042
40
0.1852521
50
210.3789793
51
238.4008143
0
ARC
8
DEFAULT_255_1_234
10
21.7566446
20
-0.3573624
40
0.1882621
50
239.6520629
51
265.9793761
0
ARC
8
DEFAULT_255_1_234
10
21.7651646
20
-0.2901573
40
0.2559272
50
265.1315437
51
270.060332
0
ARC
8
DEFAULT_255_1_234
10
21.7680425
20
-0.3225466
40
0.2235528
50
269.3314664
51
287.2178029
0
ARC
8
DEFAULT_255_1_234
10
21.7818277
20
-0.3728721
40
0.1714108
50
287.7958004
51
329.080874
0
ARC
8
DEFAULT_255_1_234
10
21.6860733
20
-0.313107
40
0.2842745
50
328.6634704
51
343.3325132
0
ARC
8
DEFAULT_255_1_234
10
21.4687753
20
-0.2454137
40
0.5118644
50
343.0499468
51
351.9393422
0
ARC
8
DEFAULT_255_1_234
10
21.1221053
20
-0.1943051
40
0.8622784
50
351.8069023
51
357.7959224
0
ARC
8
DEFAULT_255_1_234
10
20.7985609
20
-0.1775279
40
1.1862365
50
357.5871873
51
359.2677531
0
ARC
8
DEFAULT_255_2_778
10
7.7537338
20
76.1512992
40
3.0484709
50
251.6854144
51
258.6071955
0
ARC
8
DEFAULT_255_2_778
10
7.539521
20
75.0696738
40
1.9458471
50
258.4992492
51
268.3986479
0
ARC
8
DEFAULT_255_2_778
10
7.5172314
20
74.6394206
40
1.5151737
50
268.7865272
51
269.9950384
0
ARC
8
DEFAULT_255_2_778
10
7.5277432
20
74.1882355
40
1.0640417
50
269.426895
51
279.6711067
0
ARC
8
DEFAULT_255_2_778
10
7.6417753
20
73.5586746
40
0.4243233
50
278.7731084
51
300.3324923
0
ARC
8
DEFAULT_255_2_778
10
7.760746
20
73.3560552
40
0.1893587
50
300.2240287
51
1.9041213
0
ARC
8
DEFAULT_255_2_778
10
7.7452705
20
73.3652089
40
0.2047497
50
359.1991369
51
359.99965
0
ARC
8
DEFAULT_255_2_778
10
7.7523233
20
73.3660378
40
0.1976988
50
359.7594145
51
47.1793976
0
ARC
8
DEFAULT_255_2_778
10
7.6187277
20
73.217431
40
0.3975169
50
47.6144502
51
60.8366176
0
ARC
8
DEFAULT_255_2_778
10
7.0190958
20
72.2014865
40
1.5771337
50
59.799464
51
64.8885807
0
ARC
8
DEFAULT_255_2_778
10
6.0948833
20
70.2724682
40
3.7160912
50
64.6076081
51
66.8386974
0
ARC
8
DEFAULT_255_2_778
10
9.6419609
20
78.6355052
40
5.368109
50
244.3032309
51
247.1393781
0
ARC
8
DEFAULT_255_2_778
10
8.5507088
20
76.375518
40
2.8584574
50
240.2323579
51
244.3709759
0
ARC
8
DEFAULT_255_2_778
10
7.7800475
20
75.0386591
40
1.315392
50
233.2209971
51
240.4606284
0
ARC
8
DEFAULT_255_2_778
10
7.3561477
20
74.4675187
40
0.6041399
50
225.6990744
51
232.9899679
0
ARC
8
DEFAULT_255_2_778
10
7.3965073
20
74.4919214
40
0.6499005
50
178.2783416
51
224.6550883
0
ARC
8
DEFAULT_255_2_778
10
7.5059624
20
74.5252974
40
0.7591885
50
157.033673
51
181.0453383
0
ARC
8
DEFAULT_255_2_778
10
7.378439
20
74.5661396
40
0.6259551
50
124.9113017
51
155.9211516
0
ARC
8
DEFAULT_255_2_778
10
7.5960466
20
74.2575681
40
1.0035357
50
100.4079723
51
125.0168617
0
ARC
8
DEFAULT_255_2_778
10
7.6991199
20
73.7635046
40
1.5081396
50
89.6483922
51
100.8684975
0
ARC
8
DEFAULT_255_2_778
10
7.7083242
20
73.4112988
40
1.8603169
50
89.5079487
51
89.9984402
0
ARC
8
DEFAULT_255_2_778
10
7.7099573
20
73.3460694
40
1.9255311
50
83.9170631
51
89.5732113
0
ARC
8
DEFAULT_255_2_778
10
7.5071517
20
71.3384957
40
3.9433074
50
80.7325723
51
84.0779772
0
ARC
8
DEFAULT_255_2_778
10
7.0208457
20
68.315582
40
7.0050837
50
78.5086351
51
80.7886813
0
ARC
8
DEFAULT_255_2_778
10
7.6620177
20
72.9150544
40
1.9415426
50
67.135818
51
78.0934208
0
ARC
8
DEFAULT_255_2_778
10
7.7851814
20
73.4854809
40
1.3579807
50
78.2126325
51
89.7333975
0
ARC
8
DEFAULT_255_2_778
10
7.7793853
20
73.9006211
40
0.9429038
50
89.2638155
51
100.5666868
0
ARC
8
DEFAULT_255_2_778
10
7.6660949
20
74.4704419
40
0.362036
50
99.4784875
51
124.329414
0
ARC
8
DEFAULT_255_2_778
10
7.5705593
20
74.618551
40
0.1859067
50
125.7571195
51
182.2824883
0
ARC
8
DEFAULT_255_2_778
10
7.5493239
20
74.6118629
40
0.1645253
50
180.2492993
51
239.8144161
0
ARC
8
DEFAULT_255_2_778
10
7.932718
20
75.2119128
40
0.876484
50
237.8725734
51
242.8068846
0
ARC
8
DEFAULT_255_2_778
10
9.4175857
20
78.0284958
40
4.0604642
50
242.3328458
51
244.031083
0
ARC
8
DEFAULT_255_2_778
10
12.3804066
20
84.0769314
40
10.7955807
50
243.950624
51
244.8024316
0
ARC
8
DEFAULT_255_2_778
10
15.4009918
20
90.4609175
40
17.8580926
50
244.7535425
51
244.9563234
0
ARC
8
DEFAULT_255_2_778
10
5.8652927
20
69.9593264
40
4.7527588
50
62.2505456
51
65.4301556
0
ARC
8
DEFAULT_255_2_778
10
6.9275435
20
71.9674172
40
2.4810291
50
57.2951304
51
62.3684211
0
ARC
8
DEFAULT_255_2_778
10
7.6807233
20
73.1307235
40
1.0952081
50
48.7345704
51
57.5685367
0
ARC
8
DEFAULT_255_2_778
10
8.0117486
20
73.5182722
40
0.5856147
50
44.3236031
51
48.0704418
0
ARC
8
DEFAULT_255_2_778
10
7.9783002
20
73.4982468
40
0.6236013
50
1.3523843
51
43.4925744
0
ARC
8
DEFAULT_255_2_778
10
7.7103531
20
73.4653151
40
0.8926473
50
359.9763756
51
3.0599076
0
ARC
8
DEFAULT_255_2_778
10
7.8645343
20
73.4502407
40
0.7386124
50
333.0361889
51
1.1408766
0
ARC
8
DEFAULT_255_2_778
10
7.8947908
20
73.4571919
40
0.7150741
50
300.8430083
51
331.4403095
0
ARC
8
DEFAULT_255_2_778
10
7.694568
20
73.7707162
40
1.0869673
50
281.4258583
51
301.4316118
0
ARC
8
DEFAULT_255_2_778
10
7.5632666
20
74.3789414
40
1.7091691
50
270.2273513
51
281.7010805
0
ARC
8
DEFAULT_255_2_778
10
7.5453797
20
74.8556043
40
2.1859577
50
269.9983113
51
270.6466065
0
LINE
8
DEFAULT_255_2_778
10
7.5453153
20
72.6696465
11
7.5438002
21
72.669647
0
ARC
8
DEFAULT_255_2_778
10
7.5509161
20
75.8525969
40
3.1829579
50
256.2431122
51
269.871909
0
ARC
8
DEFAULT_255_2_778
10
21.7538511
20
76.0771629
40
2.9720345
50
251.5709223
51
258.7508181
0
ARC
8
DEFAULT_255_2_778
10
21.5538128
20
75.0539385
40
1.9294488
50
258.6495077
51
268.8281511
0
ARC
8
DEFAULT_255_2_778
10
21.5355488
20
74.6591193
40
1.5343723
50
269.2085037
51
269.9981866
0
ARC
8
DEFAULT_255_2_778
10
21.5473849
20
74.1907184
40
1.0660376
50
269.3612297
51
279.5899087
0
ARC
8
DEFAULT_255_2_778
10
21.6608439
20
73.5592324
40
0.424527
50
278.6895227
51
300.2363944
0
ARC
8
DEFAULT_255_2_778
10
21.7799083
20
73.3557793
40
0.188796
50
300.1108484
51
1.9024905
0
ARC
8
DEFAULT_255_2_778
10
21.7439577
20
73.3664221
40
0.2246851
50
358.8842611
51
0.0019649
0
ARC
8
DEFAULT_255_2_778
10
21.7769791
20
73.3703385
40
0.1917038
50
358.831716
51
47.0900458
0
ARC
8
DEFAULT_255_2_778
10
21.6364654
20
73.210984
40
0.4041259
50
47.8812665
51
61.174665
0
ARC
8
DEFAULT_255_2_778
10
21.0418848
20
72.1910117
40
1.5846568
50
60.1210877
51
65.1917015
0
ARC
8
DEFAULT_255_2_778
10
20.1415278
20
70.2854122
40
3.6922188
50
64.9168629
51
67.1565628
0
ARC
8
DEFAULT_255_2_778
10
23.6275467
20
78.5569888
40
5.2839333
50
244.2656926
51
247.1407051
0
ARC
8
DEFAULT_255_2_778
10
22.5594997
20
76.348765
40
2.8309849
50
240.1545061
51
244.3326325
0
ARC
8
DEFAULT_255_2_778
10
21.7856548
20
75.0127346
40
1.2870531
50
232.697515
51
240.4357497
0
ARC
8
DEFAULT_255_2_778
10
21.3705506
20
74.4617218
40
0.5972006
50
225.5850892
51
232.3393736
0
ARC
8
DEFAULT_255_2_778
10
21.4133941
20
74.4912933
40
0.6483829
50
178.7795739
51
224.7095916
0
ARC
8
DEFAULT_255_2_778
10
21.6669319
20
74.5153135
40
0.9018316
50
179.997867
51
180.6487041
0
ARC
8
DEFAULT_255_2_778
10
21.5167738
20
74.5291249
40
0.7517998
50
156.9195758
51
181.050088
0
ARC
8
DEFAULT_255_2_778
10
21.3928482
20
74.5685712
40
0.6224513
50
124.7111133
51
155.7879672
0
ARC
8
DEFAULT_255_2_778
10
21.6055459
20
74.2766942
40
0.9835402
50
101.7934503
51
125.2143527
0
ARC
8
DEFAULT_255_2_778
10
21.729848
20
73.7241326
40
1.5498677
50
89.5248728
51
102.1166783
0
ARC
8
DEFAULT_255_2_778
10
21.7283109
20
73.1705834
40
2.1034129
50
83.2889725
51
89.6080411
0
ARC
8
DEFAULT_255_2_778
10
21.529975
20
71.4027668
40
3.8823067
50
79.4764054
51
83.4308492
0
ARC
8
DEFAULT_255_2_778
10
21.2186357
20
69.6495673
40
5.6628977
50
78.2224868
51
79.6190915
0
ARC
8
DEFAULT_255_2_778
10
21.6838473
20
72.9270715
40
1.9311543
50
67.1323814
51
78.3148813
0
ARC
8
DEFAULT_255_2_778
10
21.801359
20
73.4785614
40
1.3672981
50
78.4565774
51
89.7552271
0
ARC
8
DEFAULT_255_2_778
10
21.7951366
20
73.909447
40
0.9364778
50
89.2619009
51
100.5950934
0
ARC
8
DEFAULT_255_2_778
10
21.6824182
20
74.4749169
40
0.3599879
50
99.5087086
51
124.406715
0
ARC
8
DEFAULT_255_2_778
10
21.5878565
20
74.621343
40
0.1858061
50
125.8630185
51
182.2986975
0
ARC
8
DEFAULT_255_2_778
10
21.5497296
20
74.6138047
40
0.1475296
50
179.9666559
51
180.100057
0
ARC
8
DEFAULT_255_2_778
10
21.566185
20
74.613793
40
0.163985
50
180.0859454
51
239.8819968
0
ARC
8
DEFAULT_255_2_778
10
21.9379018
20
75.2005619
40
0.8584853
50
238.072871
51
243.0442008
0
ARC
8
DEFAULT_255_2_778
10
23.4872034
20
78.1655845
40
4.2038426
50
242.5409111
51
244.1884903
0
ARC
8
DEFAULT_255_2_778
10
26.6463384
20
84.660196
40
11.4260319
50
244.1076525
51
244.9219574
0
ARC
8
DEFAULT_255_2_778
10
29.9038827
20
91.583855
40
19.0777309
50
244.8743531
51
245.066969
0
ARC
8
DEFAULT_255_2_778
10
19.8865272
20
69.9916274
40
4.7250654
50
62.0340028
51
65.293009
0
ARC
8
DEFAULT_255_2_778
10
20.9507744
20
71.9865758
40
2.464003
50
57.1127289
51
62.13736
0
ARC
8
DEFAULT_255_2_778
10
21.7037139
20
73.1402906
40
1.0863604
50
48.3695509
51
57.4197129
0
ARC
8
DEFAULT_255_2_778
10
22.0286268
20
73.5170419
40
0.5889589
50
44.472493
51
47.6467012
0
ARC
8
DEFAULT_255_2_778
10
21.9979457
20
73.4999032
40
0.6229283
50
1.2061613
51
43.6203607
0
ARC
8
DEFAULT_255_2_778
10
21.7312413
20
73.4674903
40
0.890659
50
359.9779196
51
2.9299178
0
ARC
8
DEFAULT_255_2_778
10
21.8802547
20
73.4523837
40
0.7417924
50
333.172934
51
1.140392
0
ARC
8
DEFAULT_255_2_778
10
21.9146167
20
73.4570736
40
0.7135172
50
300.9808035
51
331.5913995
0
ARC
8
DEFAULT_255_2_778
10
21.7182603
20
73.7669862
40
1.0803281
50
281.9040909
51
301.4483918
0
ARC
8
DEFAULT_255_2_778
10
21.5848425
20
74.3655518
40
1.6935565
50
270.5796874
51
282.1436175
0
ARC
8
DEFAULT_255_2_778
10
21.5636722
20
74.8604735
40
2.1887267
50
269.9959074
51
271.0027751
0
LINE
8
DEFAULT_255_2_778
10
21.5635158
20
72.6717468
11
21.5625002
21
72.671747
0
ARC
8
DEFAULT_255_2_778
10
21.5700221
20
75.8605174
40
3.1887792
50
256.2556596
51
269.8648469
0
LINE
8
DEFAULT_255_2_778
10
6.7958002
20
72.762547
11
6.7958002
21
73.257247
0
LINE
8
DEFAULT_255_2_778
10
8.4164002
20
75.180247
11
8.4164002
21
74.704047
0
LINE
8
DEFAULT_255_2_778
10
6.7940002
20
72.760947
11
6.7958002
21
72.762547
0
LINE
8
DEFAULT_255_2_778
10
8.9866002
20
75.229747
11
9.6629002
21
75.229747
0
LINE
8
DEFAULT_255_2_778
10
9.6629002
20
75.229747
11
9.6629002
21
72.722347
0
LINE
8
DEFAULT_255_2_778
10
9.6629002
20
72.722347
11
8.9866002
21
72.722347
0
LINE
8
DEFAULT_255_2_778
10
8.9866002
20
72.722347
11
8.9866002
21
75.229747
0
LINE
8
DEFAULT_255_2_778
10
10.2809002
20
72.722347
11
10.2809002
21
75.229747
0
LINE
8
DEFAULT_255_2_778
10
10.2809002
20
75.229747
11
12.0132002
21
75.229747
0
LINE
8
DEFAULT_255_2_778
10
12.0132002
20
75.229747
11
12.0132002
21
74.776047
0
LINE
8
DEFAULT_255_2_778
10
12.0132002
20
74.776047
11
10.9321002
21
74.776047
0
LINE
8
DEFAULT_255_2_778
10
10.9321002
20
74.776047
11
10.9321002
21
74.209747
0
LINE
8
DEFAULT_255_2_778
10
10.9321002
20
74.209747
11
11.8735002
21
74.209747
0
LINE
8
DEFAULT_255_2_778
10
11.8735002
20
74.209747
11
11.8735002
21
73.796247
0
LINE
8
DEFAULT_255_2_778
10
11.8735002
20
73.796247
11
10.9321002
21
73.796247
0
LINE
8
DEFAULT_255_2_778
10
10.9321002
20
73.796247
11
10.9321002
21
73.200947
0
LINE
8
DEFAULT_255_2_778
10
10.9321002
20
73.200947
11
12.0412002
21
73.200947
0
LINE
8
DEFAULT_255_2_778
10
12.0412002
20
73.200947
11
12.0412002
21
72.720747
0
LINE
8
DEFAULT_255_2_778
10
12.0412002
20
72.720747
11
10.2809002
21
72.722347
0
LINE
8
DEFAULT_255_2_778
10
12.4817002
20
72.722347
11
12.4817002
21
75.229747
0
LINE
8
DEFAULT_255_2_778
10
12.4817002
20
75.229747
11
13.3575002
21
75.229747
0
LINE
8
DEFAULT_255_2_778
10
13.3575002
20
75.229747
11
13.9671002
21
73.627447
0
LINE
8
DEFAULT_255_2_778
10
13.9671002
20
73.627447
11
14.5897002
21
75.229747
0
LINE
8
DEFAULT_255_2_778
10
14.5897002
20
75.229747
11
15.4215002
21
75.229747
0
LINE
8
DEFAULT_255_2_778
10
15.4215002
20
75.229747
11
15.4215002
21
72.722347
0
LINE
8
DEFAULT_255_2_778
10
15.4215002
20
72.722347
11
14.7812002
21
72.722347
0
LINE
8
DEFAULT_255_2_778
10
14.7812002
20
72.722347
11
14.7812002
21
74.498147
0
LINE
8
DEFAULT_255_2_778
10
14.7812002
20
74.498147
11
14.0724002
21
72.697947
0
LINE
8
DEFAULT_255_2_778
10
14.0724002
20
72.697947
11
13.6515002
21
72.697947
0
LINE
8
DEFAULT_255_2_778
10
13.6515002
20
72.697947
11
12.9559002
21
74.498147
0
LINE
8
DEFAULT_255_2_778
10
12.9559002
20
74.498147
11
12.9559002
21
72.722047
0
LINE
8
DEFAULT_255_2_778
10
12.9559002
20
72.722047
11
12.4817002
21
72.722347
0
LINE
8
DEFAULT_255_2_778
10
16.0409002
20
72.722347
11
16.0409002
21
75.229747
0
LINE
8
DEFAULT_255_2_778
10
16.0409002
20
75.229747
11
17.7731002
21
75.229747
0
LINE
8
DEFAULT_255_2_778
10
17.7731002
20
75.229747
11
17.7731002
21
74.776047
0
LINE
8
DEFAULT_255_2_778
10
17.7731002
20
74.776047
11
16.6921002
21
74.776047
0
LINE
8
DEFAULT_255_2_778
10
16.6921002
20
74.776047
11
16.6921002
21
74.209747
0
LINE
8
DEFAULT_255_2_778
10
16.6921002
20
74.209747
11
17.6334002
21
74.209747
0
LINE
8
DEFAULT_255_2_778
10
17.6334002
20
74.209747
11
17.6334002
21
73.796247
0
LINE
8
DEFAULT_255_2_778
10
17.6334002
20
73.796247
11
16.6921002
21
73.796247
0
LINE
8
DEFAULT_255_2_778
10
16.6921002
20
73.796247
11
16.6921002
21
73.200947
0
LINE
8
DEFAULT_255_2_778
10
16.6921002
20
73.200947
11
17.8030002
21
73.200947
0
LINE
8
DEFAULT_255_2_778
10
17.8030002
20
73.200947
11
17.8030002
21
72.720747
0
LINE
8
DEFAULT_255_2_778
10
17.8030002
20
72.720747
11
16.0409002
21
72.722347
0
LINE
8
DEFAULT_255_2_778
10
18.2454002
20
72.722347
11
18.2454002
21
75.229747
0
LINE
8
DEFAULT_255_2_778
10
18.2454002
20
75.229747
11
19.0283002
21
75.229747
0
LINE
8
DEFAULT_255_2_778
10
19.0283002
20
75.229747
11
19.8586002
21
73.550947
0
LINE
8
DEFAULT_255_2_778
10
19.8586002
20
73.550947
11
19.8586002
21
75.229747
0
LINE
8
DEFAULT_255_2_778
10
19.8586002
20
75.229747
11
20.3343002
21
75.229747
0
LINE
8
DEFAULT_255_2_778
10
20.3343002
20
75.229747
11
20.3343002
21
72.722347
0
LINE
8
DEFAULT_255_2_778
10
20.3343002
20
72.722347
11
19.5739002
21
72.722347
0
LINE
8
DEFAULT_255_2_778
10
19.5739002
20
72.722347
11
18.7214002
21
74.423547
0
LINE
8
DEFAULT_255_2_778
10
18.7214002
20
74.423547
11
18.7214002
21
72.722347
0
LINE
8
DEFAULT_255_2_778
10
18.7214002
20
72.722347
11
18.2454002
21
72.722347
0
LINE
8
DEFAULT_255_2_778
10
20.8143002
20
72.762747
11
20.8143002
21
73.257547
0
LINE
8
DEFAULT_255_2_778
10
22.3745002
20
75.193247
11
22.4343002
21
75.182647
0
LINE
8
DEFAULT_255_2_778
10
22.4343002
20
75.182647
11
22.4343002
21
74.706447
0
LINE
8
DEFAULT_255_2_778
10
20.8124002
20
72.763047
11
20.8143002
21
72.762747
0
LINE
8
DEFAULT_255_1_234
10
8.1422023
20
70.9559849
11
7.9871897
21
70.9559849
0
LINE
8
DEFAULT_255_1_234
10
7.2948539
20
70.4636394
11
7.4498665
21
70.4636394
0
ARC
8
DEFAULT_255_1_234
10
8.053071
20
71.8506768
40
1.252368
50
248.9199003
51
254.1439814
0
ARC
8
DEFAULT_255_1_234
10
7.8850205
20
71.4180234
40
0.788226
50
241.633709
51
249.0064503
0
ARC
8
DEFAULT_255_1_234
10
7.73216
20
71.1379317
40
0.4691427
50
230.498225
51
241.8087113
0
ARC
8
DEFAULT_255_1_234
10
7.6537174
20
71.0379906
40
0.3421437
50
227.4064532
51
229.9881192
0
ARC
8
DEFAULT_255_1_234
10
7.6049694
20
70.9904088
40
0.2741476
50
200.6781896
51
228.1763934
0
ARC
8
DEFAULT_255_1_234
10
7.6122005
20
70.9889077
40
0.2804109
50
179.5061581
51
199.8694617
0
ARC
8
DEFAULT_255_1_234
10
7.6112757
20
70.996321
40
0.2795204
50
132.4834203
51
181.0242172
0
ARC
8
DEFAULT_255_1_234
10
7.6708339
20
70.9400704
40
0.3612768
50
129.2532479
51
133.4242687
0
ARC
8
DEFAULT_255_1_234
10
7.6854789
20
70.9180965
40
0.3875675
50
101.98776
51
128.8742646
0
ARC
8
DEFAULT_255_1_234
10
7.7253399
20
70.7459741
40
0.5642249
50
89.5906553
51
102.3169264
0
ARC
8
DEFAULT_255_1_234
10
7.7323891
20
70.7778148
40
0.5323783
50
77.2360837
51
90.3248275
0
ARC
8
DEFAULT_255_1_234
10
7.7530971
20
70.87454
40
0.4334697
50
63.837784
51
77.0809408
0
ARC
8
DEFAULT_255_1_234
10
7.7808732
20
70.9262911
40
0.3747796
50
45.9864267
51
64.1607727
0
ARC
8
DEFAULT_255_1_234
10
7.8069614
20
70.9560866
40
0.3352302
50
32.2747395
51
45.6547121
0
ARC
8
DEFAULT_255_1_234
10
7.8136054
20
70.957988
40
0.328603
50
359.6507365
51
32.6130309
0
ARC
8
DEFAULT_255_1_234
10
7.719315
20
70.958466
40
0.2678863
50
359.469343
51
14.9832209
0
ARC
8
DEFAULT_255_1_234
10
7.7898212
20
70.9773539
40
0.1948938
50
14.9781179
51
48.2004265
0
ARC
8
DEFAULT_255_1_234
10
7.7733856
20
70.9566983
40
0.2212521
50
48.5927837
51
74.1241538
0
ARC
8
DEFAULT_255_1_234
10
7.7400346
20
70.8466248
40
0.3362561
50
73.7888341
51
86.6652678
0
ARC
8
DEFAULT_255_1_234
10
7.7297911
20
70.7258881
40
0.4573953
50
86.2640471
51
90.0526343
0
ARC
8
DEFAULT_255_1_234
10
7.7269624
20
70.7654192
40
0.4178709
50
89.6697524
51
99.2309573
0
ARC
8
DEFAULT_255_1_234
10
7.7027075
20
70.9098964
40
0.2713749
50
99.069534
51
113.7658566
0
ARC
8
DEFAULT_255_1_234
10
7.6753266
20
70.9744677
40
0.2012469
50
114.0401004
51
127.9850673
0
ARC
8
DEFAULT_255_1_234
10
7.651283
20
71.004073
40
0.1631167
50
127.7287463
51
176.7105154
0
ARC
8
DEFAULT_255_1_234
10
7.7191547
20
70.9939693
40
0.2315392
50
175.1779447
51
180.0581938
0
ARC
8
DEFAULT_255_1_234
10
7.6348394
20
70.9927428
40
0.1472271
50
179.6142195
51
228.1246017
0
ARC
8
DEFAULT_255_1_234
10
7.6790063
20
71.0336308
40
0.2072299
50
226.5779593
51
230.8800004
0
ARC
8
DEFAULT_255_1_234
10
7.7261141
20
71.0961636
40
0.2854818
50
231.4635071
51
241.9260842
0
ARC
8
DEFAULT_255_1_234
10
7.8458319
20
71.31648
40
0.53622
50
241.7178533
51
248.3259551
0
ARC
8
DEFAULT_255_1_234
10
7.9843691
20
71.6597064
40
0.9063478
50
248.2007737
51
252.4528373
0
ARC
8
DEFAULT_255_1_234
10
8.1047416
20
72.0318441
40
1.2974635
50
252.3391078
51
254.3469452
0
ARC
8
DEFAULT_255_1_234
10
7.3505119
20
69.3341148
40
1.5037162
50
71.0197183
51
74.4087047
0
ARC
8
DEFAULT_255_1_234
10
7.5199804
20
69.8233111
40
0.9859993
50
66.1847285
51
71.086374
0
ARC
8
DEFAULT_255_1_234
10
7.6756116
20
70.17372
40
0.6025855
50
59.3536294
51
66.2691831
0
ARC
8
DEFAULT_255_1_234
10
7.7644769
20
70.3240609
40
0.4279449
50
49.1020879
51
59.3293958
0
ARC
8
DEFAULT_255_1_234
10
7.8463509
20
70.4173834
40
0.3038015
50
32.7919921
51
49.2505539
0
ARC
8
DEFAULT_255_1_234
10
7.8784599
20
70.4402191
40
0.264448
50
31.1181161
51
32.4005348
0
ARC
8
DEFAULT_255_1_234
10
7.8696136
20
70.4366779
40
0.2738556
50
8.1116974
51
30.7958831
0
ARC
8
DEFAULT_255_1_234
10
7.7885804
20
70.4228753
40
0.3560327
50
359.8389159
51
8.4706516
0
ARC
8
DEFAULT_255_1_234
10
7.8511596
20
70.4180137
40
0.2934776
50
337.4731098
51
0.7537279
0
ARC
8
DEFAULT_255_1_234
10
7.8690291
20
70.4160387
40
0.2762607
50
307.5917067
51
336.4315538
0
ARC
8
DEFAULT_255_1_234
10
7.8230119
20
70.4673102
40
0.3449979
50
307.6551545
51
308.4529766
0
ARC
8
DEFAULT_255_1_234
10
7.7999838
20
70.502825
40
0.3871988
50
284.3734338
51
307.1424381
0
ARC
8
DEFAULT_255_1_234
10
7.7504668
20
70.6849932
40
0.5759636
50
272.4382747
51
284.646547
0
ARC
8
DEFAULT_255_1_234
10
7.7377876
20
70.8649893
40
0.7563528
50
269.9708387
51
272.8178037
0
ARC
8
DEFAULT_255_1_234
10
7.7334916
20
70.6611716
40
0.5525489
50
248.2707594
51
270.4055579
0
ARC
8
DEFAULT_255_1_234
10
7.7280657
20
70.6421192
40
0.5328452
50
246.1383403
51
248.0542782
0
ARC
8
DEFAULT_255_1_234
10
7.6862036
20
70.5541843
40
0.4355005
50
233.1670131
51
246.4950969
0
ARC
8
DEFAULT_255_1_234
10
7.6307941
20
70.4793812
40
0.3424126
50
215.3403242
51
233.0843104
0
ARC
8
DEFAULT_255_1_234
10
7.6035372
20
70.4595549
40
0.3087104
50
179.2419209
51
215.2648451
0
ARC
8
DEFAULT_255_1_234
10
7.6802966
20
70.4609666
40
0.2304457
50
179.335461
51
199.1045811
0
ARC
8
DEFAULT_255_1_234
10
7.6470643
20
70.4522766
40
0.1962176
50
199.8828939
51
232.7063202
0
ARC
8
DEFAULT_255_1_234
10
7.6942911
20
70.5116788
40
0.2720938
50
232.3738199
51
255.5136649
0
ARC
8
DEFAULT_255_1_234
10
7.7283778
20
70.6360835
40
0.4010747
50
255.2446292
51
267.5320849
0
ARC
8
DEFAULT_255_1_234
10
7.7371401
20
70.7593702
40
0.5246356
50
267.1557994
51
270.0286766
0
ARC
8
DEFAULT_255_1_234
10
7.7399173
20
70.714995
40
0.4802668
50
269.7000017
51
278.1660162
0
ARC
8
DEFAULT_255_1_234
10
7.7655178
20
70.5419515
40
0.3053425
50
278.0231263
51
290.625471
0
ARC
8
DEFAULT_255_1_234
10
7.8002865
20
70.4492025
40
0.206291
50
290.6619762
51
307.0370976
0
ARC
8
DEFAULT_255_1_234
10
7.8303254
20
70.4123504
40
0.1587906
50
306.3943566
51
355.3030547
0
ARC
8
DEFAULT_255_1_234
10
7.7791186
20
70.4200113
40
0.2104809
50
354.3660432
51
0.0698737
0
ARC
8
DEFAULT_255_1_234
10
7.7933531
20
70.4222617
40
0.1962563
50
359.417946
51
16.1971788
0
ARC
8
DEFAULT_255_1_234
10
7.8388841
20
70.4347418
40
0.149053
50
16.4723299
51
52.6262157
0
ARC
8
DEFAULT_255_1_234
10
7.7567895
20
70.3263433
40
0.2850296
50
52.7386432
51
62.4979148
0
ARC
8
DEFAULT_255_1_234
10
7.6182972
20
70.0657283
40
0.5801521
50
62.2515216
51
68.1220564
0
ARC
8
DEFAULT_255_1_234
10
7.4462883
20
69.6429872
40
1.0365451
50
68.0062803
51
71.8053402
0
ARC
8
DEFAULT_255_1_234
10
7.2667255
20
69.1044758
40
1.6042013
50
71.7183119
51
73.9258742
0
LINE
8
DEFAULT_255_1_234
10
8.5076464
20
71.2941211
11
8.5076464
21
70.1247
0
LINE
8
DEFAULT_255_1_234
10
8.5076464
20
70.1247
11
8.353437
21
70.1247
0
LINE
8
DEFAULT_255_1_234
10
8.353437
20
70.1247
11
8.353437
21
71.2941211
0
LINE
8
DEFAULT_255_1_234
10
8.353437
20
71.2941211
11
8.5076464
21
71.2941211
0
LINE
8
DEFAULT_255_1_234
10
8.7895604
20
71.2941211
11
8.9887475
21
71.2941211
0
LINE
8
DEFAULT_255_1_234
10
8.9887475
20
71.2941211
11
9.3710583
21
70.3399506
0
LINE
8
DEFAULT_255_1_234
10
9.3710583
20
70.3399506
11
9.753369
21
71.2941211
0
LINE
8
DEFAULT_255_1_234
10
9.753369
20
71.2941211
11
9.9533593
21
71.2941211
0
LINE
8
DEFAULT_255_1_234
10
9.9533593
20
71.2941211
11
9.9533593
21
70.1247
0
LINE
8
DEFAULT_255_1_234
10
9.9533593
20
70.1247
11
9.7991499
21
70.1247
0
LINE
8
DEFAULT_255_1_234
10
9.7991499
20
70.1247
11
9.7991499
21
70.5800996
0
LINE
8
DEFAULT_255_1_234
10
9.7991499
20
70.5800996
11
9.813607
21
71.0716419
0
LINE
8
DEFAULT_255_1_234
10
9.813607
20
71.0716419
11
9.4296899
21
70.1247
0
LINE
8
DEFAULT_255_1_234
10
9.4296899
20
70.1247
11
9.3116234
21
70.1247
0
LINE
8
DEFAULT_255_1_234
10
9.3116234
20
70.1247
11
8.9285095
21
71.0692324
0
LINE
8
DEFAULT_255_1_234
10
8.9285095
20
71.0692324
11
8.9437698
21
70.5800996
0
LINE
8
DEFAULT_255_1_234
10
8.9437698
20
70.5800996
11
8.9437698
21
70.1247
0
LINE
8
DEFAULT_255_1_234
10
8.9437698
20
70.1247
11
8.7895604
21
70.1247
0
LINE
8
DEFAULT_255_1_234
10
8.7895604
20
70.1247
11
8.7895604
21
71.2941211
0
LINE
8
DEFAULT_255_1_234
10
10.9974853
20
70.1247
11
10.8858441
21
70.4299061
0
LINE
8
DEFAULT_255_1_234
10
10.8858441
20
70.4299061
11
10.3959081
21
70.4299061
0
LINE
8
DEFAULT_255_1_234
10
10.3959081
20
70.4299061
11
10.2858732
21
70.1247
0
LINE
8
DEFAULT_255_1_234
10
10.2858732
20
70.1247
11
10.1268448
21
70.1247
0
LINE
8
DEFAULT_255_1_234
10
10.1268448
20
70.1247
11
10.5734095
21
71.2941211
0
LINE
8
DEFAULT_255_1_234
10
10.5734095
20
71.2941211
11
10.7083427
21
71.2941211
0
LINE
8
DEFAULT_255_1_234
10
10.7083427
20
71.2941211
11
11.1557105
21
70.1247
0
LINE
8
DEFAULT_255_1_234
10
11.1557105
20
70.1247
11
10.9974853
21
70.1247
0
LINE
8
DEFAULT_255_1_234
10
10.6408761
20
71.1037689
11
10.4424921
21
70.5568075
0
LINE
8
DEFAULT_255_1_234
10
10.4424921
20
70.5568075
11
10.8400632
21
70.5568075
0
LINE
8
DEFAULT_255_1_234
10
10.8400632
20
70.5568075
11
10.6408761
21
71.1037689
0
LINE
8
DEFAULT_255_1_234
10
12.017516
20
71.2941211
11
12.017516
21
71.1672196
0
LINE
8
DEFAULT_255_1_234
10
12.017516
20
71.1672196
11
11.6416307
21
71.1672196
0
LINE
8
DEFAULT_255_1_234
10
11.6416307
20
71.1672196
11
11.6416307
21
70.1247
0
LINE
8
DEFAULT_255_1_234
10
11.6416307
20
70.1247
11
11.4882245
21
70.1247
0
LINE
8
DEFAULT_255_1_234
10
11.4882245
20
70.1247
11
11.4882245
21
71.1672196
0
LINE
8
DEFAULT_255_1_234
10
11.4882245
20
71.1672196
11
11.1131423
21
71.1672196
0
LINE
8
DEFAULT_255_1_234
10
11.1131423
20
71.1672196
11
11.1131423
21
71.2941211
0
LINE
8
DEFAULT_255_1_234
10
11.1131423
20
71.2941211
11
12.017516
21
71.2941211
0
LINE
8
DEFAULT_255_1_234
10
12.3564554
20
71.2941211
11
12.3564554
21
70.1247
0
LINE
8
DEFAULT_255_1_234
10
12.3564554
20
70.1247
11
12.202246
21
70.1247
0
LINE
8
DEFAULT_255_1_234
10
12.202246
20
70.1247
11
12.202246
21
71.2941211
0
LINE
8
DEFAULT_255_1_234
10
12.202246
20
71.2941211
11
12.3564554
21
71.2941211
0
LINE
8
DEFAULT_255_1_234
10
13.343556
20
70.4957663
11
13.4985686
21
70.4957663
0
LINE
8
DEFAULT_255_1_234
10
12.5982107
20
70.6547947
11
12.5982107
21
70.7672391
0
LINE
8
DEFAULT_255_1_234
10
13.4985686
20
70.9182357
11
13.343556
21
70.9182357
0
LINE
8
DEFAULT_255_1_234
10
12.7532232
20
70.7632232
11
12.7532232
21
70.6499757
0
ARC
8
DEFAULT_255_1_234
10
12.9505072
20
70.5554846
40
0.5513052
50
340.1774281
51
353.7814284
0
ARC
8
DEFAULT_255_1_234
10
13.1076425
20
70.4969582
40
0.3836379
50
311.4558989
51
340.4421614
0
ARC
8
DEFAULT_255_1_234
10
13.1043093
20
70.5080528
40
0.3941894
50
282.4333181
51
310.7513653
0
ARC
8
DEFAULT_255_1_234
10
13.0603832
20
70.6895679
40
0.5809175
50
269.9358511
51
282.809604
0
ARC
8
DEFAULT_255_1_234
10
13.0551899
20
70.8353212
40
0.7266847
50
270.0021091
51
270.3581957
0
ARC
8
DEFAULT_255_1_234
10
13.0499315
20
70.5752585
40
0.4666519
50
250.7884749
51
270.6489167
0
ARC
8
DEFAULT_255_1_234
10
13.033115
20
70.5115319
40
0.4009729
50
219.3627325
51
250.0611886
0
ARC
8
DEFAULT_255_1_234
10
13.1160361
20
70.5820042
40
0.5097822
50
193.5479632
51
219.5756669
0
ARC
8
DEFAULT_255_1_234
10
13.3531982
20
70.6435919
40
0.7547848
50
181.1218675
51
193.87563
0
ARC
8
DEFAULT_255_1_234
10
13.5602163
20
70.654658
40
0.9620055
50
179.9918545
51
181.5394234
0
ARC
8
DEFAULT_255_1_234
10
13.3751265
20
70.7709788
40
0.7769248
50
169.5837241
51
180.2757934
0
ARC
8
DEFAULT_255_1_234
10
13.1914203
20
70.8049229
40
0.590109
50
155.0365899
51
169.6003176
0
ARC
8
DEFAULT_255_1_234
10
13.0778667
20
70.8596677
40
0.4640625
50
136.783148
51
155.2472683
0
ARC
8
DEFAULT_255_1_234
10
13.0389144
20
70.8927562
40
0.4130255
50
121.7633186
51
136.428115
0
ARC
8
DEFAULT_255_1_234
10
13.0524106
20
70.8678227
40
0.4413323
50
95.6459699
51
121.5490577
0
ARC
8
DEFAULT_255_1_234
10
13.0681388
20
70.7569949
40
0.55319
50
89.924208
51
96.1377933
0
ARC
8
DEFAULT_255_1_234
10
13.0731821
20
70.7688542
40
0.5413475
50
76.6779277
51
90.4563316
0
ARC
8
DEFAULT_255_1_234
10
13.1125444
20
70.9279114
40
0.3775041
50
47.485847
51
76.9287264
0
ARC
8
DEFAULT_255_1_234
10
13.0978417
20
70.9179159
40
0.3948286
50
16.5424086
51
46.8933463
0
ARC
8
DEFAULT_255_1_234
10
12.9370574
20
70.8650861
40
0.564021
50
5.4072051
51
17.0365086
0
ARC
8
DEFAULT_255_1_234
10
12.7931591
20
70.8419679
40
0.5556559
50
7.8891745
51
15.9239216
0
ARC
8
DEFAULT_255_1_234
10
12.9918605
20
70.8996631
40
0.3487515
50
15.7653144
51
27.9410532
0
ARC
8
DEFAULT_255_1_234
10
13.1022822
20
70.958779
40
0.2235026
50
27.8166557
51
46.4008329
0
ARC
8
DEFAULT_255_1_234
10
13.1072465
20
70.9582082
40
0.2205286
50
47.4371857
51
75.0698205
0
ARC
8
DEFAULT_255_1_234
10
13.076386
20
70.8507765
40
0.3322915
50
74.7008593
51
87.8124495
0
ARC
8
DEFAULT_255_1_234
10
13.0690547
20
70.7451844
40
0.4380987
50
87.3814673
51
90.0240855
0
ARC
8
DEFAULT_255_1_234
10
13.0652091
20
70.8629291
40
0.3203749
50
89.3451631
51
108.5745436
0
ARC
8
DEFAULT_255_1_234
10
13.0515196
20
70.9142908
40
0.2673494
50
109.2998449
51
143.3037509
0
ARC
8
DEFAULT_255_1_234
10
13.1277268
20
70.8556881
40
0.3634757
50
143.0753173
51
163.1916937
0
ARC
8
DEFAULT_255_1_234
10
13.3228996
20
70.7940967
40
0.5681262
50
162.9373603
51
174.6208611
0
ARC
8
DEFAULT_255_1_234
10
13.5855038
20
70.765301
40
0.8322832
50
174.3419979
51
180.1430411
0
ARC
8
DEFAULT_255_1_234
10
13.4924194
20
70.6458698
40
0.7392076
50
179.6817502
51
189.150529
0
ARC
8
DEFAULT_255_1_234
10
13.2423443
20
70.604219
40
0.4856932
50
188.9910863
51
203.5773039
0
ARC
8
DEFAULT_255_1_234
10
13.1343775
20
70.5594211
40
0.3688271
50
203.9077269
51
215.1312379
0
ARC
8
DEFAULT_255_1_234
10
13.0420869
20
70.4878941
40
0.2522457
50
213.9071664
51
263.8849284
0
ARC
8
DEFAULT_255_1_234
10
13.0546198
20
70.5663518
40
0.3316174
50
263.1758525
51
270.1031083
0
ARC
8
DEFAULT_255_1_234
10
13.057829
20
70.6910365
40
0.4563091
50
269.6719807
51
279.0609165
0
ARC
8
DEFAULT_255_1_234
10
13.0845058
20
70.5297907
40
0.2928759
50
278.8750225
51
293.6346586
0
ARC
8
DEFAULT_255_1_234
10
13.1165266
20
70.45459
40
0.2111472
50
293.8553404
51
310.0518804
0
ARC
8
DEFAULT_255_1_234
10
13.117012
20
70.4483516
40
0.2060917
50
311.0646779
51
332.0108348
0
ARC
8
DEFAULT_255_1_234
10
12.9977847
20
70.5140978
40
0.3422352
50
331.6588543
51
343.2878891
0
ARC
8
DEFAULT_255_1_234
10
12.7915362
20
70.5774798
40
0.5580003
50
343.1446044
51
351.010618
0
ARC
8
DEFAULT_255_1_234
10
12.6374008
20
70.6055871
40
0.7146438
50
350.7157277
51
351.1602153
0
LINE
8
DEFAULT_255_1_234
10
14.7772213
20
70.7913343
11
14.7772213
21
70.665236
0
LINE
8
DEFAULT_255_1_234
10
14.7772213
20
70.665236
11
14.2704186
21
70.665236
0
LINE
8
DEFAULT_255_1_234
10
14.2704186
20
70.665236
11
14.2704186
21
70.2507983
0
LINE
8
DEFAULT_255_1_234
10
14.2704186
20
70.2507983
11
14.859145
21
70.2507983
0
LINE
8
DEFAULT_255_1_234
10
14.859145
20
70.2507983
11
14.859145
21
70.1247
0
LINE
8
DEFAULT_255_1_234
10
14.859145
20
70.1247
11
14.1162092
21
70.1247
0
LINE
8
DEFAULT_255_1_234
10
14.1162092
20
70.1247
11
14.1162092
21
71.2941211
0
LINE
8
DEFAULT_255_1_234
10
14.1162092
20
71.2941211
11
14.8511133
21
71.2941211
0
LINE
8
DEFAULT_255_1_234
10
14.8511133
20
71.2941211
11
14.8511133
21
71.1672196
0
LINE
8
DEFAULT_255_1_234
10
14.8511133
20
71.1672196
11
14.2704186
21
71.1672196
0
LINE
8
DEFAULT_255_1_234
10
14.2704186
20
71.1672196
11
14.2704186
21
70.7913343
0
LINE
8
DEFAULT_255_1_234
10
14.2704186
20
70.7913343
11
14.7772213
21
70.7913343
0
LINE
8
DEFAULT_255_1_234
10
15.8751599
20
71.2941211
11
15.8751599
21
71.1672196
0
LINE
8
DEFAULT_255_1_234
10
15.8751599
20
71.1672196
11
15.4992746
21
71.1672196
0
LINE
8
DEFAULT_255_1_234
10
15.4992746
20
71.1672196
11
15.4992746
21
70.1247
0
LINE
8
DEFAULT_255_1_234
10
15.4992746
20
70.1247
11
15.3458684
21
70.1247
0
LINE
8
DEFAULT_255_1_234
10
15.3458684
20
70.1247
11
15.3458684
21
71.1672196
0
LINE
8
DEFAULT_255_1_234
10
15.3458684
20
71.1672196
11
14.9707862
21
71.1672196
0
LINE
8
DEFAULT_255_1_234
10
14.9707862
20
71.1672196
11
14.9707862
21
71.2941211
0
LINE
8
DEFAULT_255_1_234
10
14.9707862
20
71.2941211
11
15.8751599
21
71.2941211
0
LINE
8
DEFAULT_255_1_234
10
16.7763209
20
70.2459792
11
16.7763209
21
70.1247
0
LINE
8
DEFAULT_255_1_234
10
16.7763209
20
70.1247
11
16.0100931
21
70.1247
0
LINE
8
DEFAULT_255_1_234
10
16.0100931
20
70.1247
11
16.0100931
21
70.2315221
0
LINE
8
DEFAULT_255_1_234
10
16.0100931
20
70.2315221
11
16.4148927
21
70.6812995
0
LINE
8
DEFAULT_255_1_234
10
16.1361914
20
70.9495595
11
15.9876042
21
70.9495595
0
LINE
8
DEFAULT_255_1_234
10
16.5024387
20
70.5857218
11
16.1892009
21
70.2459792
0
LINE
8
DEFAULT_255_1_234
10
16.1892009
20
70.2459792
11
16.7763209
21
70.2459792
0
ARC
8
DEFAULT_255_1_234
10
15.0658761
20
71.8742527
40
1.8008286
50
318.5132453
51
320.7828378
0
ARC
8
DEFAULT_255_1_234
10
15.5945735
20
71.4439426
40
1.1191493
50
320.7372736
51
323.9737074
0
ARC
8
DEFAULT_255_1_234
10
15.9865591
20
71.1599361
40
0.6350923
50
323.8961724
51
328.6421089
0
ARC
8
DEFAULT_255_1_234
10
16.1912187
20
71.0337031
40
0.3946393
50
328.8299013
51
331.789948
0
ARC
8
DEFAULT_255_1_234
10
16.2909365
20
70.9822509
40
0.2824501
50
331.4255242
51
352.9364833
0
ARC
8
DEFAULT_255_1_234
10
16.3045866
20
70.9791976
40
0.2685315
50
353.2248685
51
0.0169286
0
ARC
8
DEFAULT_255_1_234
10
16.3255743
20
70.981495
40
0.2475536
50
359.4866256
51
15.9339782
0
ARC
8
DEFAULT_255_1_234
10
16.3762728
20
70.9951286
40
0.1950618
50
16.1714718
51
43.5284424
0
ARC
8
DEFAULT_255_1_234
10
16.3840037
20
71.0028573
40
0.184134
50
43.4415429
51
83.1661404
0
ARC
8
DEFAULT_255_1_234
10
16.3705955
20
70.9291771
40
0.258926
50
82.160215
51
90.1505798
0
ARC
8
DEFAULT_255_1_234
10
16.3674382
20
70.8754865
40
0.3126255
50
89.5460705
51
102.5418777
0
ARC
8
DEFAULT_255_1_234
10
16.3431468
20
70.9785665
40
0.2067346
50
102.1739365
51
129.2061916
0
ARC
8
DEFAULT_255_1_234
10
16.335254
20
70.9910094
40
0.1921118
50
129.7279328
51
135.7542026
0
ARC
8
DEFAULT_255_1_234
10
16.3474068
20
70.9813045
40
0.2075944
50
136.175737
51
166.3674722
0
ARC
8
DEFAULT_255_1_234
10
16.4480987
20
70.9543182
40
0.3118201
50
165.9092917
51
178.8683903
0
ARC
8
DEFAULT_255_1_234
10
16.5345848
20
70.9496179
40
0.3983935
50
178.438168
51
180.0083905
0
ARC
8
DEFAULT_255_1_234
10
16.394445
20
70.9535231
40
0.4068601
50
163.2878735
51
180.5581814
0
ARC
8
DEFAULT_255_1_234
10
16.3142712
20
70.975584
40
0.3237344
50
133.454115
51
162.9470031
0
ARC
8
DEFAULT_255_1_234
10
16.3321253
20
70.9566
40
0.349795
50
100.7869394
51
133.4384016
0
ARC
8
DEFAULT_255_1_234
10
16.3669024
20
70.8017319
40
0.5084616
50
89.6605301
51
101.3704185
0
ARC
8
DEFAULT_255_1_234
10
16.3735363
20
70.8078496
40
0.502348
50
78.2171172
51
90.4130393
0
ARC
8
DEFAULT_255_1_234
10
16.4090442
20
70.9702637
40
0.3361092
50
55.9268222
51
78.4888551
0
ARC
8
DEFAULT_255_1_234
10
16.4286882
20
71.0041324
40
0.2970617
50
47.9292255
51
55.4054003
0
ARC
8
DEFAULT_255_1_234
10
16.4388442
20
71.0144502
40
0.2825983
50
4.3347696
51
48.0560701
0
ARC
8
DEFAULT_255_1_234
10
16.3292836
20
70.9974601
40
0.393225
50
359.925209
51
5.5967654
0
ARC
8
DEFAULT_255_1_234
10
16.3721728
20
71.0030816
40
0.3503892
50
337.8914096
51
358.9967724
0
ARC
8
DEFAULT_255_1_234
10
16.100814
20
71.1077706
40
0.6412172
50
326.9135351
51
338.3505194
0
ARC
8
DEFAULT_255_1_234
10
15.7022444
20
71.3632284
40
1.1146189
50
319.6472867
51
327.095818
0
ARC
8
DEFAULT_255_1_234
10
15.3189447
20
71.6794
40
1.6114559
50
317.2586784
51
319.9046139
0
LINE
8
DEFAULT_255_1_234
10
17.6670407
20
70.8162327
11
17.6670407
21
70.6234709
0
LINE
8
DEFAULT_255_1_234
10
16.928924
20
70.6033916
11
16.928924
21
70.8017755
0
LINE
8
DEFAULT_255_1_234
10
17.5184536
20
70.5833123
11
17.5184536
21
70.8266739
0
LINE
8
DEFAULT_255_1_234
10
17.0775111
20
70.8379184
11
17.0775111
21
70.6001789
0
ARC
8
DEFAULT_255_1_234
10
16.4423297
20
70.6185805
40
1.2247208
50
353.8441951
51
0.2287902
0
ARC
8
DEFAULT_255_1_234
10
16.90628
20
70.5667806
40
0.7578929
50
344.4934747
51
353.9765454
0
ARC
8
DEFAULT_255_1_234
10
17.2055391
20
70.4816981
40
0.4467846
50
329.2803592
51
344.7472793
0
ARC
8
DEFAULT_255_1_234
10
17.3048216
20
70.4272018
40
0.3336173
50
324.9352394
51
328.6160465
0
ARC
8
DEFAULT_255_1_234
10
17.3425324
20
70.4008427
40
0.2876076
50
280.580143
51
324.9173126
0
ARC
8
DEFAULT_255_1_234
10
17.3024117
20
70.5679099
40
0.4592847
50
269.5977311
51
281.6734359
0
ARC
8
DEFAULT_255_1_234
10
17.2952022
20
70.5559173
40
0.4472986
50
256.6228859
51
270.51044
0
ARC
8
DEFAULT_255_1_234
10
17.255
20
70.4010877
40
0.2873874
50
215.8618325
51
257.2788573
0
ARC
8
DEFAULT_255_1_234
10
17.3571032
20
70.4695977
40
0.4102928
50
197.9693508
51
215.2623606
0
ARC
8
DEFAULT_255_1_234
10
17.6056147
20
70.5534709
40
0.6725652
50
187.8816417
51
198.2346507
0
ARC
8
DEFAULT_255_1_234
10
18.0014356
20
70.6106079
40
1.0724845
50
180.8976217
51
188.0055519
0
ARC
8
DEFAULT_255_1_234
10
18.2814544
20
70.6209777
40
1.3526448
50
180.7449369
51
181.1510016
0
ARC
8
DEFAULT_255_1_234
10
18.1237273
20
70.8066042
40
1.1948131
50
173.7675579
51
180.231553
0
ARC
8
DEFAULT_255_1_234
10
17.671942
20
70.8576666
40
0.7401564
50
164.3058563
51
173.9002247
0
ARC
8
DEFAULT_255_1_234
10
17.3807488
20
70.9415656
40
0.4371288
50
148.7922025
51
164.568378
0
ARC
8
DEFAULT_255_1_234
10
17.2855941
20
70.9946929
40
0.3282386
50
144.5883898
51
148.1176286
0
ARC
8
DEFAULT_255_1_234
10
17.2512838
20
71.0186315
40
0.2864044
50
101.6440918
51
144.514236
0
ARC
8
DEFAULT_255_1_234
10
17.2937905
20
70.8497069
40
0.4604934
50
89.5284041
51
102.5819763
0
ARC
8
DEFAULT_255_1_234
10
17.3016993
20
70.8458018
40
0.464401
50
77.0437873
51
90.5081339
0
ARC
8
DEFAULT_255_1_234
10
17.3418995
20
71.0100615
40
0.2953195
50
48.2778575
51
77.4994676
0
ARC
8
DEFAULT_255_1_234
10
17.3491626
20
71.0229746
40
0.2808655
50
36.3142134
51
47.6305865
0
ARC
8
DEFAULT_255_1_234
10
17.2622933
20
70.9644515
40
0.3855453
50
18.2931786
51
35.6769206
0
ARC
8
DEFAULT_255_1_234
10
17.0079692
20
70.8771593
40
0.654423
50
8.024666
51
18.5605216
0
ARC
8
DEFAULT_255_1_234
10
16.5916612
20
70.8156792
40
1.0752407
50
1.1274072
51
8.1718305
0
ARC
8
DEFAULT_255_1_234
10
16.2680802
20
70.8029885
40
1.3990231
50
0.5424119
51
1.3863029
0
ARC
8
DEFAULT_255_1_234
10
16.450218
20
70.8302342
40
1.0682415
50
359.8090433
51
4.9407866
0
ARC
8
DEFAULT_255_1_234
10
16.8712194
20
70.8678113
40
0.6455691
50
4.8362157
51
12.2904523
0
ARC
8
DEFAULT_255_1_234
10
17.1467309
20
70.9291965
40
0.3633074
50
12.0805627
51
23.8173984
0
ARC
8
DEFAULT_255_1_234
10
17.2641014
20
70.9788919
40
0.2358723
50
24.2871213
51
31.3935614
0
ARC
8
DEFAULT_255_1_234
10
17.3165712
20
71.0132233
40
0.1732111
50
30.7407893
51
82.4657128
0
ARC
8
DEFAULT_255_1_234
10
17.2985846
20
70.9248691
40
0.263235
50
81.1060089
51
90.2184952
0
ARC
8
DEFAULT_255_1_234
10
17.2950145
20
70.9506924
40
0.2374236
50
89.3806855
51
105.6762551
0
ARC
8
DEFAULT_255_1_234
10
17.2766775
20
71.0173567
40
0.1682847
50
105.7981136
51
149.7388061
0
ARC
8
DEFAULT_255_1_234
10
17.3830854
20
70.953395
40
0.2924306
50
149.4208916
51
163.6286378
0
ARC
8
DEFAULT_255_1_234
10
17.5921742
20
70.889625
40
0.5110213
50
163.3763315
51
172.1410975
0
ARC
8
DEFAULT_255_1_234
10
17.9222461
20
70.8423518
40
0.8444586
50
172.0259487
51
178.0703232
0
ARC
8
DEFAULT_255_1_234
10
18.225255
20
70.8279906
40
1.1477868
50
177.8631668
51
179.5044149
0
ARC
8
DEFAULT_255_1_234
10
18.1179955
20
70.5965389
40
1.0404907
50
179.7995573
51
185.2460446
0
ARC
8
DEFAULT_255_1_234
10
17.7136994
20
70.5582513
40
0.6343885
50
185.1411642
51
193.0079639
0
ARC
8
DEFAULT_255_1_234
10
17.4493467
20
70.4957641
40
0.3627568
50
192.7897626
51
205.2507664
0
ARC
8
DEFAULT_255_1_234
10
17.3447014
20
70.4490415
40
0.2481908
50
205.8005384
51
211.2537509
0
ARC
8
DEFAULT_255_1_234
10
17.2923454
20
70.413958
40
0.1852521
50
210.3789793
51
238.4008143
0
ARC
8
DEFAULT_255_1_234
10
17.2903976
20
70.4186376
40
0.1882621
50
239.6520629
51
265.9793761
0
ARC
8
DEFAULT_255_1_234
10
17.2989176
20
70.4858427
40
0.2559272
50
265.1315437
51
270.060332
0
ARC
8
DEFAULT_255_1_234
10
17.3017955
20
70.4534534
40
0.2235528
50
269.3314664
51
287.2178029
0
ARC
8
DEFAULT_255_1_234
10
17.3155807
20
70.4031279
40
0.1714108
50
287.7958004
51
329.080874
0
ARC
8
DEFAULT_255_1_234
10
17.2198264
20
70.462893
40
0.2842745
50
328.6634704
51
343.3325132
0
ARC
8
DEFAULT_255_1_234
10
17.0025284
20
70.5305863
40
0.5118644
50
343.0499468
51
351.9393422
0
ARC
8
DEFAULT_255_1_234
10
16.6558584
20
70.5816949
40
0.8622784
50
351.8069023
51
357.7959224
0
ARC
8
DEFAULT_255_1_234
10
16.332314
20
70.5984721
40
1.1862365
50
357.5871873
51
359.2677531
0
LINE
8
DEFAULT_255_1_234
10
18.5906906
20
70.8162327
11
18.5906906
21
70.6234709
0
LINE
8
DEFAULT_255_1_234
10
17.8525739
20
70.6033916
11
17.8525739
21
70.8017755
0
LINE
8
DEFAULT_255_1_234
10
18.4421035
20
70.5833123
11
18.4421035
21
70.8266739
0
LINE
8
DEFAULT_255_1_234
10
18.001161
20
70.8379184
11
18.001161
21
70.6001789
0
ARC
8
DEFAULT_255_1_234
10
17.3659796
20
70.6185805
40
1.2247208
50
353.8441951
51
0.2287902
0
ARC
8
DEFAULT_255_1_234
10
17.8299299
20
70.5667806
40
0.7578929
50
344.4934747
51
353.9765454
0
ARC
8
DEFAULT_255_1_234
10
18.129189
20
70.4816981
40
0.4467846
50
329.2803592
51
344.7472793
0
ARC
8
DEFAULT_255_1_234
10
18.2284715
20
70.4272018
40
0.3336173
50
324.9352394
51
328.6160465
0
ARC
8
DEFAULT_255_1_234
10
18.2661823
20
70.4008427
40
0.2876076
50
280.580143
51
324.9173126
0
ARC
8
DEFAULT_255_1_234
10
18.2260616
20
70.5679099
40
0.4592847
50
269.5977311
51
281.6734359
0
ARC
8
DEFAULT_255_1_234
10
18.2188521
20
70.5559173
40
0.4472986
50
256.6228859
51
270.51044
0
ARC
8
DEFAULT_255_1_234
10
18.1786499
20
70.4010877
40
0.2873874
50
215.8618325
51
257.2788573
0
ARC
8
DEFAULT_255_1_234
10
18.2807531
20
70.4695977
40
0.4102928
50
197.9693508
51
215.2623606
0
ARC
8
DEFAULT_255_1_234
10
18.5292647
20
70.5534709
40
0.6725652
50
187.8816417
51
198.2346507
0
ARC
8
DEFAULT_255_1_234
10
18.9250855
20
70.6106079
40
1.0724845
50
180.8976217
51
188.0055519
0
ARC
8
DEFAULT_255_1_234
10
19.2051043
20
70.6209777
40
1.3526448
50
180.7449369
51
181.1510016
0
ARC
8
DEFAULT_255_1_234
10
19.0473772
20
70.8066042
40
1.1948131
50
173.7675579
51
180.231553
0
ARC
8
DEFAULT_255_1_234
10
18.5955919
20
70.8576666
40
0.7401564
50
164.3058563
51
173.9002247
0
ARC
8
DEFAULT_255_1_234
10
18.3043987
20
70.9415656
40
0.4371288
50
148.7922025
51
164.568378
0
ARC
8
DEFAULT_255_1_234
10
18.209244
20
70.9946929
40
0.3282386
50
144.5883898
51
148.1176286
0
ARC
8
DEFAULT_255_1_234
10
18.1749337
20
71.0186315
40
0.2864044
50
101.6440918
51
144.514236
0
ARC
8
DEFAULT_255_1_234
10
18.2174404
20
70.8497069
40
0.4604934
50
89.5284041
51
102.5819763
0
ARC
8
DEFAULT_255_1_234
10
18.2253492
20
70.8458018
40
0.464401
50
77.0437873
51
90.5081339
0
ARC
8
DEFAULT_255_1_234
10
18.2655494
20
71.0100615
40
0.2953195
50
48.2778575
51
77.4994676
0
ARC
8
DEFAULT_255_1_234
10
18.2728125
20
71.0229746
40
0.2808655
50
36.3142134
51
47.6305865
0
ARC
8
DEFAULT_255_1_234
10
18.1859432
20
70.9644515
40
0.3855453
50
18.2931786
51
35.6769206
0
ARC
8
DEFAULT_255_1_234
10
17.9316191
20
70.8771593
40
0.654423
50
8.024666
51
18.5605216
0
ARC
8
DEFAULT_255_1_234
10
17.5153111
20
70.8156792
40
1.0752407
50
1.1274072
51
8.1718305
0
ARC
8
DEFAULT_255_1_234
10
17.1917301
20
70.8029885
40
1.3990231
50
0.5424119
51
1.3863029
0
ARC
8
DEFAULT_255_1_234
10
17.3738679
20
70.8302342
40
1.0682415
50
359.8090433
51
4.9407866
0
ARC
8
DEFAULT_255_1_234
10
17.7948693
20
70.8678113
40
0.6455691
50
4.8362157
51
12.2904523
0
ARC
8
DEFAULT_255_1_234
10
18.0703808
20
70.9291965
40
0.3633074
50
12.0805627
51
23.8173984
0
ARC
8
DEFAULT_255_1_234
10
18.1877513
20
70.9788919
40
0.2358723
50
24.2871213
51
31.3935614
0
ARC
8
DEFAULT_255_1_234
10
18.2402211
20
71.0132233
40
0.1732111
50
30.7407893
51
82.4657128
0
ARC
8
DEFAULT_255_1_234
10
18.2222345
20
70.9248691
40
0.263235
50
81.1060089
51
90.2184952
0
ARC
8
DEFAULT_255_1_234
10
18.2186644
20
70.9506924
40
0.2374236
50
89.3806855
51
105.6762551
0
ARC
8
DEFAULT_255_1_234
10
18.2003274
20
71.0173567
40
0.1682847
50
105.7981136
51
149.7388061
0
ARC
8
DEFAULT_255_1_234
10
18.3067353
20
70.953395
40
0.2924306
50
149.4208916
51
163.6286378
0
ARC
8
DEFAULT_255_1_234
10
18.5158241
20
70.889625
40
0.5110213
50
163.3763315
51
172.1410975
0
ARC
8
DEFAULT_255_1_234
10
18.845896
20
70.8423518
40
0.8444586
50
172.0259487
51
178.0703232
0
ARC
8
DEFAULT_255_1_234
10
19.1489049
20
70.8279906
40
1.1477868
50
177.8631668
51
179.5044149
0
ARC
8
DEFAULT_255_1_234
10
19.0416454
20
70.5965389
40
1.0404907
50
179.7995573
51
185.2460446
0
ARC
8
DEFAULT_255_1_234
10
18.6373493
20
70.5582513
40
0.6343885
50
185.1411642
51
193.0079639
0
ARC
8
DEFAULT_255_1_234
10
18.3729966
20
70.4957641
40
0.3627568
50
192.7897626
51
205.2507664
0
ARC
8
DEFAULT_255_1_234
10
18.2683513
20
70.4490415
40
0.2481908
50
205.8005384
51
211.2537509
0
ARC
8
DEFAULT_255_1_234
10
18.2159953
20
70.413958
40
0.1852521
50
210.3789793
51
238.4008143
0
ARC
8
DEFAULT_255_1_234
10
18.2140475
20
70.4186376
40
0.1882621
50
239.6520629
51
265.9793761
0
ARC
8
DEFAULT_255_1_234
10
18.2225675
20
70.4858427
40
0.2559272
50
265.1315437
51
270.060332
0
ARC
8
DEFAULT_255_1_234
10
18.2254454
20
70.4534534
40
0.2235528
50
269.3314664
51
287.2178029
0
ARC
8
DEFAULT_255_1_234
10
18.2392306
20
70.4031279
40
0.1714108
50
287.7958004
51
329.080874
0
ARC
8
DEFAULT_255_1_234
10
18.1434763
20
70.462893
40
0.2842745
50
328.6634704
51
343.3325132
0
ARC
8
DEFAULT_255_1_234
10
17.9261783
20
70.5305863
40
0.5118644
50
343.0499468
51
351.9393422
0
ARC
8
DEFAULT_255_1_234
10
17.5795083
20
70.5816949
40
0.8622784
50
351.8069023
51
357.7959224
0
ARC
8
DEFAULT_255_1_234
10
17.2559639
20
70.5984721
40
1.1862365
50
357.5871873
51
359.2677531
0
LINE
8
DEFAULT_255_1_234
10
19.530404
20
70.5632329
11
19.530404
21
70.549579
0
LINE
8
DEFAULT_255_1_234
10
18.9448903
20
70.2090333
11
18.9448903
21
69.7905797
0
LINE
8
DEFAULT_255_1_234
10
18.9448903
20
69.7905797
11
18.7963031
21
69.7905797
0
LINE
8
DEFAULT_255_1_234
10
18.7963031
20
69.7905797
11
18.7963031
21
70.9937341
0
LINE
8
DEFAULT_255_1_234
10
18.7963031
20
70.9937341
11
18.9320395
21
70.9937341
0
LINE
8
DEFAULT_255_1_234
10
18.9320395
20
70.9937341
11
18.9392681
21
70.8973532
0
LINE
8
DEFAULT_255_1_234
10
18.9448903
20
70.7640264
11
18.9448903
21
70.3487855
0
ARC
8
DEFAULT_255_1_234
10
18.8234844
20
70.5452219
40
0.706933
50
349.5457434
51
0.3531309
0
ARC
8
DEFAULT_255_1_234
10
19.0509279
20
70.5015683
40
0.4753471
50
331.7803554
51
349.745746
0
ARC
8
DEFAULT_255_1_234
10
19.1234675
20
70.4662372
40
0.3947358
50
323.22439
51
331.3203874
0
ARC
8
DEFAULT_255_1_234
10
19.2058521
20
70.3963634
40
0.2869915
50
275.1519851
51
324.5512733
0
ARC
8
DEFAULT_255_1_234
10
19.1943298
20
70.4764979
40
0.3678617
50
269.9290392
51
275.818604
0
ARC
8
DEFAULT_255_1_234
10
19.1901838
20
70.5099031
40
0.4012835
50
255.0664822
51
270.5269236
0
ARC
8
DEFAULT_255_1_234
10
19.1619609
20
70.4042994
40
0.2919736
50
221.9729928
51
255.0774254
0
ARC
8
DEFAULT_255_1_234
10
19.1703312
20
70.7126403
40
0.2958193
50
94.4346354
51
141.3610013
0
ARC
8
DEFAULT_255_1_234
10
19.1908247
20
70.5859254
40
0.4238728
50
89.9134931
51
95.8722474
0
ARC
8
DEFAULT_255_1_234
10
19.1954034
20
70.6756312
40
0.3341895
50
70.3260159
51
90.6753068
0
ARC
8
DEFAULT_255_1_234
10
19.205487
20
70.7170894
40
0.2917909
50
36.7637139
51
69.4496974
0
ARC
8
DEFAULT_255_1_234
10
19.1200326
20
70.6504341
40
0.4001499
50
16.0027151
51
37.0862297
0
ARC
8
DEFAULT_255_1_234
10
18.9161009
20
70.5888838
40
0.6131544
50
4.5016999
51
16.2778785
0
ARC
8
DEFAULT_255_1_234
10
18.6688171
20
70.5646817
40
0.8615881
50
359.9036549
51
4.8154775
0
ARC
8
DEFAULT_255_1_234
10
18.8230775
20
70.5695594
40
0.558748
50
359.6806954
51
9.1300109
0
ARC
8
DEFAULT_255_1_234
10
19.0139275
20
70.6013399
40
0.365275
50
8.9583065
51
23.6940221
0
ARC
8
DEFAULT_255_1_234
10
19.0974513
20
70.6363192
40
0.2747396
50
24.0138417
51
36.1950585
0
ARC
8
DEFAULT_255_1_234
10
19.1566218
20
70.6845479
40
0.1985474
50
35.0467888
51
84.5489065
0
ARC
8
DEFAULT_255_1_234
10
19.1476649
20
70.6253558
40
0.2583438
50
83.8184867
51
90.0831368
0
ARC
8
DEFAULT_255_1_234
10
19.1437625
20
70.6450458
40
0.2386795
50
89.1531573
51
112.3458333
0
ARC
8
DEFAULT_255_1_234
10
19.1392369
20
70.6680143
40
0.2157633
50
113.5533144
51
146.2373177
0
ARC
8
DEFAULT_255_1_234
10
19.2034748
20
70.6186635
40
0.296642
50
145.2083364
51
150.6575478
0
ARC
8
DEFAULT_255_1_234
10
19.1588014
20
70.464769
40
0.2433313
50
208.4667294
51
230.7447311
0
ARC
8
DEFAULT_255_1_234
10
19.1375166
20
70.4456241
40
0.2150824
50
231.9081632
51
266.0620926
0
ARC
8
DEFAULT_255_1_234
10
19.1485837
20
70.5248998
40
0.2949842
50
264.9749558
51
270.0607351
0
ARC
8
DEFAULT_255_1_234
10
19.1517491
20
70.4462732
40
0.2163762
50
269.2445961
51
292.3380766
0
ARC
8
DEFAULT_255_1_234
10
19.1534647
20
70.4321751
40
0.202719
50
293.4040686
51
323.0230846
0
ARC
8
DEFAULT_255_1_234
10
19.1128107
20
70.467886
40
0.2567087
50
322.1134126
51
323.3501377
0
ARC
8
DEFAULT_255_1_234
10
19.0967204
20
70.4757503
40
0.2743321
50
324.0383639
51
342.5338251
0
ARC
8
DEFAULT_255_1_234
10
18.9303211
20
70.5303013
40
0.4494375
50
342.2670873
51
353.28177
0
ARC
8
DEFAULT_255_1_234
10
18.6672421
20
70.5633668
40
0.7145813
50
353.116465
51
0.2468632
0
LINE
8
DEFAULT_255_1_234
10
20.1392098
20
70.9985531
11
20.1392098
21
70.8604072
0
LINE
8
DEFAULT_255_1_234
10
19.867737
20
70.7415375
11
19.867737
21
70.1247
0
LINE
8
DEFAULT_255_1_234
10
19.867737
20
70.1247
11
19.7191499
21
70.1247
0
LINE
8
DEFAULT_255_1_234
10
19.7191499
20
70.1247
11
19.7191499
21
70.9937341
0
LINE
8
DEFAULT_255_1_234
10
19.7191499
20
70.9937341
11
19.8637211
21
70.9937341
0
LINE
8
DEFAULT_255_1_234
10
19.8637211
20
70.9937341
11
19.8661307
21
70.8933374
0
ARC
8
DEFAULT_255_1_234
10
20.0725503
20
70.4544342
40
0.4114092
50
80.6754243
51
86.8932892
0
ARC
8
DEFAULT_255_1_234
10
20.0665037
20
70.35767
40
0.5083596
50
86.8038578
51
90.0431435
0
ARC
8
DEFAULT_255_1_234
10
20.0628018
20
70.6033866
40
0.2626638
50
89.2759698
51
106.6213787
0
ARC
8
DEFAULT_255_1_234
10
20.0423582
20
70.677683
40
0.1856317
50
107.1346045
51
157.6458115
0
ARC
8
DEFAULT_255_1_234
10
20.1115184
20
70.6393311
40
0.2643398
50
155.6586782
51
157.2539184
0
ARC
8
DEFAULT_255_1_234
10
20.0910386
20
70.7562157
40
0.2634121
50
127.8165941
51
148.6302098
0
ARC
8
DEFAULT_255_1_234
10
20.0656855
20
70.7822218
40
0.2273596
50
91.3329982
51
126.7875809
0
ARC
8
DEFAULT_255_1_234
10
20.0732795
20
70.7107195
40
0.299078
50
89.986594
51
92.4688449
0
ARC
8
DEFAULT_255_1_234
10
20.074119
20
70.7382078
40
0.2715908
50
85.3589899
51
90.1623399
0
ARC
8
DEFAULT_255_1_234
10
20.0825706
20
70.8386164
40
0.1708278
50
78.401942
51
85.4594656
0
ARC
8
DEFAULT_255_1_234
10
20.097059
20
70.9077236
40
0.1002194
50
67.7858312
51
78.5728455
0
ARC
8
DEFAULT_255_1_234
10
20.1078443
20
70.9356887
40
0.0702548
50
63.4835954
51
67.3062642
0
LINE
8
DEFAULT_255_1_234
10
20.2203303
20
70.5568075
11
20.2203303
21
70.5672488
0
LINE
8
DEFAULT_255_1_234
10
21.0114565
20
70.5600202
11
21.0114565
21
70.549579
0
ARC
8
DEFAULT_255_1_234
10
20.7789483
20
70.5704837
40
0.5586273
50
166.3003825
51
180.3317926
0
ARC
8
DEFAULT_255_1_234
10
20.6926642
20
70.5897964
40
0.4702272
50
153.8608245
51
166.0967125
0
ARC
8
DEFAULT_255_1_234
10
20.6261044
20
70.625475
40
0.3947658
50
135.1316692
51
154.253643
0
ARC
8
DEFAULT_255_1_234
10
20.5982604
20
70.6500666
40
0.3576898
50
121.7044358
51
134.776924
0
ARC
8
DEFAULT_255_1_234
10
20.6049598
20
70.6371867
40
0.3721701
50
93.4002104
51
121.5398234
0
ARC
8
DEFAULT_255_1_234
10
20.6144553
20
70.5546228
40
0.4551749
50
89.9706281
51
93.9769836
0
ARC
8
DEFAULT_255_1_234
10
20.6191645
20
70.5936362
40
0.4161854
50
71.3323442
51
90.6161982
0
ARC
8
DEFAULT_255_1_234
10
20.6354342
20
70.6538578
40
0.3539455
50
41.1815071
51
70.707185
0
ARC
8
DEFAULT_255_1_234
10
20.5876742
20
70.6104919
40
0.4184468
50
12.1971897
51
41.3445735
0
ARC
8
DEFAULT_255_1_234
10
20.395075
20
70.5646425
40
0.616399
50
359.5703439
51
12.5804035
0
ARC
8
DEFAULT_255_1_234
10
20.4423824
20
70.5464116
40
0.5690829
50
347.0197749
51
0.3188898
0
ARC
8
DEFAULT_255_1_234
10
20.5382327
20
70.5257808
40
0.4710501
50
334.3504053
51
346.846361
0
ARC
8
DEFAULT_255_1_234
10
20.622775
20
70.4818805
40
0.3758475
50
310.422922
51
334.8045033
0
ARC
8
DEFAULT_255_1_234
10
20.6309576
20
70.4754782
40
0.3656736
50
301.8486886
51
310.097356
0
ARC
8
DEFAULT_255_1_234
10
20.6277302
20
70.4830638
40
0.3738224
50
274.307774
51
301.655379
0
ARC
8
DEFAULT_255_1_234
10
20.6166609
20
70.5708361
40
0.4621997
50
269.9546461
51
274.8588071
0
ARC
8
DEFAULT_255_1_234
10
20.6117543
20
70.5207249
40
0.4121134
50
250.888809
51
270.631312
0
ARC
8
DEFAULT_255_1_234
10
20.5967462
20
70.4648277
40
0.3544073
50
221.1701932
51
250.2227191
0
ARC
8
DEFAULT_255_1_234
10
20.6451617
20
70.5089439
40
0.4198961
50
191.6263638
51
221.3526367
0
ARC
8
DEFAULT_255_1_234
10
20.8339612
20
70.5526329
40
0.6136451
50
179.610213
51
192.0693181
0
ARC
8
DEFAULT_255_1_234
10
20.876284
20
70.5463633
40
0.5065736
50
179.636298
51
190.6162791
0
ARC
8
DEFAULT_255_1_234
10
20.7120508
20
70.514359
40
0.3392576
50
190.4136628
51
208.7170242
0
ARC
8
DEFAULT_255_1_234
10
20.6610133
20
70.4890366
40
0.2823401
50
209.1867941
51
217.4225593
0
ARC
8
DEFAULT_255_1_234
10
20.6080967
20
70.4424558
40
0.2120636
50
216.1156896
51
265.2575835
0
ARC
8
DEFAULT_255_1_234
10
20.6160116
20
70.4998109
40
0.2698952
50
264.5897417
51
270.0601757
0
ARC
8
DEFAULT_255_1_234
10
20.6193176
20
70.4618185
40
0.2319225
50
269.2532621
51
291.8792492
0
ARC
8
DEFAULT_255_1_234
10
20.6222398
20
70.4440238
40
0.2143562
50
292.9269754
51
323.1776747
0
ARC
8
DEFAULT_255_1_234
10
20.5829219
20
70.4788452
40
0.2667346
50
322.2518483
51
323.0930371
0
ARC
8
DEFAULT_255_1_234
10
20.5534879
20
70.496999
40
0.3011886
50
323.6941278
51
343.8493282
0
ARC
8
DEFAULT_255_1_234
10
20.3956422
20
70.545035
40
0.4661719
50
343.5748474
51
355.0079071
0
ARC
8
DEFAULT_255_1_234
10
20.1948667
20
70.5658424
40
0.6680042
50
354.7285225
51
0.1206288
0
ARC
8
DEFAULT_255_1_234
10
20.3717133
20
70.5704751
40
0.4911667
50
359.623636
51
11.2015604
0
ARC
8
DEFAULT_255_1_234
10
20.5251361
20
70.602064
40
0.3345323
50
10.9989411
51
30.8319188
0
ARC
8
DEFAULT_255_1_234
10
20.5647233
20
70.6229297
40
0.2898553
50
31.3008956
51
37.3959224
0
ARC
8
DEFAULT_255_1_234
10
20.6143812
20
70.6648653
40
0.2249582
50
36.5915954
51
62.2442953
0
ARC
8
DEFAULT_255_1_234
10
20.6190265
20
70.6645602
40
0.2231053
50
63.3365542
51
89.7195421
0
ARC
8
DEFAULT_255_1_234
10
20.6147119
20
70.6076884
40
0.2800267
50
88.8936788
51
90.0047485
0
ARC
8
DEFAULT_255_1_234
10
20.6115478
20
70.6649787
40
0.2227586
50
89.1921125
51
114.7099455
0
ARC
8
DEFAULT_255_1_234
10
20.6144242
20
70.6687628
40
0.2205633
50
115.7997161
51
142.2900762
0
ARC
8
DEFAULT_255_1_234
10
20.6582975
20
70.6297658
40
0.2791541
50
141.4658779
51
142.3795754
0
ARC
8
DEFAULT_255_1_234
10
20.6691879
20
70.6254557
40
0.2904292
50
143.0175714
51
163.234115
0
ARC
8
DEFAULT_255_1_234
10
20.8270052
20
70.5755054
40
0.4559523
50
162.9447461
51
174.3732162
0
ARC
8
DEFAULT_255_1_234
10
21.0415865
20
70.5514143
40
0.6718682
50
174.1228657
51
180.1565175
0
LINE
8
DEFAULT_255_2_778
10
9.3927417
20
60.7218492
11
10.7156417
21
60.7218492
0
LINE
8
DEFAULT_255_2_778
10
10.7156417
20
60.7218492
11
10.7156417
21
35.2557492
0
LINE
8
DEFAULT_255_2_778
10
10.7156417
20
30.6254492
11
10.7156417
21
5.1593492
0
LINE
8
DEFAULT_255_2_778
10
10.7156417
20
5.1593492
11
9.3927417
21
5.1593492
0
LINE
8
DEFAULT_255_2_778
10
9.3926834
20
35.2557041
11
12.0384834
21
35.2557041
0
LINE
8
DEFAULT_255_2_778
10
12.0384834
20
35.2557041
11
12.0384834
21
30.6255041
0
LINE
8
DEFAULT_255_2_778
10
12.0384834
20
30.6255041
11
9.3926834
21
30.6255041
0
LINE
8
DEFAULT_255_2_778
10
9.3926834
20
30.6255041
11
9.3926834
21
35.2557041
0
LINE
8
DEFAULT_255_2_778
10
10.1865
20
31.0884833
11
10.1865
21
34.7926833
0
LINE
8
DEFAULT_255_2_778
10
9.9219167
20
34.0981656
11
10.1865167
21
34.7926656
0
LINE
8
DEFAULT_255_2_778
10
10.1865167
20
34.7926656
11
10.4511167
21
34.0981656
0
LINE
8
DEFAULT_255_2_778
10
10.4511167
20
34.0981656
11
9.9219167
21
34.0981656
0
LINE
8
DEFAULT_255_2_778
10
11.2448
20
34.7926833
11
11.2448
21
31.0884833
0
LINE
8
DEFAULT_255_2_778
10
10.9802167
20
31.7830656
11
11.2448167
21
31.0885656
0
LINE
8
DEFAULT_255_2_778
10
11.2448167
20
31.0885656
11
11.5094167
21
31.7830656
0
LINE
8
DEFAULT_255_2_778
10
11.5094167
20
31.7830656
11
10.9802167
21
31.7830656
0
LINE
8
DEFAULT_255_1_234
10
4.2454489
20
69.3098211
11
4.2454489
21
68.2664983
0
LINE
8
DEFAULT_255_1_234
10
4.2454489
20
68.2664983
11
4.7996389
21
68.2664983
0
LINE
8
DEFAULT_255_1_234
10
4.7996389
20
68.2664983
11
4.7996389
21
68.1404
0
LINE
8
DEFAULT_255_1_234
10
4.7996389
20
68.1404
11
4.0904364
21
68.1404
0
LINE
8
DEFAULT_255_1_234
10
4.0904364
20
68.1404
11
4.0904364
21
69.3098211
0
LINE
8
DEFAULT_255_1_234
10
4.0904364
20
69.3098211
11
4.2454489
21
69.3098211
0
LINE
8
DEFAULT_255_1_234
10
5.377924
20
69.1090276
11
5.377924
21
68.7676788
0
LINE
8
DEFAULT_255_1_234
10
5.377924
20
68.7676788
11
5.7040126
21
68.7676788
0
LINE
8
DEFAULT_255_1_234
10
5.7040126
20
68.7676788
11
5.7040126
21
68.6271233
0
LINE
8
DEFAULT_255_1_234
10
5.7040126
20
68.6271233
11
5.377924
21
68.6271233
0
LINE
8
DEFAULT_255_1_234
10
5.377924
20
68.6271233
11
5.377924
21
68.2576634
0
LINE
8
DEFAULT_255_1_234
10
5.377924
20
68.2576634
11
5.2285337
21
68.2576634
0
LINE
8
DEFAULT_255_1_234
10
5.2285337
20
68.2576634
11
5.2285337
21
68.6271233
0
LINE
8
DEFAULT_255_1_234
10
5.2285337
20
68.6271233
11
4.9024451
21
68.6271233
0
LINE
8
DEFAULT_255_1_234
10
4.9024451
20
68.6271233
11
4.9024451
21
68.7676788
0
LINE
8
DEFAULT_255_1_234
10
4.9024451
20
68.7676788
11
5.2285337
21
68.7676788
0
LINE
8
DEFAULT_255_1_234
10
5.2285337
20
68.7676788
11
5.2285337
21
69.1090276
0
LINE
8
DEFAULT_255_1_234
10
5.2285337
20
69.1090276
11
5.377924
21
69.1090276
0
LINE
8
DEFAULT_255_1_234
10
4.4593154
20
4.6404
11
4.1356364
21
4.6404
0
LINE
8
DEFAULT_255_1_234
10
4.1356364
20
4.6404
11
4.1356364
21
5.8098211
0
LINE
8
DEFAULT_255_1_234
10
4.1356364
20
5.8098211
11
4.4657408
21
5.8098211
0
LINE
8
DEFAULT_255_1_234
10
4.9813784
20
5.2644661
11
4.9813784
21
5.1897709
0
LINE
8
DEFAULT_255_1_234
10
4.4697567
20
5.6829196
11
4.2898458
21
5.6829196
0
LINE
8
DEFAULT_255_1_234
10
4.2898458
20
5.6829196
11
4.2898458
21
4.7664983
0
LINE
8
DEFAULT_255_1_234
10
4.2898458
20
4.7664983
11
4.4520869
21
4.7664983
0
LINE
8
DEFAULT_255_1_234
10
4.8287754
20
5.1929836
11
4.8287754
21
5.2612534
0
ARC
8
DEFAULT_255_1_234
10
4.4696351
20
5.2232894
40
0.5865446
50
75.4101064
51
90.3804066
0
ARC
8
DEFAULT_255_1_234
10
4.4925864
20
5.3189492
40
0.4881916
50
60.145586
51
75.1888407
0
ARC
8
DEFAULT_255_1_234
10
4.508464
20
5.3466199
40
0.4562893
50
26.5253612
51
60.1450928
0
ARC
8
DEFAULT_255_1_234
10
4.3964389
20
5.2872158
40
0.5830602
50
7.4030428
51
26.8320788
0
ARC
8
DEFAULT_255_1_234
10
4.2370146
20
5.2623804
40
0.7443669
50
0.1605367
51
7.7176192
0
ARC
8
DEFAULT_255_1_234
10
4.253405
20
5.1859434
40
0.7279835
50
348.7289388
51
0.3012466
0
ARC
8
DEFAULT_255_1_234
10
4.4190481
20
5.1530386
40
0.559104
50
333.0706509
51
348.7181832
0
ARC
8
DEFAULT_255_1_234
10
4.5157238
20
5.1005319
40
0.4491417
50
299.2531685
51
333.4571258
0
ARC
8
DEFAULT_255_1_234
10
4.4796378
20
5.1690828
40
0.5265881
50
278.107187
51
299.0339503
0
ARC
8
DEFAULT_255_1_234
10
4.4540457
20
5.3198216
40
0.679442
50
270.4443897
51
278.4511052
0
ARC
8
DEFAULT_255_1_234
10
4.4561287
20
5.2269213
40
0.4604407
50
269.4970433
51
284.0205042
0
ARC
8
DEFAULT_255_1_234
10
4.4916588
20
5.0903978
40
0.3193797
50
283.7700273
51
318.1555492
0
ARC
8
DEFAULT_255_1_234
10
4.4579346
20
5.1156367
40
0.3613588
50
318.7415601
51
343.6873628
0
ARC
8
DEFAULT_255_1_234
10
4.2775369
20
5.1719832
40
0.5503313
50
343.3325091
51
355.8548958
0
ARC
8
DEFAULT_255_1_234
10
4.0677054
20
5.1919319
40
0.7610708
50
355.4988528
51
0.0791727
0
ARC
8
DEFAULT_255_1_234
10
4.1459676
20
5.265478
40
0.6828208
50
359.6455037
51
9.8607896
0
ARC
8
DEFAULT_255_1_234
10
4.3820374
20
5.3081099
40
0.4429406
50
9.6571907
51
26.1932807
0
ARC
8
DEFAULT_255_1_234
10
4.4748363
20
5.3512118
40
0.3406537
50
26.5777228
51
40.1532208
0
ARC
8
DEFAULT_255_1_234
10
4.5004089
20
5.3711619
40
0.308246
50
40.3840491
51
80.1431104
0
ARC
8
DEFAULT_255_1_234
10
4.4677207
20
5.2262333
40
0.4566909
50
79.2152159
51
89.7445637
0
LINE
8
DEFAULT_255_1_234
10
5.3797526
20
5.8098211
11
5.3797526
21
4.6404
0
LINE
8
DEFAULT_255_1_234
10
5.3797526
20
4.6404
11
5.2255433
21
4.6404
0
LINE
8
DEFAULT_255_1_234
10
5.2255433
20
4.6404
11
5.2255433
21
5.8098211
0
LINE
8
DEFAULT_255_1_234
10
5.2255433
20
5.8098211
11
5.3797526
21
5.8098211
0
LINE
8
DEFAULT_255_1_234
10
6.3780977
20
5.8098211
11
6.3780977
21
5.726291
0
LINE
8
DEFAULT_255_1_234
10
6.3780977
20
5.726291
11
5.8937839
21
4.6404
0
LINE
8
DEFAULT_255_1_234
10
5.8937839
20
4.6404
11
5.7379682
21
4.6404
0
LINE
8
DEFAULT_255_1_234
10
5.7379682
20
4.6404
11
6.2206756
21
5.6877387
0
LINE
8
DEFAULT_255_1_234
10
6.2206756
20
5.6877387
11
5.5877747
21
5.6877387
0
LINE
8
DEFAULT_255_1_234
10
5.5877747
20
5.6877387
11
5.5877747
21
5.8098211
0
LINE
8
DEFAULT_255_1_234
10
5.5877747
20
5.8098211
11
6.3780977
21
5.8098211
0
LINE
8
DEFAULT_255_1_234
10
4.4593154
20
12.5779
11
4.1356364
21
12.5779
0
LINE
8
DEFAULT_255_1_234
10
4.1356364
20
12.5779
11
4.1356364
21
13.7473211
0
LINE
8
DEFAULT_255_1_234
10
4.1356364
20
13.7473211
11
4.4657408
21
13.7473211
0
LINE
8
DEFAULT_255_1_234
10
4.9813784
20
13.2019661
11
4.9813784
21
13.1272709
0
LINE
8
DEFAULT_255_1_234
10
4.4697567
20
13.6204196
11
4.2898458
21
13.6204196
0
LINE
8
DEFAULT_255_1_234
10
4.2898458
20
13.6204196
11
4.2898458
21
12.7039983
0
LINE
8
DEFAULT_255_1_234
10
4.2898458
20
12.7039983
11
4.4520869
21
12.7039983
0
LINE
8
DEFAULT_255_1_234
10
4.8287754
20
13.1304836
11
4.8287754
21
13.1987534
0
ARC
8
DEFAULT_255_1_234
10
4.4696351
20
13.1607894
40
0.5865446
50
75.4101064
51
90.3804066
0
ARC
8
DEFAULT_255_1_234
10
4.4925864
20
13.2564492
40
0.4881916
50
60.145586
51
75.1888407
0
ARC
8
DEFAULT_255_1_234
10
4.508464
20
13.2841199
40
0.4562893
50
26.5253612
51
60.1450928
0
ARC
8
DEFAULT_255_1_234
10
4.3964389
20
13.2247158
40
0.5830602
50
7.4030428
51
26.8320788
0
ARC
8
DEFAULT_255_1_234
10
4.2370146
20
13.1998804
40
0.7443669
50
0.1605367
51
7.7176192
0
ARC
8
DEFAULT_255_1_234
10
4.253405
20
13.1234434
40
0.7279835
50
348.7289388
51
0.3012466
0
ARC
8
DEFAULT_255_1_234
10
4.4190481
20
13.0905386
40
0.559104
50
333.0706509
51
348.7181832
0
ARC
8
DEFAULT_255_1_234
10
4.5157238
20
13.0380319
40
0.4491417
50
299.2531685
51
333.4571258
0
ARC
8
DEFAULT_255_1_234
10
4.4796378
20
13.1065828
40
0.5265881
50
278.107187
51
299.0339503
0
ARC
8
DEFAULT_255_1_234
10
4.4540457
20
13.2573216
40
0.679442
50
270.4443897
51
278.4511052
0
ARC
8
DEFAULT_255_1_234
10
4.4561287
20
13.1644213
40
0.4604407
50
269.4970433
51
284.0205042
0
ARC
8
DEFAULT_255_1_234
10
4.4916588
20
13.0278978
40
0.3193797
50
283.7700273
51
318.1555492
0
ARC
8
DEFAULT_255_1_234
10
4.4579346
20
13.0531367
40
0.3613588
50
318.7415601
51
343.6873628
0
ARC
8
DEFAULT_255_1_234
10
4.2775369
20
13.1094832
40
0.5503313
50
343.3325091
51
355.8548958
0
ARC
8
DEFAULT_255_1_234
10
4.0677054
20
13.1294319
40
0.7610708
50
355.4988528
51
0.0791727
0
ARC
8
DEFAULT_255_1_234
10
4.1459676
20
13.202978
40
0.6828208
50
359.6455037
51
9.8607896
0
ARC
8
DEFAULT_255_1_234
10
4.3820374
20
13.2456099
40
0.4429406
50
9.6571907
51
26.1932807
0
ARC
8
DEFAULT_255_1_234
10
4.4748363
20
13.2887118
40
0.3406537
50
26.5777228
51
40.1532208
0
ARC
8
DEFAULT_255_1_234
10
4.5004089
20
13.3086619
40
0.308246
50
40.3840491
51
80.1431104
0
ARC
8
DEFAULT_255_1_234
10
4.4677207
20
13.1637333
40
0.4566909
50
79.2152159
51
89.7445637
0
LINE
8
DEFAULT_255_1_234
10
5.3797526
20
13.7473211
11
5.3797526
21
12.5779
0
LINE
8
DEFAULT_255_1_234
10
5.3797526
20
12.5779
11
5.2255433
21
12.5779
0
LINE
8
DEFAULT_255_1_234
10
5.2255433
20
12.5779
11
5.2255433
21
13.7473211
0
LINE
8
DEFAULT_255_1_234
10
5.2255433
20
13.7473211
11
5.3797526
21
13.7473211
0
LINE
8
DEFAULT_255_1_234
10
6.1797138
20
13.7481243
11
6.2062185
21
13.7481243
0
LINE
8
DEFAULT_255_1_234
10
6.2062185
20
13.7481243
11
6.2062185
21
13.622026
0
LINE
8
DEFAULT_255_1_234
10
6.2062185
20
13.622026
11
6.1789106
21
13.622026
0
LINE
8
DEFAULT_255_1_234
10
5.6319492
20
13.0228583
11
5.6319492
21
13.0798836
0
LINE
8
DEFAULT_255_1_234
10
5.7813396
20
13.0606075
11
5.7813396
21
13.0059917
0
ARC
8
DEFAULT_255_1_234
10
6.1841454
20
13.1222455
40
0.4998079
50
90.6001036
51
104.514704
0
ARC
8
DEFAULT_255_1_234
10
6.1452969
20
13.2667131
40
0.3502176
50
104.2855254
51
133.862935
0
ARC
8
DEFAULT_255_1_234
10
6.1616727
20
13.255883
40
0.3693984
50
134.5302688
51
161.6210873
0
ARC
8
DEFAULT_255_1_234
10
6.3269915
20
13.1975895
40
0.5446739
50
161.2849839
51
174.2076652
0
ARC
8
DEFAULT_255_1_234
10
6.4676852
20
13.1781787
40
0.6866274
50
173.7810589
51
174.9254635
0
ARC
8
DEFAULT_255_1_234
10
6.0126684
20
13.0398839
40
0.3033419
50
95.8330959
51
138.9954921
0
ARC
8
DEFAULT_255_1_234
10
6.035004
20
12.9120375
40
0.4328947
50
89.8753725
51
97.0544009
0
ARC
8
DEFAULT_255_1_234
10
6.0397506
20
12.9955748
40
0.3493769
50
71.6407809
51
90.6240094
0
ARC
8
DEFAULT_255_1_234
10
6.054808
20
13.0510082
40
0.2920396
50
39.6367836
51
71.019018
0
ARC
8
DEFAULT_255_1_234
10
5.9911553
20
12.9959998
40
0.3761538
50
10.658731
51
39.9043955
0
ARC
8
DEFAULT_255_1_234
10
5.8363636
20
12.9623686
40
0.5345136
50
359.682601
51
11.132623
0
ARC
8
DEFAULT_255_1_234
10
5.8323767
20
12.955301
40
0.5385081
50
347.2486944
51
0.4369317
0
ARC
8
DEFAULT_255_1_234
10
5.9991244
20
12.9151807
40
0.3670249
50
318.1409698
51
347.6118597
0
ARC
8
DEFAULT_255_1_234
10
6.0316237
20
12.8884702
40
0.3250007
50
275.6342139
51
317.8248465
0
ARC
8
DEFAULT_255_1_234
10
6.0095348
20
13.0184219
40
0.4565864
50
269.8874292
51
276.7917694
0
ARC
8
DEFAULT_255_1_234
10
6.0040419
20
12.9158743
40
0.3540676
50
246.9140195
51
270.7437342
0
ARC
8
DEFAULT_255_1_234
10
6.0046809
20
12.9016384
40
0.3412781
50
218.1665114
51
245.878116
0
ARC
8
DEFAULT_255_1_234
10
6.092627
20
12.9752279
40
0.455911
50
191.4115814
51
218.6077802
0
ARC
8
DEFAULT_255_1_234
10
6.2864359
20
13.0186833
40
0.6545001
50
179.6345085
51
191.7836486
0
ARC
8
DEFAULT_255_1_234
10
6.8446696
20
13.0865697
40
1.2127388
50
171.4525249
51
180.3158839
0
ARC
8
DEFAULT_255_1_234
10
6.4051571
20
13.1549608
40
0.7679464
50
157.9802646
51
171.6246686
0
ARC
8
DEFAULT_255_1_234
10
6.1837592
20
13.2432421
40
0.5296008
50
141.4298019
51
157.854097
0
ARC
8
DEFAULT_255_1_234
10
6.1195913
20
13.2886381
40
0.4511509
50
102.8715806
51
140.8564722
0
ARC
8
DEFAULT_255_1_234
10
6.1843528
20
13.0446552
40
0.7034845
50
90.3778349
51
103.5869322
0
ARC
8
DEFAULT_255_1_234
10
6.0105305
20
12.984173
40
0.2370698
50
89.8751008
51
126.2071704
0
ARC
8
DEFAULT_255_1_234
10
6.0151094
20
12.9687303
40
0.2522934
50
124.9745049
51
144.895901
0
ARC
8
DEFAULT_255_1_234
10
5.9975285
20
12.983056
40
0.2296779
50
145.2974905
51
160.2660252
0
ARC
8
DEFAULT_255_1_234
10
6.3047824
20
13.0028071
40
0.5234525
50
179.6514266
51
190.2855912
0
ARC
8
DEFAULT_255_1_234
10
6.1353961
20
12.9708786
40
0.3510893
50
190.0945431
51
207.5098196
0
ARC
8
DEFAULT_255_1_234
10
6.0788231
20
12.9439623
40
0.288489
50
207.9583163
51
216.3251085
0
ARC
8
DEFAULT_255_1_234
10
6.0448339
20
12.9160105
40
0.2445587
50
215.7661442
51
232.5456785
0
ARC
8
DEFAULT_255_1_234
10
6.0065322
20
12.8673482
40
0.1826382
50
232.8005391
51
270.6605633
0
ARC
8
DEFAULT_255_1_234
10
6.0111022
20
12.9037612
40
0.2190529
50
269.35537
51
288.4744281
0
ARC
8
DEFAULT_255_1_234
10
6.020392
20
12.8688118
40
0.1829749
50
289.1833337
51
322.9683818
0
ARC
8
DEFAULT_255_1_234
10
5.9592442
20
12.9170391
40
0.2608399
50
322.6007884
51
346.5182367
0
ARC
8
DEFAULT_255_1_234
10
5.8435038
20
12.9465616
40
0.3802777
50
346.2582162
51
358.7741648
0
ARC
8
DEFAULT_255_1_234
10
5.7416707
20
12.9520965
40
0.4822176
50
358.3755224
51
0.0098023
0
ARC
8
DEFAULT_255_1_234
10
5.8172894
20
12.9548657
40
0.4066078
50
359.6214041
51
11.2839074
0
ARC
8
DEFAULT_255_1_234
10
5.9450041
20
12.9815066
40
0.2761514
50
11.0482309
51
31.8146458
0
ARC
8
DEFAULT_255_1_234
10
5.9759084
20
12.9982584
40
0.2410679
50
32.3035391
51
38.082671
0
ARC
8
DEFAULT_255_1_234
10
6.0179744
20
13.0363662
40
0.1844966
50
36.825067
51
85.7415724
0
ARC
8
DEFAULT_255_1_234
10
6.0112577
20
12.9863301
40
0.2349122
50
85.0140713
51
90.0513278
0
LINE
8
DEFAULT_255_1_234
10
4.4593154
20
20.5154
11
4.1356364
21
20.5154
0
LINE
8
DEFAULT_255_1_234
10
4.1356364
20
20.5154
11
4.1356364
21
21.6848211
0
LINE
8
DEFAULT_255_1_234
10
4.1356364
20
21.6848211
11
4.4657408
21
21.6848211
0
LINE
8
DEFAULT_255_1_234
10
4.9813784
20
21.1394661
11
4.9813784
21
21.0647709
0
LINE
8
DEFAULT_255_1_234
10
4.4697567
20
21.5579196
11
4.2898458
21
21.5579196
0
LINE
8
DEFAULT_255_1_234
10
4.2898458
20
21.5579196
11
4.2898458
21
20.6414983
0
LINE
8
DEFAULT_255_1_234
10
4.2898458
20
20.6414983
11
4.4520869
21
20.6414983
0
LINE
8
DEFAULT_255_1_234
10
4.8287754
20
21.0679836
11
4.8287754
21
21.1362534
0
ARC
8
DEFAULT_255_1_234
10
4.4696351
20
21.0982894
40
0.5865446
50
75.4101064
51
90.3804066
0
ARC
8
DEFAULT_255_1_234
10
4.4925864
20
21.1939492
40
0.4881916
50
60.145586
51
75.1888407
0
ARC
8
DEFAULT_255_1_234
10
4.508464
20
21.2216199
40
0.4562893
50
26.5253612
51
60.1450928
0
ARC
8
DEFAULT_255_1_234
10
4.3964389
20
21.1622158
40
0.5830602
50
7.4030428
51
26.8320788
0
ARC
8
DEFAULT_255_1_234
10
4.2370146
20
21.1373804
40
0.7443669
50
0.1605367
51
7.7176192
0
ARC
8
DEFAULT_255_1_234
10
4.253405
20
21.0609434
40
0.7279835
50
348.7289388
51
0.3012466
0
ARC
8
DEFAULT_255_1_234
10
4.4190481
20
21.0280386
40
0.559104
50
333.0706509
51
348.7181832
0
ARC
8
DEFAULT_255_1_234
10
4.5157238
20
20.9755319
40
0.4491417
50
299.2531685
51
333.4571258
0
ARC
8
DEFAULT_255_1_234
10
4.4796378
20
21.0440828
40
0.5265881
50
278.107187
51
299.0339503
0
ARC
8
DEFAULT_255_1_234
10
4.4540457
20
21.1948216
40
0.679442
50
270.4443897
51
278.4511052
0
ARC
8
DEFAULT_255_1_234
10
4.4561287
20
21.1019213
40
0.4604407
50
269.4970433
51
284.0205042
0
ARC
8
DEFAULT_255_1_234
10
4.4916588
20
20.9653978
40
0.3193797
50
283.7700273
51
318.1555492
0
ARC
8
DEFAULT_255_1_234
10
4.4579346
20
20.9906367
40
0.3613588
50
318.7415601
51
343.6873628
0
ARC
8
DEFAULT_255_1_234
10
4.2775369
20
21.0469832
40
0.5503313
50
343.3325091
51
355.8548958
0
ARC
8
DEFAULT_255_1_234
10
4.0677054
20
21.0669319
40
0.7610708
50
355.4988528
51
0.0791727
0
ARC
8
DEFAULT_255_1_234
10
4.1459676
20
21.140478
40
0.6828208
50
359.6455037
51
9.8607896
0
ARC
8
DEFAULT_255_1_234
10
4.3820374
20
21.1831099
40
0.4429406
50
9.6571907
51
26.1932807
0
ARC
8
DEFAULT_255_1_234
10
4.4748363
20
21.2262118
40
0.3406537
50
26.5777228
51
40.1532208
0
ARC
8
DEFAULT_255_1_234
10
4.5004089
20
21.2461619
40
0.308246
50
40.3840491
51
80.1431104
0
ARC
8
DEFAULT_255_1_234
10
4.4677207
20
21.1012333
40
0.4566909
50
79.2152159
51
89.7445637
0
LINE
8
DEFAULT_255_1_234
10
5.3797526
20
21.6848211
11
5.3797526
21
20.5154
0
LINE
8
DEFAULT_255_1_234
10
5.3797526
20
20.5154
11
5.2255433
21
20.5154
0
LINE
8
DEFAULT_255_1_234
10
5.2255433
20
20.5154
11
5.2255433
21
21.6848211
0
LINE
8
DEFAULT_255_1_234
10
5.2255433
20
21.6848211
11
5.3797526
21
21.6848211
0
LINE
8
DEFAULT_255_1_234
10
5.8102538
20
21.0711963
11
5.6913841
21
21.1017169
0
LINE
8
DEFAULT_255_1_234
10
5.6913841
20
21.1017169
11
5.7508189
21
21.6848211
0
LINE
8
DEFAULT_255_1_234
10
5.7508189
20
21.6848211
11
6.3499866
21
21.6848211
0
LINE
8
DEFAULT_255_1_234
10
6.3499866
20
21.6848211
11
6.3499866
21
21.5474784
0
LINE
8
DEFAULT_255_1_234
10
6.3499866
20
21.5474784
11
5.8769172
21
21.5474784
0
LINE
8
DEFAULT_255_1_234
10
5.8769172
20
21.5474784
11
5.8415776
21
21.2286184
0
LINE
8
DEFAULT_255_1_234
10
5.649619
20
20.8230156
11
5.7901745
21
20.8230156
0
LINE
8
DEFAULT_255_1_234
10
5.8496093
20
21.1033232
11
5.8102538
21
21.0711963
0
ARC
8
DEFAULT_255_1_234
10
6.027056
20
20.910623
40
0.3681349
50
93.7182161
51
120.2538958
0
ARC
8
DEFAULT_255_1_234
10
6.0364823
20
20.8298394
40
0.449379
50
89.9660152
51
94.2496022
0
ARC
8
DEFAULT_255_1_234
10
6.0405557
20
20.8887549
40
0.390482
50
73.8043271
51
90.5585896
0
ARC
8
DEFAULT_255_1_234
10
6.0640454
20
20.9745602
40
0.3015334
50
41.3071453
51
73.5430202
0
ARC
8
DEFAULT_255_1_234
10
6.0224281
20
20.9387324
40
0.3564457
50
13.5075983
51
41.2174222
0
ARC
8
DEFAULT_255_1_234
10
5.8582485
20
20.8957486
40
0.5261351
50
1.1331335
51
13.8829381
0
ARC
8
DEFAULT_255_1_234
10
5.7170854
20
20.8881665
40
0.6674378
50
359.9919444
51
1.544251
0
ARC
8
DEFAULT_255_1_234
10
5.844768
20
20.884028
40
0.5397702
50
347.8572367
51
0.4293338
0
ARC
8
DEFAULT_255_1_234
10
6.0197998
20
20.8443736
40
0.3603188
50
323.673004
51
348.1672506
0
ARC
8
DEFAULT_255_1_234
10
6.0492506
20
20.8264168
40
0.3259678
50
316.8171152
51
323.1492751
0
ARC
8
DEFAULT_255_1_234
10
6.0553695
20
20.822746
40
0.3189975
50
281.8396411
51
316.5457803
0
ARC
8
DEFAULT_255_1_234
10
6.0177958
20
20.9782762
40
0.4789527
50
269.5770101
51
282.4214771
0
ARC
8
DEFAULT_255_1_234
10
6.010677
20
20.9569125
40
0.45759
50
256.2427136
51
270.4486331
0
ARC
8
DEFAULT_255_1_234
10
5.9807672
20
20.8369229
40
0.3339303
50
228.9023911
51
256.3314342
0
ARC
8
DEFAULT_255_1_234
10
5.9733905
20
20.8252746
40
0.32031
50
193.753695
51
228.5271154
0
ARC
8
DEFAULT_255_1_234
10
6.0971859
20
20.86158
40
0.4492253
50
184.924711
51
194.497588
0
ARC
8
DEFAULT_255_1_234
10
6.1164426
20
20.8651591
40
0.3289787
50
187.3600538
51
198.6732863
0
ARC
8
DEFAULT_255_1_234
10
6.011472
20
20.8287674
40
0.217884
50
198.4451669
51
217.794479
0
ARC
8
DEFAULT_255_1_234
10
5.9818895
20
20.8078085
40
0.1816698
50
218.2887171
51
228.5612368
0
ARC
8
DEFAULT_255_1_234
10
5.9916682
20
20.8209963
40
0.1980329
50
228.9654866
51
258.1234728
0
ARC
8
DEFAULT_255_1_234
10
6.0122392
20
20.9090833
40
0.2884748
50
257.7258293
51
270.401361
0
ARC
8
DEFAULT_255_1_234
10
6.0167278
20
20.8645821
40
0.2439788
50
269.4204404
51
286.4209037
0
ARC
8
DEFAULT_255_1_234
10
6.0315766
20
20.8106657
40
0.1880666
50
286.7251356
51
320.600362
0
ARC
8
DEFAULT_255_1_234
10
5.9932591
20
20.8417595
40
0.2374121
50
320.6712579
51
344.5441685
0
ARC
8
DEFAULT_255_1_234
10
5.8775917
20
20.8757045
40
0.3579479
50
344.2412205
51
356.7357071
0
ARC
8
DEFAULT_255_1_234
10
5.7527065
20
20.8860444
40
0.4832297
50
356.3548756
51
0.0500261
0
ARC
8
DEFAULT_255_1_234
10
5.8863575
20
20.889165
40
0.3495889
50
359.5576869
51
12.953486
0
ARC
8
DEFAULT_255_1_234
10
5.9918472
20
20.9147434
40
0.2410532
50
12.6490276
51
41.6081334
0
ARC
8
DEFAULT_255_1_234
10
6.0148843
20
20.9343321
40
0.2108218
50
41.7850273
51
85.9892764
0
ARC
8
DEFAULT_255_1_234
10
6.002558
20
20.8530462
40
0.2928454
50
84.6957577
51
90.0676183
0
ARC
8
DEFAULT_255_1_234
10
6.0002064
20
20.7861716
40
0.3597255
50
89.6804936
51
99.1614436
0
ARC
8
DEFAULT_255_1_234
10
5.9796695
20
20.9089131
40
0.235281
50
98.9830931
51
113.8908934
0
ARC
8
DEFAULT_255_1_234
10
5.9567105
20
20.9630587
40
0.176479
50
114.1950727
51
127.3641004
0
LINE
8
DEFAULT_255_1_234
10
4.5652154
20
28.4529
11
4.2415364
21
28.4529
0
LINE
8
DEFAULT_255_1_234
10
4.2415364
20
28.4529
11
4.2415364
21
29.6223211
0
LINE
8
DEFAULT_255_1_234
10
4.2415364
20
29.6223211
11
4.5716408
21
29.6223211
0
LINE
8
DEFAULT_255_1_234
10
5.0872784
20
29.0769661
11
5.0872784
21
29.0022709
0
LINE
8
DEFAULT_255_1_234
10
4.5756567
20
29.4954196
11
4.3957458
21
29.4954196
0
LINE
8
DEFAULT_255_1_234
10
4.3957458
20
29.4954196
11
4.3957458
21
28.5789983
0
LINE
8
DEFAULT_255_1_234
10
4.3957458
20
28.5789983
11
4.5579869
21
28.5789983
0
LINE
8
DEFAULT_255_1_234
10
4.9346754
20
29.0054836
11
4.9346754
21
29.0737534
0
ARC
8
DEFAULT_255_1_234
10
4.5755351
20
29.0357894
40
0.5865446
50
75.4101064
51
90.3804066
0
ARC
8
DEFAULT_255_1_234
10
4.5984864
20
29.1314492
40
0.4881916
50
60.145586
51
75.1888407
0
ARC
8
DEFAULT_255_1_234
10
4.614364
20
29.1591199
40
0.4562893
50
26.5253612
51
60.1450928
0
ARC
8
DEFAULT_255_1_234
10
4.5023389
20
29.0997158
40
0.5830602
50
7.4030428
51
26.8320788
0
ARC
8
DEFAULT_255_1_234
10
4.3429146
20
29.0748804
40
0.7443669
50
0.1605367
51
7.7176192
0
ARC
8
DEFAULT_255_1_234
10
4.359305
20
28.9984434
40
0.7279835
50
348.7289388
51
0.3012466
0
ARC
8
DEFAULT_255_1_234
10
4.5249481
20
28.9655386
40
0.559104
50
333.0706509
51
348.7181832
0
ARC
8
DEFAULT_255_1_234
10
4.6216238
20
28.9130319
40
0.4491417
50
299.2531685
51
333.4571258
0
ARC
8
DEFAULT_255_1_234
10
4.5855378
20
28.9815828
40
0.5265881
50
278.107187
51
299.0339503
0
ARC
8
DEFAULT_255_1_234
10
4.5599457
20
29.1323216
40
0.679442
50
270.4443897
51
278.4511052
0
ARC
8
DEFAULT_255_1_234
10
4.5620287
20
29.0394213
40
0.4604407
50
269.4970433
51
284.0205042
0
ARC
8
DEFAULT_255_1_234
10
4.5975588
20
28.9028978
40
0.3193797
50
283.7700273
51
318.1555492
0
ARC
8
DEFAULT_255_1_234
10
4.5638346
20
28.9281367
40
0.3613588
50
318.7415601
51
343.6873628
0
ARC
8
DEFAULT_255_1_234
10
4.3834369
20
28.9844832
40
0.5503313
50
343.3325091
51
355.8548958
0
ARC
8
DEFAULT_255_1_234
10
4.1736054
20
29.0044319
40
0.7610708
50
355.4988528
51
0.0791727
0
ARC
8
DEFAULT_255_1_234
10
4.2518676
20
29.077978
40
0.6828208
50
359.6455037
51
9.8607896
0
ARC
8
DEFAULT_255_1_234
10
4.4879374
20
29.1206099
40
0.4429406
50
9.6571907
51
26.1932807
0
ARC
8
DEFAULT_255_1_234
10
4.5807363
20
29.1637118
40
0.3406537
50
26.5777228
51
40.1532208
0
ARC
8
DEFAULT_255_1_234
10
4.6063089
20
29.1836619
40
0.308246
50
40.3840491
51
80.1431104
0
ARC
8
DEFAULT_255_1_234
10
4.5736207
20
29.0387333
40
0.4566909
50
79.2152159
51
89.7445637
0
LINE
8
DEFAULT_255_1_234
10
5.4856526
20
29.6223211
11
5.4856526
21
28.4529
0
LINE
8
DEFAULT_255_1_234
10
5.4856526
20
28.4529
11
5.3314433
21
28.4529
0
LINE
8
DEFAULT_255_1_234
10
5.3314433
20
28.4529
11
5.3314433
21
29.6223211
0
LINE
8
DEFAULT_255_1_234
10
5.3314433
20
29.6223211
11
5.4856526
21
29.6223211
0
LINE
8
DEFAULT_255_1_234
10
6.3562931
20
29.6223211
11
6.3562931
21
28.845652
0
LINE
8
DEFAULT_255_1_234
10
6.3562931
20
28.845652
11
6.5185342
21
28.845652
0
LINE
8
DEFAULT_255_1_234
10
6.5185342
20
28.845652
11
6.5185342
21
28.7243728
0
LINE
8
DEFAULT_255_1_234
10
6.5185342
20
28.7243728
11
6.3562931
21
28.7243728
0
LINE
8
DEFAULT_255_1_234
10
6.3562931
20
28.7243728
11
6.3562931
21
28.4529
0
LINE
8
DEFAULT_255_1_234
10
6.3562931
20
28.4529
11
6.2069027
21
28.4529
0
LINE
8
DEFAULT_255_1_234
10
6.2069027
20
28.4529
11
6.2069027
21
28.7243728
0
LINE
8
DEFAULT_255_1_234
10
6.2069027
20
28.7243728
11
5.6743985
21
28.7243728
0
LINE
8
DEFAULT_255_1_234
10
5.6743985
20
28.7243728
11
5.6743985
21
28.8119187
0
LINE
8
DEFAULT_255_1_234
10
5.6743985
20
28.8119187
11
6.1980678
21
29.6223211
0
LINE
8
DEFAULT_255_1_234
10
6.1980678
20
29.6223211
11
6.3562931
21
29.6223211
0
LINE
8
DEFAULT_255_1_234
10
6.1892329
20
29.3869912
11
5.843065
21
28.845652
0
LINE
8
DEFAULT_255_1_234
10
5.843065
20
28.845652
11
6.2069027
21
28.845652
0
LINE
8
DEFAULT_255_1_234
10
6.2069027
20
28.845652
11
6.2069027
21
29.4191181
0
LINE
8
DEFAULT_255_1_234
10
6.2069027
20
29.4191181
11
6.1892329
21
29.3869912
0
LINE
8
DEFAULT_255_1_234
10
4.4593154
20
36.3904
11
4.1356364
21
36.3904
0
LINE
8
DEFAULT_255_1_234
10
4.1356364
20
36.3904
11
4.1356364
21
37.5598211
0
LINE
8
DEFAULT_255_1_234
10
4.1356364
20
37.5598211
11
4.4657408
21
37.5598211
0
LINE
8
DEFAULT_255_1_234
10
4.9813784
20
37.0144661
11
4.9813784
21
36.9397709
0
LINE
8
DEFAULT_255_1_234
10
4.4697567
20
37.4329196
11
4.2898458
21
37.4329196
0
LINE
8
DEFAULT_255_1_234
10
4.2898458
20
37.4329196
11
4.2898458
21
36.5164983
0
LINE
8
DEFAULT_255_1_234
10
4.2898458
20
36.5164983
11
4.4520869
21
36.5164983
0
LINE
8
DEFAULT_255_1_234
10
4.8287754
20
36.9429836
11
4.8287754
21
37.0112534
0
ARC
8
DEFAULT_255_1_234
10
4.4696351
20
36.9732894
40
0.5865446
50
75.4101064
51
90.3804066
0
ARC
8
DEFAULT_255_1_234
10
4.4925864
20
37.0689492
40
0.4881916
50
60.145586
51
75.1888407
0
ARC
8
DEFAULT_255_1_234
10
4.508464
20
37.0966199
40
0.4562893
50
26.5253612
51
60.1450928
0
ARC
8
DEFAULT_255_1_234
10
4.3964389
20
37.0372158
40
0.5830602
50
7.4030428
51
26.8320788
0
ARC
8
DEFAULT_255_1_234
10
4.2370146
20
37.0123804
40
0.7443669
50
0.1605367
51
7.7176192
0
ARC
8
DEFAULT_255_1_234
10
4.253405
20
36.9359434
40
0.7279835
50
348.7289388
51
0.3012466
0
ARC
8
DEFAULT_255_1_234
10
4.4190481
20
36.9030386
40
0.559104
50
333.0706509
51
348.7181832
0
ARC
8
DEFAULT_255_1_234
10
4.5157238
20
36.8505319
40
0.4491417
50
299.2531685
51
333.4571258
0
ARC
8
DEFAULT_255_1_234
10
4.4796378
20
36.9190828
40
0.5265881
50
278.107187
51
299.0339503
0
ARC
8
DEFAULT_255_1_234
10
4.4540457
20
37.0698216
40
0.679442
50
270.4443897
51
278.4511052
0
ARC
8
DEFAULT_255_1_234
10
4.4561287
20
36.9769213
40
0.4604407
50
269.4970433
51
284.0205042
0
ARC
8
DEFAULT_255_1_234
10
4.4916588
20
36.8403978
40
0.3193797
50
283.7700273
51
318.1555492
0
ARC
8
DEFAULT_255_1_234
10
4.4579346
20
36.8656367
40
0.3613588
50
318.7415601
51
343.6873628
0
ARC
8
DEFAULT_255_1_234
10
4.2775369
20
36.9219832
40
0.5503313
50
343.3325091
51
355.8548958
0
ARC
8
DEFAULT_255_1_234
10
4.0677054
20
36.9419319
40
0.7610708
50
355.4988528
51
0.0791727
0
ARC
8
DEFAULT_255_1_234
10
4.1459676
20
37.015478
40
0.6828208
50
359.6455037
51
9.8607896
0
ARC
8
DEFAULT_255_1_234
10
4.3820374
20
37.0581099
40
0.4429406
50
9.6571907
51
26.1932807
0
ARC
8
DEFAULT_255_1_234
10
4.4748363
20
37.1012118
40
0.3406537
50
26.5777228
51
40.1532208
0
ARC
8
DEFAULT_255_1_234
10
4.5004089
20
37.1211619
40
0.308246
50
40.3840491
51
80.1431104
0
ARC
8
DEFAULT_255_1_234
10
4.4677207
20
36.9762333
40
0.4566909
50
79.2152159
51
89.7445637
0
LINE
8
DEFAULT_255_1_234
10
5.3797526
20
37.5598211
11
5.3797526
21
36.3904
0
LINE
8
DEFAULT_255_1_234
10
5.3797526
20
36.3904
11
5.2255433
21
36.3904
0
LINE
8
DEFAULT_255_1_234
10
5.2255433
20
36.3904
11
5.2255433
21
37.5598211
0
LINE
8
DEFAULT_255_1_234
10
5.2255433
20
37.5598211
11
5.3797526
21
37.5598211
0
LINE
8
DEFAULT_255_1_234
10
5.8391681
20
36.9261169
11
5.8391681
21
37.0473962
0
LINE
8
DEFAULT_255_1_234
10
5.8391681
20
37.0473962
11
5.9508092
21
37.0473962
0
LINE
8
DEFAULT_255_1_234
10
5.760457
20
37.2530087
11
5.6118699
21
37.2530087
0
LINE
8
DEFAULT_255_1_234
10
5.6014286
20
36.6988188
11
5.7508189
21
36.6988188
0
LINE
8
DEFAULT_255_1_234
10
5.9508092
20
36.9261169
11
5.8391681
21
36.9261169
0
ARC
8
DEFAULT_255_1_234
10
5.9478959
20
37.3866713
40
0.3392876
50
270.4919872
51
281.8951556
0
ARC
8
DEFAULT_255_1_234
10
5.972022
20
37.2764702
40
0.2264817
50
281.6691735
51
301.2943132
0
ARC
8
DEFAULT_255_1_234
10
5.9890431
20
37.2453304
40
0.1910381
50
301.7833094
51
311.7545298
0
ARC
8
DEFAULT_255_1_234
10
5.9982006
20
37.2351748
40
0.1773635
50
311.7323931
51
354.2802411
0
ARC
8
DEFAULT_255_1_234
10
5.9255632
20
37.2476722
40
0.2509385
50
353.0937916
51
0.1181479
0
ARC
8
DEFAULT_255_1_234
10
5.8794416
20
37.2524386
40
0.2970898
50
359.1805295
51
15.0453146
0
ARC
8
DEFAULT_255_1_234
10
6.0140253
20
37.2916992
40
0.1569564
50
13.9577229
51
77.6713066
0
ARC
8
DEFAULT_255_1_234
10
5.9753783
20
37.1531949
40
0.3006298
50
76.1116566
51
90.7026153
0
ARC
8
DEFAULT_255_1_234
10
5.9694621
20
37.1805545
40
0.2732568
50
89.5324876
51
103.531937
0
ARC
8
DEFAULT_255_1_234
10
5.9494065
20
37.2604884
40
0.1908508
50
103.2931773
51
133.5619022
0
ARC
8
DEFAULT_255_1_234
10
5.9449553
20
37.2664375
40
0.1834746
50
133.8349307
51
173.5344437
0
ARC
8
DEFAULT_255_1_234
10
6.0172597
20
37.2536213
40
0.2568033
50
172.5096846
51
180.1366907
0
ARC
8
DEFAULT_255_1_234
10
5.922149
20
37.2570622
40
0.3103056
50
155.3484492
51
180.7484736
0
ARC
8
DEFAULT_255_1_234
10
5.9172579
20
37.2541846
40
0.3070957
50
131.5744599
51
154.4798489
0
ARC
8
DEFAULT_255_1_234
10
5.9485727
20
37.222531
40
0.3515643
50
96.9875458
51
131.9690667
0
ARC
8
DEFAULT_255_1_234
10
5.9705207
20
37.0979636
40
0.4779224
50
89.8596053
51
97.7825159
0
ARC
8
DEFAULT_255_1_234
10
5.975327
20
37.0717616
40
0.5041361
50
78.3655447
51
90.4131539
0
ARC
8
DEFAULT_255_1_234
10
6.0111188
20
37.2376887
40
0.3344039
50
56.6229102
51
78.638727
0
ARC
8
DEFAULT_255_1_234
10
6.0326131
20
37.2752805
40
0.2912001
50
47.0253525
51
56.0854072
0
ARC
8
DEFAULT_255_1_234
10
6.0345911
20
37.2792223
40
0.2869704
50
10.9208013
51
46.7778124
0
ARC
8
DEFAULT_255_1_234
10
5.8981978
20
37.2476857
40
0.426899
50
359.6364486
51
11.6087304
0
ARC
8
DEFAULT_255_1_234
10
6.0816822
20
37.2461752
40
0.243409
50
332.3549906
51
359.7179418
0
ARC
8
DEFAULT_255_1_234
10
6.0166423
20
37.2770142
40
0.3153459
50
325.2333722
51
332.8745602
0
ARC
8
DEFAULT_255_1_234
10
6.0319047
20
37.2663828
40
0.2967456
50
292.9802137
51
325.2392345
0
ARC
8
DEFAULT_255_1_234
10
6.0044421
20
37.3197863
40
0.3566604
50
292.5402179
51
293.6924929
0
ARC
8
DEFAULT_255_1_234
10
6.0437017
20
36.6743091
40
0.3307468
50
57.6435486
51
72.8625112
0
ARC
8
DEFAULT_255_1_234
10
6.0791517
20
36.7317549
40
0.2632492
50
36.7248896
51
57.4697979
0
ARC
8
DEFAULT_255_1_234
10
6.0780149
20
36.733022
40
0.2634081
50
8.0545065
51
36.356114
0
ARC
8
DEFAULT_255_1_234
10
5.9917335
20
36.7175174
40
0.3510261
50
359.8320645
51
8.5869982
0
ARC
8
DEFAULT_255_1_234
10
5.9542111
20
36.7127101
40
0.3885653
50
343.9829931
51
0.5571613
0
ARC
8
DEFAULT_255_1_234
10
6.0428308
20
36.6884438
40
0.2966924
50
311.6359546
51
343.7651759
0
ARC
8
DEFAULT_255_1_234
10
6.0049877
20
36.7311102
40
0.3537231
50
279.7829875
51
311.6255694
0
ARC
8
DEFAULT_255_1_234
10
5.9748653
20
36.874828
40
0.5004971
50
269.7286406
51
280.3856417
0
ARC
8
DEFAULT_255_1_234
10
5.9686726
20
36.8706996
40
0.4963778
50
256.6828919
51
270.4412052
0
ARC
8
DEFAULT_255_1_234
10
5.9348022
20
36.7322394
40
0.3538406
50
229.4223008
51
256.8556159
0
ARC
8
DEFAULT_255_1_234
10
5.8933415
20
36.6855736
40
0.2914296
50
181.818294
51
229.6455059
0
ARC
8
DEFAULT_255_1_234
10
5.9973371
20
36.6986496
40
0.3959084
50
179.9755256
51
183.2323064
0
ARC
8
DEFAULT_255_1_234
10
5.9801117
20
36.6966037
40
0.2293034
50
179.4465117
51
196.2869258
0
ARC
8
DEFAULT_255_1_234
10
5.9313525
20
36.6832651
40
0.1787621
50
196.5661473
51
227.705904
0
ARC
8
DEFAULT_255_1_234
10
5.9477619
20
36.7016155
40
0.2033784
50
227.7652068
51
257.8762805
0
ARC
8
DEFAULT_255_1_234
10
5.970259
20
36.7959156
40
0.3003081
50
257.4584385
51
270.426602
0
ARC
8
DEFAULT_255_1_234
10
5.9748156
20
36.8248996
40
0.329292
50
269.5962073
51
280.8789248
0
ARC
8
DEFAULT_255_1_234
10
5.9977685
20
36.7102685
40
0.2123908
50
280.6346389
51
299.8595945
0
ARC
8
DEFAULT_255_1_234
10
6.0168591
20
36.6740212
40
0.171457
50
300.3576302
51
314.5517981
0
ARC
8
DEFAULT_255_1_234
10
6.0085651
20
36.6800919
40
0.1816095
50
315.0728369
51
345.0431014
0
ARC
8
DEFAULT_255_1_234
10
5.9162466
20
36.7069841
40
0.2777492
50
344.5986631
51
357.9269593
0
ARC
8
DEFAULT_255_1_234
10
5.8266792
20
36.7131276
40
0.3674917
50
357.4748886
51
0.0231117
0
ARC
8
DEFAULT_255_1_234
10
5.9289901
20
36.7155679
40
0.2651907
50
359.5047933
51
13.4239635
0
ARC
8
DEFAULT_255_1_234
10
6.0156545
20
36.7377478
40
0.1757509
50
12.9498199
51
48.7551375
0
ARC
8
DEFAULT_255_1_234
10
5.9974279
20
36.71284
40
0.2065134
50
49.5088623
51
72.1836453
0
ARC
8
DEFAULT_255_1_234
10
5.9616431
20
36.6066291
40
0.3185836
50
71.9010081
51
84.3554254
0
ARC
8
DEFAULT_255_1_234
10
5.9455063
20
36.4705326
40
0.4556151
50
84.0193428
51
89.333121
0
LINE
8
DEFAULT_255_1_234
10
4.4593154
20
44.3279
11
4.1356364
21
44.3279
0
LINE
8
DEFAULT_255_1_234
10
4.1356364
20
44.3279
11
4.1356364
21
45.4973211
0
LINE
8
DEFAULT_255_1_234
10
4.1356364
20
45.4973211
11
4.4657408
21
45.4973211
0
LINE
8
DEFAULT_255_1_234
10
4.9813784
20
44.9519661
11
4.9813784
21
44.8772709
0
LINE
8
DEFAULT_255_1_234
10
4.4697567
20
45.3704196
11
4.2898458
21
45.3704196
0
LINE
8
DEFAULT_255_1_234
10
4.2898458
20
45.3704196
11
4.2898458
21
44.4539983
0
LINE
8
DEFAULT_255_1_234
10
4.2898458
20
44.4539983
11
4.4520869
21
44.4539983
0
LINE
8
DEFAULT_255_1_234
10
4.8287754
20
44.8804836
11
4.8287754
21
44.9487534
0
ARC
8
DEFAULT_255_1_234
10
4.4696351
20
44.9107894
40
0.5865446
50
75.4101064
51
90.3804066
0
ARC
8
DEFAULT_255_1_234
10
4.4925864
20
45.0064492
40
0.4881916
50
60.145586
51
75.1888407
0
ARC
8
DEFAULT_255_1_234
10
4.508464
20
45.0341199
40
0.4562893
50
26.5253612
51
60.1450928
0
ARC
8
DEFAULT_255_1_234
10
4.3964389
20
44.9747158
40
0.5830602
50
7.4030428
51
26.8320788
0
ARC
8
DEFAULT_255_1_234
10
4.2370146
20
44.9498804
40
0.7443669
50
0.1605367
51
7.7176192
0
ARC
8
DEFAULT_255_1_234
10
4.253405
20
44.8734434
40
0.7279835
50
348.7289388
51
0.3012466
0
ARC
8
DEFAULT_255_1_234
10
4.4190481
20
44.8405386
40
0.559104
50
333.0706509
51
348.7181832
0
ARC
8
DEFAULT_255_1_234
10
4.5157238
20
44.7880319
40
0.4491417
50
299.2531685
51
333.4571258
0
ARC
8
DEFAULT_255_1_234
10
4.4796378
20
44.8565828
40
0.5265881
50
278.107187
51
299.0339503
0
ARC
8
DEFAULT_255_1_234
10
4.4540457
20
45.0073216
40
0.679442
50
270.4443897
51
278.4511052
0
ARC
8
DEFAULT_255_1_234
10
4.4561287
20
44.9144213
40
0.4604407
50
269.4970433
51
284.0205042
0
ARC
8
DEFAULT_255_1_234
10
4.4916588
20
44.7778978
40
0.3193797
50
283.7700273
51
318.1555492
0
ARC
8
DEFAULT_255_1_234
10
4.4579346
20
44.8031367
40
0.3613588
50
318.7415601
51
343.6873628
0
ARC
8
DEFAULT_255_1_234
10
4.2775369
20
44.8594832
40
0.5503313
50
343.3325091
51
355.8548958
0
ARC
8
DEFAULT_255_1_234
10
4.0677054
20
44.8794319
40
0.7610708
50
355.4988528
51
0.0791727
0
ARC
8
DEFAULT_255_1_234
10
4.1459676
20
44.952978
40
0.6828208
50
359.6455037
51
9.8607896
0
ARC
8
DEFAULT_255_1_234
10
4.3820374
20
44.9956099
40
0.4429406
50
9.6571907
51
26.1932807
0
ARC
8
DEFAULT_255_1_234
10
4.4748363
20
45.0387118
40
0.3406537
50
26.5777228
51
40.1532208
0
ARC
8
DEFAULT_255_1_234
10
4.5004089
20
45.0586619
40
0.308246
50
40.3840491
51
80.1431104
0
ARC
8
DEFAULT_255_1_234
10
4.4677207
20
44.9137333
40
0.4566909
50
79.2152159
51
89.7445637
0
LINE
8
DEFAULT_255_1_234
10
5.3797526
20
45.4973211
11
5.3797526
21
44.3279
0
LINE
8
DEFAULT_255_1_234
10
5.3797526
20
44.3279
11
5.2255433
21
44.3279
0
LINE
8
DEFAULT_255_1_234
10
5.2255433
20
44.3279
11
5.2255433
21
45.4973211
0
LINE
8
DEFAULT_255_1_234
10
5.2255433
20
45.4973211
11
5.3797526
21
45.4973211
0
LINE
8
DEFAULT_255_1_234
10
6.3893421
20
44.4491792
11
6.3893421
21
44.3279
0
LINE
8
DEFAULT_255_1_234
10
6.3893421
20
44.3279
11
5.6231143
21
44.3279
0
LINE
8
DEFAULT_255_1_234
10
5.6231143
20
44.3279
11
5.6231143
21
44.4347221
0
LINE
8
DEFAULT_255_1_234
10
5.6231143
20
44.4347221
11
6.0279139
21
44.8844995
0
LINE
8
DEFAULT_255_1_234
10
5.7492126
20
45.1527595
11
5.6006254
21
45.1527595
0
LINE
8
DEFAULT_255_1_234
10
6.1154599
20
44.7889218
11
5.8022221
21
44.4491792
0
LINE
8
DEFAULT_255_1_234
10
5.8022221
20
44.4491792
11
6.3893421
21
44.4491792
0
ARC
8
DEFAULT_255_1_234
10
4.6788972
20
46.0774527
40
1.8008286
50
318.5132453
51
320.7828378
0
ARC
8
DEFAULT_255_1_234
10
5.2075947
20
45.6471426
40
1.1191493
50
320.7372736
51
323.9737074
0
ARC
8
DEFAULT_255_1_234
10
5.5995803
20
45.3631361
40
0.6350923
50
323.8961724
51
328.6421089
0
ARC
8
DEFAULT_255_1_234
10
5.8042399
20
45.2369031
40
0.3946393
50
328.8299013
51
331.789948
0
ARC
8
DEFAULT_255_1_234
10
5.9039577
20
45.1854509
40
0.2824501
50
331.4255242
51
352.9364833
0
ARC
8
DEFAULT_255_1_234
10
5.9176078
20
45.1823976
40
0.2685315
50
353.2248685
51
0.0169286
0
ARC
8
DEFAULT_255_1_234
10
5.9385955
20
45.184695
40
0.2475536
50
359.4866256
51
15.9339782
0
ARC
8
DEFAULT_255_1_234
10
5.989294
20
45.1983286
40
0.1950618
50
16.1714718
51
43.5284424
0
ARC
8
DEFAULT_255_1_234
10
5.9970248
20
45.2060573
40
0.184134
50
43.4415429
51
83.1661404
0
ARC
8
DEFAULT_255_1_234
10
5.9836167
20
45.1323771
40
0.258926
50
82.160215
51
90.1505798
0
ARC
8
DEFAULT_255_1_234
10
5.9804594
20
45.0786865
40
0.3126255
50
89.5460705
51
102.5418777
0
ARC
8
DEFAULT_255_1_234
10
5.956168
20
45.1817665
40
0.2067346
50
102.1739365
51
129.2061916
0
ARC
8
DEFAULT_255_1_234
10
5.9482752
20
45.1942094
40
0.1921118
50
129.7279328
51
135.7542026
0
ARC
8
DEFAULT_255_1_234
10
5.9604279
20
45.1845045
40
0.2075944
50
136.175737
51
166.3674722
0
ARC
8
DEFAULT_255_1_234
10
6.0611199
20
45.1575182
40
0.3118201
50
165.9092917
51
178.8683903
0
ARC
8
DEFAULT_255_1_234
10
6.147606
20
45.1528179
40
0.3983935
50
178.438168
51
180.0083905
0
ARC
8
DEFAULT_255_1_234
10
6.0074662
20
45.1567231
40
0.4068601
50
163.2878735
51
180.5581814
0
ARC
8
DEFAULT_255_1_234
10
5.9272923
20
45.178784
40
0.3237344
50
133.454115
51
162.9470031
0
ARC
8
DEFAULT_255_1_234
10
5.9451465
20
45.1598
40
0.349795
50
100.7869394
51
133.4384016
0
ARC
8
DEFAULT_255_1_234
10
5.9799236
20
45.0049319
40
0.5084616
50
89.6605301
51
101.3704185
0
ARC
8
DEFAULT_255_1_234
10
5.9865575
20
45.0110496
40
0.502348
50
78.2171172
51
90.4130393
0
ARC
8
DEFAULT_255_1_234
10
6.0220653
20
45.1734637
40
0.3361092
50
55.9268222
51
78.4888551
0
ARC
8
DEFAULT_255_1_234
10
6.0417094
20
45.2073324
40
0.2970617
50
47.9292255
51
55.4054003
0
ARC
8
DEFAULT_255_1_234
10
6.0518654
20
45.2176502
40
0.2825983
50
4.3347696
51
48.0560701
0
ARC
8
DEFAULT_255_1_234
10
5.9423048
20
45.2006601
40
0.393225
50
359.925209
51
5.5967654
0
ARC
8
DEFAULT_255_1_234
10
5.985194
20
45.2062816
40
0.3503892
50
337.8914096
51
358.9967724
0
ARC
8
DEFAULT_255_1_234
10
5.7138352
20
45.3109706
40
0.6412172
50
326.9135351
51
338.3505194
0
ARC
8
DEFAULT_255_1_234
10
5.3152656
20
45.5664284
40
1.1146189
50
319.6472867
51
327.095818
0
ARC
8
DEFAULT_255_1_234
10
4.9319659
20
45.8826
40
1.6114559
50
317.2586784
51
319.9046139
0
LINE
8
DEFAULT_255_1_234
10
4.4502154
20
52.2654
11
4.1265364
21
52.2654
0
LINE
8
DEFAULT_255_1_234
10
4.1265364
20
52.2654
11
4.1265364
21
53.4348211
0
LINE
8
DEFAULT_255_1_234
10
4.1265364
20
53.4348211
11
4.4566408
21
53.4348211
0
LINE
8
DEFAULT_255_1_234
10
4.9722784
20
52.8894661
11
4.9722784
21
52.8147709
0
LINE
8
DEFAULT_255_1_234
10
4.4606567
20
53.3079196
11
4.2807458
21
53.3079196
0
LINE
8
DEFAULT_255_1_234
10
4.2807458
20
53.3079196
11
4.2807458
21
52.3914983
0
LINE
8
DEFAULT_255_1_234
10
4.2807458
20
52.3914983
11
4.4429869
21
52.3914983
0
LINE
8
DEFAULT_255_1_234
10
4.8196754
20
52.8179836
11
4.8196754
21
52.8862534
0
ARC
8
DEFAULT_255_1_234
10
4.4605351
20
52.8482894
40
0.5865446
50
75.4101064
51
90.3804066
0
ARC
8
DEFAULT_255_1_234
10
4.4834864
20
52.9439492
40
0.4881916
50
60.145586
51
75.1888407
0
ARC
8
DEFAULT_255_1_234
10
4.499364
20
52.9716199
40
0.4562893
50
26.5253612
51
60.1450928
0
ARC
8
DEFAULT_255_1_234
10
4.3873389
20
52.9122158
40
0.5830602
50
7.4030428
51
26.8320788
0
ARC
8
DEFAULT_255_1_234
10
4.2279146
20
52.8873804
40
0.7443669
50
0.1605367
51
7.7176192
0
ARC
8
DEFAULT_255_1_234
10
4.244305
20
52.8109434
40
0.7279835
50
348.7289388
51
0.3012466
0
ARC
8
DEFAULT_255_1_234
10
4.4099481
20
52.7780386
40
0.559104
50
333.0706509
51
348.7181832
0
ARC
8
DEFAULT_255_1_234
10
4.5066238
20
52.7255319
40
0.4491417
50
299.2531685
51
333.4571258
0
ARC
8
DEFAULT_255_1_234
10
4.4705378
20
52.7940828
40
0.5265881
50
278.107187
51
299.0339503
0
ARC
8
DEFAULT_255_1_234
10
4.4449457
20
52.9448216
40
0.679442
50
270.4443897
51
278.4511052
0
ARC
8
DEFAULT_255_1_234
10
4.4470287
20
52.8519213
40
0.4604407
50
269.4970433
51
284.0205042
0
ARC
8
DEFAULT_255_1_234
10
4.4825588
20
52.7153978
40
0.3193797
50
283.7700273
51
318.1555492
0
ARC
8
DEFAULT_255_1_234
10
4.4488346
20
52.7406367
40
0.3613588
50
318.7415601
51
343.6873628
0
ARC
8
DEFAULT_255_1_234
10
4.2684369
20
52.7969832
40
0.5503313
50
343.3325091
51
355.8548958
0
ARC
8
DEFAULT_255_1_234
10
4.0586054
20
52.8169319
40
0.7610708
50
355.4988528
51
0.0791727
0
ARC
8
DEFAULT_255_1_234
10
4.1368676
20
52.890478
40
0.6828208
50
359.6455037
51
9.8607896
0
ARC
8
DEFAULT_255_1_234
10
4.3729374
20
52.9331099
40
0.4429406
50
9.6571907
51
26.1932807
0
ARC
8
DEFAULT_255_1_234
10
4.4657363
20
52.9762118
40
0.3406537
50
26.5777228
51
40.1532208
0
ARC
8
DEFAULT_255_1_234
10
4.4913089
20
52.9961619
40
0.308246
50
40.3840491
51
80.1431104
0
ARC
8
DEFAULT_255_1_234
10
4.4586207
20
52.8512333
40
0.4566909
50
79.2152159
51
89.7445637
0
LINE
8
DEFAULT_255_1_234
10
5.3706526
20
53.4348211
11
5.3706526
21
52.2654
0
LINE
8
DEFAULT_255_1_234
10
5.3706526
20
52.2654
11
5.2164433
21
52.2654
0
LINE
8
DEFAULT_255_1_234
10
5.2164433
20
52.2654
11
5.2164433
21
53.4348211
0
LINE
8
DEFAULT_255_1_234
10
5.2164433
20
53.4348211
11
5.3706526
21
53.4348211
0
LINE
8
DEFAULT_255_1_234
10
6.102344
20
53.4404433
11
6.102344
21
52.2654
0
LINE
8
DEFAULT_255_1_234
10
6.102344
20
52.2654
11
5.9529537
21
52.2654
0
LINE
8
DEFAULT_255_1_234
10
5.9529537
20
52.2654
11
5.9529537
21
53.2557133
0
LINE
8
DEFAULT_255_1_234
10
5.9529537
20
53.2557133
11
5.6533698
21
53.1456785
0
LINE
8
DEFAULT_255_1_234
10
5.6533698
20
53.1456785
11
5.6533698
21
53.2806117
0
LINE
8
DEFAULT_255_1_234
10
5.6533698
20
53.2806117
11
6.079052
21
53.4404433
0
LINE
8
DEFAULT_255_1_234
10
6.079052
20
53.4404433
11
6.102344
21
53.4404433
0
LINE
8
DEFAULT_255_1_234
10
4.4593154
20
60.2029
11
4.1356364
21
60.2029
0
LINE
8
DEFAULT_255_1_234
10
4.1356364
20
60.2029
11
4.1356364
21
61.3723211
0
LINE
8
DEFAULT_255_1_234
10
4.1356364
20
61.3723211
11
4.4657408
21
61.3723211
0
LINE
8
DEFAULT_255_1_234
10
4.9813784
20
60.8269661
11
4.9813784
21
60.7522709
0
LINE
8
DEFAULT_255_1_234
10
4.4697567
20
61.2454196
11
4.2898458
21
61.2454196
0
LINE
8
DEFAULT_255_1_234
10
4.2898458
20
61.2454196
11
4.2898458
21
60.3289983
0
LINE
8
DEFAULT_255_1_234
10
4.2898458
20
60.3289983
11
4.4520869
21
60.3289983
0
LINE
8
DEFAULT_255_1_234
10
4.8287754
20
60.7554836
11
4.8287754
21
60.8237534
0
ARC
8
DEFAULT_255_1_234
10
4.4696351
20
60.7857894
40
0.5865446
50
75.4101064
51
90.3804066
0
ARC
8
DEFAULT_255_1_234
10
4.4925864
20
60.8814492
40
0.4881916
50
60.145586
51
75.1888407
0
ARC
8
DEFAULT_255_1_234
10
4.508464
20
60.9091199
40
0.4562893
50
26.5253612
51
60.1450928
0
ARC
8
DEFAULT_255_1_234
10
4.3964389
20
60.8497158
40
0.5830602
50
7.4030428
51
26.8320788
0
ARC
8
DEFAULT_255_1_234
10
4.2370146
20
60.8248804
40
0.7443669
50
0.1605367
51
7.7176192
0
ARC
8
DEFAULT_255_1_234
10
4.253405
20
60.7484434
40
0.7279835
50
348.7289388
51
0.3012466
0
ARC
8
DEFAULT_255_1_234
10
4.4190481
20
60.7155386
40
0.559104
50
333.0706509
51
348.7181832
0
ARC
8
DEFAULT_255_1_234
10
4.5157238
20
60.6630319
40
0.4491417
50
299.2531685
51
333.4571258
0
ARC
8
DEFAULT_255_1_234
10
4.4796378
20
60.7315828
40
0.5265881
50
278.107187
51
299.0339503
0
ARC
8
DEFAULT_255_1_234
10
4.4540457
20
60.8823216
40
0.679442
50
270.4443897
51
278.4511052
0
ARC
8
DEFAULT_255_1_234
10
4.4561287
20
60.7894213
40
0.4604407
50
269.4970433
51
284.0205042
0
ARC
8
DEFAULT_255_1_234
10
4.4916588
20
60.6528978
40
0.3193797
50
283.7700273
51
318.1555492
0
ARC
8
DEFAULT_255_1_234
10
4.4579346
20
60.6781367
40
0.3613588
50
318.7415601
51
343.6873628
0
ARC
8
DEFAULT_255_1_234
10
4.2775369
20
60.7344832
40
0.5503313
50
343.3325091
51
355.8548958
0
ARC
8
DEFAULT_255_1_234
10
4.0677054
20
60.7544319
40
0.7610708
50
355.4988528
51
0.0791727
0
ARC
8
DEFAULT_255_1_234
10
4.1459676
20
60.827978
40
0.6828208
50
359.6455037
51
9.8607896
0
ARC
8
DEFAULT_255_1_234
10
4.3820374
20
60.8706099
40
0.4429406
50
9.6571907
51
26.1932807
0
ARC
8
DEFAULT_255_1_234
10
4.4748363
20
60.9137118
40
0.3406537
50
26.5777228
51
40.1532208
0
ARC
8
DEFAULT_255_1_234
10
4.5004089
20
60.9336619
40
0.308246
50
40.3840491
51
80.1431104
0
ARC
8
DEFAULT_255_1_234
10
4.4677207
20
60.7887333
40
0.4566909
50
79.2152159
51
89.7445637
0
LINE
8
DEFAULT_255_1_234
10
5.3797526
20
61.3723211
11
5.3797526
21
60.2029
0
LINE
8
DEFAULT_255_1_234
10
5.3797526
20
60.2029
11
5.2255433
21
60.2029
0
LINE
8
DEFAULT_255_1_234
10
5.2255433
20
60.2029
11
5.2255433
21
61.3723211
0
LINE
8
DEFAULT_255_1_234
10
5.2255433
20
61.3723211
11
5.3797526
21
61.3723211
0
LINE
8
DEFAULT_255_1_234
10
6.356412
20
60.8944327
11
6.356412
21
60.7016709
0
LINE
8
DEFAULT_255_1_234
10
5.6182953
20
60.6815916
11
5.6182953
21
60.8799755
0
LINE
8
DEFAULT_255_1_234
10
6.2078249
20
60.6615123
11
6.2078249
21
60.9048739
0
LINE
8
DEFAULT_255_1_234
10
5.7668824
20
60.9161184
11
5.7668824
21
60.6783789
0
ARC
8
DEFAULT_255_1_234
10
5.131701
20
60.6967805
40
1.2247208
50
353.8441951
51
0.2287902
0
ARC
8
DEFAULT_255_1_234
10
5.5956513
20
60.6449806
40
0.7578929
50
344.4934747
51
353.9765454
0
ARC
8
DEFAULT_255_1_234
10
5.8949104
20
60.5598981
40
0.4467846
50
329.2803592
51
344.7472793
0
ARC
8
DEFAULT_255_1_234
10
5.9941928
20
60.5054018
40
0.3336173
50
324.9352394
51
328.6160465
0
ARC
8
DEFAULT_255_1_234
10
6.0319037
20
60.4790427
40
0.2876076
50
280.580143
51
324.9173126
0
ARC
8
DEFAULT_255_1_234
10
5.991783
20
60.6461099
40
0.4592847
50
269.5977311
51
281.6734359
0
ARC
8
DEFAULT_255_1_234
10
5.9845735
20
60.6341173
40
0.4472986
50
256.6228859
51
270.51044
0
ARC
8
DEFAULT_255_1_234
10
5.9443713
20
60.4792877
40
0.2873874
50
215.8618325
51
257.2788573
0
ARC
8
DEFAULT_255_1_234
10
6.0464745
20
60.5477977
40
0.4102928
50
197.9693508
51
215.2623606
0
ARC
8
DEFAULT_255_1_234
10
6.294986
20
60.6316709
40
0.6725652
50
187.8816417
51
198.2346507
0
ARC
8
DEFAULT_255_1_234
10
6.6908069
20
60.6888079
40
1.0724845
50
180.8976217
51
188.0055519
0
ARC
8
DEFAULT_255_1_234
10
6.9708257
20
60.6991777
40
1.3526448
50
180.7449369
51
181.1510016
0
ARC
8
DEFAULT_255_1_234
10
6.8130986
20
60.8848042
40
1.1948131
50
173.7675579
51
180.231553
0
ARC
8
DEFAULT_255_1_234
10
6.3613132
20
60.9358666
40
0.7401564
50
164.3058563
51
173.9002247
0
ARC
8
DEFAULT_255_1_234
10
6.0701201
20
61.0197656
40
0.4371288
50
148.7922025
51
164.568378
0
ARC
8
DEFAULT_255_1_234
10
5.9749653
20
61.0728929
40
0.3282386
50
144.5883898
51
148.1176286
0
ARC
8
DEFAULT_255_1_234
10
5.9406551
20
61.0968315
40
0.2864044
50
101.6440918
51
144.514236
0
ARC
8
DEFAULT_255_1_234
10
5.9831618
20
60.9279069
40
0.4604934
50
89.5284041
51
102.5819763
0
ARC
8
DEFAULT_255_1_234
10
5.9910706
20
60.9240018
40
0.464401
50
77.0437873
51
90.5081339
0
ARC
8
DEFAULT_255_1_234
10
6.0312708
20
61.0882615
40
0.2953195
50
48.2778575
51
77.4994676
0
ARC
8
DEFAULT_255_1_234
10
6.0385339
20
61.1011746
40
0.2808655
50
36.3142134
51
47.6305865
0
ARC
8
DEFAULT_255_1_234
10
5.9516646
20
61.0426515
40
0.3855453
50
18.2931786
51
35.6769206
0
ARC
8
DEFAULT_255_1_234
10
5.6973405
20
60.9553593
40
0.654423
50
8.024666
51
18.5605216
0
ARC
8
DEFAULT_255_1_234
10
5.2810325
20
60.8938792
40
1.0752407
50
1.1274072
51
8.1718305
0
ARC
8
DEFAULT_255_1_234
10
4.9574515
20
60.8811885
40
1.3990231
50
0.5424119
51
1.3863029
0
ARC
8
DEFAULT_255_1_234
10
5.1395893
20
60.9084342
40
1.0682415
50
359.8090433
51
4.9407866
0
ARC
8
DEFAULT_255_1_234
10
5.5605907
20
60.9460113
40
0.6455691
50
4.8362157
51
12.2904523
0
ARC
8
DEFAULT_255_1_234
10
5.8361022
20
61.0073965
40
0.3633074
50
12.0805627
51
23.8173984
0
ARC
8
DEFAULT_255_1_234
10
5.9534727
20
61.0570919
40
0.2358723
50
24.2871213
51
31.3935614
0
ARC
8
DEFAULT_255_1_234
10
6.0059424
20
61.0914233
40
0.1732111
50
30.7407893
51
82.4657128
0
ARC
8
DEFAULT_255_1_234
10
5.9879559
20
61.0030691
40
0.263235
50
81.1060089
51
90.2184952
0
ARC
8
DEFAULT_255_1_234
10
5.9843858
20
61.0288924
40
0.2374236
50
89.3806855
51
105.6762551
0
ARC
8
DEFAULT_255_1_234
10
5.9660488
20
61.0955567
40
0.1682847
50
105.7981136
51
149.7388061
0
ARC
8
DEFAULT_255_1_234
10
6.0724567
20
61.031595
40
0.2924306
50
149.4208916
51
163.6286378
0
ARC
8
DEFAULT_255_1_234
10
6.2815455
20
60.967825
40
0.5110213
50
163.3763315
51
172.1410975
0
ARC
8
DEFAULT_255_1_234
10
6.6116174
20
60.9205518
40
0.8444586
50
172.0259487
51
178.0703232
0
ARC
8
DEFAULT_255_1_234
10
6.9146263
20
60.9061906
40
1.1477868
50
177.8631668
51
179.5044149
0
ARC
8
DEFAULT_255_1_234
10
6.8073668
20
60.6747389
40
1.0404907
50
179.7995573
51
185.2460446
0
ARC
8
DEFAULT_255_1_234
10
6.4030707
20
60.6364513
40
0.6343885
50
185.1411642
51
193.0079639
0
ARC
8
DEFAULT_255_1_234
10
6.1387179
20
60.5739641
40
0.3627568
50
192.7897626
51
205.2507664
0
ARC
8
DEFAULT_255_1_234
10
6.0340726
20
60.5272415
40
0.2481908
50
205.8005384
51
211.2537509
0
ARC
8
DEFAULT_255_1_234
10
5.9817167
20
60.492158
40
0.1852521
50
210.3789793
51
238.4008143
0
ARC
8
DEFAULT_255_1_234
10
5.9797689
20
60.4968376
40
0.1882621
50
239.6520629
51
265.9793761
0
ARC
8
DEFAULT_255_1_234
10
5.9882889
20
60.5640427
40
0.2559272
50
265.1315437
51
270.060332
0
ARC
8
DEFAULT_255_1_234
10
5.9911668
20
60.5316534
40
0.2235528
50
269.3314664
51
287.2178029
0
ARC
8
DEFAULT_255_1_234
10
6.004952
20
60.4813279
40
0.1714108
50
287.7958004
51
329.080874
0
ARC
8
DEFAULT_255_1_234
10
5.9091977
20
60.541093
40
0.2842745
50
328.6634704
51
343.3325132
0
ARC
8
DEFAULT_255_1_234
10
5.6918997
20
60.6087863
40
0.5118644
50
343.0499468
51
351.9393422
0
ARC
8
DEFAULT_255_1_234
10
5.3452297
20
60.6598949
40
0.8622784
50
351.8069023
51
357.7959224
0
ARC
8
DEFAULT_255_1_234
10
5.0216853
20
60.6766721
40
1.1862365
50
357.5871873
51
359.2677531
0
LINE
8
DEFAULT_255_1_234
10
23.0448364
20
69.3098211
11
23.2440235
21
69.3098211
0
LINE
8
DEFAULT_255_1_234
10
23.2440235
20
69.3098211
11
23.6263342
21
68.3556506
0
LINE
8
DEFAULT_255_1_234
10
23.6263342
20
68.3556506
11
24.008645
21
69.3098211
0
LINE
8
DEFAULT_255_1_234
10
24.008645
20
69.3098211
11
24.2086353
21
69.3098211
0
LINE
8
DEFAULT_255_1_234
10
24.2086353
20
69.3098211
11
24.2086353
21
68.1404
0
LINE
8
DEFAULT_255_1_234
10
24.2086353
20
68.1404
11
24.0544259
21
68.1404
0
LINE
8
DEFAULT_255_1_234
10
24.0544259
20
68.1404
11
24.0544259
21
68.5957996
0
LINE
8
DEFAULT_255_1_234
10
24.0544259
20
68.5957996
11
24.068883
21
69.0873419
0
LINE
8
DEFAULT_255_1_234
10
24.068883
20
69.0873419
11
23.6849659
21
68.1404
0
LINE
8
DEFAULT_255_1_234
10
23.6849659
20
68.1404
11
23.5668994
21
68.1404
0
LINE
8
DEFAULT_255_1_234
10
23.5668994
20
68.1404
11
23.1837854
21
69.0849324
0
LINE
8
DEFAULT_255_1_234
10
23.1837854
20
69.0849324
11
23.1990458
21
68.5957996
0
LINE
8
DEFAULT_255_1_234
10
23.1990458
20
68.5957996
11
23.1990458
21
68.1404
0
LINE
8
DEFAULT_255_1_234
10
23.1990458
20
68.1404
11
23.0448364
21
68.1404
0
LINE
8
DEFAULT_255_1_234
10
23.0448364
20
68.1404
11
23.0448364
21
69.3098211
0
LINE
8
DEFAULT_255_1_234
10
23.185585
20
60.8454391
11
23.185585
21
60.7193408
0
LINE
8
DEFAULT_255_1_234
10
23.185585
20
60.7193408
11
22.6948458
21
60.7193408
0
LINE
8
DEFAULT_255_1_234
10
22.6948458
20
60.7193408
11
22.6948458
21
60.2029
0
LINE
8
DEFAULT_255_1_234
10
22.6948458
20
60.2029
11
22.5406364
21
60.2029
0
LINE
8
DEFAULT_255_1_234
10
22.5406364
20
60.2029
11
22.5406364
21
61.3723211
0
LINE
8
DEFAULT_255_1_234
10
22.5406364
20
61.3723211
11
23.2650992
21
61.3723211
0
LINE
8
DEFAULT_255_1_234
10
23.2650992
20
61.3723211
11
23.2650992
21
61.2454196
0
LINE
8
DEFAULT_255_1_234
10
23.2650992
20
61.2454196
11
22.6948458
21
61.2454196
0
LINE
8
DEFAULT_255_1_234
10
22.6948458
20
61.2454196
11
22.6948458
21
60.8454391
0
LINE
8
DEFAULT_255_1_234
10
22.6948458
20
60.8454391
11
23.185585
21
60.8454391
0
LINE
8
DEFAULT_255_1_234
10
24.1108412
20
60.8695343
11
24.1108412
21
60.743436
0
LINE
8
DEFAULT_255_1_234
10
24.1108412
20
60.743436
11
23.6040385
21
60.743436
0
LINE
8
DEFAULT_255_1_234
10
23.6040385
20
60.743436
11
23.6040385
21
60.3289983
0
LINE
8
DEFAULT_255_1_234
10
23.6040385
20
60.3289983
11
24.1927649
21
60.3289983
0
LINE
8
DEFAULT_255_1_234
10
24.1927649
20
60.3289983
11
24.1927649
21
60.2029
0
LINE
8
DEFAULT_255_1_234
10
24.1927649
20
60.2029
11
23.4498292
21
60.2029
0
LINE
8
DEFAULT_255_1_234
10
23.4498292
20
60.2029
11
23.4498292
21
61.3723211
0
LINE
8
DEFAULT_255_1_234
10
23.4498292
20
61.3723211
11
24.1847332
21
61.3723211
0
LINE
8
DEFAULT_255_1_234
10
24.1847332
20
61.3723211
11
24.1847332
21
61.2454196
0
LINE
8
DEFAULT_255_1_234
10
24.1847332
20
61.2454196
11
23.6040385
21
61.2454196
0
LINE
8
DEFAULT_255_1_234
10
23.6040385
20
61.2454196
11
23.6040385
21
60.8695343
0
LINE
8
DEFAULT_255_1_234
10
23.6040385
20
60.8695343
11
24.1108412
21
60.8695343
0
ENDSEC
0
EOF