0
SECTION
2
HEADER
9
$MEASUREMENT
70
1
0
ENDSEC
0
SECTION
2
TABLES
0
TABLE
2
LTYPE
0
LTYPE
72
65
70
64
2
CONTINUOUS
3
______
73
0
40
0
0
ENDTAB
0
TABLE
2
LAYER
0
LAYER
2
DEFAULT_255_2_778
70
0
62
255
6
CONTINUOUS
0
ENDTAB
0
ENDSEC
0
SECTION
2
ENTITIES
0
LINE
8
DEFAULT_255_2_778
10
2.1804619
20
119.7749004
11
2.6805619
21
120.0749004
0
LINE
8
DEFAULT_255_2_778
10
2.6805619
20
120.0749004
11
4.7947619
21
120.0749004
0
LINE
8
DEFAULT_255_2_778
10
4.7947619
20
120.0749004
11
4.7947619
21
122.0606004
0
LINE
8
DEFAULT_255_2_778
10
4.7947619
20
122.0606004
11
5.0906619
21
122.0648004
0
LINE
8
DEFAULT_255_2_778
10
5.0906619
20
122.0648004
11
5.9907619
21
122.0648004
0
LINE
8
DEFAULT_255_2_778
10
5.9907619
20
122.0648004
11
5.9907619
21
126.4850004
0
LINE
8
DEFAULT_255_2_778
10
5.9907619
20
126.4850004
11
5.0906619
21
126.4850004
0
LINE
8
DEFAULT_255_2_778
10
5.0906619
20
126.4850004
11
4.7947619
21
126.4892004
0
LINE
8
DEFAULT_255_2_778
10
4.7947619
20
126.4892004
11
4.7947619
21
129.7748004
0
LINE
8
DEFAULT_255_2_778
10
18.4303619
20
71.7549004
11
18.7304619
21
72.0549004
0
LINE
8
DEFAULT_255_2_778
10
18.7304619
20
72.0549004
11
18.7304619
21
103.5347004
0
LINE
8
DEFAULT_255_2_778
10
18.7304619
20
103.5347004
11
30.5302619
21
103.5347004
0
LINE
8
DEFAULT_255_2_778
10
30.5302619
20
103.5347004
11
30.5302619
21
72.0546004
0
LINE
8
DEFAULT_255_2_778
10
30.5302619
20
72.0546004
11
30.8303619
21
71.7546004
0
LINE
8
DEFAULT_255_2_778
10
5.4745619
20
9.5746004
11
5.4745619
21
8.1686004
0
LINE
8
DEFAULT_255_2_778
10
5.4745619
20
8.1686004
11
6.4151619
21
8.1686004
0
LINE
8
DEFAULT_255_2_778
10
18.4303619
20
13.7746004
11
6.0304619
21
13.7746004
0
LINE
8
DEFAULT_255_2_778
10
6.0304619
20
13.7746004
11
6.0304619
21
23.1247004
0
LINE
8
DEFAULT_255_2_778
10
6.0304619
20
30.2748004
11
6.0304619
21
34.2748004
0
LINE
8
DEFAULT_255_2_778
10
6.0304619
20
43.2748004
11
6.0304619
21
47.2748004
0
LINE
8
DEFAULT_255_2_778
10
6.0304619
20
56.2746004
11
6.0304619
21
60.2746004
0
LINE
8
DEFAULT_255_2_778
10
6.0304619
20
69.2746004
11
6.0304619
21
73.2746004
0
LINE
8
DEFAULT_255_2_778
10
6.0304619
20
82.2747004
11
6.0304619
21
86.2747004
0
LINE
8
DEFAULT_255_2_778
10
6.0304619
20
95.2747004
11
6.0304619
21
99.2747004
0
LINE
8
DEFAULT_255_2_778
10
6.0304619
20
108.2748004
11
6.0304619
21
112.2747004
0
LINE
8
DEFAULT_255_2_778
10
2.1804619
20
119.3574004
11
5.1980619
21
119.3574004
0
LINE
8
DEFAULT_255_2_778
10
5.1980619
20
119.3574004
11
5.1980619
21
121.6574004
0
LINE
8
DEFAULT_255_2_778
10
5.1980619
20
121.6574004
11
6.3979619
21
121.6574004
0
LINE
8
DEFAULT_255_2_778
10
6.3979619
20
121.6574004
11
6.3979619
21
126.8924004
0
LINE
8
DEFAULT_255_2_778
10
6.3979619
20
126.8924004
11
5.1980619
21
126.8924004
0
LINE
8
DEFAULT_255_2_778
10
5.1980619
20
126.8924004
11
5.1980619
21
129.7748004
0
LINE
8
DEFAULT_255_2_778
10
6.4150985
20
9.5745961
11
6.4136985
21
0.2678961
0
LINE
8
DEFAULT_255_2_778
10
6.4136985
20
0.2678961
11
6.4123985
21
0.2564961
0
LINE
8
DEFAULT_255_2_778
10
6.4123985
20
0.2564961
11
6.3745985
21
0.2186961
0
LINE
8
DEFAULT_255_2_778
10
6.3745985
20
0.2186961
11
5.4744985
21
0.2186961
0
LINE
8
DEFAULT_255_2_778
10
5.4744985
20
0.2186961
11
5.1701985
21
0.2143961
0
LINE
8
DEFAULT_255_2_778
10
5.1701985
20
0.2143961
11
4.7944985
21
-0.1613039
0
LINE
8
DEFAULT_255_2_778
10
4.7944985
20
-0.1613039
11
4.7944985
21
3.0602961
0
LINE
8
DEFAULT_255_2_778
10
4.7944985
20
3.0602961
11
5.4741985
21
2.3805961
0
LINE
8
DEFAULT_255_2_778
10
5.4741985
20
2.3805961
11
5.4741985
21
0.2186961
0
LINE
8
DEFAULT_255_2_778
10
18.2302985
20
130.9746961
11
23.0803985
21
130.9746961
0
LINE
8
DEFAULT_255_2_778
10
23.0803985
20
130.9746961
11
23.0803985
21
129.6279961
0
LINE
8
DEFAULT_255_2_778
10
23.0803985
20
129.6279961
11
18.2302985
21
129.6279961
0
LINE
8
DEFAULT_255_2_778
10
18.2302985
20
129.6279961
11
18.2302985
21
130.9746961
0
LINE
8
DEFAULT_255_2_778
10
24.5127985
20
-0.2253039
11
24.6802985
21
-0.0578039
0
LINE
8
DEFAULT_255_2_778
10
24.6802985
20
-0.0578039
11
24.6802985
21
9.5745961
0
LINE
8
DEFAULT_255_2_778
10
24.6802985
20
9.5745961
11
47.1801985
21
9.5745961
0
LINE
8
DEFAULT_255_2_778
10
2.1803985
20
9.7745961
11
2.6804985
21
9.4745961
0
LINE
8
DEFAULT_255_2_778
10
2.6804985
20
9.4745961
11
4.7946985
21
9.4745961
0
ARC
8
DEFAULT_255_2_778
10
37.2302899
20
115.4748173
40
0.9998905
50
300.8135841
51
359.985986
0
LINE
8
DEFAULT_255_2_778
10
44.7303803
20
127.2747727
11
36.9304803
21
127.2747727
0
LINE
8
DEFAULT_255_2_778
10
36.9304803
20
127.2747727
11
35.4305803
21
128.7746727
0
LINE
8
DEFAULT_255_2_778
10
35.4305803
20
128.7746727
11
35.4305803
21
117.2745727
0
LINE
8
DEFAULT_255_2_778
10
35.4305803
20
117.2745727
11
36.9304803
21
115.7746727
0
LINE
8
DEFAULT_255_2_778
10
36.9304803
20
115.7746727
11
36.9304803
21
127.2747727
0
LINE
8
DEFAULT_255_2_778
10
43.4302803
20
114.4845727
11
43.4302803
21
124.9747727
0
LINE
8
DEFAULT_255_2_778
10
43.4302803
20
124.9747727
11
38.2301803
21
124.9747727
0
LINE
8
DEFAULT_255_2_778
10
38.2301803
20
124.9747727
11
38.2301803
21
115.4745727
0
LINE
8
DEFAULT_255_2_778
10
40.1804011
20
33.0246614
11
42.2804011
21
33.0246614
0
LINE
8
DEFAULT_255_2_778
10
42.2804011
20
33.0246614
11
42.2804011
21
31.5247614
0
LINE
8
DEFAULT_255_2_778
10
42.2804011
20
31.5247614
11
40.1804011
21
31.5247614
0
LINE
8
DEFAULT_255_2_778
10
40.1804011
20
31.5247614
11
40.1804011
21
33.0246614
0
LINE
8
DEFAULT_255_2_778
10
40.1804011
20
46.0246614
11
42.2804011
21
46.0246614
0
LINE
8
DEFAULT_255_2_778
10
42.2804011
20
46.0246614
11
42.2804011
21
44.5247614
0
LINE
8
DEFAULT_255_2_778
10
42.2804011
20
44.5247614
11
40.1804011
21
44.5247614
0
LINE
8
DEFAULT_255_2_778
10
40.1804011
20
44.5247614
11
40.1804011
21
46.0246614
0
LINE
8
DEFAULT_255_2_778
10
40.1804011
20
123.5248614
11
42.2804011
21
123.5248614
0
LINE
8
DEFAULT_255_2_778
10
42.2804011
20
123.5248614
11
42.2804011
21
122.0249614
0
LINE
8
DEFAULT_255_2_778
10
42.2804011
20
122.0249614
11
40.1804011
21
122.0249614
0
LINE
8
DEFAULT_255_2_778
10
40.1804011
20
122.0249614
11
40.1804011
21
123.5248614
0
LINE
8
DEFAULT_255_2_778
10
43.4306
20
47.2746039
11
43.4306
21
30.2746039
0
ARC
8
DEFAULT_255_2_778
10
19.7410588
20
4.9771038
40
4.7931867
50
165.7644485
51
180.0240485
0
ARC
8
DEFAULT_255_2_778
10
19.711823
20
4.980658
40
4.7639762
50
143.5452309
51
165.7194165
0
ARC
8
DEFAULT_255_2_778
10
19.7396765
20
4.9656742
40
4.7952848
50
109.1970635
51
143.59898
0
ARC
8
DEFAULT_255_2_778
10
19.723421
20
4.993622
40
4.76355
50
93.6056476
51
109.122948
0
ARC
8
DEFAULT_255_2_778
10
19.7314141
20
4.9011197
40
4.8563723
50
90.0134687
51
93.6311303
0
ARC
8
DEFAULT_255_2_778
10
19.7322847
20
4.964312
40
4.7931804
50
75.7644386
51
90.024053
0
ARC
8
DEFAULT_255_2_778
10
19.7358543
20
4.9935978
40
4.7639176
50
53.5450437
51
75.7194374
0
ARC
8
DEFAULT_255_2_778
10
19.7209586
20
4.9658549
40
4.7950849
50
19.1957818
51
53.5988568
0
ARC
8
DEFAULT_255_2_778
10
19.7489399
20
4.9821281
40
4.7633127
50
3.603602
51
19.1215869
0
ARC
8
DEFAULT_255_2_778
10
19.6563739
20
4.9741298
40
4.8561988
50
0.0113514
51
3.6291381
0
ARC
8
DEFAULT_255_2_778
10
29.7221117
20
124.2713687
40
4.490662
50
345.5979468
51
0.0424013
0
ARC
8
DEFAULT_255_2_778
10
29.7468349
20
124.2690047
40
4.4661294
50
321.9757624
51
345.5484327
0
ARC
8
DEFAULT_255_2_778
10
29.7243975
20
124.2802952
40
4.4907621
50
288.5191006
51
322.0386265
0
ARC
8
DEFAULT_255_2_778
10
29.7375374
20
124.2594814
40
4.4668564
50
272.8769558
51
288.4440812
0
ARC
8
DEFAULT_255_2_778
10
29.7306772
20
124.3483941
40
4.5560021
50
269.9974252
51
272.9069987
0
ARC
8
DEFAULT_255_2_778
10
29.7270461
20
124.2815602
40
4.4891696
50
255.2414929
51
270.043731
0
ARC
8
DEFAULT_255_2_778
10
29.7256423
20
124.2602083
40
4.4681663
50
231.1655184
51
255.1891505
0
ARC
8
DEFAULT_255_2_778
10
29.73539
20
124.2805406
40
4.4901199
50
198.5326216
51
231.231322
0
ARC
8
DEFAULT_255_2_778
10
29.714829
20
124.2676236
40
4.4665232
50
182.8794202
51
198.4593497
0
ARC
8
DEFAULT_255_2_778
10
29.8035866
20
124.2744854
40
4.5555141
50
179.9974022
51
182.9095353
0
LINE
8
DEFAULT_255_2_778
10
4.7947725
20
3.0605919
11
5.0905725
21
3.0647919
0
LINE
8
DEFAULT_255_2_778
10
5.0905725
20
3.0647919
11
5.9906725
21
3.0647919
0
LINE
8
DEFAULT_255_2_778
10
5.9906725
20
3.0647919
11
5.9906725
21
7.4848919
0
LINE
8
DEFAULT_255_2_778
10
5.9906725
20
7.4848919
11
5.0905725
21
7.4848919
0
LINE
8
DEFAULT_255_2_778
10
5.0905725
20
7.4848919
11
4.7947725
21
7.4891919
0
LINE
8
DEFAULT_255_2_778
10
4.7947725
20
7.4891919
11
4.7947725
21
9.5748919
0
LINE
8
DEFAULT_255_2_778
10
4.7947725
20
9.5748919
11
14.7803725
21
9.5748919
0
LINE
8
DEFAULT_255_2_778
10
14.7803725
20
9.5748919
11
14.7803725
21
-0.0575081
0
LINE
8
DEFAULT_255_2_778
10
14.7803725
20
-0.0575081
11
14.9478725
21
-0.2250081
0
LINE
8
DEFAULT_255_2_778
10
14.9478725
20
-0.2250081
11
14.9478725
21
4.9750919
0
LINE
8
DEFAULT_255_2_778
10
24.5125725
20
4.9750919
11
24.5125725
21
-0.2626081
0
LINE
8
DEFAULT_255_2_778
10
24.5125725
20
-0.2626081
11
46.6801725
21
-0.2626081
0
LINE
8
DEFAULT_255_2_778
10
46.6801725
20
-0.2626081
11
46.8706725
21
-0.2250081
0
LINE
8
DEFAULT_255_2_778
10
46.8706725
20
-0.2250081
11
47.0330725
21
-0.1168081
0
LINE
8
DEFAULT_255_2_778
10
47.0330725
20
-0.1168081
11
47.1421725
21
0.0458919
0
LINE
8
DEFAULT_255_2_778
10
47.1421725
20
0.0458919
11
47.1802725
21
0.2374919
0
LINE
8
DEFAULT_255_2_778
10
47.1802725
20
0.2374919
11
47.1802725
21
129.3122919
0
LINE
8
DEFAULT_255_2_778
10
47.1802725
20
129.3122919
11
47.1421725
21
129.5038919
0
LINE
8
DEFAULT_255_2_778
10
47.1421725
20
129.5038919
11
47.0330725
21
129.6665919
0
LINE
8
DEFAULT_255_2_778
10
47.0330725
20
129.6665919
11
46.8706725
21
129.7747919
0
LINE
8
DEFAULT_255_2_778
10
46.8706725
20
129.7747919
11
46.6801725
21
129.8123919
0
LINE
8
DEFAULT_255_2_778
10
46.6801725
20
129.8123919
11
34.2127725
21
129.8123919
0
LINE
8
DEFAULT_255_2_778
10
34.2127725
20
129.8123919
11
34.2127725
21
124.2746919
0
LINE
8
DEFAULT_255_2_778
10
25.2480725
20
124.2746919
11
25.2480725
21
129.7747919
0
LINE
8
DEFAULT_255_2_778
10
25.2480725
20
129.7747919
11
23.0806725
21
129.7747919
0
ARC
8
DEFAULT_255_2_778
10
2.6805274
20
129.2746919
40
0.5000969
50
89.9996485
51
180.0003515
0
ARC
8
DEFAULT_255_2_778
10
4.0275034
20
124.2777824
40
3.8460661
50
118.7017265
51
142.2630483
0
ARC
8
DEFAULT_255_2_778
10
4.0295264
20
124.2750859
40
3.8493163
50
142.249736
51
175.7851248
0
ARC
8
DEFAULT_255_2_778
10
4.0395032
20
124.2749962
40
3.8592728
50
175.7946842
51
180.0015948
0
ARC
8
DEFAULT_255_2_778
10
4.0260266
20
124.273972
40
3.8457963
50
179.9863404
51
203.5486004
0
ARC
8
DEFAULT_255_2_778
10
4.0293486
20
124.2744376
40
3.8490277
50
203.5351988
51
237.0727795
0
ARC
8
DEFAULT_255_2_778
10
4.0341643
20
124.2830654
40
3.8588872
50
237.0823958
51
241.2897497
0
ARC
8
DEFAULT_255_2_778
10
4.0269928
20
5.2784801
40
3.8453843
50
118.6986145
51
142.2637409
0
ARC
8
DEFAULT_255_2_778
10
4.0296571
20
5.2752852
40
3.8494469
50
142.2504049
51
175.7852394
0
ARC
8
DEFAULT_255_2_778
10
4.0395561
20
5.2751956
40
3.8593256
50
175.7947139
51
180.0015858
0
ARC
8
DEFAULT_255_2_778
10
4.0260266
20
5.274172
40
3.8457963
50
179.9863404
51
203.5486004
0
ARC
8
DEFAULT_255_2_778
10
4.0293486
20
5.2746376
40
3.8490277
50
203.5351988
51
237.0727795
0
ARC
8
DEFAULT_255_2_778
10
4.0341643
20
5.2832654
40
3.8588872
50
237.0823958
51
241.2897497
0
ARC
8
DEFAULT_255_2_778
10
2.6805274
20
0.2752857
40
0.5000969
50
179.9996485
51
270.0003515
0
LINE
8
DEFAULT_255_2_778
10
18.2303305
20
129.7747888
11
2.6805305
21
129.7747888
0
LINE
8
DEFAULT_255_2_778
10
2.1804305
20
129.2746888
11
2.1804305
21
127.6512888
0
LINE
8
DEFAULT_255_2_778
10
2.1804305
20
120.8985888
11
2.1804305
21
8.6514888
0
LINE
8
DEFAULT_255_2_778
10
2.1804305
20
1.8987888
11
2.1804305
21
0.2752888
0
LINE
8
DEFAULT_255_2_778
10
2.6805305
20
-0.2248112
11
14.9482305
21
-0.2248112
0
LINE
8
DEFAULT_255_2_778
10
2.1804256
20
1.1245357
11
4.7947256
21
1.1245357
0
LINE
8
DEFAULT_255_2_778
10
5.4745256
20
2.3805357
11
6.4151256
21
2.3805357
0
LINE
8
DEFAULT_255_2_778
10
37.4303256
20
13.7745357
11
34.0304256
21
13.7745357
0
LINE
8
DEFAULT_255_2_778
10
44.7304256
20
12.4746357
11
46.2303256
21
10.9747357
0
LINE
8
DEFAULT_255_2_778
10
30.5302256
20
72.0546357
11
18.7304256
21
72.0546357
0
LINE
8
DEFAULT_255_2_778
10
2.1804256
20
128.7246357
11
2.6805256
21
128.4246357
0
LINE
8
DEFAULT_255_2_778
10
2.6805256
20
128.4246357
11
4.7947256
21
128.4246357
0
LINE
8
DEFAULT_255_2_778
10
17.2249256
20
113.9003357
11
17.4305256
21
113.9003357
0
ARC
8
DEFAULT_255_2_778
10
4.0314319
20
5.2782883
40
1.8509604
50
155.4322666
51
180.1050351
0
ARC
8
DEFAULT_255_2_778
10
4.0258667
20
5.2790199
40
1.8455956
50
99.7519877
51
155.3810892
0
ARC
8
DEFAULT_255_2_778
10
4.0295973
20
5.2476899
40
1.8771054
50
89.9732229
51
99.7022318
0
ARC
8
DEFAULT_255_2_778
10
4.0338736
20
5.273684
40
1.8511143
50
65.4346417
51
90.1052081
0
ARC
8
DEFAULT_255_2_778
10
4.0347484
20
5.2795176
40
1.8454455
50
9.7522284
51
65.3840464
0
ARC
8
DEFAULT_255_2_778
10
4.003322
20
5.2757738
40
1.8770527
50
359.9731785
51
9.7023658
0
ARC
8
DEFAULT_255_2_778
10
4.0291441
20
5.2715041
40
1.8512336
50
335.4354476
51
0.104952
0
ARC
8
DEFAULT_255_2_778
10
4.0350123
20
5.2705769
40
1.8455116
50
279.7545475
51
335.3858919
0
ARC
8
DEFAULT_255_2_778
10
4.0313533
20
5.3017265
40
1.8768317
50
269.9731736
51
279.7035181
0
ARC
8
DEFAULT_255_2_778
10
4.0270894
20
5.2759718
40
1.8510798
50
245.4330726
51
270.1047791
0
ARC
8
DEFAULT_255_2_778
10
4.0263054
20
5.2703721
40
1.8456617
50
189.7543067
51
245.3829347
0
ARC
8
DEFAULT_255_2_778
10
4.0573586
20
5.2740178
40
1.8768843
50
179.973218
51
189.7033841
0
ARC
8
DEFAULT_255_2_778
10
4.0340649
20
124.277171
40
2.1455395
50
23.1682239
51
47.2928877
0
ARC
8
DEFAULT_255_2_778
10
4.0287837
20
124.2713492
40
2.1533997
50
47.294693
51
89.9526321
0
ARC
8
DEFAULT_255_2_778
10
4.03078
20
124.2748112
40
2.1499371
50
90.0057577
51
98.6520504
0
ARC
8
DEFAULT_255_2_778
10
4.0333113
20
124.2563124
40
2.1686062
50
98.6446434
51
100.7567602
0
ARC
8
DEFAULT_255_2_778
10
4.034567
20
124.2494762
40
2.1755567
50
100.7556473
51
101.574086
0
ARC
8
DEFAULT_255_2_778
10
4.0270633
20
124.2804909
40
2.1436672
50
101.5439239
51
128.6260941
0
ARC
8
DEFAULT_255_2_778
10
4.0306023
20
124.2745028
40
2.1505547
50
128.6001658
51
173.3517178
0
ARC
8
DEFAULT_255_2_778
10
4.0413287
20
124.2749815
40
2.1611542
50
173.397248
51
180.0075929
0
ARC
8
DEFAULT_255_2_778
10
4.0245161
20
124.2729916
40
2.1443422
50
179.9544829
51
207.0272235
0
ARC
8
DEFAULT_255_2_778
10
4.0300233
20
124.2745979
40
2.1499781
50
206.9986632
51
251.7632196
0
ARC
8
DEFAULT_255_2_778
10
4.0316325
20
124.2851627
40
2.1605165
50
251.8103656
51
258.423665
0
ARC
8
DEFAULT_255_2_778
10
4.0356444
20
124.3024406
40
2.1782479
50
258.4114854
51
259.2027762
0
ARC
8
DEFAULT_255_2_778
10
4.0321134
20
124.2819713
40
2.1574794
50
259.1930525
51
267.3082042
0
ARC
8
DEFAULT_255_2_778
10
4.0312225
20
124.2690249
40
2.1445054
50
267.3157383
51
269.9994697
0
ARC
8
DEFAULT_255_2_778
10
4.0298132
20
124.275469
40
2.1509501
50
270.0370093
51
329.6513346
0
ARC
8
DEFAULT_255_2_778
10
4.019863
20
124.2788335
40
2.1612378
50
329.7076441
51
336.8162598
0
LINE
8
DEFAULT_255_2_778
10
35.4306746
20
117.2748951
11
3.2305746
21
117.2748951
0
LINE
8
DEFAULT_255_2_778
10
46.2304746
20
128.7746951
11
35.4303746
21
128.7746951
0
LINE
8
DEFAULT_255_2_778
10
2.1804746
20
5.2748951
11
2.1804746
21
5.2748951
0
LINE
8
DEFAULT_255_2_778
10
31.9805044
20
113.9746895
11
36.3805044
21
113.9746895
0
LINE
8
DEFAULT_255_2_778
10
36.3805044
20
113.9746895
11
36.3805044
21
105.6746895
0
LINE
8
DEFAULT_255_2_778
10
36.3805044
20
105.6746895
11
31.9805044
21
105.6746895
0
LINE
8
DEFAULT_255_2_778
10
31.9805044
20
105.6746895
11
31.9805044
21
113.9746895
0
LINE
8
DEFAULT_255_2_778
10
27.0804044
20
113.9746895
11
31.4804044
21
113.9746895
0
LINE
8
DEFAULT_255_2_778
10
31.4804044
20
113.9746895
11
31.4804044
21
105.6746895
0
LINE
8
DEFAULT_255_2_778
10
31.4804044
20
105.6746895
11
27.0804044
21
105.6746895
0
LINE
8
DEFAULT_255_2_778
10
27.0804044
20
105.6746895
11
27.0804044
21
113.9746895
0
LINE
8
DEFAULT_255_2_778
10
43.4306044
20
112.2747895
11
43.4306044
21
108.2747895
0
LINE
8
DEFAULT_255_2_778
10
40.1804011
20
111.0245614
11
42.2804011
21
111.0245614
0
LINE
8
DEFAULT_255_2_778
10
42.2804011
20
111.0245614
11
42.2804011
21
109.5246614
0
LINE
8
DEFAULT_255_2_778
10
42.2804011
20
109.5246614
11
40.1804011
21
109.5246614
0
LINE
8
DEFAULT_255_2_778
10
40.1804011
20
109.5246614
11
40.1804011
21
111.0245614
0
LINE
8
DEFAULT_255_2_778
10
43.4306
20
99.2746854
11
43.4306
21
95.2746854
0
LINE
8
DEFAULT_255_2_778
10
40.1804011
20
98.0248614
11
42.2804011
21
98.0248614
0
LINE
8
DEFAULT_255_2_778
10
42.2804011
20
98.0248614
11
42.2804011
21
96.5249614
0
LINE
8
DEFAULT_255_2_778
10
42.2804011
20
96.5249614
11
40.1804011
21
96.5249614
0
LINE
8
DEFAULT_255_2_778
10
40.1804011
20
96.5249614
11
40.1804011
21
98.0248614
0
LINE
8
DEFAULT_255_2_778
10
43.4306
20
86.2746854
11
43.4306
21
82.2746854
0
LINE
8
DEFAULT_255_2_778
10
40.1804011
20
85.0247614
11
42.2804011
21
85.0247614
0
LINE
8
DEFAULT_255_2_778
10
42.2804011
20
85.0247614
11
42.2804011
21
83.5248614
0
LINE
8
DEFAULT_255_2_778
10
42.2804011
20
83.5248614
11
40.1804011
21
83.5248614
0
LINE
8
DEFAULT_255_2_778
10
40.1804011
20
83.5248614
11
40.1804011
21
85.0247614
0
LINE
8
DEFAULT_255_2_778
10
43.4306
20
73.2745854
11
43.4306
21
69.2745854
0
LINE
8
DEFAULT_255_2_778
10
40.1804011
20
72.0247614
11
42.2804011
21
72.0247614
0
LINE
8
DEFAULT_255_2_778
10
42.2804011
20
72.0247614
11
42.2804011
21
70.5248614
0
LINE
8
DEFAULT_255_2_778
10
42.2804011
20
70.5248614
11
40.1804011
21
70.5248614
0
LINE
8
DEFAULT_255_2_778
10
40.1804011
20
70.5248614
11
40.1804011
21
72.0247614
0
LINE
8
DEFAULT_255_2_778
10
43.4306
20
60.2745854
11
43.4306
21
56.2745854
0
LINE
8
DEFAULT_255_2_778
10
40.1804011
20
59.0246614
11
42.2804011
21
59.0246614
0
LINE
8
DEFAULT_255_2_778
10
42.2804011
20
59.0246614
11
42.2804011
21
57.5247614
0
LINE
8
DEFAULT_255_2_778
10
42.2804011
20
57.5247614
11
40.1804011
21
57.5247614
0
LINE
8
DEFAULT_255_2_778
10
40.1804011
20
57.5247614
11
40.1804011
21
59.0246614
0
LINE
8
DEFAULT_255_2_778
10
43.4306
20
21.2747854
11
43.4306
21
17.2747854
0
LINE
8
DEFAULT_255_2_778
10
40.1804011
20
20.0245614
11
42.2804011
21
20.0245614
0
LINE
8
DEFAULT_255_2_778
10
42.2804011
20
20.0245614
11
42.2804011
21
18.5246614
0
LINE
8
DEFAULT_255_2_778
10
42.2804011
20
18.5246614
11
40.1804011
21
18.5246614
0
LINE
8
DEFAULT_255_2_778
10
40.1804011
20
18.5246614
11
40.1804011
21
20.0245614
0
LINE
8
DEFAULT_255_2_778
10
12.9804896
20
22.8747
11
17.3804896
21
22.8747
0
LINE
8
DEFAULT_255_2_778
10
17.380448
20
22.8746895
11
17.380448
21
14.5746895
0
LINE
8
DEFAULT_255_2_778
10
17.380448
20
14.5746895
11
12.980448
21
14.5746895
0
LINE
8
DEFAULT_255_2_778
10
12.980448
20
14.5746895
11
12.980448
21
22.8746895
0
LINE
8
DEFAULT_255_2_778
10
8.080348
20
22.8746895
11
12.480348
21
22.8746895
0
ARC
8
DEFAULT_255_2_778
10
40.4776465
20
45.2676533
40
1.9928139
50
245.6879682
51
270.0735817
0
ARC
8
DEFAULT_255_2_778
10
40.4828395
20
45.276677
40
2.0031756
50
189.8044729
51
245.65887
0
ARC
8
DEFAULT_255_2_778
10
40.493807
20
45.2744107
40
2.0136013
50
179.9877538
51
189.6877868
0
ARC
8
DEFAULT_255_2_778
10
40.4734024
20
45.2772234
40
1.993198
50
155.6873726
51
180.0684804
0
ARC
8
DEFAULT_255_2_778
10
40.4820682
20
45.2722406
40
2.0031469
50
99.8052981
51
155.6595418
0
ARC
8
DEFAULT_255_2_778
10
40.479774
20
45.2612917
40
2.0135495
50
89.9877133
51
99.6879127
0
ARC
8
DEFAULT_255_2_778
10
40.4778235
20
58.2680377
40
1.993198
50
245.6873726
51
270.0684804
0
ARC
8
DEFAULT_255_2_778
10
40.4828062
20
58.2767035
40
2.0031469
50
189.8052981
51
245.6595418
0
ARC
8
DEFAULT_255_2_778
10
40.4937552
20
58.2744093
40
2.0135495
50
179.9877133
51
189.6879127
0
ARC
8
DEFAULT_255_2_778
10
40.4734024
20
58.2772234
40
1.993198
50
155.6873726
51
180.0684804
0
ARC
8
DEFAULT_255_2_778
10
40.4820682
20
58.2722406
40
2.0031469
50
99.8052981
51
155.6595418
0
ARC
8
DEFAULT_255_2_778
10
40.479774
20
58.2612917
40
2.0135495
50
89.9877133
51
99.6879127
0
ARC
8
DEFAULT_255_2_778
10
40.4776398
20
71.2679029
40
1.9929635
50
245.6901216
51
270.0737704
0
ARC
8
DEFAULT_255_2_778
10
40.4826903
20
71.2766625
40
2.0030257
50
189.804704
51
245.6616138
0
ARC
8
DEFAULT_255_2_778
10
40.493751
20
71.2744091
40
2.0135452
50
179.9877083
51
189.6879249
0
ARC
8
DEFAULT_255_2_778
10
40.4735044
20
71.277217
40
1.9933
50
155.6880055
51
180.0682938
0
ARC
8
DEFAULT_255_2_778
10
40.4819897
20
71.2723741
40
2.0030269
50
99.803615
51
155.6616895
0
ARC
8
DEFAULT_255_2_778
10
40.4795894
20
71.2617314
40
2.0131097
50
89.9824561
51
99.6847188
0
ARC
8
DEFAULT_255_2_778
10
40.4776465
20
84.2677533
40
1.9928139
50
245.6879682
51
270.0735817
0
ARC
8
DEFAULT_255_2_778
10
40.4828395
20
84.276777
40
2.0031756
50
189.8044729
51
245.65887
0
ARC
8
DEFAULT_255_2_778
10
40.493807
20
84.2745107
40
2.0136013
50
179.9877538
51
189.6877868
0
ARC
8
DEFAULT_255_2_778
10
40.4734024
20
84.2773234
40
1.993198
50
155.6873726
51
180.0684804
0
ARC
8
DEFAULT_255_2_778
10
40.4820682
20
84.2723406
40
2.0031469
50
99.8052981
51
155.6595418
0
ARC
8
DEFAULT_255_2_778
10
40.479774
20
84.2613917
40
2.0135495
50
89.9877133
51
99.6879127
0
ARC
8
DEFAULT_255_2_778
10
40.4778235
20
97.2681377
40
1.993198
50
245.6873726
51
270.0684804
0
ARC
8
DEFAULT_255_2_778
10
40.4828062
20
97.2768035
40
2.0031469
50
189.8052981
51
245.6595418
0
ARC
8
DEFAULT_255_2_778
10
40.4937552
20
97.2745093
40
2.0135495
50
179.9877133
51
189.6879127
0
ARC
8
DEFAULT_255_2_778
10
40.4734024
20
97.2773234
40
1.993198
50
155.6873726
51
180.0684804
0
ARC
8
DEFAULT_255_2_778
10
40.4820682
20
97.2723406
40
2.0031469
50
99.8052981
51
155.6595418
0
ARC
8
DEFAULT_255_2_778
10
40.479774
20
97.2613917
40
2.0135495
50
89.9877133
51
99.6879127
0
ARC
8
DEFAULT_255_2_778
10
40.4776465
20
110.2675533
40
1.9928139
50
245.6879682
51
270.0735817
0
ARC
8
DEFAULT_255_2_778
10
40.4828395
20
110.276577
40
2.0031756
50
189.8044729
51
245.65887
0
ARC
8
DEFAULT_255_2_778
10
40.493807
20
110.2743107
40
2.0136013
50
179.9877538
51
189.6877868
0
ARC
8
DEFAULT_255_2_778
10
40.4734024
20
110.2771234
40
1.993198
50
155.6873726
51
180.0684804
0
ARC
8
DEFAULT_255_2_778
10
40.4820682
20
110.2721406
40
2.0031469
50
99.8052981
51
155.6595418
0
ARC
8
DEFAULT_255_2_778
10
40.479774
20
110.2611917
40
2.0135495
50
89.9877133
51
99.6879127
0
ARC
8
DEFAULT_255_2_778
10
43.1801964
20
114.3246317
40
0.3001094
50
0.0208901
51
89.9791099
0
ARC
8
DEFAULT_255_2_778
10
6.2805366
20
114.3246103
40
0.3001308
50
90.0058834
51
179.9750212
0
ARC
8
DEFAULT_255_2_778
10
8.9828817
20
110.2814425
40
1.9933
50
65.6880055
51
90.0682938
0
ARC
8
DEFAULT_255_2_778
10
8.9780388
20
110.2729571
40
2.0030269
50
9.803615
51
65.6616895
0
ARC
8
DEFAULT_255_2_778
10
8.9673961
20
110.2753575
40
2.0131097
50
359.9824561
51
9.6847188
0
ARC
8
DEFAULT_255_2_778
10
8.9875916
20
110.2721882
40
1.9929158
50
335.6886011
51
0.073395
0
ARC
8
DEFAULT_255_2_778
10
8.9787483
20
110.2772414
40
2.0030556
50
279.8027899
51
335.6610177
0
ARC
8
DEFAULT_255_2_778
10
8.9811208
20
110.2879026
40
2.0131615
50
269.9824967
51
279.6845929
0
ARC
8
DEFAULT_255_2_778
10
8.9830654
20
97.2815773
40
1.9930654
50
65.6907545
51
90.0735838
0
ARC
8
DEFAULT_255_2_778
10
8.9781547
20
97.2729981
40
2.0029057
50
9.8030209
51
65.6637615
0
ARC
8
DEFAULT_255_2_778
10
8.9674003
20
97.2753577
40
2.0131055
50
359.9824512
51
9.684731
0
ARC
8
DEFAULT_255_2_778
10
8.9875916
20
97.2721882
40
1.9929158
50
335.6886011
51
0.073395
0
ARC
8
DEFAULT_255_2_778
10
8.9787483
20
97.2772414
40
2.0030556
50
279.8027899
51
335.6610177
0
ARC
8
DEFAULT_255_2_778
10
8.9811208
20
97.2879026
40
2.0131615
50
269.9824967
51
279.6845929
0
ARC
8
DEFAULT_255_2_778
10
8.9828817
20
84.2813425
40
1.9933
50
65.6880055
51
90.0682938
0
ARC
8
DEFAULT_255_2_778
10
8.9780388
20
84.2728571
40
2.0030269
50
9.803615
51
65.6616895
0
ARC
8
DEFAULT_255_2_778
10
8.9673961
20
84.2752575
40
2.0131097
50
359.9824561
51
9.6847188
0
ARC
8
DEFAULT_255_2_778
10
8.9876935
20
84.2720818
40
1.9928139
50
335.6879682
51
0.0735817
0
ARC
8
DEFAULT_255_2_778
10
8.9786699
20
84.2772748
40
2.0031756
50
279.8044729
51
335.65887
0
ARC
8
DEFAULT_255_2_778
10
8.9809362
20
84.2882424
40
2.0136013
50
269.9877538
51
279.6877868
0
ARC
8
DEFAULT_255_2_778
10
8.9828817
20
71.2813425
40
1.9933
50
65.6880055
51
90.0682938
0
ARC
8
DEFAULT_255_2_778
10
8.9780388
20
71.2728571
40
2.0030269
50
9.803615
51
65.6616895
0
ARC
8
DEFAULT_255_2_778
10
8.9673961
20
71.2752575
40
2.0131097
50
359.9824561
51
9.6847188
0
ARC
8
DEFAULT_255_2_778
10
8.9876935
20
71.2720818
40
1.9928139
50
335.6879682
51
0.0735817
0
ARC
8
DEFAULT_255_2_778
10
8.9786699
20
71.2772748
40
2.0031756
50
279.8044729
51
335.65887
0
ARC
8
DEFAULT_255_2_778
10
8.9809362
20
71.2882424
40
2.0136013
50
269.9877538
51
279.6877868
0
ARC
8
DEFAULT_255_2_778
10
8.9830587
20
58.2816269
40
1.9929158
50
65.6886011
51
90.073395
0
ARC
8
DEFAULT_255_2_778
10
8.9780055
20
58.2727836
40
2.0030556
50
9.8027899
51
65.6610177
0
ARC
8
DEFAULT_255_2_778
10
8.9673443
20
58.2751561
40
2.0131615
50
359.9824967
51
9.6845929
0
ARC
8
DEFAULT_255_2_778
10
8.9877085
20
58.2719805
40
1.9927989
50
335.6878762
51
0.0736222
0
ARC
8
DEFAULT_255_2_778
10
8.9788343
20
58.2770844
40
2.0029878
50
279.8006284
51
335.6593353
0
ARC
8
DEFAULT_255_2_778
10
8.9811219
20
58.2879971
40
2.013356
50
269.982467
51
279.6836164
0
ARC
8
DEFAULT_255_2_778
10
8.9828817
20
45.2812425
40
1.9933
50
65.6880055
51
90.0682938
0
ARC
8
DEFAULT_255_2_778
10
8.9780388
20
45.2727571
40
2.0030269
50
9.803615
51
65.6616895
0
ARC
8
DEFAULT_255_2_778
10
8.9673961
20
45.2751575
40
2.0131097
50
359.9824561
51
9.6847188
0
ARC
8
DEFAULT_255_2_778
10
8.9876935
20
45.2719818
40
1.9928139
50
335.6879682
51
0.0735817
0
ARC
8
DEFAULT_255_2_778
10
8.9786699
20
45.2771748
40
2.0031756
50
279.8044729
51
335.65887
0
ARC
8
DEFAULT_255_2_778
10
8.9809362
20
45.2881424
40
2.0136013
50
269.9877538
51
279.6877868
0
ARC
8
DEFAULT_255_2_778
10
8.9828817
20
32.2812425
40
1.9933
50
65.6880055
51
90.0682938
0
ARC
8
DEFAULT_255_2_778
10
8.9780388
20
32.2727571
40
2.0030269
50
9.803615
51
65.6616895
0
ARC
8
DEFAULT_255_2_778
10
8.9673961
20
32.2751575
40
2.0131097
50
359.9824561
51
9.6847188
0
ARC
8
DEFAULT_255_2_778
10
8.9875916
20
32.2719882
40
1.9929158
50
335.6886011
51
0.073395
0
ARC
8
DEFAULT_255_2_778
10
8.9787483
20
32.2770414
40
2.0030556
50
279.8027899
51
335.6610177
0
ARC
8
DEFAULT_255_2_778
10
8.9811208
20
32.2877026
40
2.0131615
50
269.9824967
51
279.6845929
0
ARC
8
DEFAULT_255_2_778
10
43.1801964
20
13.9244505
40
0.3001094
50
270.0208901
51
359.9791099
0
ARC
8
DEFAULT_255_2_778
10
40.4776465
20
19.2670533
40
1.9928139
50
245.6879682
51
270.0735817
0
ARC
8
DEFAULT_255_2_778
10
40.4828395
20
19.276077
40
2.0031756
50
189.8044729
51
245.65887
0
ARC
8
DEFAULT_255_2_778
10
40.493807
20
19.2738107
40
2.0136013
50
179.9877538
51
189.6877868
0
ARC
8
DEFAULT_255_2_778
10
40.4734024
20
19.2766234
40
1.993198
50
155.6873726
51
180.0684804
0
ARC
8
DEFAULT_255_2_778
10
40.4820682
20
19.2716406
40
2.0031469
50
99.8052981
51
155.6595418
0
ARC
8
DEFAULT_255_2_778
10
40.479774
20
19.2606917
40
2.0135495
50
89.9877133
51
99.6879127
0
ARC
8
DEFAULT_255_2_778
10
40.4778235
20
32.2674377
40
1.993198
50
245.6873726
51
270.0684804
0
ARC
8
DEFAULT_255_2_778
10
40.4828062
20
32.2761035
40
2.0031469
50
189.8052981
51
245.6595418
0
ARC
8
DEFAULT_255_2_778
10
40.4937552
20
32.2738093
40
2.0135495
50
179.9877133
51
189.6879127
0
ARC
8
DEFAULT_255_2_778
10
40.4735044
20
32.276617
40
1.9933
50
155.6880055
51
180.0682938
0
ARC
8
DEFAULT_255_2_778
10
40.4819897
20
32.2717741
40
2.0030269
50
99.803615
51
155.6616895
0
ARC
8
DEFAULT_255_2_778
10
40.4795894
20
32.2611314
40
2.0131097
50
89.9824561
51
99.6847188
0
ARC
8
DEFAULT_255_2_778
10
6.0804522
20
114.4744455
40
0.5000956
50
90.0053149
51
135.0041129
0
ARC
8
DEFAULT_255_2_778
10
6.0802316
20
114.4746065
40
0.4998258
50
134.9992862
51
180.0189578
0
ARC
8
DEFAULT_255_2_778
10
6.0804603
20
13.7745957
40
0.5000546
50
180.0062506
51
269.9937494
0
ARC
8
DEFAULT_255_2_778
10
43.38033
20
13.7746168
40
0.5000757
50
269.9972237
51
359.991324
0
ARC
8
DEFAULT_255_2_778
10
43.3803088
20
125.9745442
40
0.5000969
50
359.9996485
51
90.0003515
0
ARC
8
DEFAULT_255_2_778
10
38.2302027
20
125.9745442
40
0.5000969
50
89.9996485
51
180.0003515
0
ARC
8
DEFAULT_255_2_778
10
37.2301155
20
115.4745313
40
0.4999903
50
269.9988868
51
0.0011189
0
LINE
8
DEFAULT_255_2_778
10
12.4804058
20
22.8746411
11
12.4804058
21
14.5746411
0
LINE
8
DEFAULT_255_2_778
10
12.4804058
20
14.5746411
11
8.0804058
21
14.5746411
0
LINE
8
DEFAULT_255_2_778
10
8.0804058
20
14.5746411
11
8.0804058
21
22.8746411
0
LINE
8
DEFAULT_255_2_778
10
43.4803058
20
43.2748411
11
40.4802058
21
43.2748411
0
LINE
8
DEFAULT_255_2_778
10
40.4802058
20
47.2748411
11
43.4803058
21
47.2748411
0
LINE
8
DEFAULT_255_2_778
10
43.4803058
20
47.2748411
11
43.4803058
21
56.2748411
0
LINE
8
DEFAULT_255_2_778
10
43.4803058
20
56.2748411
11
40.4802058
21
56.2748411
0
LINE
8
DEFAULT_255_2_778
10
40.4802058
20
60.2748411
11
43.4803058
21
60.2748411
0
LINE
8
DEFAULT_255_2_778
10
43.4803058
20
60.2748411
11
43.4803058
21
69.2749411
0
LINE
8
DEFAULT_255_2_778
10
43.4803058
20
69.2749411
11
40.4802058
21
69.2749411
0
LINE
8
DEFAULT_255_2_778
10
40.4802058
20
73.2748411
11
43.4803058
21
73.2748411
0
LINE
8
DEFAULT_255_2_778
10
43.4803058
20
73.2748411
11
43.4803058
21
82.2749411
0
LINE
8
DEFAULT_255_2_778
10
43.4803058
20
82.2749411
11
40.4802058
21
82.2749411
0
LINE
8
DEFAULT_255_2_778
10
40.4802058
20
86.2749411
11
43.4803058
21
86.2749411
0
LINE
8
DEFAULT_255_2_778
10
43.4803058
20
86.2749411
11
43.4803058
21
95.2749411
0
LINE
8
DEFAULT_255_2_778
10
43.4803058
20
95.2749411
11
40.4802058
21
95.2749411
0
LINE
8
DEFAULT_255_2_778
10
40.4802058
20
99.2749411
11
43.4803058
21
99.2749411
0
LINE
8
DEFAULT_255_2_778
10
43.4803058
20
99.2749411
11
43.4803058
21
108.2747411
0
LINE
8
DEFAULT_255_2_778
10
43.4803058
20
108.2747411
11
40.4802058
21
108.2747411
0
LINE
8
DEFAULT_255_2_778
10
40.4802058
20
112.2747411
11
43.4803058
21
112.2747411
0
LINE
8
DEFAULT_255_2_778
10
43.4803058
20
112.2747411
11
43.4803058
21
114.3247411
0
LINE
8
DEFAULT_255_2_778
10
43.1803058
20
114.6247411
11
36.9803058
21
114.6247411
0
LINE
8
DEFAULT_255_2_778
10
36.9803058
20
114.6247411
11
36.9803058
21
105.1246411
0
LINE
8
DEFAULT_255_2_778
10
36.9803058
20
105.1246411
11
26.6804058
21
105.1246411
0
LINE
8
DEFAULT_255_2_778
10
26.6804058
20
105.1246411
11
26.6804058
21
114.6247411
0
LINE
8
DEFAULT_255_2_778
10
26.6804058
20
114.6247411
11
17.4305058
21
114.6247411
0
LINE
8
DEFAULT_255_2_778
10
17.4305058
20
114.6247411
11
17.4305058
21
105.1246411
0
LINE
8
DEFAULT_255_2_778
10
17.4305058
20
105.1246411
11
14.0306058
21
105.1246411
0
LINE
8
DEFAULT_255_2_778
10
14.0306058
20
105.1246411
11
14.0306058
21
114.6247411
0
LINE
8
DEFAULT_255_2_778
10
14.0306058
20
114.6247411
11
6.2805058
21
114.6247411
0
LINE
8
DEFAULT_255_2_778
10
5.9804058
20
114.3247411
11
5.9804058
21
112.2747411
0
LINE
8
DEFAULT_255_2_778
10
5.9804058
20
112.2747411
11
8.9805058
21
112.2747411
0
LINE
8
DEFAULT_255_2_778
10
8.9805058
20
108.2747411
11
5.9804058
21
108.2747411
0
LINE
8
DEFAULT_255_2_778
10
5.9804058
20
108.2747411
11
5.9804058
21
99.2746411
0
LINE
8
DEFAULT_255_2_778
10
5.9804058
20
99.2746411
11
8.9805058
21
99.2746411
0
LINE
8
DEFAULT_255_2_778
10
8.9805058
20
95.2747411
11
5.9804058
21
95.2747411
0
LINE
8
DEFAULT_255_2_778
10
5.9804058
20
95.2747411
11
5.9804058
21
86.2746411
0
LINE
8
DEFAULT_255_2_778
10
5.9804058
20
86.2746411
11
8.9805058
21
86.2746411
0
LINE
8
DEFAULT_255_2_778
10
8.9805058
20
82.2746411
11
5.9804058
21
82.2746411
0
LINE
8
DEFAULT_255_2_778
10
5.9804058
20
82.2746411
11
5.9804058
21
73.2746411
0
LINE
8
DEFAULT_255_2_778
10
5.9804058
20
73.2746411
11
8.9805058
21
73.2746411
0
LINE
8
DEFAULT_255_2_778
10
8.9805058
20
69.2746411
11
5.9804058
21
69.2746411
0
LINE
8
DEFAULT_255_2_778
10
5.9804058
20
69.2746411
11
5.9804058
21
60.2745411
0
LINE
8
DEFAULT_255_2_778
10
5.9804058
20
60.2745411
11
8.9805058
21
60.2745411
0
LINE
8
DEFAULT_255_2_778
10
8.9805058
20
56.2746411
11
5.9804058
21
56.2746411
0
LINE
8
DEFAULT_255_2_778
10
5.9804058
20
56.2746411
11
5.9804058
21
47.2745411
0
LINE
8
DEFAULT_255_2_778
10
5.9804058
20
47.2745411
11
8.9805058
21
47.2745411
0
LINE
8
DEFAULT_255_2_778
10
8.9805058
20
43.2745411
11
5.9804058
21
43.2745411
0
LINE
8
DEFAULT_255_2_778
10
5.9804058
20
43.2745411
11
5.9804058
21
34.2745411
0
LINE
8
DEFAULT_255_2_778
10
5.9804058
20
34.2745411
11
8.9805058
21
34.2745411
0
LINE
8
DEFAULT_255_2_778
10
8.9805058
20
30.2745411
11
5.9804058
21
30.2745411
0
LINE
8
DEFAULT_255_2_778
10
5.9804058
20
30.2745411
11
5.9804058
21
23.1244411
0
LINE
8
DEFAULT_255_2_778
10
5.9804058
20
23.1244411
11
18.4304058
21
23.1244411
0
LINE
8
DEFAULT_255_2_778
10
18.4304058
20
23.1244411
11
18.4304058
21
13.6243411
0
LINE
8
DEFAULT_255_2_778
10
18.4304058
20
13.6243411
11
34.0305058
21
13.6243411
0
LINE
8
DEFAULT_255_2_778
10
34.0305058
20
13.6243411
11
34.0305058
21
23.1244411
0
LINE
8
DEFAULT_255_2_778
10
34.0305058
20
23.1244411
11
37.4304058
21
23.1244411
0
LINE
8
DEFAULT_255_2_778
10
37.4304058
20
23.1244411
11
37.4304058
21
13.6243411
0
LINE
8
DEFAULT_255_2_778
10
37.4304058
20
13.6243411
11
43.1803058
21
13.6243411
0
LINE
8
DEFAULT_255_2_778
10
43.4803058
20
13.9243411
11
43.4803058
21
17.2742411
0
LINE
8
DEFAULT_255_2_778
10
43.4803058
20
17.2742411
11
40.4802058
21
17.2742411
0
LINE
8
DEFAULT_255_2_778
10
40.4802058
20
21.2742411
11
43.4803058
21
21.2742411
0
LINE
8
DEFAULT_255_2_778
10
43.4803058
20
21.2742411
11
43.4803058
21
30.2742411
0
LINE
8
DEFAULT_255_2_778
10
43.4803058
20
30.2742411
11
40.4802058
21
30.2742411
0
LINE
8
DEFAULT_255_2_778
10
40.4802058
20
34.2742411
11
43.4803058
21
34.2742411
0
LINE
8
DEFAULT_255_2_778
10
36.9306058
20
115.7749411
11
4.7305058
21
115.7749411
0
LINE
8
DEFAULT_255_2_778
10
4.7305058
20
115.7749411
11
3.2306058
21
117.2748411
0
LINE
8
DEFAULT_255_2_778
10
3.2306058
20
117.2748411
11
3.2306058
21
10.9747411
0
LINE
8
DEFAULT_255_2_778
10
3.2306058
20
10.9747411
11
4.7305058
21
12.4746411
0
LINE
8
DEFAULT_255_2_778
10
4.7305058
20
12.4746411
11
4.7305058
21
115.7749411
0
LINE
8
DEFAULT_255_2_778
10
38.0839058
20
114.9745411
11
6.0804058
21
114.9745411
0
LINE
8
DEFAULT_255_2_778
10
5.5804058
20
114.4744411
11
5.5804058
21
13.7745411
0
LINE
8
DEFAULT_255_2_778
10
6.0804058
20
13.2745411
11
43.3803058
21
13.2745411
0
LINE
8
DEFAULT_255_2_778
10
43.8804058
20
13.7745411
11
43.8804058
21
125.9745411
0
LINE
8
DEFAULT_255_2_778
10
43.3803058
20
126.4746411
11
38.2302058
21
126.4746411
0
LINE
8
DEFAULT_255_2_778
10
37.7301058
20
125.9745411
11
37.7301058
21
115.4745411
0
ARC
8
DEFAULT_255_2_778
10
29.7458429
20
17.7782298
40
3.0152539
50
162.1238259
51
180.0698758
0
ARC
8
DEFAULT_255_2_778
10
29.7246017
20
17.7805006
40
2.9943443
50
105.6411039
51
162.0404171
0
ARC
8
DEFAULT_255_2_778
10
29.7276763
20
17.7528703
40
3.0217837
50
89.9428337
51
105.5559944
0
ARC
8
DEFAULT_255_2_778
10
29.7343685
20
17.7594009
40
3.0152539
50
72.1238259
51
90.0698758
0
ARC
8
DEFAULT_255_2_778
10
29.7366393
20
17.7806421
40
2.9943443
50
15.6411039
51
72.0404171
0
ARC
8
DEFAULT_255_2_778
10
29.709009
20
17.7775675
40
3.0217837
50
359.9428337
51
15.5559944
0
ARC
8
DEFAULT_255_2_778
10
29.7155396
20
17.7708752
40
3.0152539
50
342.1238259
51
0.0698758
0
ARC
8
DEFAULT_255_2_778
10
29.7367808
20
17.7686044
40
2.9943443
50
285.6411039
51
342.0404171
0
ARC
8
DEFAULT_255_2_778
10
29.7337062
20
17.7962347
40
3.0217837
50
269.9428337
51
285.5559944
0
ARC
8
DEFAULT_255_2_778
10
29.7270139
20
17.7897042
40
3.0152539
50
252.1238259
51
270.0698758
0
ARC
8
DEFAULT_255_2_778
10
29.7247431
20
17.768463
40
2.9943443
50
195.6411039
51
252.0404171
0
ARC
8
DEFAULT_255_2_778
10
29.7523734
20
17.7715376
40
3.0217837
50
179.9428337
51
195.5559944
0
LINE
8
DEFAULT_255_2_778
10
4.7304912
20
12.4746525
11
44.7304912
21
12.4746525
0
LINE
8
DEFAULT_255_2_778
10
44.7304912
20
12.4746525
11
44.7304912
21
127.2747525
0
LINE
8
DEFAULT_255_2_778
10
44.7304912
20
127.2747525
11
46.2303912
21
128.7746525
0
LINE
8
DEFAULT_255_2_778
10
46.2303912
20
128.7746525
11
46.2303912
21
10.9747525
0
LINE
8
DEFAULT_255_2_778
10
46.2303912
20
10.9747525
11
3.2305912
21
10.9747525
0
LINE
8
DEFAULT_255_2_778
10
26.7305912
20
17.7745525
11
26.7305912
21
17.7745525
0
ARC
8
DEFAULT_255_2_778
10
29.7282087
20
17.7776908
40
1.4546078
50
150.8829018
51
180.1219096
0
ARC
8
DEFAULT_255_2_778
10
29.7268108
20
17.7779946
40
1.4532388
50
98.0924387
51
150.8665486
0
ARC
8
DEFAULT_255_2_778
10
29.7299076
20
17.7505125
40
1.4808834
50
89.9807845
51
98.0613801
0
ARC
8
DEFAULT_255_2_778
10
29.7334992
20
17.7767913
40
1.4546078
50
60.8829018
51
90.1219096
0
ARC
8
DEFAULT_255_2_778
10
29.7338031
20
17.7781892
40
1.4532388
50
8.0924387
51
60.8665486
0
ARC
8
DEFAULT_255_2_778
10
29.7063209
20
17.7750924
40
1.4808834
50
359.9807845
51
8.0613801
0
ARC
8
DEFAULT_255_2_778
10
29.7325997
20
17.7715008
40
1.4546078
50
330.8829018
51
0.1219096
0
ARC
8
DEFAULT_255_2_778
10
29.7339976
20
17.7711969
40
1.4532388
50
278.0924387
51
330.8665486
0
ARC
8
DEFAULT_255_2_778
10
29.7309009
20
17.7986791
40
1.4808834
50
269.9807845
51
278.0613801
0
ARC
8
DEFAULT_255_2_778
10
29.7273092
20
17.7724003
40
1.4546078
50
240.8829018
51
270.1219096
0
ARC
8
DEFAULT_255_2_778
10
29.7270054
20
17.7710024
40
1.4532388
50
188.0924387
51
240.8665486
0
ARC
8
DEFAULT_255_2_778
10
29.7544875
20
17.7740991
40
1.4808834
50
179.9807845
51
188.0613801
0
LINE
8
DEFAULT_255_2_778
10
28.2736042
20
17.7745958
11
28.2736042
21
17.7745958
0
ARC
8
DEFAULT_255_2_778
10
30.2895736
20
16.8061323
40
0.1992582
50
95.8139161
51
144.1377801
0
ARC
8
DEFAULT_255_2_778
10
30.6480642
20
17.2444637
40
0.1995568
50
275.9034687
51
330.0596382
0
ARC
8
DEFAULT_255_2_778
10
30.6473897
20
17.2449614
40
0.2003896
50
330.032581
51
0.0149119
0
ARC
8
DEFAULT_255_2_778
10
30.6457413
20
17.2450017
40
0.202038
50
0.0033696
51
0.9774608
0
ARC
8
DEFAULT_255_2_778
10
30.6466037
20
17.2449948
40
0.2011759
50
0.9836064
51
23.8581812
0
ARC
8
DEFAULT_255_2_778
10
30.84785
20
17.7746296
40
0.1983109
50
180.169382
51
204.2862063
0
ARC
8
DEFAULT_255_2_778
10
30.845218
20
17.7746028
40
0.1956789
50
180.0000002
51
180.163819
0
ARC
8
DEFAULT_255_2_778
10
30.8473325
20
17.774613
40
0.1977934
50
155.6817098
51
180.0029548
0
ARC
8
DEFAULT_255_2_778
10
30.6493578
20
18.3039328
40
0.1985774
50
335.8739659
51
359.236194
0
ARC
8
DEFAULT_255_2_778
10
30.6485257
20
18.3039946
40
0.1994101
50
359.2216531
51
359.99994
0
ARC
8
DEFAULT_255_2_778
10
30.6476856
20
18.3039358
40
0.2002502
50
0.0167482
51
30.0675609
0
ARC
8
DEFAULT_255_2_778
10
30.6480896
20
18.3049066
40
0.1994152
50
29.8843274
51
84.0996584
0
ARC
8
DEFAULT_255_2_778
10
30.2897589
20
18.7433202
40
0.199597
50
215.9059233
51
264.1425129
0
ARC
8
DEFAULT_255_2_778
10
29.7304355
20
18.8336942
40
0.2000711
50
35.9547978
51
90.0132836
0
ARC
8
DEFAULT_255_2_778
10
29.7304191
20
18.8337407
40
0.2000247
50
90.0085759
51
144.0519869
0
ARC
8
DEFAULT_255_2_778
10
29.171012
20
18.7435063
40
0.1997931
50
275.8826698
51
324.0689071
0
ARC
8
DEFAULT_255_2_778
10
28.8127899
20
18.3047509
40
0.1995804
50
95.9246347
51
150.091401
0
ARC
8
DEFAULT_255_2_778
10
28.8138412
20
18.3042313
40
0.2007509
50
150.112454
51
180.0144707
0
ARC
8
DEFAULT_255_2_778
10
28.8144134
20
18.3041808
40
0.2013232
50
180.0000781
51
180.9957045
0
ARC
8
DEFAULT_255_2_778
10
28.8144106
20
18.3041854
40
0.2013205
50
180.9970197
51
203.8554263
0
ARC
8
DEFAULT_255_2_778
10
28.6127493
20
17.7746238
40
0.1985148
50
359.9939529
51
24.2208047
0
ARC
8
DEFAULT_255_2_778
10
28.6155852
20
17.7746028
40
0.1956789
50
359.836181
51
359.9999998
0
ARC
8
DEFAULT_255_2_778
10
28.612233
20
17.7746176
40
0.1990312
50
335.8111094
51
359.8346927
0
ARC
8
DEFAULT_255_2_778
10
28.8115583
20
17.2451685
40
0.1986239
50
155.8707131
51
179.2932913
0
ARC
8
DEFAULT_255_2_778
10
28.8152037
20
17.2450901
40
0.2022699
50
179.28382
51
179.9954251
0
ARC
8
DEFAULT_255_2_778
10
28.8138658
20
17.2452198
40
0.2009321
50
180.0323814
51
209.963267
0
ARC
8
DEFAULT_255_2_778
10
28.8128153
20
17.2446197
40
0.1997223
50
209.9646322
51
264.0722395
0
ARC
8
DEFAULT_255_2_778
10
29.1711977
20
16.8059468
40
0.1994534
50
35.8874045
51
84.1609124
0
ARC
8
DEFAULT_255_2_778
10
29.7304378
20
16.715669
40
0.2002037
50
216.0095214
51
269.9860791
0
ARC
8
DEFAULT_255_2_778
10
29.7304168
20
16.7157157
40
0.2002504
50
269.9920824
51
323.9836603
0
ARC
8
DEFAULT_255_2_778
10
14.4302696
20
114.4745847
40
0.9996288
50
246.1006739
51
268.6553485
0
ARC
8
DEFAULT_255_2_778
10
14.4303561
20
114.4756939
40
1.0007397
50
268.6518866
51
270.0003472
0
ARC
8
DEFAULT_255_2_778
10
14.430514
20
114.4751183
40
1.0001642
50
269.991304
51
303.0373506
0
ARC
8
DEFAULT_255_2_778
10
14.4301631
20
114.4750832
40
1.0003261
50
303.055296
51
359.9817934
0
ARC
8
DEFAULT_255_2_778
10
18.0307101
20
114.4749008
40
1.000321
50
180.007761
51
232.5025869
0
LINE
8
DEFAULT_255_2_778
10
30.2693891
20
17.0043653
11
30.6685891
21
17.0459653
0
LINE
8
DEFAULT_255_2_778
10
30.8305891
20
17.3263653
11
30.6670891
21
17.6930653
0
LINE
8
DEFAULT_255_2_778
10
30.6670891
20
17.8560653
11
30.8305891
21
18.2227653
0
LINE
8
DEFAULT_255_2_778
10
30.6685891
20
18.5032653
11
30.2693891
21
18.5447653
0
LINE
8
DEFAULT_255_2_778
10
30.1280891
20
18.6262653
11
29.8923891
21
18.9511653
0
LINE
8
DEFAULT_255_2_778
10
29.5684891
20
18.9511653
11
29.3327891
21
18.6262653
0
LINE
8
DEFAULT_255_2_778
10
29.1914891
20
18.5447653
11
28.7921891
21
18.5032653
0
LINE
8
DEFAULT_255_2_778
10
28.6302891
20
18.2227653
11
28.7937891
21
17.8560653
0
LINE
8
DEFAULT_255_2_778
10
28.7937891
20
17.6930653
11
28.6302891
21
17.3263653
0
LINE
8
DEFAULT_255_2_778
10
28.7921891
20
17.0459653
11
29.1914891
21
17.0043653
0
LINE
8
DEFAULT_255_2_778
10
29.3327891
20
16.9228653
11
29.5684891
21
16.5979653
0
LINE
8
DEFAULT_255_2_778
10
29.8923891
20
16.5979653
11
30.1280891
21
16.9228653
0
LINE
8
DEFAULT_255_2_778
10
15.4304891
20
114.4747653
11
17.0303891
21
114.4747653
0
LINE
8
DEFAULT_255_2_778
10
29.4933095
20
4.109625
11
29.5222095
21
4.063825
0
LINE
8
DEFAULT_255_2_778
10
29.5222095
20
4.063825
11
29.5439095
21
4.014325
0
LINE
8
DEFAULT_255_2_778
10
29.5439095
20
4.014325
11
29.5547095
21
3.978125
0
LINE
8
DEFAULT_255_2_778
10
29.5547095
20
3.978125
11
29.5624095
21
3.939525
0
LINE
8
DEFAULT_255_2_778
10
29.5624095
20
3.939525
11
29.5611095
21
3.771225
0
LINE
8
DEFAULT_255_2_778
10
29.5611095
20
3.771225
11
29.5523095
21
3.726525
0
LINE
8
DEFAULT_255_2_778
10
29.5523095
20
3.726525
11
29.5402095
21
3.681825
0
LINE
8
DEFAULT_255_2_778
10
29.5402095
20
3.681825
11
29.5153095
21
3.615125
0
LINE
8
DEFAULT_255_2_778
10
29.5153095
20
3.615125
11
29.4706095
21
3.527225
0
LINE
8
DEFAULT_255_2_778
10
29.4706095
20
3.527225
11
29.3920095
21
3.409025
0
LINE
8
DEFAULT_255_2_778
10
29.3920095
20
3.409025
11
29.2605095
21
3.247325
0
LINE
8
DEFAULT_255_2_778
10
29.2605095
20
3.247325
11
29.0255095
21
2.998325
0
LINE
8
DEFAULT_255_2_778
10
29.0255095
20
2.998325
11
28.8443095
21
2.825625
0
LINE
8
DEFAULT_255_2_778
10
28.8443095
20
2.825625
11
28.7448095
21
2.736725
0
LINE
8
DEFAULT_255_2_778
10
28.7448095
20
2.736725
11
29.5822095
21
2.736725
0
LINE
8
DEFAULT_255_2_778
10
29.5822095
20
2.736725
11
29.5822095
21
2.574825
0
LINE
8
DEFAULT_255_2_778
10
29.5822095
20
2.574825
11
28.5086095
21
2.574825
0
LINE
8
DEFAULT_255_2_778
10
28.5086095
20
2.574825
11
28.5086095
21
2.746225
0
LINE
8
DEFAULT_255_2_778
10
28.5086095
20
2.746225
11
28.8721095
21
3.085125
0
LINE
8
DEFAULT_255_2_778
10
28.8721095
20
3.085125
11
29.0771095
21
3.298125
0
LINE
8
DEFAULT_255_2_778
10
29.0771095
20
3.298125
11
29.2002095
21
3.447925
0
LINE
8
DEFAULT_255_2_778
10
29.2002095
20
3.447925
11
29.2790095
21
3.563225
0
LINE
8
DEFAULT_255_2_778
10
29.2790095
20
3.563225
11
29.3152095
21
3.630425
0
LINE
8
DEFAULT_255_2_778
10
29.3152095
20
3.630425
11
29.3407095
21
3.692925
0
LINE
8
DEFAULT_255_2_778
10
29.3407095
20
3.692925
11
29.3528095
21
3.732325
0
LINE
8
DEFAULT_255_2_778
10
29.3528095
20
3.732325
11
29.3618095
21
3.772525
0
LINE
8
DEFAULT_255_2_778
10
29.3618095
20
3.772525
11
29.3624095
21
3.913525
0
LINE
8
DEFAULT_255_2_778
10
29.3624095
20
3.913525
11
29.3505095
21
3.953225
0
LINE
8
DEFAULT_255_2_778
10
29.3505095
20
3.953225
11
29.3269095
21
3.997925
0
LINE
8
DEFAULT_255_2_778
10
29.3269095
20
3.997925
11
29.2743095
21
4.055625
0
LINE
8
DEFAULT_255_2_778
10
29.2743095
20
4.055625
11
29.1975095
21
4.103525
0
LINE
8
DEFAULT_255_2_778
10
29.1975095
20
4.103525
11
29.0859095
21
4.136125
0
LINE
8
DEFAULT_255_2_778
10
29.0859095
20
4.136125
11
28.9369095
21
4.138425
0
LINE
8
DEFAULT_255_2_778
10
28.9369095
20
4.138425
11
28.7626095
21
4.094825
0
LINE
8
DEFAULT_255_2_778
10
28.7626095
20
4.094825
11
28.6072095
21
4.016225
0
LINE
8
DEFAULT_255_2_778
10
28.6072095
20
4.016225
11
28.5580095
21
4.184225
0
LINE
8
DEFAULT_255_2_778
10
28.5580095
20
4.184225
11
28.7454095
21
4.257825
0
LINE
8
DEFAULT_255_2_778
10
28.7454095
20
4.257825
11
28.9324095
21
4.294825
0
LINE
8
DEFAULT_255_2_778
10
28.9324095
20
4.294825
11
29.1121095
21
4.295625
0
LINE
8
DEFAULT_255_2_778
10
29.1121095
20
4.295625
11
29.2695095
21
4.263325
0
LINE
8
DEFAULT_255_2_778
10
29.2695095
20
4.263325
11
29.3835095
21
4.209625
0
LINE
8
DEFAULT_255_2_778
10
29.3835095
20
4.209625
11
29.4573095
21
4.151925
0
LINE
8
DEFAULT_255_2_778
10
29.4573095
20
4.151925
11
29.4936095
21
4.110425
0
LINE
8
DEFAULT_255_2_778
10
29.8653095
20
3.336525
11
30.4328095
21
3.336525
0
LINE
8
DEFAULT_255_2_778
10
30.4328095
20
3.336525
11
30.4328095
21
3.186525
0
LINE
8
DEFAULT_255_2_778
10
30.4328095
20
3.186525
11
29.8653095
21
3.186525
0
LINE
8
DEFAULT_255_2_778
10
29.8653095
20
3.186525
11
29.8653095
21
3.336525
0
LINE
8
DEFAULT_255_2_778
10
37.4837095
20
3.336525
11
38.0513095
21
3.336525
0
LINE
8
DEFAULT_255_2_778
10
38.0513095
20
3.336525
11
38.0513095
21
3.186525
0
LINE
8
DEFAULT_255_2_778
10
38.0513095
20
3.186525
11
37.4837095
21
3.186525
0
LINE
8
DEFAULT_255_2_778
10
37.4837095
20
3.186525
11
37.4837095
21
3.336525
0
LINE
8
DEFAULT_255_2_778
10
33.5187095
20
4.274725
11
34.4209095
21
4.274725
0
LINE
8
DEFAULT_255_2_778
10
34.4209095
20
4.274725
11
34.4209095
21
4.112825
0
LINE
8
DEFAULT_255_2_778
10
34.4209095
20
4.112825
11
33.7156095
21
4.112825
0
LINE
8
DEFAULT_255_2_778
10
33.7156095
20
4.112825
11
33.7156095
21
3.517725
0
LINE
8
DEFAULT_255_2_778
10
33.7156095
20
3.517725
11
34.3863095
21
3.517725
0
LINE
8
DEFAULT_255_2_778
10
34.3863095
20
3.517725
11
34.3863095
21
3.355825
0
LINE
8
DEFAULT_255_2_778
10
34.3863095
20
3.355825
11
33.7156095
21
3.355825
0
LINE
8
DEFAULT_255_2_778
10
33.7156095
20
3.355825
11
33.7156095
21
2.574825
0
LINE
8
DEFAULT_255_2_778
10
33.7156095
20
2.574825
11
33.5187095
21
2.574825
0
LINE
8
DEFAULT_255_2_778
10
33.5187095
20
2.574825
11
33.5187095
21
4.274725
0
LINE
8
DEFAULT_255_2_778
10
26.2292095
20
4.274725
11
26.3996095
21
4.274725
0
LINE
8
DEFAULT_255_2_778
10
26.3996095
20
4.274725
11
26.3996095
21
2.574825
0
LINE
8
DEFAULT_255_2_778
10
26.3996095
20
2.574825
11
26.2101095
21
2.574825
0
LINE
8
DEFAULT_255_2_778
10
26.2101095
20
2.574825
11
26.2101095
21
4.061225
0
LINE
8
DEFAULT_255_2_778
10
26.2101095
20
4.061225
11
25.8635095
21
3.840525
0
LINE
8
DEFAULT_255_2_778
10
25.8635095
20
3.840525
11
25.7807095
21
3.990525
0
LINE
8
DEFAULT_255_2_778
10
25.7807095
20
3.990525
11
26.2294095
21
4.275025
0
LINE
8
DEFAULT_255_2_778
10
43.9094031
20
3.6538083
11
43.9057031
21
3.6863083
0
LINE
8
DEFAULT_255_2_778
10
43.9057031
20
3.6863083
11
43.9012031
21
3.7186083
0
LINE
8
DEFAULT_255_2_778
10
43.9012031
20
3.7186083
11
43.8899031
21
3.7832083
0
LINE
8
DEFAULT_255_2_778
10
43.8899031
20
3.7832083
11
43.8745031
21
3.8472083
0
LINE
8
DEFAULT_255_2_778
10
43.8745031
20
3.8472083
11
43.8480031
21
3.9305083
0
LINE
8
DEFAULT_255_2_778
10
43.8480031
20
3.9305083
11
43.8150031
21
4.0083083
0
LINE
8
DEFAULT_255_2_778
10
43.8150031
20
4.0083083
11
43.7737031
21
4.0813083
0
LINE
8
DEFAULT_255_2_778
10
43.7737031
20
4.0813083
11
43.7234031
21
4.1470083
0
LINE
8
DEFAULT_255_2_778
10
43.7234031
20
4.1470083
11
43.6475031
21
4.2131083
0
LINE
8
DEFAULT_255_2_778
10
43.6475031
20
4.2131083
11
43.5414031
21
4.2655083
0
LINE
8
DEFAULT_255_2_778
10
43.5414031
20
4.2655083
11
43.3636031
21
4.2983083
0
LINE
8
DEFAULT_255_2_778
10
43.3636031
20
4.2983083
11
43.2057031
21
4.2866083
0
LINE
8
DEFAULT_255_2_778
10
43.2057031
20
4.2866083
11
43.0821031
21
4.2451083
0
LINE
8
DEFAULT_255_2_778
10
43.0821031
20
4.2451083
11
42.9942031
21
4.1906083
0
LINE
8
DEFAULT_255_2_778
10
42.9942031
20
4.1906083
11
42.9244031
21
4.1221083
0
LINE
8
DEFAULT_255_2_778
10
42.9244031
20
4.1221083
11
42.8694031
21
4.0424083
0
LINE
8
DEFAULT_255_2_778
10
42.8694031
20
4.0424083
11
42.8389031
21
3.9813083
0
LINE
8
DEFAULT_255_2_778
10
42.8389031
20
3.9813083
11
42.8130031
21
3.9128083
0
LINE
8
DEFAULT_255_2_778
10
42.8130031
20
3.9128083
11
42.7990031
21
3.8660083
0
LINE
8
DEFAULT_255_2_778
10
42.7990031
20
3.8660083
11
42.7831031
21
3.8001083
0
LINE
8
DEFAULT_255_2_778
10
42.7831031
20
3.8001083
11
42.7709031
21
3.7334083
0
LINE
8
DEFAULT_255_2_778
10
42.7709031
20
3.7334083
11
42.7683031
21
3.1339083
0
LINE
8
DEFAULT_255_2_778
10
42.7683031
20
3.1339083
11
42.7741031
21
3.0968083
0
LINE
8
DEFAULT_255_2_778
10
42.7741031
20
3.0968083
11
42.7810031
21
3.0600083
0
LINE
8
DEFAULT_255_2_778
10
42.7810031
20
3.0600083
11
42.7953031
21
2.9979083
0
LINE
8
DEFAULT_255_2_778
10
42.7953031
20
2.9979083
11
42.8098031
21
2.9470083
0
LINE
8
DEFAULT_255_2_778
10
42.8098031
20
2.9470083
11
42.8376031
21
2.8725083
0
LINE
8
DEFAULT_255_2_778
10
42.8376031
20
2.8725083
11
42.8768031
21
2.7957083
0
LINE
8
DEFAULT_255_2_778
10
42.8768031
20
2.7957083
11
42.9263031
21
2.7256083
0
LINE
8
DEFAULT_255_2_778
10
42.9263031
20
2.7256083
11
43.0001031
21
2.6547083
0
LINE
8
DEFAULT_255_2_778
10
43.0001031
20
2.6547083
11
43.1027031
21
2.5944083
0
LINE
8
DEFAULT_255_2_778
10
43.1027031
20
2.5944083
11
43.2480031
21
2.5563083
0
LINE
8
DEFAULT_255_2_778
10
43.2480031
20
2.5563083
11
43.4253031
21
2.5565083
0
LINE
8
DEFAULT_255_2_778
10
43.4253031
20
2.5565083
11
43.5533031
21
2.5886083
0
LINE
8
DEFAULT_255_2_778
10
43.5533031
20
2.5886083
11
43.6604031
21
2.6473083
0
LINE
8
DEFAULT_255_2_778
10
43.6604031
20
2.6473083
11
43.7364031
21
2.7172083
0
LINE
8
DEFAULT_255_2_778
10
43.7364031
20
2.7172083
11
43.7862031
21
2.7844083
0
LINE
8
DEFAULT_255_2_778
10
43.7862031
20
2.7844083
11
43.8205031
21
2.8468083
0
LINE
8
DEFAULT_255_2_778
10
43.8205031
20
2.8468083
11
43.8489031
21
2.9148083
0
LINE
8
DEFAULT_255_2_778
10
43.8489031
20
2.9148083
11
43.8708031
21
2.9849083
0
LINE
8
DEFAULT_255_2_778
10
43.8708031
20
2.9849083
11
43.8867031
21
3.0511083
0
LINE
8
DEFAULT_255_2_778
10
43.8867031
20
3.0511083
11
43.8988031
21
3.1180083
0
LINE
8
DEFAULT_255_2_778
10
43.8988031
20
3.1180083
11
43.9036031
21
3.1516083
0
LINE
8
DEFAULT_255_2_778
10
43.9036031
20
3.1516083
11
43.9076031
21
3.1852083
0
LINE
8
DEFAULT_255_2_778
10
43.9076031
20
3.1852083
11
43.9121031
21
3.2331083
0
LINE
8
DEFAULT_255_2_778
10
43.9121031
20
3.2331083
11
43.9094031
21
3.6538083
0
LINE
8
DEFAULT_255_2_778
10
43.7041031
20
3.7011083
11
43.7105031
21
3.6432083
0
LINE
8
DEFAULT_255_2_778
10
43.7105031
20
3.6432083
11
43.7097031
21
3.1992083
0
LINE
8
DEFAULT_255_2_778
10
43.7097031
20
3.1992083
11
43.7036031
21
3.1450083
0
LINE
8
DEFAULT_255_2_778
10
43.7036031
20
3.1450083
11
43.6951031
21
3.0910083
0
LINE
8
DEFAULT_255_2_778
10
43.6951031
20
3.0910083
11
43.6851031
21
3.0431083
0
LINE
8
DEFAULT_255_2_778
10
43.6851031
20
3.0431083
11
43.6676031
21
2.9804083
0
LINE
8
DEFAULT_255_2_778
10
43.6676031
20
2.9804083
11
43.6390031
21
2.9095083
0
LINE
8
DEFAULT_255_2_778
10
43.6390031
20
2.9095083
11
43.5962031
21
2.8391083
0
LINE
8
DEFAULT_255_2_778
10
43.5962031
20
2.8391083
11
43.5261031
21
2.7703083
0
LINE
8
DEFAULT_255_2_778
10
43.5261031
20
2.7703083
11
43.4406031
21
2.7277083
0
LINE
8
DEFAULT_255_2_778
10
43.4406031
20
2.7277083
11
43.2919031
21
2.7150083
0
LINE
8
DEFAULT_255_2_778
10
43.2919031
20
2.7150083
11
43.1728031
21
2.7510083
0
LINE
8
DEFAULT_255_2_778
10
43.1728031
20
2.7510083
11
43.0977031
21
2.8084083
0
LINE
8
DEFAULT_255_2_778
10
43.0977031
20
2.8084083
11
43.0453031
21
2.8785083
0
LINE
8
DEFAULT_255_2_778
10
43.0453031
20
2.8785083
11
43.0152031
21
2.9405083
0
LINE
8
DEFAULT_255_2_778
10
43.0152031
20
2.9405083
11
42.9956031
21
2.9966083
0
LINE
8
DEFAULT_255_2_778
10
42.9956031
20
2.9966083
11
42.9852031
21
3.0347083
0
LINE
8
DEFAULT_255_2_778
10
42.9852031
20
3.0347083
11
42.9731031
21
3.0918083
0
LINE
8
DEFAULT_255_2_778
10
42.9731031
20
3.0918083
11
42.9641031
21
3.1495083
0
LINE
8
DEFAULT_255_2_778
10
42.9641031
20
3.1495083
11
42.9577031
21
3.2077083
0
LINE
8
DEFAULT_255_2_778
10
42.9577031
20
3.2077083
11
42.9583031
21
3.6400083
0
LINE
8
DEFAULT_255_2_778
10
42.9583031
20
3.6400083
11
42.9622031
21
3.6757083
0
LINE
8
DEFAULT_255_2_778
10
42.9622031
20
3.6757083
11
42.9702031
21
3.7332083
0
LINE
8
DEFAULT_255_2_778
10
42.9702031
20
3.7332083
11
42.9823031
21
3.7974083
0
LINE
8
DEFAULT_255_2_778
10
42.9823031
20
3.7974083
11
42.9993031
21
3.8607083
0
LINE
8
DEFAULT_255_2_778
10
42.9993031
20
3.8607083
11
43.0284031
21
3.9358083
0
LINE
8
DEFAULT_255_2_778
10
43.0284031
20
3.9358083
11
43.0741031
21
4.0128083
0
LINE
8
DEFAULT_255_2_778
10
43.0741031
20
4.0128083
11
43.1451031
21
4.0808083
0
LINE
8
DEFAULT_255_2_778
10
43.1451031
20
4.0808083
11
43.2358031
21
4.1239083
0
LINE
8
DEFAULT_255_2_778
10
43.2358031
20
4.1239083
11
43.3869031
21
4.1329083
0
LINE
8
DEFAULT_255_2_778
10
43.3869031
20
4.1329083
11
43.5057031
21
4.0919083
0
LINE
8
DEFAULT_255_2_778
10
43.5057031
20
4.0919083
11
43.5803031
21
4.0303083
0
LINE
8
DEFAULT_255_2_778
10
43.5803031
20
4.0303083
11
43.6306031
21
3.9578083
0
LINE
8
DEFAULT_255_2_778
10
43.6306031
20
3.9578083
11
43.6607031
21
3.8908083
0
LINE
8
DEFAULT_255_2_778
10
43.6607031
20
3.8908083
11
43.6784031
21
3.8348083
0
LINE
8
DEFAULT_255_2_778
10
43.6784031
20
3.8348083
11
43.6898031
21
3.7874083
0
LINE
8
DEFAULT_255_2_778
10
43.6898031
20
3.7874083
11
43.7004031
21
3.7300083
0
LINE
8
DEFAULT_255_2_778
10
43.7004031
20
3.7300083
11
43.7041031
21
3.7011083
0
LINE
8
DEFAULT_255_2_778
10
41.884324
20
4.0275739
11
41.910524
21
3.9315739
0
LINE
8
DEFAULT_255_2_778
10
41.910524
20
3.9315739
11
42.113424
21
3.3314739
0
LINE
8
DEFAULT_255_2_778
10
42.113424
20
3.3314739
11
41.597524
21
3.3314739
0
LINE
8
DEFAULT_255_2_778
10
41.597524
20
3.3314739
11
41.794624
21
3.9050739
0
LINE
8
DEFAULT_255_2_778
10
41.794624
20
3.9050739
11
41.855724
21
4.0900739
0
LINE
8
DEFAULT_255_2_778
10
41.855724
20
4.0900739
11
41.857824
21
4.1064739
0
LINE
8
DEFAULT_255_2_778
10
41.857824
20
4.1064739
11
41.884324
21
4.0275739
0
LINE
8
DEFAULT_255_2_778
10
42.380724
20
2.5745739
11
42.171924
21
3.1695739
0
LINE
8
DEFAULT_255_2_778
10
42.171924
20
3.1695739
11
41.538524
21
3.1695739
0
LINE
8
DEFAULT_255_2_778
10
41.538524
20
3.1695739
11
41.329824
21
2.5745739
0
LINE
8
DEFAULT_255_2_778
10
41.329824
20
2.5745739
11
41.130524
21
2.5745739
0
LINE
8
DEFAULT_255_2_778
10
41.130524
20
2.5745739
11
41.735124
21
4.2744739
0
LINE
8
DEFAULT_255_2_778
10
41.735124
20
4.2744739
11
41.983524
21
4.2744739
0
LINE
8
DEFAULT_255_2_778
10
41.983524
20
4.2744739
11
42.592924
21
2.5745739
0
LINE
8
DEFAULT_255_2_778
10
42.592924
20
2.5745739
11
42.380724
21
2.5745739
0
LINE
8
DEFAULT_255_2_778
10
40.353424
20
4.0275739
11
40.379624
21
3.9315739
0
LINE
8
DEFAULT_255_2_778
10
40.379624
20
3.9315739
11
40.582524
21
3.3314739
0
LINE
8
DEFAULT_255_2_778
10
40.582524
20
3.3314739
11
40.066624
21
3.3314739
0
LINE
8
DEFAULT_255_2_778
10
40.066624
20
3.3314739
11
40.263724
21
3.9050739
0
LINE
8
DEFAULT_255_2_778
10
40.263724
20
3.9050739
11
40.324824
21
4.0900739
0
LINE
8
DEFAULT_255_2_778
10
40.324824
20
4.0900739
11
40.326924
21
4.1064739
0
LINE
8
DEFAULT_255_2_778
10
40.326924
20
4.1064739
11
40.353424
21
4.0275739
0
LINE
8
DEFAULT_255_2_778
10
40.849824
20
2.5745739
11
40.641024
21
3.1695739
0
LINE
8
DEFAULT_255_2_778
10
40.641024
20
3.1695739
11
40.007624
21
3.1695739
0
LINE
8
DEFAULT_255_2_778
10
40.007624
20
3.1695739
11
39.798824
21
2.5745739
0
LINE
8
DEFAULT_255_2_778
10
39.798824
20
2.5745739
11
39.599624
21
2.5745739
0
LINE
8
DEFAULT_255_2_778
10
39.599624
20
2.5745739
11
40.204224
21
4.2744739
0
LINE
8
DEFAULT_255_2_778
10
40.204224
20
4.2744739
11
40.452624
21
4.2744739
0
LINE
8
DEFAULT_255_2_778
10
40.452624
20
4.2744739
11
41.062024
21
2.5745739
0
LINE
8
DEFAULT_255_2_778
10
41.062024
20
2.5745739
11
40.849824
21
2.5745739
0
LINE
8
DEFAULT_255_2_778
10
39.4321031
20
3.6538083
11
39.4284031
21
3.6863083
0
LINE
8
DEFAULT_255_2_778
10
39.4284031
20
3.6863083
11
39.4239031
21
3.7186083
0
LINE
8
DEFAULT_255_2_778
10
39.4239031
20
3.7186083
11
39.4126031
21
3.7832083
0
LINE
8
DEFAULT_255_2_778
10
39.4126031
20
3.7832083
11
39.3972031
21
3.8472083
0
LINE
8
DEFAULT_255_2_778
10
39.3972031
20
3.8472083
11
39.3708031
21
3.9305083
0
LINE
8
DEFAULT_255_2_778
10
39.3708031
20
3.9305083
11
39.3377031
21
4.0083083
0
LINE
8
DEFAULT_255_2_778
10
39.3377031
20
4.0083083
11
39.2964031
21
4.0813083
0
LINE
8
DEFAULT_255_2_778
10
39.2964031
20
4.0813083
11
39.2461031
21
4.1470083
0
LINE
8
DEFAULT_255_2_778
10
39.2461031
20
4.1470083
11
39.1702031
21
4.2131083
0
LINE
8
DEFAULT_255_2_778
10
39.1702031
20
4.2131083
11
39.0641031
21
4.2655083
0
LINE
8
DEFAULT_255_2_778
10
39.0641031
20
4.2655083
11
38.8863031
21
4.2983083
0
LINE
8
DEFAULT_255_2_778
10
38.8863031
20
4.2983083
11
38.7284031
21
4.2866083
0
LINE
8
DEFAULT_255_2_778
10
38.7284031
20
4.2866083
11
38.6048031
21
4.2451083
0
LINE
8
DEFAULT_255_2_778
10
38.6048031
20
4.2451083
11
38.5170031
21
4.1906083
0
LINE
8
DEFAULT_255_2_778
10
38.5170031
20
4.1906083
11
38.4471031
21
4.1221083
0
LINE
8
DEFAULT_255_2_778
10
38.4471031
20
4.1221083
11
38.3921031
21
4.0424083
0
LINE
8
DEFAULT_255_2_778
10
38.3921031
20
4.0424083
11
38.3616031
21
3.9813083
0
LINE
8
DEFAULT_255_2_778
10
38.3616031
20
3.9813083
11
38.3357031
21
3.9128083
0
LINE
8
DEFAULT_255_2_778
10
38.3357031
20
3.9128083
11
38.3217031
21
3.8660083
0
LINE
8
DEFAULT_255_2_778
10
38.3217031
20
3.8660083
11
38.3058031
21
3.8001083
0
LINE
8
DEFAULT_255_2_778
10
38.3058031
20
3.8001083
11
38.2936031
21
3.7334083
0
LINE
8
DEFAULT_255_2_778
10
38.2936031
20
3.7334083
11
38.2910031
21
3.1339083
0
LINE
8
DEFAULT_255_2_778
10
38.2910031
20
3.1339083
11
38.2968031
21
3.0968083
0
LINE
8
DEFAULT_255_2_778
10
38.2968031
20
3.0968083
11
38.3037031
21
3.0600083
0
LINE
8
DEFAULT_255_2_778
10
38.3037031
20
3.0600083
11
38.3180031
21
2.9979083
0
LINE
8
DEFAULT_255_2_778
10
38.3180031
20
2.9979083
11
38.3325031
21
2.9470083
0
LINE
8
DEFAULT_255_2_778
10
38.3325031
20
2.9470083
11
38.3603031
21
2.8725083
0
LINE
8
DEFAULT_255_2_778
10
38.3603031
20
2.8725083
11
38.3995031
21
2.7957083
0
LINE
8
DEFAULT_255_2_778
10
38.3995031
20
2.7957083
11
38.4490031
21
2.7256083
0
LINE
8
DEFAULT_255_2_778
10
38.4490031
20
2.7256083
11
38.5228031
21
2.6547083
0
LINE
8
DEFAULT_255_2_778
10
38.5228031
20
2.6547083
11
38.6254031
21
2.5944083
0
LINE
8
DEFAULT_255_2_778
10
38.6254031
20
2.5944083
11
38.7707031
21
2.5563083
0
LINE
8
DEFAULT_255_2_778
10
38.7707031
20
2.5563083
11
38.9480031
21
2.5565083
0
LINE
8
DEFAULT_255_2_778
10
38.9480031
20
2.5565083
11
39.0760031
21
2.5886083
0
LINE
8
DEFAULT_255_2_778
10
39.0760031
20
2.5886083
11
39.1832031
21
2.6473083
0
LINE
8
DEFAULT_255_2_778
10
39.1832031
20
2.6473083
11
39.2591031
21
2.7172083
0
LINE
8
DEFAULT_255_2_778
10
39.2591031
20
2.7172083
11
39.3089031
21
2.7844083
0
LINE
8
DEFAULT_255_2_778
10
39.3089031
20
2.7844083
11
39.3432031
21
2.8468083
0
LINE
8
DEFAULT_255_2_778
10
39.3432031
20
2.8468083
11
39.3716031
21
2.9148083
0
LINE
8
DEFAULT_255_2_778
10
39.3716031
20
2.9148083
11
39.3935031
21
2.9849083
0
LINE
8
DEFAULT_255_2_778
10
39.3935031
20
2.9849083
11
39.4094031
21
3.0511083
0
LINE
8
DEFAULT_255_2_778
10
39.4094031
20
3.0511083
11
39.4216031
21
3.1180083
0
LINE
8
DEFAULT_255_2_778
10
39.4216031
20
3.1180083
11
39.4263031
21
3.1516083
0
LINE
8
DEFAULT_255_2_778
10
39.4263031
20
3.1516083
11
39.4303031
21
3.1852083
0
LINE
8
DEFAULT_255_2_778
10
39.4303031
20
3.1852083
11
39.4348031
21
3.2331083
0
LINE
8
DEFAULT_255_2_778
10
39.4348031
20
3.2331083
11
39.4321031
21
3.6538083
0
LINE
8
DEFAULT_255_2_778
10
39.2268031
20
3.7011083
11
39.2332031
21
3.6432083
0
LINE
8
DEFAULT_255_2_778
10
39.2332031
20
3.6432083
11
39.2324031
21
3.1992083
0
LINE
8
DEFAULT_255_2_778
10
39.2324031
20
3.1992083
11
39.2263031
21
3.1450083
0
LINE
8
DEFAULT_255_2_778
10
39.2263031
20
3.1450083
11
39.2178031
21
3.0910083
0
LINE
8
DEFAULT_255_2_778
10
39.2178031
20
3.0910083
11
39.2078031
21
3.0431083
0
LINE
8
DEFAULT_255_2_778
10
39.2078031
20
3.0431083
11
39.1903031
21
2.9804083
0
LINE
8
DEFAULT_255_2_778
10
39.1903031
20
2.9804083
11
39.1617031
21
2.9095083
0
LINE
8
DEFAULT_255_2_778
10
39.1617031
20
2.9095083
11
39.1189031
21
2.8391083
0
LINE
8
DEFAULT_255_2_778
10
39.1189031
20
2.8391083
11
39.0488031
21
2.7703083
0
LINE
8
DEFAULT_255_2_778
10
39.0488031
20
2.7703083
11
38.9633031
21
2.7277083
0
LINE
8
DEFAULT_255_2_778
10
38.9633031
20
2.7277083
11
38.8146031
21
2.7150083
0
LINE
8
DEFAULT_255_2_778
10
38.8146031
20
2.7150083
11
38.6955031
21
2.7510083
0
LINE
8
DEFAULT_255_2_778
10
38.6955031
20
2.7510083
11
38.6204031
21
2.8084083
0
LINE
8
DEFAULT_255_2_778
10
38.6204031
20
2.8084083
11
38.5680031
21
2.8785083
0
LINE
8
DEFAULT_255_2_778
10
38.5680031
20
2.8785083
11
38.5379031
21
2.9405083
0
LINE
8
DEFAULT_255_2_778
10
38.5379031
20
2.9405083
11
38.5183031
21
2.9966083
0
LINE
8
DEFAULT_255_2_778
10
38.5183031
20
2.9966083
11
38.5080031
21
3.0347083
0
LINE
8
DEFAULT_255_2_778
10
38.5080031
20
3.0347083
11
38.4958031
21
3.0918083
0
LINE
8
DEFAULT_255_2_778
10
38.4958031
20
3.0918083
11
38.4868031
21
3.1495083
0
LINE
8
DEFAULT_255_2_778
10
38.4868031
20
3.1495083
11
38.4804031
21
3.2077083
0
LINE
8
DEFAULT_255_2_778
10
38.4804031
20
3.2077083
11
38.4810031
21
3.6400083
0
LINE
8
DEFAULT_255_2_778
10
38.4810031
20
3.6400083
11
38.4849031
21
3.6757083
0
LINE
8
DEFAULT_255_2_778
10
38.4849031
20
3.6757083
11
38.4929031
21
3.7332083
0
LINE
8
DEFAULT_255_2_778
10
38.4929031
20
3.7332083
11
38.5050031
21
3.7974083
0
LINE
8
DEFAULT_255_2_778
10
38.5050031
20
3.7974083
11
38.5220031
21
3.8607083
0
LINE
8
DEFAULT_255_2_778
10
38.5220031
20
3.8607083
11
38.5511031
21
3.9358083
0
LINE
8
DEFAULT_255_2_778
10
38.5511031
20
3.9358083
11
38.5969031
21
4.0128083
0
LINE
8
DEFAULT_255_2_778
10
38.5969031
20
4.0128083
11
38.6678031
21
4.0808083
0
LINE
8
DEFAULT_255_2_778
10
38.6678031
20
4.0808083
11
38.7585031
21
4.1239083
0
LINE
8
DEFAULT_255_2_778
10
38.7585031
20
4.1239083
11
38.9096031
21
4.1329083
0
LINE
8
DEFAULT_255_2_778
10
38.9096031
20
4.1329083
11
39.0284031
21
4.0919083
0
LINE
8
DEFAULT_255_2_778
10
39.0284031
20
4.0919083
11
39.1030031
21
4.0303083
0
LINE
8
DEFAULT_255_2_778
10
39.1030031
20
4.0303083
11
39.1533031
21
3.9578083
0
LINE
8
DEFAULT_255_2_778
10
39.1533031
20
3.9578083
11
39.1834031
21
3.8908083
0
LINE
8
DEFAULT_255_2_778
10
39.1834031
20
3.8908083
11
39.2012031
21
3.8348083
0
LINE
8
DEFAULT_255_2_778
10
39.2012031
20
3.8348083
11
39.2125031
21
3.7874083
0
LINE
8
DEFAULT_255_2_778
10
39.2125031
20
3.7874083
11
39.2231031
21
3.7300083
0
LINE
8
DEFAULT_255_2_778
10
39.2231031
20
3.7300083
11
39.2268031
21
3.7011083
0
LINE
8
DEFAULT_255_2_778
10
37.2522031
20
3.6538083
11
37.2485031
21
3.6863083
0
LINE
8
DEFAULT_255_2_778
10
37.2485031
20
3.6863083
11
37.2440031
21
3.7186083
0
LINE
8
DEFAULT_255_2_778
10
37.2440031
20
3.7186083
11
37.2327031
21
3.7832083
0
LINE
8
DEFAULT_255_2_778
10
37.2327031
20
3.7832083
11
37.2173031
21
3.8472083
0
LINE
8
DEFAULT_255_2_778
10
37.2173031
20
3.8472083
11
37.1909031
21
3.9305083
0
LINE
8
DEFAULT_255_2_778
10
37.1909031
20
3.9305083
11
37.1578031
21
4.0083083
0
LINE
8
DEFAULT_255_2_778
10
37.1578031
20
4.0083083
11
37.1165031
21
4.0813083
0
LINE
8
DEFAULT_255_2_778
10
37.1165031
20
4.0813083
11
37.0662031
21
4.1470083
0
LINE
8
DEFAULT_255_2_778
10
37.0662031
20
4.1470083
11
36.9903031
21
4.2131083
0
LINE
8
DEFAULT_255_2_778
10
36.9903031
20
4.2131083
11
36.8842031
21
4.2655083
0
LINE
8
DEFAULT_255_2_778
10
36.8842031
20
4.2655083
11
36.7064031
21
4.2983083
0
LINE
8
DEFAULT_255_2_778
10
36.7064031
20
4.2983083
11
36.5485031
21
4.2866083
0
LINE
8
DEFAULT_255_2_778
10
36.5485031
20
4.2866083
11
36.4249031
21
4.2451083
0
LINE
8
DEFAULT_255_2_778
10
36.4249031
20
4.2451083
11
36.3370031
21
4.1906083
0
LINE
8
DEFAULT_255_2_778
10
36.3370031
20
4.1906083
11
36.2672031
21
4.1221083
0
LINE
8
DEFAULT_255_2_778
10
36.2672031
20
4.1221083
11
36.2122031
21
4.0424083
0
LINE
8
DEFAULT_255_2_778
10
36.2122031
20
4.0424083
11
36.1817031
21
3.9813083
0
LINE
8
DEFAULT_255_2_778
10
36.1817031
20
3.9813083
11
36.1558031
21
3.9128083
0
LINE
8
DEFAULT_255_2_778
10
36.1558031
20
3.9128083
11
36.1418031
21
3.8660083
0
LINE
8
DEFAULT_255_2_778
10
36.1418031
20
3.8660083
11
36.1259031
21
3.8001083
0
LINE
8
DEFAULT_255_2_778
10
36.1259031
20
3.8001083
11
36.1137031
21
3.7334083
0
LINE
8
DEFAULT_255_2_778
10
36.1137031
20
3.7334083
11
36.1111031
21
3.1339083
0
LINE
8
DEFAULT_255_2_778
10
36.1111031
20
3.1339083
11
36.1169031
21
3.0968083
0
LINE
8
DEFAULT_255_2_778
10
36.1169031
20
3.0968083
11
36.1238031
21
3.0600083
0
LINE
8
DEFAULT_255_2_778
10
36.1238031
20
3.0600083
11
36.1381031
21
2.9979083
0
LINE
8
DEFAULT_255_2_778
10
36.1381031
20
2.9979083
11
36.1526031
21
2.9470083
0
LINE
8
DEFAULT_255_2_778
10
36.1526031
20
2.9470083
11
36.1804031
21
2.8725083
0
LINE
8
DEFAULT_255_2_778
10
36.1804031
20
2.8725083
11
36.2196031
21
2.7957083
0
LINE
8
DEFAULT_255_2_778
10
36.2196031
20
2.7957083
11
36.2691031
21
2.7256083
0
LINE
8
DEFAULT_255_2_778
10
36.2691031
20
2.7256083
11
36.3429031
21
2.6547083
0
LINE
8
DEFAULT_255_2_778
10
36.3429031
20
2.6547083
11
36.4455031
21
2.5944083
0
LINE
8
DEFAULT_255_2_778
10
36.4455031
20
2.5944083
11
36.5908031
21
2.5563083
0
LINE
8
DEFAULT_255_2_778
10
36.5908031
20
2.5563083
11
36.7681031
21
2.5565083
0
LINE
8
DEFAULT_255_2_778
10
36.7681031
20
2.5565083
11
36.8961031
21
2.5886083
0
LINE
8
DEFAULT_255_2_778
10
36.8961031
20
2.5886083
11
37.0032031
21
2.6473083
0
LINE
8
DEFAULT_255_2_778
10
37.0032031
20
2.6473083
11
37.0792031
21
2.7172083
0
LINE
8
DEFAULT_255_2_778
10
37.0792031
20
2.7172083
11
37.1290031
21
2.7844083
0
LINE
8
DEFAULT_255_2_778
10
37.1290031
20
2.7844083
11
37.1633031
21
2.8468083
0
LINE
8
DEFAULT_255_2_778
10
37.1633031
20
2.8468083
11
37.1917031
21
2.9148083
0
LINE
8
DEFAULT_255_2_778
10
37.1917031
20
2.9148083
11
37.2136031
21
2.9849083
0
LINE
8
DEFAULT_255_2_778
10
37.2136031
20
2.9849083
11
37.2295031
21
3.0511083
0
LINE
8
DEFAULT_255_2_778
10
37.2295031
20
3.0511083
11
37.2416031
21
3.1180083
0
LINE
8
DEFAULT_255_2_778
10
37.2416031
20
3.1180083
11
37.2464031
21
3.1516083
0
LINE
8
DEFAULT_255_2_778
10
37.2464031
20
3.1516083
11
37.2504031
21
3.1852083
0
LINE
8
DEFAULT_255_2_778
10
37.2504031
20
3.1852083
11
37.2549031
21
3.2331083
0
LINE
8
DEFAULT_255_2_778
10
37.2549031
20
3.2331083
11
37.2522031
21
3.6538083
0
LINE
8
DEFAULT_255_2_778
10
37.0469031
20
3.7011083
11
37.0533031
21
3.6432083
0
LINE
8
DEFAULT_255_2_778
10
37.0533031
20
3.6432083
11
37.0525031
21
3.1992083
0
LINE
8
DEFAULT_255_2_778
10
37.0525031
20
3.1992083
11
37.0464031
21
3.1450083
0
LINE
8
DEFAULT_255_2_778
10
37.0464031
20
3.1450083
11
37.0379031
21
3.0910083
0
LINE
8
DEFAULT_255_2_778
10
37.0379031
20
3.0910083
11
37.0279031
21
3.0431083
0
LINE
8
DEFAULT_255_2_778
10
37.0279031
20
3.0431083
11
37.0104031
21
2.9804083
0
LINE
8
DEFAULT_255_2_778
10
37.0104031
20
2.9804083
11
36.9818031
21
2.9095083
0
LINE
8
DEFAULT_255_2_778
10
36.9818031
20
2.9095083
11
36.9390031
21
2.8391083
0
LINE
8
DEFAULT_255_2_778
10
36.9390031
20
2.8391083
11
36.8689031
21
2.7703083
0
LINE
8
DEFAULT_255_2_778
10
36.8689031
20
2.7703083
11
36.7834031
21
2.7277083
0
LINE
8
DEFAULT_255_2_778
10
36.7834031
20
2.7277083
11
36.6347031
21
2.7150083
0
LINE
8
DEFAULT_255_2_778
10
36.6347031
20
2.7150083
11
36.5156031
21
2.7510083
0
LINE
8
DEFAULT_255_2_778
10
36.5156031
20
2.7510083
11
36.4405031
21
2.8084083
0
LINE
8
DEFAULT_255_2_778
10
36.4405031
20
2.8084083
11
36.3881031
21
2.8785083
0
LINE
8
DEFAULT_255_2_778
10
36.3881031
20
2.8785083
11
36.3580031
21
2.9405083
0
LINE
8
DEFAULT_255_2_778
10
36.3580031
20
2.9405083
11
36.3384031
21
2.9966083
0
LINE
8
DEFAULT_255_2_778
10
36.3384031
20
2.9966083
11
36.3280031
21
3.0347083
0
LINE
8
DEFAULT_255_2_778
10
36.3280031
20
3.0347083
11
36.3159031
21
3.0918083
0
LINE
8
DEFAULT_255_2_778
10
36.3159031
20
3.0918083
11
36.3069031
21
3.1495083
0
LINE
8
DEFAULT_255_2_778
10
36.3069031
20
3.1495083
11
36.3005031
21
3.2077083
0
LINE
8
DEFAULT_255_2_778
10
36.3005031
20
3.2077083
11
36.3011031
21
3.6400083
0
LINE
8
DEFAULT_255_2_778
10
36.3011031
20
3.6400083
11
36.3050031
21
3.6757083
0
LINE
8
DEFAULT_255_2_778
10
36.3050031
20
3.6757083
11
36.3130031
21
3.7332083
0
LINE
8
DEFAULT_255_2_778
10
36.3130031
20
3.7332083
11
36.3251031
21
3.7974083
0
LINE
8
DEFAULT_255_2_778
10
36.3251031
20
3.7974083
11
36.3421031
21
3.8607083
0
LINE
8
DEFAULT_255_2_778
10
36.3421031
20
3.8607083
11
36.3712031
21
3.9358083
0
LINE
8
DEFAULT_255_2_778
10
36.3712031
20
3.9358083
11
36.4169031
21
4.0128083
0
LINE
8
DEFAULT_255_2_778
10
36.4169031
20
4.0128083
11
36.4879031
21
4.0808083
0
LINE
8
DEFAULT_255_2_778
10
36.4879031
20
4.0808083
11
36.5786031
21
4.1239083
0
LINE
8
DEFAULT_255_2_778
10
36.5786031
20
4.1239083
11
36.7297031
21
4.1329083
0
LINE
8
DEFAULT_255_2_778
10
36.7297031
20
4.1329083
11
36.8485031
21
4.0919083
0
LINE
8
DEFAULT_255_2_778
10
36.8485031
20
4.0919083
11
36.9231031
21
4.0303083
0
LINE
8
DEFAULT_255_2_778
10
36.9231031
20
4.0303083
11
36.9734031
21
3.9578083
0
LINE
8
DEFAULT_255_2_778
10
36.9734031
20
3.9578083
11
37.0035031
21
3.8908083
0
LINE
8
DEFAULT_255_2_778
10
37.0035031
20
3.8908083
11
37.0212031
21
3.8348083
0
LINE
8
DEFAULT_255_2_778
10
37.0212031
20
3.8348083
11
37.0326031
21
3.7874083
0
LINE
8
DEFAULT_255_2_778
10
37.0326031
20
3.7874083
11
37.0432031
21
3.7300083
0
LINE
8
DEFAULT_255_2_778
10
37.0432031
20
3.7300083
11
37.0469031
21
3.7011083
0
LINE
8
DEFAULT_255_2_778
10
35.8365209
20
3.6538083
11
35.8328209
21
3.6863083
0
LINE
8
DEFAULT_255_2_778
10
35.8328209
20
3.6863083
11
35.8283209
21
3.7186083
0
LINE
8
DEFAULT_255_2_778
10
35.8283209
20
3.7186083
11
35.8169209
21
3.7832083
0
LINE
8
DEFAULT_255_2_778
10
35.8169209
20
3.7832083
11
35.8016209
21
3.8472083
0
LINE
8
DEFAULT_255_2_778
10
35.8016209
20
3.8472083
11
35.7751209
21
3.9305083
0
LINE
8
DEFAULT_255_2_778
10
35.7751209
20
3.9305083
11
35.7421209
21
4.0083083
0
LINE
8
DEFAULT_255_2_778
10
35.7421209
20
4.0083083
11
35.7008209
21
4.0813083
0
LINE
8
DEFAULT_255_2_778
10
35.7008209
20
4.0813083
11
35.6505209
21
4.1470083
0
LINE
8
DEFAULT_255_2_778
10
35.6505209
20
4.1470083
11
35.5746209
21
4.2131083
0
LINE
8
DEFAULT_255_2_778
10
35.5746209
20
4.2131083
11
35.4685209
21
4.2655083
0
LINE
8
DEFAULT_255_2_778
10
35.4685209
20
4.2655083
11
35.2907209
21
4.2983083
0
LINE
8
DEFAULT_255_2_778
10
35.2907209
20
4.2983083
11
35.1327209
21
4.2866083
0
LINE
8
DEFAULT_255_2_778
10
35.1327209
20
4.2866083
11
35.0092209
21
4.2451083
0
LINE
8
DEFAULT_255_2_778
10
35.0092209
20
4.2451083
11
34.9213209
21
4.1906083
0
LINE
8
DEFAULT_255_2_778
10
34.9213209
20
4.1906083
11
34.8515209
21
4.1221083
0
LINE
8
DEFAULT_255_2_778
10
34.8515209
20
4.1221083
11
34.7965209
21
4.0424083
0
LINE
8
DEFAULT_255_2_778
10
34.7965209
20
4.0424083
11
34.7660209
21
3.9813083
0
LINE
8
DEFAULT_255_2_778
10
34.7660209
20
3.9813083
11
34.7401209
21
3.9128083
0
LINE
8
DEFAULT_255_2_778
10
34.7401209
20
3.9128083
11
34.7261209
21
3.8660083
0
LINE
8
DEFAULT_255_2_778
10
34.7261209
20
3.8660083
11
34.7102209
21
3.8001083
0
LINE
8
DEFAULT_255_2_778
10
34.7102209
20
3.8001083
11
34.6980209
21
3.7334083
0
LINE
8
DEFAULT_255_2_778
10
34.6980209
20
3.7334083
11
34.6954209
21
3.1339083
0
LINE
8
DEFAULT_255_2_778
10
34.6954209
20
3.1339083
11
34.7012209
21
3.0968083
0
LINE
8
DEFAULT_255_2_778
10
34.7012209
20
3.0968083
11
34.7081209
21
3.0600083
0
LINE
8
DEFAULT_255_2_778
10
34.7081209
20
3.0600083
11
34.7224209
21
2.9979083
0
LINE
8
DEFAULT_255_2_778
10
34.7224209
20
2.9979083
11
34.7369209
21
2.9470083
0
LINE
8
DEFAULT_255_2_778
10
34.7369209
20
2.9470083
11
34.7647209
21
2.8725083
0
LINE
8
DEFAULT_255_2_778
10
34.7647209
20
2.8725083
11
34.8038209
21
2.7957083
0
LINE
8
DEFAULT_255_2_778
10
34.8038209
20
2.7957083
11
34.8533209
21
2.7256083
0
LINE
8
DEFAULT_255_2_778
10
34.8533209
20
2.7256083
11
34.9271209
21
2.6547083
0
LINE
8
DEFAULT_255_2_778
10
34.9271209
20
2.6547083
11
35.0298209
21
2.5944083
0
LINE
8
DEFAULT_255_2_778
10
35.0298209
20
2.5944083
11
35.1751209
21
2.5563083
0
LINE
8
DEFAULT_255_2_778
10
35.1751209
20
2.5563083
11
35.3523209
21
2.5565083
0
LINE
8
DEFAULT_255_2_778
10
35.3523209
20
2.5565083
11
35.4804209
21
2.5886083
0
LINE
8
DEFAULT_255_2_778
10
35.4804209
20
2.5886083
11
35.5875209
21
2.6473083
0
LINE
8
DEFAULT_255_2_778
10
35.5875209
20
2.6473083
11
35.6635209
21
2.7172083
0
LINE
8
DEFAULT_255_2_778
10
35.6635209
20
2.7172083
11
35.7132209
21
2.7844083
0
LINE
8
DEFAULT_255_2_778
10
35.7132209
20
2.7844083
11
35.7476209
21
2.8468083
0
LINE
8
DEFAULT_255_2_778
10
35.7476209
20
2.8468083
11
35.7759209
21
2.9148083
0
LINE
8
DEFAULT_255_2_778
10
35.7759209
20
2.9148083
11
35.7979209
21
2.9849083
0
LINE
8
DEFAULT_255_2_778
10
35.7979209
20
2.9849083
11
35.8138209
21
3.0511083
0
LINE
8
DEFAULT_255_2_778
10
35.8138209
20
3.0511083
11
35.8259209
21
3.1180083
0
LINE
8
DEFAULT_255_2_778
10
35.8259209
20
3.1180083
11
35.8307209
21
3.1516083
0
LINE
8
DEFAULT_255_2_778
10
35.8307209
20
3.1516083
11
35.8347209
21
3.1852083
0
LINE
8
DEFAULT_255_2_778
10
35.8347209
20
3.1852083
11
35.8392209
21
3.2331083
0
LINE
8
DEFAULT_255_2_778
10
35.8392209
20
3.2331083
11
35.8365209
21
3.6538083
0
LINE
8
DEFAULT_255_2_778
10
35.6312209
20
3.7011083
11
35.6375209
21
3.6432083
0
LINE
8
DEFAULT_255_2_778
10
35.6375209
20
3.6432083
11
35.6368209
21
3.1992083
0
LINE
8
DEFAULT_255_2_778
10
35.6368209
20
3.1992083
11
35.6304209
21
3.1450083
0
LINE
8
DEFAULT_255_2_778
10
35.6304209
20
3.1450083
11
35.6220209
21
3.0910083
0
LINE
8
DEFAULT_255_2_778
10
35.6220209
20
3.0910083
11
35.6119209
21
3.0431083
0
LINE
8
DEFAULT_255_2_778
10
35.6119209
20
3.0431083
11
35.5944209
21
2.9804083
0
LINE
8
DEFAULT_255_2_778
10
35.5944209
20
2.9804083
11
35.5658209
21
2.9095083
0
LINE
8
DEFAULT_255_2_778
10
35.5658209
20
2.9095083
11
35.5230209
21
2.8391083
0
LINE
8
DEFAULT_255_2_778
10
35.5230209
20
2.8391083
11
35.4529209
21
2.7703083
0
LINE
8
DEFAULT_255_2_778
10
35.4529209
20
2.7703083
11
35.3674209
21
2.7277083
0
LINE
8
DEFAULT_255_2_778
10
35.3674209
20
2.7277083
11
35.2187209
21
2.7150083
0
LINE
8
DEFAULT_255_2_778
10
35.2187209
20
2.7150083
11
35.0997209
21
2.7510083
0
LINE
8
DEFAULT_255_2_778
10
35.0997209
20
2.7510083
11
35.0245209
21
2.8084083
0
LINE
8
DEFAULT_255_2_778
10
35.0245209
20
2.8084083
11
34.9721209
21
2.8785083
0
LINE
8
DEFAULT_255_2_778
10
34.9721209
20
2.8785083
11
34.9420209
21
2.9405083
0
LINE
8
DEFAULT_255_2_778
10
34.9420209
20
2.9405083
11
34.9224209
21
2.9966083
0
LINE
8
DEFAULT_255_2_778
10
34.9224209
20
2.9966083
11
34.9121209
21
3.0347083
0
LINE
8
DEFAULT_255_2_778
10
34.9121209
20
3.0347083
11
34.8999209
21
3.0918083
0
LINE
8
DEFAULT_255_2_778
10
34.8999209
20
3.0918083
11
34.8909209
21
3.1495083
0
LINE
8
DEFAULT_255_2_778
10
34.8909209
20
3.1495083
11
34.8845209
21
3.2077083
0
LINE
8
DEFAULT_255_2_778
10
34.8845209
20
3.2077083
11
34.8851209
21
3.6400083
0
LINE
8
DEFAULT_255_2_778
10
34.8851209
20
3.6400083
11
34.8890209
21
3.6757083
0
LINE
8
DEFAULT_255_2_778
10
34.8890209
20
3.6757083
11
34.8970209
21
3.7332083
0
LINE
8
DEFAULT_255_2_778
10
34.8970209
20
3.7332083
11
34.9091209
21
3.7974083
0
LINE
8
DEFAULT_255_2_778
10
34.9091209
20
3.7974083
11
34.9261209
21
3.8607083
0
LINE
8
DEFAULT_255_2_778
10
34.9261209
20
3.8607083
11
34.9552209
21
3.9358083
0
LINE
8
DEFAULT_255_2_778
10
34.9552209
20
3.9358083
11
35.0010209
21
4.0128083
0
LINE
8
DEFAULT_255_2_778
10
35.0010209
20
4.0128083
11
35.0719209
21
4.0808083
0
LINE
8
DEFAULT_255_2_778
10
35.0719209
20
4.0808083
11
35.1626209
21
4.1239083
0
LINE
8
DEFAULT_255_2_778
10
35.1626209
20
4.1239083
11
35.3137209
21
4.1329083
0
LINE
8
DEFAULT_255_2_778
10
35.3137209
20
4.1329083
11
35.4325209
21
4.0919083
0
LINE
8
DEFAULT_255_2_778
10
35.4325209
20
4.0919083
11
35.5071209
21
4.0303083
0
LINE
8
DEFAULT_255_2_778
10
35.5071209
20
4.0303083
11
35.5574209
21
3.9578083
0
LINE
8
DEFAULT_255_2_778
10
35.5574209
20
3.9578083
11
35.5875209
21
3.8908083
0
LINE
8
DEFAULT_255_2_778
10
35.5875209
20
3.8908083
11
35.6053209
21
3.8348083
0
LINE
8
DEFAULT_255_2_778
10
35.6053209
20
3.8348083
11
35.6166209
21
3.7874083
0
LINE
8
DEFAULT_255_2_778
10
35.6166209
20
3.7874083
11
35.6272209
21
3.7300083
0
LINE
8
DEFAULT_255_2_778
10
35.6272209
20
3.7300083
11
35.6312209
21
3.7011083
0
LINE
8
DEFAULT_255_2_778
10
33.1087209
20
3.9520083
11
33.0981209
21
3.9943083
0
LINE
8
DEFAULT_255_2_778
10
33.0981209
20
3.9943083
11
33.0767209
21
4.0480083
0
LINE
8
DEFAULT_255_2_778
10
33.0767209
20
4.0480083
11
33.0264209
21
4.1224083
0
LINE
8
DEFAULT_255_2_778
10
33.0264209
20
4.1224083
11
32.9486209
21
4.1896083
0
LINE
8
DEFAULT_255_2_778
10
32.9486209
20
4.1896083
11
32.7653209
21
4.2557083
0
LINE
8
DEFAULT_255_2_778
10
32.7653209
20
4.2557083
11
32.5541209
21
4.2732083
0
LINE
8
DEFAULT_255_2_778
10
32.5541209
20
4.2732083
11
32.1678209
21
4.2748083
0
LINE
8
DEFAULT_255_2_778
10
32.1678209
20
4.2748083
11
32.1678209
21
2.5748083
0
LINE
8
DEFAULT_255_2_778
10
32.1678209
20
2.5748083
11
32.7700209
21
2.5843083
0
LINE
8
DEFAULT_255_2_778
10
32.7700209
20
2.5843083
11
32.9330209
21
2.6296083
0
LINE
8
DEFAULT_255_2_778
10
32.9330209
20
2.6296083
11
33.0407209
21
2.6991083
0
LINE
8
DEFAULT_255_2_778
10
33.0407209
20
2.6991083
11
33.1020209
21
2.7727083
0
LINE
8
DEFAULT_255_2_778
10
33.1020209
20
2.7727083
11
33.1327209
21
2.8333083
0
LINE
8
DEFAULT_255_2_778
10
33.1327209
20
2.8333083
11
33.1507209
21
2.8883083
0
LINE
8
DEFAULT_255_2_778
10
33.1507209
20
2.8883083
11
33.1597209
21
2.9336083
0
LINE
8
DEFAULT_255_2_778
10
33.1597209
20
2.9336083
11
33.1581209
21
3.1283083
0
LINE
8
DEFAULT_255_2_778
10
33.1581209
20
3.1283083
11
33.1486209
21
3.1706083
0
LINE
8
DEFAULT_255_2_778
10
33.1486209
20
3.1706083
11
33.1291209
21
3.2244083
0
LINE
8
DEFAULT_255_2_778
10
33.1291209
20
3.2244083
11
33.0883209
21
3.2900083
0
LINE
8
DEFAULT_255_2_778
10
33.0883209
20
3.2900083
11
32.9925209
21
3.3752083
0
LINE
8
DEFAULT_255_2_778
10
32.9925209
20
3.3752083
11
32.8412209
21
3.4347083
0
LINE
8
DEFAULT_255_2_778
10
32.8412209
20
3.4347083
11
32.7753209
21
3.4408083
0
LINE
8
DEFAULT_255_2_778
10
32.7753209
20
3.4408083
11
32.9523209
21
3.4995083
0
LINE
8
DEFAULT_255_2_778
10
32.9523209
20
3.4995083
11
33.0391209
21
3.5715083
0
LINE
8
DEFAULT_255_2_778
10
33.0391209
20
3.5715083
11
33.0788209
21
3.6334083
0
LINE
8
DEFAULT_255_2_778
10
33.0788209
20
3.6334083
11
33.0989209
21
3.6845083
0
LINE
8
DEFAULT_255_2_778
10
33.0989209
20
3.6845083
11
33.1095209
21
3.7263083
0
LINE
8
DEFAULT_255_2_778
10
33.1095209
20
3.7263083
11
33.1145209
21
3.7572083
0
LINE
8
DEFAULT_255_2_778
10
33.1145209
20
3.7572083
11
33.1137209
21
3.9231083
0
LINE
8
DEFAULT_255_2_778
10
33.1137209
20
3.9231083
11
33.1087209
21
3.9520083
0
LINE
8
DEFAULT_255_2_778
10
32.8973209
20
3.9226083
11
32.9063209
21
3.8786083
0
LINE
8
DEFAULT_255_2_778
10
32.9063209
20
3.8786083
11
32.9039209
21
3.7366083
0
LINE
8
DEFAULT_255_2_778
10
32.9039209
20
3.7366083
11
32.8904209
21
3.6876083
0
LINE
8
DEFAULT_255_2_778
10
32.8904209
20
3.6876083
11
32.8491209
21
3.6159083
0
LINE
8
DEFAULT_255_2_778
10
32.8491209
20
3.6159083
11
32.7663209
21
3.5540083
0
LINE
8
DEFAULT_255_2_778
10
32.7663209
20
3.5540083
11
32.5980209
21
3.5183083
0
LINE
8
DEFAULT_255_2_778
10
32.5980209
20
3.5183083
11
32.3646209
21
3.5128083
0
LINE
8
DEFAULT_255_2_778
10
32.3646209
20
3.5128083
11
32.3646209
21
4.1149083
0
LINE
8
DEFAULT_255_2_778
10
32.3646209
20
4.1149083
11
32.7546209
21
4.0803083
0
LINE
8
DEFAULT_255_2_778
10
32.7546209
20
4.0803083
11
32.8533209
21
4.0128083
0
LINE
8
DEFAULT_255_2_778
10
32.8533209
20
4.0128083
11
32.8888209
21
3.9493083
0
LINE
8
DEFAULT_255_2_778
10
32.8888209
20
3.9493083
11
32.8973209
21
3.9226083
0
LINE
8
DEFAULT_255_2_778
10
32.9425209
20
3.1569083
11
32.9523209
21
3.1143083
0
LINE
8
DEFAULT_255_2_778
10
32.9523209
20
3.1143083
11
32.9502209
21
2.9603083
0
LINE
8
DEFAULT_255_2_778
10
32.9502209
20
2.9603083
11
32.9388209
21
2.9177083
0
LINE
8
DEFAULT_255_2_778
10
32.9388209
20
2.9177083
11
32.9031209
21
2.8489083
0
LINE
8
DEFAULT_255_2_778
10
32.9031209
20
2.8489083
11
32.8343209
21
2.7857083
0
LINE
8
DEFAULT_255_2_778
10
32.8343209
20
2.7857083
11
32.7187209
21
2.7473083
0
LINE
8
DEFAULT_255_2_778
10
32.7187209
20
2.7473083
11
32.4535209
21
2.7341083
0
LINE
8
DEFAULT_255_2_778
10
32.4535209
20
2.7341083
11
32.3646209
21
2.7341083
0
LINE
8
DEFAULT_255_2_778
10
32.3646209
20
2.7341083
11
32.3646209
21
3.3604083
0
LINE
8
DEFAULT_255_2_778
10
32.3646209
20
3.3604083
11
32.7594209
21
3.3294083
0
LINE
8
DEFAULT_255_2_778
10
32.7594209
20
3.3294083
11
32.8779209
21
3.2638083
0
LINE
8
DEFAULT_255_2_778
10
32.8779209
20
3.2638083
11
32.9285209
21
3.1937083
0
LINE
8
DEFAULT_255_2_778
10
32.9285209
20
3.1937083
11
32.9425209
21
3.1569083
0
LINE
8
DEFAULT_255_2_778
10
30.7951552
20
3.2262739
11
31.3816552
21
3.2262739
0
LINE
8
DEFAULT_255_2_778
10
31.3816552
20
3.2262739
11
31.3816552
21
4.0564739
0
LINE
8
DEFAULT_255_2_778
10
31.3816552
20
4.0564739
11
30.7951552
21
3.2262739
0
LINE
8
DEFAULT_255_2_778
10
31.3470552
20
4.2747739
11
31.5690552
21
4.2747739
0
LINE
8
DEFAULT_255_2_778
10
31.5690552
20
4.2747739
11
31.5690552
21
3.2262739
0
LINE
8
DEFAULT_255_2_778
10
31.5690552
20
3.2262739
11
31.8317552
21
3.2262739
0
LINE
8
DEFAULT_255_2_778
10
31.8317552
20
3.2262739
11
31.8317552
21
3.0642739
0
LINE
8
DEFAULT_255_2_778
10
31.8317552
20
3.0642739
11
31.5690552
21
3.0642739
0
LINE
8
DEFAULT_255_2_778
10
31.5690552
20
3.0642739
11
31.5690552
21
2.5748739
0
LINE
8
DEFAULT_255_2_778
10
31.5690552
20
2.5748739
11
31.3819552
21
2.5748739
0
LINE
8
DEFAULT_255_2_778
10
31.3819552
20
2.5748739
11
31.3819552
21
3.0642739
0
LINE
8
DEFAULT_255_2_778
10
31.3819552
20
3.0642739
11
30.6154552
21
3.0642739
0
LINE
8
DEFAULT_255_2_778
10
30.6154552
20
3.0642739
11
30.6154552
21
3.2502739
0
LINE
8
DEFAULT_255_2_778
10
30.6154552
20
3.2502739
11
31.3470552
21
4.2747739
0
LINE
8
DEFAULT_255_2_778
10
27.1997552
20
3.2262739
11
27.7862552
21
3.2262739
0
LINE
8
DEFAULT_255_2_778
10
27.7862552
20
3.2262739
11
27.7862552
21
4.0564739
0
LINE
8
DEFAULT_255_2_778
10
27.7862552
20
4.0564739
11
27.1997552
21
3.2262739
0
LINE
8
DEFAULT_255_2_778
10
27.7516552
20
4.2747739
11
27.9736552
21
4.2747739
0
LINE
8
DEFAULT_255_2_778
10
27.9736552
20
4.2747739
11
27.9736552
21
3.2262739
0
LINE
8
DEFAULT_255_2_778
10
27.9736552
20
3.2262739
11
28.2363552
21
3.2262739
0
LINE
8
DEFAULT_255_2_778
10
28.2363552
20
3.2262739
11
28.2363552
21
3.0642739
0
LINE
8
DEFAULT_255_2_778
10
28.2363552
20
3.0642739
11
27.9736552
21
3.0642739
0
LINE
8
DEFAULT_255_2_778
10
27.9736552
20
3.0642739
11
27.9736552
21
2.5748739
0
LINE
8
DEFAULT_255_2_778
10
27.9736552
20
2.5748739
11
27.7865552
21
2.5748739
0
LINE
8
DEFAULT_255_2_778
10
27.7865552
20
2.5748739
11
27.7865552
21
3.0642739
0
LINE
8
DEFAULT_255_2_778
10
27.7865552
20
3.0642739
11
27.0200552
21
3.0642739
0
LINE
8
DEFAULT_255_2_778
10
27.0200552
20
3.0642739
11
27.0200552
21
3.2502739
0
LINE
8
DEFAULT_255_2_778
10
27.0200552
20
3.2502739
11
27.7516552
21
4.2747739
0
LINE
8
DEFAULT_255_2_778
10
33.5835024
20
5.9159541
11
33.5719024
21
5.9582541
0
LINE
8
DEFAULT_255_2_778
10
33.5719024
20
5.9582541
11
33.4790024
21
6.0365541
0
LINE
8
DEFAULT_255_2_778
10
33.4790024
20
6.0365541
11
33.3306024
21
5.9945541
0
LINE
8
DEFAULT_255_2_778
10
33.3306024
20
5.9945541
11
33.2978024
21
5.9310541
0
LINE
8
DEFAULT_255_2_778
10
33.2978024
20
5.9310541
11
33.3002024
21
5.8519541
0
LINE
8
DEFAULT_255_2_778
10
33.3002024
20
5.8519541
11
33.3629024
21
5.7706541
0
LINE
8
DEFAULT_255_2_778
10
33.3629024
20
5.7706541
11
33.5309024
21
5.7812541
0
LINE
8
DEFAULT_255_2_778
10
33.5309024
20
5.7812541
11
33.5796024
21
5.8566541
0
LINE
8
DEFAULT_255_2_778
10
33.5796024
20
5.8566541
11
33.5841024
21
5.8860541
0
LINE
8
DEFAULT_255_2_778
10
33.5841024
20
5.8860541
11
33.5833024
21
5.9162541
0
LINE
8
DEFAULT_255_2_778
10
34.8310024
20
6.3839541
11
34.8265024
21
6.4162541
0
LINE
8
DEFAULT_255_2_778
10
34.8265024
20
6.4162541
11
34.8168024
21
6.4572541
0
LINE
8
DEFAULT_255_2_778
10
34.8168024
20
6.4572541
11
34.7982024
21
6.5051541
0
LINE
8
DEFAULT_255_2_778
10
34.7982024
20
6.5051541
11
34.7578024
21
6.5689541
0
LINE
8
DEFAULT_255_2_778
10
34.7578024
20
6.5689541
11
34.6739024
21
6.6427541
0
LINE
8
DEFAULT_255_2_778
10
34.6739024
20
6.6427541
11
34.5667024
21
6.6858541
0
LINE
8
DEFAULT_255_2_778
10
34.5667024
20
6.6858541
11
34.4064024
21
6.6969541
0
LINE
8
DEFAULT_255_2_778
10
34.4064024
20
6.6969541
11
34.1447024
21
6.6501541
0
LINE
8
DEFAULT_255_2_778
10
34.1447024
20
6.6501541
11
34.0164024
21
6.6067541
0
LINE
8
DEFAULT_255_2_778
10
34.0164024
20
6.6067541
11
34.0415024
21
7.4740541
0
LINE
8
DEFAULT_255_2_778
10
34.0415024
20
7.4740541
11
34.9594024
21
7.4740541
0
LINE
8
DEFAULT_255_2_778
10
34.9594024
20
7.4740541
11
34.9594024
21
7.3121541
0
LINE
8
DEFAULT_255_2_778
10
34.9594024
20
7.3121541
11
34.2347024
21
7.3121541
0
LINE
8
DEFAULT_255_2_778
10
34.2347024
20
7.3121541
11
34.2143024
21
6.8155541
0
LINE
8
DEFAULT_255_2_778
10
34.2143024
20
6.8155541
11
34.5720024
21
6.8504541
0
LINE
8
DEFAULT_255_2_778
10
34.5720024
20
6.8504541
11
34.7670024
21
6.7948541
0
LINE
8
DEFAULT_255_2_778
10
34.7670024
20
6.7948541
11
34.8612024
21
6.7321541
0
LINE
8
DEFAULT_255_2_778
10
34.8612024
20
6.7321541
11
34.9337024
21
6.6546541
0
LINE
8
DEFAULT_255_2_778
10
34.9337024
20
6.6546541
11
34.9792024
21
6.5795541
0
LINE
8
DEFAULT_255_2_778
10
34.9792024
20
6.5795541
11
35.0054024
21
6.5136541
0
LINE
8
DEFAULT_255_2_778
10
35.0054024
20
6.5136541
11
35.0149024
21
6.4795541
0
LINE
8
DEFAULT_255_2_778
10
35.0149024
20
6.4795541
11
35.0239024
21
6.4361541
0
LINE
8
DEFAULT_255_2_778
10
35.0239024
20
6.4361541
11
35.0271024
21
6.4141541
0
LINE
8
DEFAULT_255_2_778
10
35.0271024
20
6.4141541
11
35.0271024
21
6.2400541
0
LINE
8
DEFAULT_255_2_778
10
35.0271024
20
6.2400541
11
35.0202024
21
6.1979541
0
LINE
8
DEFAULT_255_2_778
10
35.0202024
20
6.1979541
11
35.0104024
21
6.1564541
0
LINE
8
DEFAULT_255_2_778
10
35.0104024
20
6.1564541
11
34.9935024
21
6.1059541
0
LINE
8
DEFAULT_255_2_778
10
34.9935024
20
6.1059541
11
34.9631024
21
6.0413541
0
LINE
8
DEFAULT_255_2_778
10
34.9631024
20
6.0413541
11
34.9123024
21
5.9664541
0
LINE
8
DEFAULT_255_2_778
10
34.9123024
20
5.9664541
11
34.8347024
21
5.8886541
0
LINE
8
DEFAULT_255_2_778
10
34.8347024
20
5.8886541
11
34.7141024
21
5.8119541
0
LINE
8
DEFAULT_255_2_778
10
34.7141024
20
5.8119541
11
34.5741024
21
5.7659541
0
LINE
8
DEFAULT_255_2_778
10
34.5741024
20
5.7659541
11
34.3900024
21
5.7508541
0
LINE
8
DEFAULT_255_2_778
10
34.3900024
20
5.7508541
11
34.1913024
21
5.7775541
0
LINE
8
DEFAULT_255_2_778
10
34.1913024
20
5.7775541
11
33.9696024
21
5.8582541
0
LINE
8
DEFAULT_255_2_778
10
33.9696024
20
5.8582541
11
34.0415024
21
6.0178541
0
LINE
8
DEFAULT_255_2_778
10
34.0415024
20
6.0178541
11
34.3387024
21
5.9119541
0
LINE
8
DEFAULT_255_2_778
10
34.3387024
20
5.9119541
11
34.5641024
21
5.9307541
0
LINE
8
DEFAULT_255_2_778
10
34.5641024
20
5.9307541
11
34.6821024
21
5.9950541
0
LINE
8
DEFAULT_255_2_778
10
34.6821024
20
5.9950541
11
34.7567024
21
6.0746541
0
LINE
8
DEFAULT_255_2_778
10
34.7567024
20
6.0746541
11
34.7914024
21
6.1339541
0
LINE
8
DEFAULT_255_2_778
10
34.7914024
20
6.1339541
11
34.8133024
21
6.1911541
0
LINE
8
DEFAULT_255_2_778
10
34.8133024
20
6.1911541
11
34.8247024
21
6.2366541
0
LINE
8
DEFAULT_255_2_778
10
34.8247024
20
6.2366541
11
34.8297024
21
6.2688541
0
LINE
8
DEFAULT_255_2_778
10
34.8297024
20
6.2688541
11
34.8310024
21
6.3834541
0
LINE
8
DEFAULT_255_2_778
10
42.0354024
20
7.0973541
11
42.0351024
21
6.9912541
0
LINE
8
DEFAULT_255_2_778
10
42.0351024
20
6.9912541
11
42.0280024
21
6.9520541
0
LINE
8
DEFAULT_255_2_778
10
42.0280024
20
6.9520541
11
42.0174024
21
6.9123541
0
LINE
8
DEFAULT_255_2_778
10
42.0174024
20
6.9123541
11
41.9946024
21
6.8509541
0
LINE
8
DEFAULT_255_2_778
10
41.9946024
20
6.8509541
11
41.9629024
21
6.7866541
0
LINE
8
DEFAULT_255_2_778
10
41.9629024
20
6.7866541
11
41.8959024
21
6.6827541
0
LINE
8
DEFAULT_255_2_778
10
41.8959024
20
6.6827541
11
41.7806024
21
6.5361541
0
LINE
8
DEFAULT_255_2_778
10
41.7806024
20
6.5361541
11
41.6049024
21
6.3472541
0
LINE
8
DEFAULT_255_2_778
10
41.6049024
20
6.3472541
11
41.2581024
21
6.0180541
0
LINE
8
DEFAULT_255_2_778
10
41.2581024
20
6.0180541
11
41.1787024
21
5.9461541
0
LINE
8
DEFAULT_255_2_778
10
41.1787024
20
5.9461541
11
41.1787024
21
5.7746541
0
LINE
8
DEFAULT_255_2_778
10
41.1787024
20
5.7746541
11
42.2523024
21
5.7746541
0
LINE
8
DEFAULT_255_2_778
10
42.2523024
20
5.7746541
11
42.2523024
21
5.9365541
0
LINE
8
DEFAULT_255_2_778
10
42.2523024
20
5.9365541
11
41.4149024
21
5.9365541
0
LINE
8
DEFAULT_255_2_778
10
41.4149024
20
5.9365541
11
41.6081024
21
6.1125541
0
LINE
8
DEFAULT_255_2_778
10
41.6081024
20
6.1125541
11
41.8444024
21
6.3514541
0
LINE
8
DEFAULT_255_2_778
10
41.8444024
20
6.3514541
11
42.0052024
21
6.5350541
0
LINE
8
DEFAULT_255_2_778
10
42.0052024
20
6.5350541
11
42.1034024
21
6.6668541
0
LINE
8
DEFAULT_255_2_778
10
42.1034024
20
6.6668541
11
42.1648024
21
6.7702541
0
LINE
8
DEFAULT_255_2_778
10
42.1648024
20
6.7702541
11
42.1952024
21
6.8377541
0
LINE
8
DEFAULT_255_2_778
10
42.1952024
20
6.8377541
11
42.2172024
21
6.9038541
0
LINE
8
DEFAULT_255_2_778
10
42.2172024
20
6.9038541
11
42.2277024
21
6.9491541
0
LINE
8
DEFAULT_255_2_778
10
42.2277024
20
6.9491541
11
42.2251024
21
7.1785541
0
LINE
8
DEFAULT_255_2_778
10
42.2251024
20
7.1785541
11
42.2142024
21
7.2147541
0
LINE
8
DEFAULT_255_2_778
10
42.2142024
20
7.2147541
11
42.1925024
21
7.2642541
0
LINE
8
DEFAULT_255_2_778
10
42.1925024
20
7.2642541
11
42.1524024
21
7.3243541
0
LINE
8
DEFAULT_255_2_778
10
42.1524024
20
7.3243541
11
42.0854024
21
7.3872541
0
LINE
8
DEFAULT_255_2_778
10
42.0854024
20
7.3872541
11
41.9637024
21
7.4539541
0
LINE
8
DEFAULT_255_2_778
10
41.9637024
20
7.4539541
11
41.8388024
21
7.4875541
0
LINE
8
DEFAULT_255_2_778
10
41.8388024
20
7.4875541
11
41.6647024
21
7.4981541
0
LINE
8
DEFAULT_255_2_778
10
41.6647024
20
7.4981541
11
41.4774024
21
7.4735541
0
LINE
8
DEFAULT_255_2_778
10
41.4774024
20
7.4735541
11
41.2895024
21
7.4118541
0
LINE
8
DEFAULT_255_2_778
10
41.2895024
20
7.4118541
11
41.2281024
21
7.3838541
0
LINE
8
DEFAULT_255_2_778
10
41.2281024
20
7.3838541
11
41.2774024
21
7.2158541
0
LINE
8
DEFAULT_255_2_778
10
41.2774024
20
7.2158541
11
41.4544024
21
7.3026541
0
LINE
8
DEFAULT_255_2_778
10
41.4544024
20
7.3026541
11
41.6070024
21
7.3383541
0
LINE
8
DEFAULT_255_2_778
10
41.6070024
20
7.3383541
11
41.7560024
21
7.3359541
0
LINE
8
DEFAULT_255_2_778
10
41.7560024
20
7.3359541
11
41.8811024
21
7.2970541
0
LINE
8
DEFAULT_255_2_778
10
41.8811024
20
7.2970541
11
41.9560024
21
7.2451541
0
LINE
8
DEFAULT_255_2_778
10
41.9560024
20
7.2451541
11
42.0036024
21
7.1872541
0
LINE
8
DEFAULT_255_2_778
10
42.0036024
20
7.1872541
11
42.0248024
21
7.1412541
0
LINE
8
DEFAULT_255_2_778
10
42.0248024
20
7.1412541
11
42.0325024
21
7.1134541
0
LINE
8
DEFAULT_255_2_778
10
42.0325024
20
7.1134541
11
42.0354024
21
7.0975541
0
LINE
8
DEFAULT_255_2_778
10
39.1046024
20
6.4887541
11
39.1080024
21
6.4580541
0
LINE
8
DEFAULT_255_2_778
10
39.1080024
20
6.4580541
11
39.1125024
21
6.4273541
0
LINE
8
DEFAULT_255_2_778
10
39.1125024
20
6.4273541
11
39.1242024
21
6.3665541
0
LINE
8
DEFAULT_255_2_778
10
39.1242024
20
6.3665541
11
39.1382024
21
6.3117541
0
LINE
8
DEFAULT_255_2_778
10
39.1382024
20
6.3117541
11
39.1557024
21
6.2580541
0
LINE
8
DEFAULT_255_2_778
10
39.1557024
20
6.2580541
11
39.1882024
21
6.1797541
0
LINE
8
DEFAULT_255_2_778
10
39.1882024
20
6.1797541
11
39.2279024
21
6.1067541
0
LINE
8
DEFAULT_255_2_778
10
39.2279024
20
6.1067541
11
39.2917024
21
6.0172541
0
LINE
8
DEFAULT_255_2_778
10
39.2917024
20
6.0172541
11
39.3829024
21
5.9238541
0
LINE
8
DEFAULT_255_2_778
10
39.3829024
20
5.9238541
11
39.4856024
21
5.8508541
0
LINE
8
DEFAULT_255_2_778
10
39.4856024
20
5.8508541
11
39.7065024
21
5.7683541
0
LINE
8
DEFAULT_255_2_778
10
39.7065024
20
5.7683541
11
39.9753024
21
5.7542541
0
LINE
8
DEFAULT_255_2_778
10
39.9753024
20
5.7542541
11
40.2815024
21
5.8209541
0
LINE
8
DEFAULT_255_2_778
10
40.2815024
20
5.8209541
11
40.3489024
21
5.8455541
0
LINE
8
DEFAULT_255_2_778
10
40.3489024
20
5.8455541
11
40.2997024
21
6.0027541
0
LINE
8
DEFAULT_255_2_778
10
40.2997024
20
6.0027541
11
40.1090024
21
5.9384541
0
LINE
8
DEFAULT_255_2_778
10
40.1090024
20
5.9384541
11
39.9198024
21
5.9130541
0
LINE
8
DEFAULT_255_2_778
10
39.9198024
20
5.9130541
11
39.7536024
21
5.9265541
0
LINE
8
DEFAULT_255_2_778
10
39.7536024
20
5.9265541
11
39.6311024
21
5.9688541
0
LINE
8
DEFAULT_255_2_778
10
39.6311024
20
5.9688541
11
39.5306024
21
6.0352541
0
LINE
8
DEFAULT_255_2_778
10
39.5306024
20
6.0352541
11
39.4605024
21
6.1080541
0
LINE
8
DEFAULT_255_2_778
10
39.4605024
20
6.1080541
11
39.4134024
21
6.1781541
0
LINE
8
DEFAULT_255_2_778
10
39.4134024
20
6.1781541
11
39.3742024
21
6.2583541
0
LINE
8
DEFAULT_255_2_778
10
39.3742024
20
6.2583541
11
39.3485024
21
6.3284541
0
LINE
8
DEFAULT_255_2_778
10
39.3485024
20
6.3284541
11
39.3348024
21
6.3770541
0
LINE
8
DEFAULT_255_2_778
10
39.3348024
20
6.3770541
11
39.3239024
21
6.4271541
0
LINE
8
DEFAULT_255_2_778
10
39.3239024
20
6.4271541
11
39.3157024
21
6.4776541
0
LINE
8
DEFAULT_255_2_778
10
39.3157024
20
6.4776541
11
39.3126024
21
6.5041541
0
LINE
8
DEFAULT_255_2_778
10
39.3126024
20
6.5041541
11
39.3123024
21
6.7202541
0
LINE
8
DEFAULT_255_2_778
10
39.3123024
20
6.7202541
11
39.3155024
21
6.7475541
0
LINE
8
DEFAULT_255_2_778
10
39.3155024
20
6.7475541
11
39.3239024
21
6.8014541
0
LINE
8
DEFAULT_255_2_778
10
39.3239024
20
6.8014541
11
39.3345024
21
6.8512541
0
LINE
8
DEFAULT_255_2_778
10
39.3345024
20
6.8512541
11
39.3480024
21
6.9004541
0
LINE
8
DEFAULT_255_2_778
10
39.3480024
20
6.9004541
11
39.3734024
21
6.9726541
0
LINE
8
DEFAULT_255_2_778
10
39.3734024
20
6.9726541
11
39.4044024
21
7.0401541
0
LINE
8
DEFAULT_255_2_778
10
39.4044024
20
7.0401541
11
39.4560024
21
7.1245541
0
LINE
8
DEFAULT_255_2_778
10
39.4560024
20
7.1245541
11
39.5229024
21
7.2026541
0
LINE
8
DEFAULT_255_2_778
10
39.5229024
20
7.2026541
11
39.6017024
21
7.2637541
0
LINE
8
DEFAULT_255_2_778
10
39.6017024
20
7.2637541
11
39.8108024
21
7.3327541
0
LINE
8
DEFAULT_255_2_778
10
39.8108024
20
7.3327541
11
40.0576024
21
7.3153541
0
LINE
8
DEFAULT_255_2_778
10
40.0576024
20
7.3153541
11
40.2754024
21
7.2359541
0
LINE
8
DEFAULT_255_2_778
10
40.2754024
20
7.2359541
11
40.3389024
21
7.3931541
0
LINE
8
DEFAULT_255_2_778
10
40.3389024
20
7.3931541
11
40.1534024
21
7.4605541
0
LINE
8
DEFAULT_255_2_778
10
40.1534024
20
7.4605541
11
39.9716024
21
7.4944541
0
LINE
8
DEFAULT_255_2_778
10
39.9716024
20
7.4944541
11
39.7899024
21
7.4944541
0
LINE
8
DEFAULT_255_2_778
10
39.7899024
20
7.4944541
11
39.6451024
21
7.4669541
0
LINE
8
DEFAULT_255_2_778
10
39.6451024
20
7.4669541
11
39.5158024
21
7.4153541
0
LINE
8
DEFAULT_255_2_778
10
39.5158024
20
7.4153541
11
39.4075024
21
7.3452541
0
LINE
8
DEFAULT_255_2_778
10
39.4075024
20
7.3452541
11
39.3311024
21
7.2740541
0
LINE
8
DEFAULT_255_2_778
10
39.3311024
20
7.2740541
11
39.2636024
21
7.1899541
0
LINE
8
DEFAULT_255_2_778
10
39.2636024
20
7.1899541
11
39.2067024
21
7.0946541
0
LINE
8
DEFAULT_255_2_778
10
39.2067024
20
7.0946541
11
39.1797024
21
7.0372541
0
LINE
8
DEFAULT_255_2_778
10
39.1797024
20
7.0372541
11
39.1567024
21
6.9779541
0
LINE
8
DEFAULT_255_2_778
10
39.1567024
20
6.9779541
11
39.1374024
21
6.9160541
0
LINE
8
DEFAULT_255_2_778
10
39.1374024
20
6.9160541
11
39.1221024
21
6.8520541
0
LINE
8
DEFAULT_255_2_778
10
39.1221024
20
6.8520541
11
39.1160024
21
6.8197541
0
LINE
8
DEFAULT_255_2_778
10
39.1160024
20
6.8197541
11
39.1107024
21
6.7872541
0
LINE
8
DEFAULT_255_2_778
10
39.1107024
20
6.7872541
11
39.1062024
21
6.7525541
0
LINE
8
DEFAULT_255_2_778
10
39.1062024
20
6.7525541
11
39.1046024
21
6.4892541
0
LINE
8
DEFAULT_255_2_778
10
44.5883024
20
5.9593541
11
44.5897024
21
5.9474541
0
LINE
8
DEFAULT_255_2_778
10
44.5897024
20
5.9474541
11
44.6257024
21
6.0463541
0
LINE
8
DEFAULT_255_2_778
10
44.6257024
20
6.0463541
11
44.6394024
21
6.1125541
0
LINE
8
DEFAULT_255_2_778
10
44.6394024
20
6.1125541
11
44.7093024
21
6.3202541
0
LINE
8
DEFAULT_255_2_778
10
44.7093024
20
6.3202541
11
45.1053024
21
7.4746541
0
LINE
8
DEFAULT_255_2_778
10
45.1053024
20
7.4746541
11
45.3022024
21
7.4746541
0
LINE
8
DEFAULT_255_2_778
10
45.3022024
20
7.4746541
11
44.7109024
21
5.7746541
0
LINE
8
DEFAULT_255_2_778
10
44.7109024
20
5.7746541
11
44.4553024
21
5.7746541
0
LINE
8
DEFAULT_255_2_778
10
44.4553024
20
5.7746541
11
43.8626024
21
7.4746541
0
LINE
8
DEFAULT_255_2_778
10
43.8626024
20
7.4746541
11
44.0785024
21
7.4746541
0
LINE
8
DEFAULT_255_2_778
10
44.0785024
20
7.4746541
11
44.5264024
21
6.1543541
0
LINE
8
DEFAULT_255_2_778
10
44.5264024
20
6.1543541
11
44.5873024
21
5.9651541
0
LINE
8
DEFAULT_255_2_778
10
44.5873024
20
5.9651541
11
44.5881024
21
5.9593541
0
LINE
8
DEFAULT_255_2_778
10
26.8128024
20
7.3031541
11
26.7454024
21
7.3769541
0
LINE
8
DEFAULT_255_2_778
10
26.7454024
20
7.3769541
11
26.6266024
21
7.4486541
0
LINE
8
DEFAULT_255_2_778
10
26.6266024
20
7.4486541
11
26.4591024
21
7.4925541
0
LINE
8
DEFAULT_255_2_778
10
26.4591024
20
7.4925541
11
26.2326024
21
7.4896541
0
LINE
8
DEFAULT_255_2_778
10
26.2326024
20
7.4896541
11
26.0876024
21
7.4489541
0
LINE
8
DEFAULT_255_2_778
10
26.0876024
20
7.4489541
11
25.9453024
21
7.3560541
0
LINE
8
DEFAULT_255_2_778
10
25.9453024
20
7.3560541
11
25.8815024
21
7.2726541
0
LINE
8
DEFAULT_255_2_778
10
25.8815024
20
7.2726541
11
25.8543024
21
7.2086541
0
LINE
8
DEFAULT_255_2_778
10
25.8543024
20
7.2086541
11
25.8424024
21
7.1605541
0
LINE
8
DEFAULT_255_2_778
10
25.8424024
20
7.1605541
11
25.8371024
21
7.1229541
0
LINE
8
DEFAULT_255_2_778
10
25.8371024
20
7.1229541
11
25.8392024
21
7.0060541
0
LINE
8
DEFAULT_255_2_778
10
25.8392024
20
7.0060541
11
25.8466024
21
6.9668541
0
LINE
8
DEFAULT_255_2_778
10
25.8466024
20
6.9668541
11
25.8662024
21
6.9078541
0
LINE
8
DEFAULT_255_2_778
10
25.8662024
20
6.9078541
11
25.9133024
21
6.8282541
0
LINE
8
DEFAULT_255_2_778
10
25.9133024
20
6.8282541
11
25.9990024
21
6.7480541
0
LINE
8
DEFAULT_255_2_778
10
25.9990024
20
6.7480541
11
26.1670024
21
6.6557541
0
LINE
8
DEFAULT_255_2_778
10
26.1670024
20
6.6557541
11
25.9955024
21
6.5850541
0
LINE
8
DEFAULT_255_2_778
10
25.9955024
20
6.5850541
11
25.8839024
21
6.4945541
0
LINE
8
DEFAULT_255_2_778
10
25.8839024
20
6.4945541
11
25.8307024
21
6.4210541
0
LINE
8
DEFAULT_255_2_778
10
25.8307024
20
6.4210541
11
25.8066024
21
6.3678541
0
LINE
8
DEFAULT_255_2_778
10
25.8066024
20
6.3678541
11
25.7942024
21
6.3263541
0
LINE
8
DEFAULT_255_2_778
10
25.7942024
20
6.3263541
11
25.7860024
21
6.2834541
0
LINE
8
DEFAULT_255_2_778
10
25.7860024
20
6.2834541
11
25.7884024
21
6.1207541
0
LINE
8
DEFAULT_255_2_778
10
25.7884024
20
6.1207541
11
25.7987024
21
6.0770541
0
LINE
8
DEFAULT_255_2_778
10
25.7987024
20
6.0770541
11
25.8183024
21
6.0246541
0
LINE
8
DEFAULT_255_2_778
10
25.8183024
20
6.0246541
11
25.8611024
21
5.9521541
0
LINE
8
DEFAULT_255_2_778
10
25.8611024
20
5.9521541
11
25.9426024
21
5.8712541
0
LINE
8
DEFAULT_255_2_778
10
25.9426024
20
5.8712541
11
26.0744024
21
5.7971541
0
LINE
8
DEFAULT_255_2_778
10
26.0744024
20
5.7971541
11
26.2390024
21
5.7566541
0
LINE
8
DEFAULT_255_2_778
10
26.2390024
20
5.7566541
11
26.4670024
21
5.7569541
0
LINE
8
DEFAULT_255_2_778
10
26.4670024
20
5.7569541
11
26.6644024
21
5.8122541
0
LINE
8
DEFAULT_255_2_778
10
26.6644024
20
5.8122541
11
26.7951024
21
5.9021541
0
LINE
8
DEFAULT_255_2_778
10
26.7951024
20
5.9021541
11
26.8610024
21
5.9839541
0
LINE
8
DEFAULT_255_2_778
10
26.8610024
20
5.9839541
11
26.8951024
21
6.0545541
0
LINE
8
DEFAULT_255_2_778
10
26.8951024
20
6.0545541
11
26.9107024
21
6.1059541
0
LINE
8
DEFAULT_255_2_778
10
26.9107024
20
6.1059541
11
26.9189024
21
6.1479541
0
LINE
8
DEFAULT_255_2_778
10
26.9189024
20
6.1479541
11
26.9168024
21
6.3241541
0
LINE
8
DEFAULT_255_2_778
10
26.9168024
20
6.3241541
11
26.9070024
21
6.3657541
0
LINE
8
DEFAULT_255_2_778
10
26.9070024
20
6.3657541
11
26.8848024
21
6.4239541
0
LINE
8
DEFAULT_255_2_778
10
26.8848024
20
6.4239541
11
26.8377024
21
6.4977541
0
LINE
8
DEFAULT_255_2_778
10
26.8377024
20
6.4977541
11
26.7314024
21
6.5911541
0
LINE
8
DEFAULT_255_2_778
10
26.7314024
20
6.5911541
11
26.5639024
21
6.6787541
0
LINE
8
DEFAULT_255_2_778
10
26.5639024
20
6.6787541
11
26.7499024
21
6.7935541
0
LINE
8
DEFAULT_255_2_778
10
26.7499024
20
6.7935541
11
26.8176024
21
6.8710541
0
LINE
8
DEFAULT_255_2_778
10
26.8176024
20
6.8710541
11
26.8499024
21
6.9332541
0
LINE
8
DEFAULT_255_2_778
10
26.8499024
20
6.9332541
11
26.8631024
21
6.9737541
0
LINE
8
DEFAULT_255_2_778
10
26.8631024
20
6.9737541
11
26.8692024
21
7.0023541
0
LINE
8
DEFAULT_255_2_778
10
26.8692024
20
7.0023541
11
26.8732024
21
7.0314541
0
LINE
8
DEFAULT_255_2_778
10
26.8732024
20
7.0314541
11
26.8721024
21
7.1377541
0
LINE
8
DEFAULT_255_2_778
10
26.8721024
20
7.1377541
11
26.8671024
21
7.1684541
0
LINE
8
DEFAULT_255_2_778
10
26.8671024
20
7.1684541
11
26.8557024
21
7.2124541
0
LINE
8
DEFAULT_255_2_778
10
26.8557024
20
7.2124541
11
26.8343024
21
7.2650541
0
LINE
8
DEFAULT_255_2_778
10
26.8343024
20
7.2650541
11
26.8128024
21
7.3031541
0
LINE
8
DEFAULT_255_2_778
10
26.6639024
20
6.3940541
11
26.7012024
21
6.3337541
0
LINE
8
DEFAULT_255_2_778
10
26.7012024
20
6.3337541
11
26.7173024
21
6.2860541
0
LINE
8
DEFAULT_255_2_778
10
26.7173024
20
6.2860541
11
26.7229024
21
6.2551541
0
LINE
8
DEFAULT_255_2_778
10
26.7229024
20
6.2551541
11
26.7213024
21
6.1601541
0
LINE
8
DEFAULT_255_2_778
10
26.7213024
20
6.1601541
11
26.7112024
21
6.1196541
0
LINE
8
DEFAULT_255_2_778
10
26.7112024
20
6.1196541
11
26.6853024
21
6.0651541
0
LINE
8
DEFAULT_255_2_778
10
26.6853024
20
6.0651541
11
26.6044024
21
5.9812541
0
LINE
8
DEFAULT_255_2_778
10
26.6044024
20
5.9812541
11
26.4559024
21
5.9175541
0
LINE
8
DEFAULT_255_2_778
10
26.4559024
20
5.9175541
11
26.2384024
21
5.9199541
0
LINE
8
DEFAULT_255_2_778
10
26.2384024
20
5.9199541
11
26.0937024
21
5.9849541
0
LINE
8
DEFAULT_255_2_778
10
26.0937024
20
5.9849541
11
26.0209024
21
6.0617541
0
LINE
8
DEFAULT_255_2_778
10
26.0209024
20
6.0617541
11
25.9937024
21
6.1209541
0
LINE
8
DEFAULT_255_2_778
10
25.9937024
20
6.1209541
11
25.9842024
21
6.1593541
0
LINE
8
DEFAULT_255_2_778
10
25.9842024
20
6.1593541
11
25.9863024
21
6.2871541
0
LINE
8
DEFAULT_255_2_778
10
25.9863024
20
6.2871541
11
26.0027024
21
6.3427541
0
LINE
8
DEFAULT_255_2_778
10
26.0027024
20
6.3427541
11
26.0429024
21
6.4130541
0
LINE
8
DEFAULT_255_2_778
10
26.0429024
20
6.4130541
11
26.1503024
21
6.5072541
0
LINE
8
DEFAULT_255_2_778
10
26.1503024
20
6.5072541
11
26.3596024
21
6.5805541
0
LINE
8
DEFAULT_255_2_778
10
26.3596024
20
6.5805541
11
26.6150024
21
6.4411541
0
LINE
8
DEFAULT_255_2_778
10
26.6150024
20
6.4411541
11
26.6639024
21
6.3940541
0
LINE
8
DEFAULT_255_2_778
10
26.6316024
20
7.2290541
11
26.6649024
21
7.1655541
0
LINE
8
DEFAULT_255_2_778
10
26.6649024
20
7.1655541
11
26.6750024
21
7.1240541
0
LINE
8
DEFAULT_255_2_778
10
26.6750024
20
7.1240541
11
26.6739024
21
7.0134541
0
LINE
8
DEFAULT_255_2_778
10
26.6739024
20
7.0134541
11
26.6602024
21
6.9636541
0
LINE
8
DEFAULT_255_2_778
10
26.6602024
20
6.9636541
11
26.6163024
21
6.8885541
0
LINE
8
DEFAULT_255_2_778
10
26.6163024
20
6.8885541
11
26.4961024
21
6.7888541
0
LINE
8
DEFAULT_255_2_778
10
26.4961024
20
6.7888541
11
26.4104024
21
6.7430541
0
LINE
8
DEFAULT_255_2_778
10
26.4104024
20
6.7430541
11
26.1202024
21
6.8864541
0
LINE
8
DEFAULT_255_2_778
10
26.1202024
20
6.8864541
11
26.0606024
21
6.9544541
0
LINE
8
DEFAULT_255_2_778
10
26.0606024
20
6.9544541
11
26.0397024
21
7.0060541
0
LINE
8
DEFAULT_255_2_778
10
26.0397024
20
7.0060541
11
26.0339024
21
7.0346541
0
LINE
8
DEFAULT_255_2_778
10
26.0339024
20
7.0346541
11
26.0366024
21
7.1354541
0
LINE
8
DEFAULT_255_2_778
10
26.0366024
20
7.1354541
11
26.0498024
21
7.1814541
0
LINE
8
DEFAULT_255_2_778
10
26.0498024
20
7.1814541
11
26.0818024
21
7.2362541
0
LINE
8
DEFAULT_255_2_778
10
26.0818024
20
7.2362541
11
26.1773024
21
7.3068541
0
LINE
8
DEFAULT_255_2_778
10
26.1773024
20
7.3068541
11
26.3668024
21
7.3415541
0
LINE
8
DEFAULT_255_2_778
10
26.3668024
20
7.3415541
11
26.5089024
21
7.3153541
0
LINE
8
DEFAULT_255_2_778
10
26.5089024
20
7.3153541
11
26.6263024
21
7.2351541
0
LINE
8
DEFAULT_255_2_778
10
26.6263024
20
7.2351541
11
26.6316024
21
7.2290541
0
LINE
8
DEFAULT_255_2_778
10
29.0419314
20
7.1404541
11
29.0782314
21
7.0640541
0
LINE
8
DEFAULT_255_2_778
10
29.0782314
20
7.0640541
11
29.0980314
21
7.0110541
0
LINE
8
DEFAULT_255_2_778
10
29.0980314
20
7.0110541
11
29.1155314
21
6.9531541
0
LINE
8
DEFAULT_255_2_778
10
29.1155314
20
6.9531541
11
29.1295314
21
6.8941541
0
LINE
8
DEFAULT_255_2_778
10
29.1295314
20
6.8941541
11
29.1401314
21
6.8343541
0
LINE
8
DEFAULT_255_2_778
10
29.1401314
20
6.8343541
11
29.1446314
21
6.8012541
0
LINE
8
DEFAULT_255_2_778
10
29.1446314
20
6.8012541
11
29.1459314
21
6.4792541
0
LINE
8
DEFAULT_255_2_778
10
29.1459314
20
6.4792541
11
29.1412314
21
6.4406541
0
LINE
8
DEFAULT_255_2_778
10
29.1412314
20
6.4406541
11
29.1314314
21
6.3824541
0
LINE
8
DEFAULT_255_2_778
10
29.1314314
20
6.3824541
11
29.1184314
21
6.3250541
0
LINE
8
DEFAULT_255_2_778
10
29.1184314
20
6.3250541
11
29.1020314
21
6.2684541
0
LINE
8
DEFAULT_255_2_778
10
29.1020314
20
6.2684541
11
29.0732314
21
6.1914541
0
LINE
8
DEFAULT_255_2_778
10
29.0732314
20
6.1914541
11
29.0366314
21
6.1175541
0
LINE
8
DEFAULT_255_2_778
10
29.0366314
20
6.1175541
11
28.9853314
21
6.0387541
0
LINE
8
DEFAULT_255_2_778
10
28.9853314
20
6.0387541
11
28.9067314
21
5.9522541
0
LINE
8
DEFAULT_255_2_778
10
28.9067314
20
5.9522541
11
28.7964314
21
5.8728541
0
LINE
8
DEFAULT_255_2_778
10
28.7964314
20
5.8728541
11
28.6657314
21
5.8180541
0
LINE
8
DEFAULT_255_2_778
10
28.6657314
20
5.8180541
11
28.4974314
21
5.7860541
0
LINE
8
DEFAULT_255_2_778
10
28.4974314
20
5.7860541
11
28.2495314
21
5.7744541
0
LINE
8
DEFAULT_255_2_778
10
28.2495314
20
5.7744541
11
27.8955314
21
5.7744541
0
LINE
8
DEFAULT_255_2_778
10
27.8955314
20
5.7744541
11
27.8955314
21
7.4743541
0
LINE
8
DEFAULT_255_2_778
10
27.8955314
20
7.4743541
11
28.4551314
21
7.4688541
0
LINE
8
DEFAULT_255_2_778
10
28.4551314
20
7.4688541
11
28.6554314
21
7.4405541
0
LINE
8
DEFAULT_255_2_778
10
28.6554314
20
7.4405541
11
28.7969314
21
7.3870541
0
LINE
8
DEFAULT_255_2_778
10
28.7969314
20
7.3870541
11
28.9030314
21
7.3153541
0
LINE
8
DEFAULT_255_2_778
10
28.9030314
20
7.3153541
11
28.9782314
21
7.2367541
0
LINE
8
DEFAULT_255_2_778
10
28.9782314
20
7.2367541
11
29.0279314
21
7.1648541
0
LINE
8
DEFAULT_255_2_778
10
29.0279314
20
7.1648541
11
29.0419314
21
7.1404541
0
LINE
8
DEFAULT_255_2_778
10
28.8443314
20
7.0698541
11
28.8808314
21
6.9930541
0
LINE
8
DEFAULT_255_2_778
10
28.8808314
20
6.9930541
11
28.9036314
21
6.9277541
0
LINE
8
DEFAULT_255_2_778
10
28.9036314
20
6.9277541
11
28.9173314
21
6.8761541
0
LINE
8
DEFAULT_255_2_778
10
28.9173314
20
6.8761541
11
28.9282314
21
6.8237541
0
LINE
8
DEFAULT_255_2_778
10
28.9282314
20
6.8237541
11
28.9364314
21
6.7682541
0
LINE
8
DEFAULT_255_2_778
10
28.9364314
20
6.7682541
11
28.9395314
21
6.7388541
0
LINE
8
DEFAULT_255_2_778
10
28.9395314
20
6.7388541
11
28.9390314
21
6.5033541
0
LINE
8
DEFAULT_255_2_778
10
28.9390314
20
6.5033541
11
28.9358314
21
6.4763541
0
LINE
8
DEFAULT_255_2_778
10
28.9358314
20
6.4763541
11
28.9274314
21
6.4226541
0
LINE
8
DEFAULT_255_2_778
10
28.9274314
20
6.4226541
11
28.9157314
21
6.3713541
0
LINE
8
DEFAULT_255_2_778
10
28.9157314
20
6.3713541
11
28.9014314
21
6.3226541
0
LINE
8
DEFAULT_255_2_778
10
28.9014314
20
6.3226541
11
28.8760314
21
6.2567541
0
LINE
8
DEFAULT_255_2_778
10
28.8760314
20
6.2567541
11
28.8348314
21
6.1781541
0
LINE
8
DEFAULT_255_2_778
10
28.8348314
20
6.1781541
11
28.7858314
21
6.1115541
0
LINE
8
DEFAULT_255_2_778
10
28.7858314
20
6.1115541
11
28.7141314
21
6.0456541
0
LINE
8
DEFAULT_255_2_778
10
28.7141314
20
6.0456541
11
28.5980314
21
5.9850541
0
LINE
8
DEFAULT_255_2_778
10
28.5980314
20
5.9850541
11
28.4477314
21
5.9485541
0
LINE
8
DEFAULT_255_2_778
10
28.4477314
20
5.9485541
11
28.2633314
21
5.9363541
0
LINE
8
DEFAULT_255_2_778
10
28.2633314
20
5.9363541
11
28.0918314
21
5.9363541
0
LINE
8
DEFAULT_255_2_778
10
28.0918314
20
5.9363541
11
28.0918314
21
7.3124541
0
LINE
8
DEFAULT_255_2_778
10
28.0918314
20
7.3124541
11
28.4972314
21
7.3005541
0
LINE
8
DEFAULT_255_2_778
10
28.4972314
20
7.3005541
11
28.6313314
21
7.2658541
0
LINE
8
DEFAULT_255_2_778
10
28.6313314
20
7.2658541
11
28.7252314
21
7.2116541
0
LINE
8
DEFAULT_255_2_778
10
28.7252314
20
7.2116541
11
28.7906314
21
7.1484541
0
LINE
8
DEFAULT_255_2_778
10
28.7906314
20
7.1484541
11
28.8443314
21
7.0698541
0
LINE
8
DEFAULT_255_2_778
10
30.8697314
20
6.9708541
11
30.8485314
21
7.0285541
0
LINE
8
DEFAULT_255_2_778
10
30.8485314
20
7.0285541
11
30.8139314
21
7.1044541
0
LINE
8
DEFAULT_255_2_778
10
30.8139314
20
7.1044541
11
30.7601314
21
7.1955541
0
LINE
8
DEFAULT_255_2_778
10
30.7601314
20
7.1955541
11
30.6845314
21
7.2915541
0
LINE
8
DEFAULT_255_2_778
10
30.6845314
20
7.2915541
11
30.5993314
21
7.3693541
0
LINE
8
DEFAULT_255_2_778
10
30.5993314
20
7.3693541
11
30.4823314
21
7.4386541
0
LINE
8
DEFAULT_255_2_778
10
30.4823314
20
7.4386541
11
30.3440314
21
7.4828541
0
LINE
8
DEFAULT_255_2_778
10
30.3440314
20
7.4828541
11
30.1529314
21
7.4984541
0
LINE
8
DEFAULT_255_2_778
10
30.1529314
20
7.4984541
11
29.9947314
21
7.4801541
0
LINE
8
DEFAULT_255_2_778
10
29.9947314
20
7.4801541
11
29.8521314
21
7.4323541
0
LINE
8
DEFAULT_255_2_778
10
29.8521314
20
7.4323541
11
29.7370314
21
7.3624541
0
LINE
8
DEFAULT_255_2_778
10
29.7370314
20
7.3624541
11
29.6510314
21
7.2841541
0
LINE
8
DEFAULT_255_2_778
10
29.6510314
20
7.2841541
11
29.5851314
21
7.2002541
0
LINE
8
DEFAULT_255_2_778
10
29.5851314
20
7.2002541
11
29.5309314
21
7.1079541
0
LINE
8
DEFAULT_255_2_778
10
29.5309314
20
7.1079541
11
29.4965314
21
7.0327541
0
LINE
8
DEFAULT_255_2_778
10
29.4965314
20
7.0327541
11
29.4669314
21
6.9507541
0
LINE
8
DEFAULT_255_2_778
10
29.4669314
20
6.9507541
11
29.4510314
21
6.8944541
0
LINE
8
DEFAULT_255_2_778
10
29.4510314
20
6.8944541
11
29.4383314
21
6.8367541
0
LINE
8
DEFAULT_255_2_778
10
29.4383314
20
6.8367541
11
29.4290314
21
6.7782541
0
LINE
8
DEFAULT_255_2_778
10
29.4290314
20
6.7782541
11
29.4253314
21
6.7478541
0
LINE
8
DEFAULT_255_2_778
10
29.4253314
20
6.7478541
11
29.4258314
21
6.4946541
0
LINE
8
DEFAULT_255_2_778
10
29.4258314
20
6.4946541
11
29.4298314
21
6.4620541
0
LINE
8
DEFAULT_255_2_778
10
29.4298314
20
6.4620541
11
29.4348314
21
6.4295541
0
LINE
8
DEFAULT_255_2_778
10
29.4348314
20
6.4295541
11
29.4473314
21
6.3673541
0
LINE
8
DEFAULT_255_2_778
10
29.4473314
20
6.3673541
11
29.4629314
21
6.3078541
0
LINE
8
DEFAULT_255_2_778
10
29.4629314
20
6.3078541
11
29.4822314
21
6.2496541
0
LINE
8
DEFAULT_255_2_778
10
29.4822314
20
6.2496541
11
29.5161314
21
6.1686541
0
LINE
8
DEFAULT_255_2_778
10
29.5161314
20
6.1686541
11
29.5669314
21
6.0763541
0
LINE
8
DEFAULT_255_2_778
10
29.5669314
20
6.0763541
11
29.6417314
21
5.9755541
0
LINE
8
DEFAULT_255_2_778
10
29.6417314
20
5.9755541
11
29.7251314
21
5.8945541
0
LINE
8
DEFAULT_255_2_778
10
29.7251314
20
5.8945541
11
29.8415314
21
5.8207541
0
LINE
8
DEFAULT_255_2_778
10
29.8415314
20
5.8207541
11
29.9727314
21
5.7736541
0
LINE
8
DEFAULT_255_2_778
10
29.9727314
20
5.7736541
11
30.1712314
21
5.7511541
0
LINE
8
DEFAULT_255_2_778
10
30.1712314
20
5.7511541
11
30.3527314
21
5.7699541
0
LINE
8
DEFAULT_255_2_778
10
30.3527314
20
5.7699541
11
30.4929314
21
5.8178541
0
LINE
8
DEFAULT_255_2_778
10
30.4929314
20
5.8178541
11
30.6064314
21
5.8876541
0
LINE
8
DEFAULT_255_2_778
10
30.6064314
20
5.8876541
11
30.6914314
21
5.9659541
0
LINE
8
DEFAULT_255_2_778
10
30.6914314
20
5.9659541
11
30.7567314
21
6.0501541
0
LINE
8
DEFAULT_255_2_778
10
30.7567314
20
6.0501541
11
30.8104314
21
6.1421541
0
LINE
8
DEFAULT_255_2_778
10
30.8104314
20
6.1421541
11
30.8448314
21
6.2170541
0
LINE
8
DEFAULT_255_2_778
10
30.8448314
20
6.2170541
11
30.8744314
21
6.2990541
0
LINE
8
DEFAULT_255_2_778
10
30.8744314
20
6.2990541
11
30.8903314
21
6.3554541
0
LINE
8
DEFAULT_255_2_778
10
30.8903314
20
6.3554541
11
30.9030314
21
6.4133541
0
LINE
8
DEFAULT_255_2_778
10
30.9030314
20
6.4133541
11
30.9123314
21
6.4718541
0
LINE
8
DEFAULT_255_2_778
10
30.9123314
20
6.4718541
11
30.9160314
21
6.5025541
0
LINE
8
DEFAULT_255_2_778
10
30.9160314
20
6.5025541
11
30.9155314
21
6.7560541
0
LINE
8
DEFAULT_255_2_778
10
30.9155314
20
6.7560541
11
30.9115314
21
6.7883541
0
LINE
8
DEFAULT_255_2_778
10
30.9115314
20
6.7883541
11
30.9065314
21
6.8205541
0
LINE
8
DEFAULT_255_2_778
10
30.9065314
20
6.8205541
11
30.8940314
21
6.8827541
0
LINE
8
DEFAULT_255_2_778
10
30.8940314
20
6.8827541
11
30.8784314
21
6.9420541
0
LINE
8
DEFAULT_255_2_778
10
30.8784314
20
6.9420541
11
30.8697314
21
6.9708541
0
LINE
8
DEFAULT_255_2_778
10
30.6527314
20
6.9930541
11
30.6752314
21
6.9272541
0
LINE
8
DEFAULT_255_2_778
10
30.6752314
20
6.9272541
11
30.6919314
21
6.8594541
0
LINE
8
DEFAULT_255_2_778
10
30.6919314
20
6.8594541
11
30.7011314
21
6.8068541
0
LINE
8
DEFAULT_255_2_778
10
30.7011314
20
6.8068541
11
30.6988314
21
6.4305541
0
LINE
8
DEFAULT_255_2_778
10
30.6988314
20
6.4305541
11
30.6895314
21
6.3819541
0
LINE
8
DEFAULT_255_2_778
10
30.6895314
20
6.3819541
11
30.6776314
21
6.3337541
0
LINE
8
DEFAULT_255_2_778
10
30.6776314
20
6.3337541
11
30.6543314
21
6.2633541
0
LINE
8
DEFAULT_255_2_778
10
30.6543314
20
6.2633541
11
30.6268314
21
6.2014541
0
LINE
8
DEFAULT_255_2_778
10
30.6268314
20
6.2014541
11
30.5699314
21
6.1093541
0
LINE
8
DEFAULT_255_2_778
10
30.5699314
20
6.1093541
11
30.4971314
21
6.0294541
0
LINE
8
DEFAULT_255_2_778
10
30.4971314
20
6.0294541
11
30.3966314
21
5.9617541
0
LINE
8
DEFAULT_255_2_778
10
30.3966314
20
5.9617541
11
30.2622314
21
5.9196541
0
LINE
8
DEFAULT_255_2_778
10
30.2622314
20
5.9196541
11
30.0958314
21
5.9175541
0
LINE
8
DEFAULT_255_2_778
10
30.0958314
20
5.9175541
11
29.9550314
21
5.9572541
0
LINE
8
DEFAULT_255_2_778
10
29.9550314
20
5.9572541
11
29.8489314
21
6.0249541
0
LINE
8
DEFAULT_255_2_778
10
29.8489314
20
6.0249541
11
29.7846314
21
6.0906541
0
LINE
8
DEFAULT_255_2_778
10
29.7846314
20
6.0906541
11
29.7359314
21
6.1599541
0
LINE
8
DEFAULT_255_2_778
10
29.7359314
20
6.1599541
11
29.6973314
21
6.2353541
0
LINE
8
DEFAULT_255_2_778
10
29.6973314
20
6.2353541
11
29.6727314
21
6.3006541
0
LINE
8
DEFAULT_255_2_778
10
29.6727314
20
6.3006541
11
29.6542314
21
6.3679541
0
LINE
8
DEFAULT_255_2_778
10
29.6542314
20
6.3679541
11
29.6449314
21
6.4133541
0
LINE
8
DEFAULT_255_2_778
10
29.6449314
20
6.4133541
11
29.6399314
21
6.4432541
0
LINE
8
DEFAULT_255_2_778
10
29.6399314
20
6.4432541
11
29.6420314
21
6.8184541
0
LINE
8
DEFAULT_255_2_778
10
29.6420314
20
6.8184541
11
29.6513314
21
6.8671541
0
LINE
8
DEFAULT_255_2_778
10
29.6513314
20
6.8671541
11
29.6629314
21
6.9153541
0
LINE
8
DEFAULT_255_2_778
10
29.6629314
20
6.9153541
11
29.6859314
21
6.9856541
0
LINE
8
DEFAULT_255_2_778
10
29.6859314
20
6.9856541
11
29.7132314
21
7.0478541
0
LINE
8
DEFAULT_255_2_778
10
29.7132314
20
7.0478541
11
29.7698314
21
7.1404541
0
LINE
8
DEFAULT_255_2_778
10
29.7698314
20
7.1404541
11
29.8420314
21
7.2203541
0
LINE
8
DEFAULT_255_2_778
10
29.8420314
20
7.2203541
11
29.9418314
21
7.2881541
0
LINE
8
DEFAULT_255_2_778
10
29.9418314
20
7.2881541
11
30.0632314
21
7.3283541
0
LINE
8
DEFAULT_255_2_778
10
30.0632314
20
7.3283541
11
30.2408314
21
7.3325541
0
LINE
8
DEFAULT_255_2_778
10
30.2408314
20
7.3325541
11
30.3842314
21
7.2928541
0
LINE
8
DEFAULT_255_2_778
10
30.3842314
20
7.2928541
11
30.4913314
21
7.2251541
0
LINE
8
DEFAULT_255_2_778
10
30.4913314
20
7.2251541
11
30.5559314
21
7.1595541
0
LINE
8
DEFAULT_255_2_778
10
30.5559314
20
7.1595541
11
30.6046314
21
7.0901541
0
LINE
8
DEFAULT_255_2_778
10
30.6046314
20
7.0901541
11
30.6432314
21
7.0147541
0
LINE
8
DEFAULT_255_2_778
10
30.6432314
20
7.0147541
11
30.6527314
21
6.9930541
0
LINE
8
DEFAULT_255_2_778
10
32.9390314
20
6.9507541
11
32.9258314
21
7.0150541
0
LINE
8
DEFAULT_255_2_778
10
32.9258314
20
7.0150541
11
32.9086314
21
7.0788541
0
LINE
8
DEFAULT_255_2_778
10
32.9086314
20
7.0788541
11
32.8758314
21
7.1695541
0
LINE
8
DEFAULT_255_2_778
10
32.8758314
20
7.1695541
11
32.8387314
21
7.2452541
0
LINE
8
DEFAULT_255_2_778
10
32.8387314
20
7.2452541
11
32.7929314
21
7.3148541
0
LINE
8
DEFAULT_255_2_778
10
32.7929314
20
7.3148541
11
32.7379314
21
7.3754541
0
LINE
8
DEFAULT_255_2_778
10
32.7379314
20
7.3754541
11
32.6572314
21
7.4331541
0
LINE
8
DEFAULT_255_2_778
10
32.6572314
20
7.4331541
11
32.5268314
21
7.4817541
0
LINE
8
DEFAULT_255_2_778
10
32.5268314
20
7.4817541
11
32.3633314
21
7.4984541
0
LINE
8
DEFAULT_255_2_778
10
32.3633314
20
7.4984541
11
32.2265314
21
7.4809541
0
LINE
8
DEFAULT_255_2_778
10
32.2265314
20
7.4809541
11
32.1066314
21
7.4349541
0
LINE
8
DEFAULT_255_2_778
10
32.1066314
20
7.4349541
11
32.0214314
21
7.3767541
0
LINE
8
DEFAULT_255_2_778
10
32.0214314
20
7.3767541
11
31.9553314
21
7.3063541
0
LINE
8
DEFAULT_255_2_778
10
31.9553314
20
7.3063541
11
31.9031314
21
7.2248541
0
LINE
8
DEFAULT_255_2_778
10
31.9031314
20
7.2248541
11
31.8725314
21
7.1581541
0
LINE
8
DEFAULT_255_2_778
10
31.8725314
20
7.1581541
11
31.8484314
21
7.0888541
0
LINE
8
DEFAULT_255_2_778
10
31.8484314
20
7.0888541
11
31.8333314
21
7.0325541
0
LINE
8
DEFAULT_255_2_778
10
31.8333314
20
7.0325541
11
31.8195314
21
6.9663541
0
LINE
8
DEFAULT_255_2_778
10
31.8195314
20
6.9663541
11
31.8092314
21
6.8994541
0
LINE
8
DEFAULT_255_2_778
10
31.8092314
20
6.8994541
11
31.8113314
21
6.3332541
0
LINE
8
DEFAULT_255_2_778
10
31.8113314
20
6.3332541
11
31.8172314
21
6.2961541
0
LINE
8
DEFAULT_255_2_778
10
31.8172314
20
6.2961541
11
31.8240314
21
6.2594541
0
LINE
8
DEFAULT_255_2_778
10
31.8240314
20
6.2594541
11
31.8383314
21
6.1972541
0
LINE
8
DEFAULT_255_2_778
10
31.8383314
20
6.1972541
11
31.8529314
21
6.1464541
0
LINE
8
DEFAULT_255_2_778
10
31.8529314
20
6.1464541
11
31.8807314
21
6.0718541
0
LINE
8
DEFAULT_255_2_778
10
31.8807314
20
6.0718541
11
31.9198314
21
5.9950541
0
LINE
8
DEFAULT_255_2_778
10
31.9198314
20
5.9950541
11
31.9693314
21
5.9249541
0
LINE
8
DEFAULT_255_2_778
10
31.9693314
20
5.9249541
11
32.0431314
21
5.8540541
0
LINE
8
DEFAULT_255_2_778
10
32.0431314
20
5.8540541
11
32.1458314
21
5.7937541
0
LINE
8
DEFAULT_255_2_778
10
32.1458314
20
5.7937541
11
32.2910314
21
5.7556541
0
LINE
8
DEFAULT_255_2_778
10
32.2910314
20
5.7556541
11
32.4683314
21
5.7559541
0
LINE
8
DEFAULT_255_2_778
10
32.4683314
20
5.7559541
11
32.5964314
21
5.7879541
0
LINE
8
DEFAULT_255_2_778
10
32.5964314
20
5.7879541
11
32.7035314
21
5.8466541
0
LINE
8
DEFAULT_255_2_778
10
32.7035314
20
5.8466541
11
32.7794314
21
5.9165541
0
LINE
8
DEFAULT_255_2_778
10
32.7794314
20
5.9165541
11
32.8292314
21
5.9837541
0
LINE
8
DEFAULT_255_2_778
10
32.8292314
20
5.9837541
11
32.8636314
21
6.0461541
0
LINE
8
DEFAULT_255_2_778
10
32.8636314
20
6.0461541
11
32.8919314
21
6.1141541
0
LINE
8
DEFAULT_255_2_778
10
32.8919314
20
6.1141541
11
32.9139314
21
6.1842541
0
LINE
8
DEFAULT_255_2_778
10
32.9139314
20
6.1842541
11
32.9297314
21
6.2504541
0
LINE
8
DEFAULT_255_2_778
10
32.9297314
20
6.2504541
11
32.9419314
21
6.3173541
0
LINE
8
DEFAULT_255_2_778
10
32.9419314
20
6.3173541
11
32.9467314
21
6.3509541
0
LINE
8
DEFAULT_255_2_778
10
32.9467314
20
6.3509541
11
32.9506314
21
6.3845541
0
LINE
8
DEFAULT_255_2_778
10
32.9506314
20
6.3845541
11
32.9551314
21
6.4324541
0
LINE
8
DEFAULT_255_2_778
10
32.9551314
20
6.4324541
11
32.9533314
21
6.8533541
0
LINE
8
DEFAULT_255_2_778
10
32.9533314
20
6.8533541
11
32.9496314
21
6.8859541
0
LINE
8
DEFAULT_255_2_778
10
32.9496314
20
6.8859541
11
32.9451314
21
6.9182541
0
LINE
8
DEFAULT_255_2_778
10
32.9451314
20
6.9182541
11
32.9390314
21
6.9507541
0
LINE
8
DEFAULT_255_2_778
10
32.7326314
20
6.9872541
11
32.7432314
21
6.9298541
0
LINE
8
DEFAULT_255_2_778
10
32.7432314
20
6.9298541
11
32.7509314
21
6.8719541
0
LINE
8
DEFAULT_255_2_778
10
32.7509314
20
6.8719541
11
32.7503314
21
6.3718541
0
LINE
8
DEFAULT_255_2_778
10
32.7503314
20
6.3718541
11
32.7429314
21
6.3176541
0
LINE
8
DEFAULT_255_2_778
10
32.7429314
20
6.3176541
11
32.7331314
21
6.2639541
0
LINE
8
DEFAULT_255_2_778
10
32.7331314
20
6.2639541
11
32.7173314
21
6.2009541
0
LINE
8
DEFAULT_255_2_778
10
32.7173314
20
6.2009541
11
32.6892314
21
6.1242541
0
LINE
8
DEFAULT_255_2_778
10
32.6892314
20
6.1242541
11
32.6490314
21
6.0522541
0
LINE
8
DEFAULT_255_2_778
10
32.6490314
20
6.0522541
11
32.5797314
21
5.9779541
0
LINE
8
DEFAULT_255_2_778
10
32.5797314
20
5.9779541
11
32.4982314
21
5.9323541
0
LINE
8
DEFAULT_255_2_778
10
32.4982314
20
5.9323541
11
32.3492314
21
5.9135541
0
LINE
8
DEFAULT_255_2_778
10
32.3492314
20
5.9135541
11
32.2278314
21
5.9445541
0
LINE
8
DEFAULT_255_2_778
10
32.2278314
20
5.9445541
11
32.1511314
21
5.9979541
0
LINE
8
DEFAULT_255_2_778
10
32.1511314
20
5.9979541
11
32.0960314
21
6.0659541
0
LINE
8
DEFAULT_255_2_778
10
32.0960314
20
6.0659541
11
32.0659314
21
6.1220541
0
LINE
8
DEFAULT_255_2_778
10
32.0659314
20
6.1220541
11
32.0444314
21
6.1773541
0
LINE
8
DEFAULT_255_2_778
10
32.0444314
20
6.1773541
11
32.0280314
21
6.2345541
0
LINE
8
DEFAULT_255_2_778
10
32.0280314
20
6.2345541
11
32.0159314
21
6.2916541
0
LINE
8
DEFAULT_255_2_778
10
32.0159314
20
6.2916541
11
32.0069314
21
6.3493541
0
LINE
8
DEFAULT_255_2_778
10
32.0069314
20
6.3493541
11
32.0005314
21
6.4075541
0
LINE
8
DEFAULT_255_2_778
10
32.0005314
20
6.4075541
11
32.0010314
21
6.8399541
0
LINE
8
DEFAULT_255_2_778
10
32.0010314
20
6.8399541
11
32.0050314
21
6.8756541
0
LINE
8
DEFAULT_255_2_778
10
32.0050314
20
6.8756541
11
32.0129314
21
6.9330541
0
LINE
8
DEFAULT_255_2_778
10
32.0129314
20
6.9330541
11
32.0251314
21
6.9973541
0
LINE
8
DEFAULT_255_2_778
10
32.0251314
20
6.9973541
11
32.0420314
21
7.0605541
0
LINE
8
DEFAULT_255_2_778
10
32.0420314
20
7.0605541
11
32.0712314
21
7.1357541
0
LINE
8
DEFAULT_255_2_778
10
32.0712314
20
7.1357541
11
32.1169314
21
7.2127541
0
LINE
8
DEFAULT_255_2_778
10
32.1169314
20
7.2127541
11
32.1878314
21
7.2806541
0
LINE
8
DEFAULT_255_2_778
10
32.1878314
20
7.2806541
11
32.2786314
21
7.3238541
0
LINE
8
DEFAULT_255_2_778
10
32.2786314
20
7.3238541
11
32.4297314
21
7.3328541
0
LINE
8
DEFAULT_255_2_778
10
32.4297314
20
7.3328541
11
32.5485314
21
7.2918541
0
LINE
8
DEFAULT_255_2_778
10
32.5485314
20
7.2918541
11
32.6231314
21
7.2301541
0
LINE
8
DEFAULT_255_2_778
10
32.6231314
20
7.2301541
11
32.6733314
21
7.1576541
0
LINE
8
DEFAULT_255_2_778
10
32.6733314
20
7.1576541
11
32.7035314
21
7.0907541
0
LINE
8
DEFAULT_255_2_778
10
32.7035314
20
7.0907541
11
32.7212314
21
7.0346541
0
LINE
8
DEFAULT_255_2_778
10
32.7212314
20
7.0346541
11
32.7326314
21
6.9872541
0
LINE
8
DEFAULT_255_2_778
10
36.4939314
20
5.7746541
11
36.2852314
21
6.3697541
0
LINE
8
DEFAULT_255_2_778
10
36.2852314
20
6.3697541
11
35.6518314
21
6.3697541
0
LINE
8
DEFAULT_255_2_778
10
35.6518314
20
6.3697541
11
35.4430314
21
5.7746541
0
LINE
8
DEFAULT_255_2_778
10
35.4430314
20
5.7746541
11
35.2438314
21
5.7746541
0
LINE
8
DEFAULT_255_2_778
10
35.2438314
20
5.7746541
11
35.8483314
21
7.4746541
0
LINE
8
DEFAULT_255_2_778
10
35.8483314
20
7.4746541
11
36.0968314
21
7.4746541
0
LINE
8
DEFAULT_255_2_778
10
36.0968314
20
7.4746541
11
36.7061314
21
5.7746541
0
LINE
8
DEFAULT_255_2_778
10
36.7061314
20
5.7746541
11
36.4939314
21
5.7746541
0
LINE
8
DEFAULT_255_2_778
10
35.9976314
20
7.2278541
11
36.0238314
21
7.1317541
0
LINE
8
DEFAULT_255_2_778
10
36.0238314
20
7.1317541
11
36.2267314
21
6.5316541
0
LINE
8
DEFAULT_255_2_778
10
36.2267314
20
6.5316541
11
35.7108314
21
6.5316541
0
LINE
8
DEFAULT_255_2_778
10
35.7108314
20
6.5316541
11
35.9079314
21
7.1052541
0
LINE
8
DEFAULT_255_2_778
10
35.9079314
20
7.1052541
11
35.9690314
21
7.2902541
0
LINE
8
DEFAULT_255_2_778
10
35.9690314
20
7.2902541
11
35.9711314
21
7.3066541
0
LINE
8
DEFAULT_255_2_778
10
35.9711314
20
7.3066541
11
35.9976314
21
7.2278541
0
LINE
8
DEFAULT_255_2_778
10
38.6124314
20
6.7978541
11
38.6164314
21
6.7687541
0
LINE
8
DEFAULT_255_2_778
10
38.6164314
20
6.7687541
11
38.6196314
21
6.7393541
0
LINE
8
DEFAULT_255_2_778
10
38.6196314
20
6.7393541
11
38.6191314
21
6.5038541
0
LINE
8
DEFAULT_255_2_778
10
38.6191314
20
6.5038541
11
38.6159314
21
6.4768541
0
LINE
8
DEFAULT_255_2_778
10
38.6159314
20
6.4768541
11
38.6074314
21
6.4231541
0
LINE
8
DEFAULT_255_2_778
10
38.6074314
20
6.4231541
11
38.5958314
21
6.3718541
0
LINE
8
DEFAULT_255_2_778
10
38.5958314
20
6.3718541
11
38.5815314
21
6.3231541
0
LINE
8
DEFAULT_255_2_778
10
38.5815314
20
6.3231541
11
38.5561314
21
6.2572541
0
LINE
8
DEFAULT_255_2_778
10
38.5561314
20
6.2572541
11
38.5148314
21
6.1787541
0
LINE
8
DEFAULT_255_2_778
10
38.5148314
20
6.1787541
11
38.4659314
21
6.1120541
0
LINE
8
DEFAULT_255_2_778
10
38.4659314
20
6.1120541
11
38.3942314
21
6.0461541
0
LINE
8
DEFAULT_255_2_778
10
38.3942314
20
6.0461541
11
38.2780314
21
5.9855541
0
LINE
8
DEFAULT_255_2_778
10
38.2780314
20
5.9855541
11
38.1277314
21
5.9490541
0
LINE
8
DEFAULT_255_2_778
10
38.1277314
20
5.9490541
11
37.9433314
21
5.9368541
0
LINE
8
DEFAULT_255_2_778
10
37.9433314
20
5.9368541
11
37.7719314
21
5.9368541
0
LINE
8
DEFAULT_255_2_778
10
37.7719314
20
5.9368541
11
37.7719314
21
7.3129541
0
LINE
8
DEFAULT_255_2_778
10
37.7719314
20
7.3129541
11
38.1772314
21
7.3010541
0
LINE
8
DEFAULT_255_2_778
10
38.1772314
20
7.3010541
11
38.3114314
21
7.2664541
0
LINE
8
DEFAULT_255_2_778
10
38.3114314
20
7.2664541
11
38.4053314
21
7.2121541
0
LINE
8
DEFAULT_255_2_778
10
38.4053314
20
7.2121541
11
38.4706314
21
7.1489541
0
LINE
8
DEFAULT_255_2_778
10
38.4706314
20
7.1489541
11
38.5241314
21
7.0703541
0
LINE
8
DEFAULT_255_2_778
10
38.5241314
20
7.0703541
11
38.5606314
21
6.9936541
0
LINE
8
DEFAULT_255_2_778
10
38.5606314
20
6.9936541
11
38.5833314
21
6.9282541
0
LINE
8
DEFAULT_255_2_778
10
38.5833314
20
6.9282541
11
38.5971314
21
6.8766541
0
LINE
8
DEFAULT_255_2_778
10
38.5971314
20
6.8766541
11
38.6079314
21
6.8242541
0
LINE
8
DEFAULT_255_2_778
10
38.6079314
20
6.8242541
11
38.6124314
21
6.7978541
0
LINE
8
DEFAULT_255_2_778
10
38.8196314
20
6.8346541
11
38.8241314
21
6.8015541
0
LINE
8
DEFAULT_255_2_778
10
38.8241314
20
6.8015541
11
38.8254314
21
6.4795541
0
LINE
8
DEFAULT_255_2_778
10
38.8254314
20
6.4795541
11
38.8207314
21
6.4409541
0
LINE
8
DEFAULT_255_2_778
10
38.8207314
20
6.4409541
11
38.8109314
21
6.3827541
0
LINE
8
DEFAULT_255_2_778
10
38.8109314
20
6.3827541
11
38.7979314
21
6.3252541
0
LINE
8
DEFAULT_255_2_778
10
38.7979314
20
6.3252541
11
38.7815314
21
6.2686541
0
LINE
8
DEFAULT_255_2_778
10
38.7815314
20
6.2686541
11
38.7527314
21
6.1916541
0
LINE
8
DEFAULT_255_2_778
10
38.7527314
20
6.1916541
11
38.7162314
21
6.1178541
0
LINE
8
DEFAULT_255_2_778
10
38.7162314
20
6.1178541
11
38.6648314
21
6.0390541
0
LINE
8
DEFAULT_255_2_778
10
38.6648314
20
6.0390541
11
38.5863314
21
5.9524541
0
LINE
8
DEFAULT_255_2_778
10
38.5863314
20
5.9524541
11
38.4759314
21
5.8731541
0
LINE
8
DEFAULT_255_2_778
10
38.4759314
20
5.8731541
11
38.3452314
21
5.8183541
0
LINE
8
DEFAULT_255_2_778
10
38.3452314
20
5.8183541
11
38.1769314
21
5.7863541
0
LINE
8
DEFAULT_255_2_778
10
38.1769314
20
5.7863541
11
37.9290314
21
5.7746541
0
LINE
8
DEFAULT_255_2_778
10
37.9290314
20
5.7746541
11
37.5750314
21
5.7746541
0
LINE
8
DEFAULT_255_2_778
10
37.5750314
20
5.7746541
11
37.5750314
21
7.4746541
0
LINE
8
DEFAULT_255_2_778
10
37.5750314
20
7.4746541
11
38.1346314
21
7.4690541
0
LINE
8
DEFAULT_255_2_778
10
38.1346314
20
7.4690541
11
38.3349314
21
7.4407541
0
LINE
8
DEFAULT_255_2_778
10
38.3349314
20
7.4407541
11
38.4765314
21
7.3873541
0
LINE
8
DEFAULT_255_2_778
10
38.4765314
20
7.3873541
11
38.5825314
21
7.3156541
0
LINE
8
DEFAULT_255_2_778
10
38.5825314
20
7.3156541
11
38.6577314
21
7.2370541
0
LINE
8
DEFAULT_255_2_778
10
38.6577314
20
7.2370541
11
38.7074314
21
7.1650541
0
LINE
8
DEFAULT_255_2_778
10
38.7074314
20
7.1650541
11
38.7466314
21
7.0899541
0
LINE
8
DEFAULT_255_2_778
10
38.7466314
20
7.0899541
11
38.7775314
21
7.0110541
0
LINE
8
DEFAULT_255_2_778
10
38.7775314
20
7.0110541
11
38.7950314
21
6.9531541
0
LINE
8
DEFAULT_255_2_778
10
38.7950314
20
6.9531541
11
38.8090314
21
6.8941541
0
LINE
8
DEFAULT_255_2_778
10
38.8090314
20
6.8941541
11
38.8196314
21
6.8346541
0
LINE
8
DEFAULT_255_2_778
10
42.7014552
20
6.4260739
11
43.2879552
21
6.4260739
0
LINE
8
DEFAULT_255_2_778
10
43.2879552
20
6.4260739
11
43.2879552
21
7.2562739
0
LINE
8
DEFAULT_255_2_778
10
43.2879552
20
7.2562739
11
42.7014552
21
6.4260739
0
LINE
8
DEFAULT_255_2_778
10
43.2533552
20
7.4745739
11
43.4753552
21
7.4745739
0
LINE
8
DEFAULT_255_2_778
10
43.4753552
20
7.4745739
11
43.4753552
21
6.4260739
0
LINE
8
DEFAULT_255_2_778
10
43.4753552
20
6.4260739
11
43.7380552
21
6.4260739
0
LINE
8
DEFAULT_255_2_778
10
43.7380552
20
6.4260739
11
43.7380552
21
6.2640739
0
LINE
8
DEFAULT_255_2_778
10
43.7380552
20
6.2640739
11
43.4753552
21
6.2640739
0
LINE
8
DEFAULT_255_2_778
10
43.4753552
20
6.2640739
11
43.4753552
21
5.7746739
0
LINE
8
DEFAULT_255_2_778
10
43.4753552
20
5.7746739
11
43.2882552
21
5.7746739
0
LINE
8
DEFAULT_255_2_778
10
43.2882552
20
5.7746739
11
43.2882552
21
6.2640739
0
LINE
8
DEFAULT_255_2_778
10
43.2882552
20
6.2640739
11
42.5217552
21
6.2640739
0
LINE
8
DEFAULT_255_2_778
10
42.5217552
20
6.2640739
11
42.5217552
21
6.4500739
0
LINE
8
DEFAULT_255_2_778
10
42.5217552
20
6.4500739
11
43.2533552
21
7.4745739
0
ARC
8
DEFAULT_255_2_778
10
22.2898787
20
109.5052628
40
0.2001346
50
95.9263687
51
144.0251743
0
ARC
8
DEFAULT_255_2_778
10
22.6478874
20
109.9444839
40
0.1997241
50
275.9280127
51
330.0351081
0
ARC
8
DEFAULT_255_2_778
10
22.6464061
20
109.9448836
40
0.2012075
50
330.147186
51
0.0057631
0
ARC
8
DEFAULT_255_2_778
10
22.6456759
20
109.9449037
40
0.2019377
50
0.0000248
51
0.8833668
0
ARC
8
DEFAULT_255_2_778
10
22.6462839
20
109.9449063
40
0.2013297
50
0.8853146
51
23.854735
0
ARC
8
DEFAULT_255_2_778
10
22.8471456
20
110.4744777
40
0.1977809
50
179.9999613
51
204.319138
0
ARC
8
DEFAULT_255_2_778
10
22.8471414
20
110.4744789
40
0.1977767
50
155.6806152
51
180.0003192
0
ARC
8
DEFAULT_255_2_778
10
22.6495219
20
111.0038439
40
0.1982474
50
335.8475574
51
359.4859854
0
ARC
8
DEFAULT_255_2_778
10
22.646865
20
111.0039457
40
0.200905
50
359.4637352
51
359.9999944
0
ARC
8
DEFAULT_255_2_778
10
22.6467154
20
111.0038406
40
0.2010547
50
0.0299655
51
29.9539046
0
ARC
8
DEFAULT_255_2_778
10
22.6478883
20
111.0044731
40
0.1997227
50
29.9646918
51
84.0721874
0
ARC
8
DEFAULT_255_2_778
10
22.2895495
20
111.4433658
40
0.1996762
50
215.9543717
51
264.1549233
0
ARC
8
DEFAULT_255_2_778
10
21.7302661
20
111.5334241
40
0.2002037
50
36.0095214
51
89.9860791
0
ARC
8
DEFAULT_255_2_778
10
21.7302871
20
111.5333774
40
0.2002504
50
89.9920919
51
143.9836568
0
ARC
8
DEFAULT_255_2_778
10
21.1710869
20
111.4431803
40
0.1994806
50
275.8199391
51
324.0707281
0
ARC
8
DEFAULT_255_2_778
10
20.8127428
20
111.0043164
40
0.199889
50
95.9521502
51
150.0109567
0
ARC
8
DEFAULT_255_2_778
10
20.8141087
20
111.0040761
40
0.2011927
50
150.1460915
51
180.0020003
0
ARC
8
DEFAULT_255_2_778
10
20.8132547
20
111.0040692
40
0.200339
50
180.0000575
51
180.7420025
0
ARC
8
DEFAULT_255_2_778
10
20.8137459
20
111.0040433
40
0.2008299
50
180.7327764
51
203.8846789
0
ARC
8
DEFAULT_255_2_778
10
20.6133884
20
110.474479
40
0.1977762
50
359.9996671
51
24.3194258
0
ARC
8
DEFAULT_255_2_778
10
20.613388
20
110.4744767
40
0.1977767
50
335.6806152
51
0.0003192
0
ARC
8
DEFAULT_255_2_778
10
20.8114934
20
109.9451083
40
0.1987331
50
155.8776586
51
179.3347184
0
ARC
8
DEFAULT_255_2_778
10
20.810897
20
109.9450271
40
0.1981378
50
179.3092426
51
179.9999883
0
ARC
8
DEFAULT_255_2_778
10
20.8138301
20
109.9451194
40
0.2010708
50
180.0262672
51
209.9526741
0
ARC
8
DEFAULT_255_2_778
10
20.8127436
20
109.9446404
40
0.1998903
50
209.9892185
51
264.0476467
0
ARC
8
DEFAULT_255_2_778
10
21.1707586
20
109.5054495
40
0.1999379
50
35.9496852
51
84.0988433
0
ARC
8
DEFAULT_255_2_778
10
21.7302683
20
109.4153991
40
0.2000712
50
215.9548498
51
270.0132864
0
ARC
8
DEFAULT_255_2_778
10
21.7302846
20
109.4153532
40
0.2000253
50
270.0086225
51
324.0518573
0
ARC
8
DEFAULT_255_2_778
10
21.7280375
20
110.4775997
40
1.454526
50
150.8820656
51
180.1210039
0
ARC
8
DEFAULT_255_2_778
10
21.7267963
20
110.4778565
40
1.4533168
50
98.0949883
51
150.867099
0
ARC
8
DEFAULT_255_2_778
10
21.7298194
20
110.4506459
40
1.4806822
50
89.980834
51
98.0625355
0
ARC
8
DEFAULT_255_2_778
10
21.7333753
20
110.4769055
40
1.4544256
50
60.8793546
51
90.1205712
0
ARC
8
DEFAULT_255_2_778
10
21.733541
20
110.4779552
40
1.4534279
50
8.0971175
51
60.8649205
0
ARC
8
DEFAULT_255_2_778
10
21.7067126
20
110.475021
40
1.4804023
50
359.9809116
51
8.0632967
0
ARC
8
DEFAULT_255_2_778
10
21.7326106
20
110.471444
40
1.4545074
50
330.8801909
51
0.1214771
0
ARC
8
DEFAULT_255_2_778
10
21.7338171
20
110.4712313
40
1.4533498
50
278.0945679
51
330.8643702
0
ARC
8
DEFAULT_255_2_778
10
21.7308093
20
110.4983312
40
1.4806035
50
269.9808621
51
278.0621411
0
ARC
8
DEFAULT_255_2_778
10
21.7272197
20
110.4723323
40
1.4546078
50
240.8829018
51
270.1219096
0
ARC
8
DEFAULT_255_2_778
10
21.7269159
20
110.4709344
40
1.4532388
50
188.0924387
51
240.8665486
0
ARC
8
DEFAULT_255_2_778
10
21.754398
20
110.4740312
40
1.4808834
50
179.9807845
51
188.0613801
0
ARC
8
DEFAULT_255_2_778
10
21.7453507
20
110.4782051
40
3.0152382
50
162.1237296
51
180.0698757
0
ARC
8
DEFAULT_255_2_778
10
21.7241214
20
110.4804572
40
2.9943458
50
105.6398842
51
162.0400499
0
ARC
8
DEFAULT_255_2_778
10
21.7272961
20
110.4525596
40
3.0220698
50
89.9427701
51
105.5552547
0
ARC
8
DEFAULT_255_2_778
10
21.733992
20
110.4593762
40
3.0152539
50
72.1238259
51
90.0698758
0
ARC
8
DEFAULT_255_2_778
10
21.7362628
20
110.4806174
40
2.9943443
50
15.6411039
51
72.0404171
0
ARC
8
DEFAULT_255_2_778
10
21.7086325
20
110.4775428
40
3.0217837
50
359.9428337
51
15.5559944
0
ARC
8
DEFAULT_255_2_778
10
21.7148894
20
110.4708457
40
3.0155276
50
342.1246433
51
0.0699612
0
ARC
8
DEFAULT_255_2_778
10
21.7363917
20
110.4684688
40
2.9943368
50
285.6413945
51
342.0416389
0
ARC
8
DEFAULT_255_2_778
10
21.7333289
20
110.4960995
40
3.0217733
50
269.9428473
51
285.5560638
0
ARC
8
DEFAULT_255_2_778
10
21.7266284
20
110.4890759
40
3.0147503
50
252.1205599
51
270.0700592
0
ARC
8
DEFAULT_255_2_778
10
21.7246282
20
110.468306
40
2.9943728
50
195.6370801
51
252.0349688
0
ARC
8
DEFAULT_255_2_778
10
21.7524267
20
110.4715256
40
3.0220134
50
179.9430793
51
195.5538021
0
ARC
8
DEFAULT_255_2_778
10
16.2301522
20
113.9751902
40
0.2495381
50
89.893801
51
180.1291127
0
ARC
8
DEFAULT_255_2_778
10
16.2317024
20
113.9975197
40
0.2272107
50
89.9898495
51
90.2742949
0
ARC
8
DEFAULT_255_2_778
10
16.2318603
20
113.9759409
40
0.2487895
50
44.9890154
51
90.0270845
0
ARC
8
DEFAULT_255_2_778
10
16.2319278
20
113.9758734
40
0.2487894
50
359.9729155
51
45.0109846
0
ARC
8
DEFAULT_255_2_778
10
16.2535066
20
113.9757156
40
0.2272107
50
359.7257051
51
0.0101505
0
ARC
8
DEFAULT_255_2_778
10
16.231177
20
113.9741653
40
0.2495381
50
269.8708873
51
0.106199
0
ARC
8
DEFAULT_255_2_778
10
16.2301308
20
113.974144
40
0.2495166
50
179.8888942
51
270.1111173
0
LINE
8
DEFAULT_255_2_778
10
22.2692147
20
109.7043278
11
22.6685147
21
109.7458278
0
LINE
8
DEFAULT_255_2_778
10
22.8304147
20
110.0263278
11
22.6669147
21
110.3930278
0
LINE
8
DEFAULT_255_2_778
10
22.6669147
20
110.5559278
11
22.8304147
21
110.9227278
0
LINE
8
DEFAULT_255_2_778
10
22.6685147
20
111.2031278
11
22.2692147
21
111.2447278
0
LINE
8
DEFAULT_255_2_778
10
22.1279147
20
111.3261278
11
21.8922147
21
111.6511278
0
LINE
8
DEFAULT_255_2_778
10
21.5683147
20
111.6511278
11
21.3326147
21
111.3261278
0
LINE
8
DEFAULT_255_2_778
10
21.1913147
20
111.2447278
11
20.7920147
21
111.2031278
0
LINE
8
DEFAULT_255_2_778
10
20.6301147
20
110.9227278
11
20.7936147
21
110.5559278
0
LINE
8
DEFAULT_255_2_778
10
20.7936147
20
110.3930278
11
20.6301147
21
110.0263278
0
LINE
8
DEFAULT_255_2_778
10
20.7920147
20
109.7458278
11
21.1913147
21
109.7043278
0
LINE
8
DEFAULT_255_2_778
10
21.3326147
20
109.6228278
11
21.5683147
21
109.2979278
0
LINE
8
DEFAULT_255_2_778
10
21.8922147
20
109.2979278
11
22.1279147
21
109.6228278
0
LINE
8
DEFAULT_255_2_778
10
20.2735147
20
110.4745278
11
20.2735147
21
110.4745278
0
LINE
8
DEFAULT_255_2_778
10
18.7304147
20
110.4745278
11
18.7301147
21
110.4745278
0
LINE
8
DEFAULT_255_2_778
10
15.9806147
20
113.9000278
11
16.4807147
21
113.9000278
0
LINE
8
DEFAULT_255_2_778
10
15.9806147
20
113.9746278
11
15.9806147
21
113.9746278
0
LINE
8
DEFAULT_255_2_778
10
19.8057147
20
128.5746278
11
19.8057147
21
124.0746278
0
LINE
8
DEFAULT_255_2_778
10
19.8057147
20
124.0746278
11
21.6556147
21
124.0746278
0
LINE
8
DEFAULT_255_2_778
10
21.6556147
20
124.0746278
11
21.6556147
21
128.5746278
0
LINE
8
DEFAULT_255_2_778
10
18.3055147
20
122.0746278
11
23.1556147
21
122.0746278
0
LINE
8
DEFAULT_255_2_778
10
21.6556147
20
127.5745278
11
19.8057147
21
127.5745278
0
LINE
8
DEFAULT_255_2_778
10
19.8057147
20
125.7745278
11
18.3058147
21
125.7745278
0
LINE
8
DEFAULT_255_2_778
10
18.3058147
20
125.7745278
11
18.3058147
21
118.2746278
0
LINE
8
DEFAULT_255_2_778
10
21.6556147
20
125.7745278
11
23.1556147
21
125.7745278
0
LINE
8
DEFAULT_255_2_778
10
23.1556147
20
125.7745278
11
23.1556147
21
118.2746278
0
LINE
8
DEFAULT_255_2_778
10
23.5805147
20
128.5746278
11
17.7306147
21
128.5746278
0
LINE
8
DEFAULT_255_2_778
10
17.7306147
20
128.5746278
11
17.7306147
21
118.2746278
0
LINE
8
DEFAULT_255_2_778
10
17.7306147
20
118.2746278
11
23.5805147
21
118.2746278
0
LINE
8
DEFAULT_255_2_778
10
23.5805147
20
118.2746278
11
23.5805147
21
128.5746278
0
LINE
8
DEFAULT_255_2_778
10
13.3701616
20
127.5745384
11
9.8908616
21
127.5745384
0
LINE
8
DEFAULT_255_2_778
10
9.8908616
20
127.5745384
11
7.4305616
21
125.1142384
0
LINE
8
DEFAULT_255_2_778
10
7.4305616
20
125.1142384
11
7.4305616
21
121.6349384
0
LINE
8
DEFAULT_255_2_778
10
7.4305616
20
121.6349384
11
9.8908616
21
119.1745384
0
LINE
8
DEFAULT_255_2_778
10
9.8908616
20
119.1745384
11
13.3701616
21
119.1745384
0
LINE
8
DEFAULT_255_2_778
10
13.3701616
20
119.1745384
11
15.8305616
21
121.6349384
0
LINE
8
DEFAULT_255_2_778
10
15.8305616
20
121.6349384
11
15.8305616
21
125.1142384
0
LINE
8
DEFAULT_255_2_778
10
15.8305616
20
125.1142384
11
13.3701616
21
127.5745384
0
LINE
8
DEFAULT_255_2_778
10
13.6185616
20
128.1746384
11
9.6421616
21
128.1746384
0
LINE
8
DEFAULT_255_2_778
10
9.6421616
20
128.1746384
11
6.8304616
21
125.3629384
0
LINE
8
DEFAULT_255_2_778
10
6.8304616
20
125.3629384
11
6.8304616
21
121.3865384
0
LINE
8
DEFAULT_255_2_778
10
6.8304616
20
121.3865384
11
9.6421616
21
118.5747384
0
LINE
8
DEFAULT_255_2_778
10
9.6421616
20
118.5747384
11
13.6185616
21
118.5747384
0
LINE
8
DEFAULT_255_2_778
10
13.6185616
20
118.5747384
11
16.4303616
21
121.3865384
0
LINE
8
DEFAULT_255_2_778
10
16.4303616
20
121.3865384
11
16.4303616
21
125.3629384
0
LINE
8
DEFAULT_255_2_778
10
16.4303616
20
125.3629384
11
13.6185616
21
128.1746384
0
ENDSEC
0
EOF