0
SECTION
2
HEADER
9
$MEASUREMENT
70
1
0
ENDSEC
0
SECTION
2
TABLES
0
TABLE
2
LTYPE
0
LTYPE
72
65
70
64
2
CONTINUOUS
3
______
73
0
40
0
0
ENDTAB
0
TABLE
2
LAYER
0
LAYER
2
DEFAULT_255_2_778
70
0
62
255
6
CONTINUOUS
0
LAYER
2
DEFAULT_255_1_234
70
0
62
255
6
CONTINUOUS
0
ENDTAB
0
ENDSEC
0
SECTION
2
ENTITIES
0
ARC
8
DEFAULT_255_2_778
10
3.5695693
20
28.1802037
40
0.7914215
50
129.1312896
51
180.1450914
0
ARC
8
DEFAULT_255_2_778
10
3.5698345
20
28.1806908
40
0.7912112
50
89.854026
51
129.1684493
0
ARC
8
DEFAULT_255_2_778
10
25.7988937
20
28.1803773
40
0.7915249
50
39.4792447
51
90.147911
0
ARC
8
DEFAULT_255_2_778
10
25.7994935
20
28.180224
40
0.7911595
50
359.8533901
51
39.5154338
0
ARC
8
DEFAULT_255_2_778
10
25.7991693
20
-1.9863486
40
0.7914836
50
309.4761667
51
0.1482649
0
ARC
8
DEFAULT_255_2_778
10
25.798898
20
-1.9867797
40
0.7913235
50
269.8517415
51
309.511178
0
ARC
8
DEFAULT_255_2_778
10
3.569842
20
-1.9867215
40
0.7913815
50
219.1282118
51
270.1454017
0
ARC
8
DEFAULT_255_2_778
10
3.5695247
20
-1.986339
40
0.7913769
50
179.8524075
51
219.1641908
0
LINE
8
DEFAULT_255_2_778
10
3.5718503
20
28.9718996
11
25.7968503
21
28.9718996
0
LINE
8
DEFAULT_255_2_778
10
26.5906503
20
28.1781996
11
26.5906503
21
-1.9843004
0
LINE
8
DEFAULT_255_2_778
10
25.7968503
20
-2.7781004
11
3.5718503
21
-2.7781004
0
LINE
8
DEFAULT_255_2_778
10
2.7781503
20
-1.9843004
11
2.7781503
21
28.1781996
0
LINE
8
DEFAULT_255_1_234
10
6.6553835
20
0.5189243
11
6.6818882
21
0.5189243
0
LINE
8
DEFAULT_255_1_234
10
6.6818882
20
0.5189243
11
6.6818882
21
0.392826
0
LINE
8
DEFAULT_255_1_234
10
6.6818882
20
0.392826
11
6.6545803
21
0.392826
0
LINE
8
DEFAULT_255_1_234
10
6.1076189
20
-0.2063417
11
6.1076189
21
-0.1493164
0
LINE
8
DEFAULT_255_1_234
10
6.2570093
20
-0.1685925
11
6.2570093
21
-0.2232083
0
ARC
8
DEFAULT_255_1_234
10
6.6598151
20
-0.1069545
40
0.4998079
50
90.6001036
51
104.514704
0
ARC
8
DEFAULT_255_1_234
10
6.6209667
20
0.0375131
40
0.3502176
50
104.2855254
51
133.862935
0
ARC
8
DEFAULT_255_1_234
10
6.6373424
20
0.026683
40
0.3693984
50
134.5302688
51
161.6210873
0
ARC
8
DEFAULT_255_1_234
10
6.8026613
20
-0.0316105
40
0.5446739
50
161.2849839
51
174.2076652
0
ARC
8
DEFAULT_255_1_234
10
6.943355
20
-0.0510213
40
0.6866274
50
173.7810589
51
174.9254635
0
ARC
8
DEFAULT_255_1_234
10
6.4883382
20
-0.1893161
40
0.3033419
50
95.8330959
51
138.9954921
0
ARC
8
DEFAULT_255_1_234
10
6.5106738
20
-0.3171625
40
0.4328947
50
89.8753725
51
97.0544009
0
ARC
8
DEFAULT_255_1_234
10
6.5154204
20
-0.2336252
40
0.3493769
50
71.6407809
51
90.6240094
0
ARC
8
DEFAULT_255_1_234
10
6.5304777
20
-0.1781918
40
0.2920396
50
39.6367836
51
71.019018
0
ARC
8
DEFAULT_255_1_234
10
6.466825
20
-0.2332002
40
0.3761538
50
10.658731
51
39.9043955
0
ARC
8
DEFAULT_255_1_234
10
6.3120333
20
-0.2668314
40
0.5345136
50
359.682601
51
11.132623
0
ARC
8
DEFAULT_255_1_234
10
6.3080464
20
-0.273899
40
0.5385081
50
347.2486944
51
0.4369317
0
ARC
8
DEFAULT_255_1_234
10
6.4747941
20
-0.3140193
40
0.3670249
50
318.1409698
51
347.6118597
0
ARC
8
DEFAULT_255_1_234
10
6.5072934
20
-0.3407298
40
0.3250007
50
275.6342139
51
317.8248465
0
ARC
8
DEFAULT_255_1_234
10
6.4852045
20
-0.2107781
40
0.4565864
50
269.8874292
51
276.7917694
0
ARC
8
DEFAULT_255_1_234
10
6.4797116
20
-0.3133257
40
0.3540676
50
246.9140195
51
270.7437342
0
ARC
8
DEFAULT_255_1_234
10
6.4803506
20
-0.3275616
40
0.3412781
50
218.1665114
51
245.878116
0
ARC
8
DEFAULT_255_1_234
10
6.5682967
20
-0.2539721
40
0.455911
50
191.4115814
51
218.6077802
0
ARC
8
DEFAULT_255_1_234
10
6.7621056
20
-0.2105167
40
0.6545001
50
179.6345085
51
191.7836486
0
ARC
8
DEFAULT_255_1_234
10
7.3203393
20
-0.1426303
40
1.2127388
50
171.4525249
51
180.3158839
0
ARC
8
DEFAULT_255_1_234
10
6.8808269
20
-0.0742392
40
0.7679464
50
157.9802646
51
171.6246686
0
ARC
8
DEFAULT_255_1_234
10
6.659429
20
0.0140421
40
0.5296008
50
141.4298019
51
157.854097
0
ARC
8
DEFAULT_255_1_234
10
6.595261
20
0.0594381
40
0.4511509
50
102.8715806
51
140.8564722
0
ARC
8
DEFAULT_255_1_234
10
6.6600226
20
-0.1845448
40
0.7034845
50
90.3778349
51
103.5869322
0
ARC
8
DEFAULT_255_1_234
10
6.4862002
20
-0.245027
40
0.2370698
50
89.8751008
51
126.2071704
0
ARC
8
DEFAULT_255_1_234
10
6.4907792
20
-0.2604697
40
0.2522934
50
124.9745049
51
144.895901
0
ARC
8
DEFAULT_255_1_234
10
6.4731982
20
-0.246144
40
0.2296779
50
145.2974905
51
160.2660252
0
ARC
8
DEFAULT_255_1_234
10
6.7804521
20
-0.2263929
40
0.5234525
50
179.6514266
51
190.2855912
0
ARC
8
DEFAULT_255_1_234
10
6.6110658
20
-0.2583214
40
0.3510893
50
190.0945431
51
207.5098196
0
ARC
8
DEFAULT_255_1_234
10
6.5544928
20
-0.2852377
40
0.288489
50
207.9583163
51
216.3251085
0
ARC
8
DEFAULT_255_1_234
10
6.5205036
20
-0.3131895
40
0.2445587
50
215.7661442
51
232.5456785
0
ARC
8
DEFAULT_255_1_234
10
6.4822019
20
-0.3618518
40
0.1826382
50
232.8005391
51
270.6605633
0
ARC
8
DEFAULT_255_1_234
10
6.486772
20
-0.3254388
40
0.2190529
50
269.35537
51
288.4744281
0
ARC
8
DEFAULT_255_1_234
10
6.4960617
20
-0.3603882
40
0.1829749
50
289.1833337
51
322.9683818
0
ARC
8
DEFAULT_255_1_234
10
6.4349139
20
-0.3121609
40
0.2608399
50
322.6007884
51
346.5182367
0
ARC
8
DEFAULT_255_1_234
10
6.3191735
20
-0.2826384
40
0.3802777
50
346.2582162
51
358.7741648
0
ARC
8
DEFAULT_255_1_234
10
6.2173404
20
-0.2771035
40
0.4822176
50
358.3755224
51
0.0098023
0
ARC
8
DEFAULT_255_1_234
10
6.2929591
20
-0.2743343
40
0.4066078
50
359.6214041
51
11.2839074
0
ARC
8
DEFAULT_255_1_234
10
6.4206738
20
-0.2476934
40
0.2761514
50
11.0482309
51
31.8146458
0
ARC
8
DEFAULT_255_1_234
10
6.4515781
20
-0.2309416
40
0.2410679
50
32.3035391
51
38.082671
0
ARC
8
DEFAULT_255_1_234
10
6.4936441
20
-0.1928338
40
0.1844966
50
36.825067
51
85.7415724
0
ARC
8
DEFAULT_255_1_234
10
6.4869274
20
-0.2428699
40
0.2349122
50
85.0140713
51
90.0513278
0
LINE
8
DEFAULT_255_1_234
10
7.7219983
20
0.0153343
11
7.7219983
21
-0.110764
0
LINE
8
DEFAULT_255_1_234
10
7.7219983
20
-0.110764
11
7.2151957
21
-0.110764
0
LINE
8
DEFAULT_255_1_234
10
7.2151957
20
-0.110764
11
7.2151957
21
-0.5252017
0
LINE
8
DEFAULT_255_1_234
10
7.2151957
20
-0.5252017
11
7.8039221
21
-0.5252017
0
LINE
8
DEFAULT_255_1_234
10
7.8039221
20
-0.5252017
11
7.8039221
21
-0.6513
0
LINE
8
DEFAULT_255_1_234
10
7.8039221
20
-0.6513
11
7.0609863
21
-0.6513
0
LINE
8
DEFAULT_255_1_234
10
7.0609863
20
-0.6513
11
7.0609863
21
0.5181211
0
LINE
8
DEFAULT_255_1_234
10
7.0609863
20
0.5181211
11
7.7958903
21
0.5181211
0
LINE
8
DEFAULT_255_1_234
10
7.7958903
20
0.5181211
11
7.7958903
21
0.3912196
0
LINE
8
DEFAULT_255_1_234
10
7.7958903
20
0.3912196
11
7.2151957
21
0.3912196
0
LINE
8
DEFAULT_255_1_234
10
7.2151957
20
0.3912196
11
7.2151957
21
0.0153343
0
LINE
8
DEFAULT_255_1_234
10
7.2151957
20
0.0153343
11
7.7219983
21
0.0153343
0
LINE
8
DEFAULT_255_1_234
10
8.7717465
20
0.1799849
11
8.616734
21
0.1799849
0
LINE
8
DEFAULT_255_1_234
10
7.9243981
20
-0.3123606
11
8.0794107
21
-0.3123606
0
ARC
8
DEFAULT_255_1_234
10
8.6826153
20
1.0746768
40
1.252368
50
248.9199003
51
254.1439814
0
ARC
8
DEFAULT_255_1_234
10
8.5145648
20
0.6420234
40
0.788226
50
241.633709
51
249.0064503
0
ARC
8
DEFAULT_255_1_234
10
8.3617042
20
0.3619317
40
0.4691427
50
230.498225
51
241.8087113
0
ARC
8
DEFAULT_255_1_234
10
8.2832616
20
0.2619906
40
0.3421437
50
227.4064532
51
229.9881192
0
ARC
8
DEFAULT_255_1_234
10
8.2345137
20
0.2144088
40
0.2741476
50
200.6781896
51
228.1763934
0
ARC
8
DEFAULT_255_1_234
10
8.2417447
20
0.2129077
40
0.2804109
50
179.5061581
51
199.8694617
0
ARC
8
DEFAULT_255_1_234
10
8.2408199
20
0.220321
40
0.2795204
50
132.4834203
51
181.0242172
0
ARC
8
DEFAULT_255_1_234
10
8.3003782
20
0.1640704
40
0.3612768
50
129.2532479
51
133.4242687
0
ARC
8
DEFAULT_255_1_234
10
8.3150231
20
0.1420965
40
0.3875675
50
101.98776
51
128.8742646
0
ARC
8
DEFAULT_255_1_234
10
8.3548842
20
-0.0300259
40
0.5642249
50
89.5906553
51
102.3169264
0
ARC
8
DEFAULT_255_1_234
10
8.3619334
20
0.0018148
40
0.5323783
50
77.2360837
51
90.3248275
0
ARC
8
DEFAULT_255_1_234
10
8.3826413
20
0.09854
40
0.4334697
50
63.837784
51
77.0809408
0
ARC
8
DEFAULT_255_1_234
10
8.4104175
20
0.1502911
40
0.3747796
50
45.9864267
51
64.1607727
0
ARC
8
DEFAULT_255_1_234
10
8.4365056
20
0.1800866
40
0.3352302
50
32.2747395
51
45.6547121
0
ARC
8
DEFAULT_255_1_234
10
8.4431497
20
0.181988
40
0.328603
50
359.6507365
51
32.6130309
0
ARC
8
DEFAULT_255_1_234
10
8.3488592
20
0.182466
40
0.2678863
50
359.469343
51
14.9832209
0
ARC
8
DEFAULT_255_1_234
10
8.4193654
20
0.2013539
40
0.1948938
50
14.9781179
51
48.2004265
0
ARC
8
DEFAULT_255_1_234
10
8.4029299
20
0.1806983
40
0.2212521
50
48.5927837
51
74.1241538
0
ARC
8
DEFAULT_255_1_234
10
8.3695788
20
0.0706248
40
0.3362561
50
73.7888341
51
86.6652678
0
ARC
8
DEFAULT_255_1_234
10
8.3593354
20
-0.0501119
40
0.4573953
50
86.2640471
51
90.0526343
0
ARC
8
DEFAULT_255_1_234
10
8.3565066
20
-0.0105808
40
0.4178709
50
89.6697524
51
99.2309573
0
ARC
8
DEFAULT_255_1_234
10
8.3322517
20
0.1338964
40
0.2713749
50
99.069534
51
113.7658566
0
ARC
8
DEFAULT_255_1_234
10
8.3048708
20
0.1984677
40
0.2012469
50
114.0401004
51
127.9850673
0
ARC
8
DEFAULT_255_1_234
10
8.2808272
20
0.228073
40
0.1631167
50
127.7287463
51
176.7105154
0
ARC
8
DEFAULT_255_1_234
10
8.348699
20
0.2179693
40
0.2315392
50
175.1779447
51
180.0581938
0
ARC
8
DEFAULT_255_1_234
10
8.2643836
20
0.2167428
40
0.1472271
50
179.6142195
51
228.1246017
0
ARC
8
DEFAULT_255_1_234
10
8.3085505
20
0.2576308
40
0.2072299
50
226.5779593
51
230.8800004
0
ARC
8
DEFAULT_255_1_234
10
8.3556584
20
0.3201636
40
0.2854818
50
231.4635071
51
241.9260842
0
ARC
8
DEFAULT_255_1_234
10
8.4753762
20
0.54048
40
0.53622
50
241.7178533
51
248.3259551
0
ARC
8
DEFAULT_255_1_234
10
8.6139134
20
0.8837064
40
0.9063478
50
248.2007737
51
252.4528373
0
ARC
8
DEFAULT_255_1_234
10
8.7342858
20
1.2558441
40
1.2974635
50
252.3391078
51
254.3469452
0
ARC
8
DEFAULT_255_1_234
10
7.9800561
20
-1.4418852
40
1.5037162
50
71.0197183
51
74.4087047
0
ARC
8
DEFAULT_255_1_234
10
8.1495246
20
-0.9526889
40
0.9859993
50
66.1847285
51
71.086374
0
ARC
8
DEFAULT_255_1_234
10
8.3051559
20
-0.60228
40
0.6025855
50
59.3536294
51
66.2691831
0
ARC
8
DEFAULT_255_1_234
10
8.3940211
20
-0.4519391
40
0.4279449
50
49.1020879
51
59.3293958
0
ARC
8
DEFAULT_255_1_234
10
8.4758951
20
-0.3586166
40
0.3038015
50
32.7919921
51
49.2505539
0
ARC
8
DEFAULT_255_1_234
10
8.5080041
20
-0.3357809
40
0.264448
50
31.1181161
51
32.4005348
0
ARC
8
DEFAULT_255_1_234
10
8.4991579
20
-0.3393221
40
0.2738556
50
8.1116974
51
30.7958831
0
ARC
8
DEFAULT_255_1_234
10
8.4181247
20
-0.3531247
40
0.3560327
50
359.8389159
51
8.4706516
0
ARC
8
DEFAULT_255_1_234
10
8.4807038
20
-0.3579863
40
0.2934776
50
337.4731098
51
0.7537279
0
ARC
8
DEFAULT_255_1_234
10
8.4985733
20
-0.3599613
40
0.2762607
50
307.5917067
51
336.4315538
0
ARC
8
DEFAULT_255_1_234
10
8.4525561
20
-0.3086898
40
0.3449979
50
307.6551545
51
308.4529766
0
ARC
8
DEFAULT_255_1_234
10
8.429528
20
-0.273175
40
0.3871988
50
284.3734338
51
307.1424381
0
ARC
8
DEFAULT_255_1_234
10
8.380011
20
-0.0910068
40
0.5759636
50
272.4382747
51
284.646547
0
ARC
8
DEFAULT_255_1_234
10
8.3673319
20
0.0889893
40
0.7563528
50
269.9708387
51
272.8178037
0
ARC
8
DEFAULT_255_1_234
10
8.3630358
20
-0.1148284
40
0.5525489
50
248.2707594
51
270.4055579
0
ARC
8
DEFAULT_255_1_234
10
8.35761
20
-0.1338808
40
0.5328452
50
246.1383403
51
248.0542782
0
ARC
8
DEFAULT_255_1_234
10
8.3157478
20
-0.2218157
40
0.4355005
50
233.1670131
51
246.4950969
0
ARC
8
DEFAULT_255_1_234
10
8.2603383
20
-0.2966188
40
0.3424126
50
215.3403242
51
233.0843104
0
ARC
8
DEFAULT_255_1_234
10
8.2330815
20
-0.3164451
40
0.3087104
50
179.2419209
51
215.2648451
0
ARC
8
DEFAULT_255_1_234
10
8.3098409
20
-0.3150334
40
0.2304457
50
179.335461
51
199.1045811
0
ARC
8
DEFAULT_255_1_234
10
8.2766085
20
-0.3237234
40
0.1962176
50
199.8828939
51
232.7063202
0
ARC
8
DEFAULT_255_1_234
10
8.3238353
20
-0.2643212
40
0.2720938
50
232.3738199
51
255.5136649
0
ARC
8
DEFAULT_255_1_234
10
8.357922
20
-0.1399165
40
0.4010747
50
255.2446292
51
267.5320849
0
ARC
8
DEFAULT_255_1_234
10
8.3666843
20
-0.0166298
40
0.5246356
50
267.1557994
51
270.0286766
0
ARC
8
DEFAULT_255_1_234
10
8.3694616
20
-0.061005
40
0.4802668
50
269.7000017
51
278.1660162
0
ARC
8
DEFAULT_255_1_234
10
8.395062
20
-0.2340485
40
0.3053425
50
278.0231263
51
290.625471
0
ARC
8
DEFAULT_255_1_234
10
8.4298308
20
-0.3267975
40
0.206291
50
290.6619762
51
307.0370976
0
ARC
8
DEFAULT_255_1_234
10
8.4598697
20
-0.3636496
40
0.1587906
50
306.3943566
51
355.3030547
0
ARC
8
DEFAULT_255_1_234
10
8.4086628
20
-0.3559887
40
0.2104809
50
354.3660432
51
0.0698737
0
ARC
8
DEFAULT_255_1_234
10
8.4228973
20
-0.3537383
40
0.1962563
50
359.417946
51
16.1971788
0
ARC
8
DEFAULT_255_1_234
10
8.4684284
20
-0.3412582
40
0.149053
50
16.4723299
51
52.6262157
0
ARC
8
DEFAULT_255_1_234
10
8.3863338
20
-0.4496567
40
0.2850296
50
52.7386432
51
62.4979148
0
ARC
8
DEFAULT_255_1_234
10
8.2478415
20
-0.7102717
40
0.5801521
50
62.2515216
51
68.1220564
0
ARC
8
DEFAULT_255_1_234
10
8.0758325
20
-1.1330128
40
1.0365451
50
68.0062803
51
71.8053402
0
ARC
8
DEFAULT_255_1_234
10
7.8962697
20
-1.6715242
40
1.6042013
50
71.7183119
51
73.9258742
0
LINE
8
DEFAULT_255_1_234
10
9.6881679
20
0.5181211
11
9.6881679
21
0.434591
0
LINE
8
DEFAULT_255_1_234
10
9.6881679
20
0.434591
11
9.2038541
21
-0.6513
0
LINE
8
DEFAULT_255_1_234
10
9.2038541
20
-0.6513
11
9.0480383
21
-0.6513
0
LINE
8
DEFAULT_255_1_234
10
9.0480383
20
-0.6513
11
9.5307458
21
0.3960387
0
LINE
8
DEFAULT_255_1_234
10
9.5307458
20
0.3960387
11
8.8978448
21
0.3960387
0
LINE
8
DEFAULT_255_1_234
10
8.8978448
20
0.3960387
11
8.8978448
21
0.5181211
0
LINE
8
DEFAULT_255_1_234
10
8.8978448
20
0.5181211
11
9.6881679
21
0.5181211
0
LINE
8
DEFAULT_255_1_234
10
10.3451641
20
0.5237433
11
10.3451641
21
-0.6513
0
LINE
8
DEFAULT_255_1_234
10
10.3451641
20
-0.6513
11
10.1957737
21
-0.6513
0
LINE
8
DEFAULT_255_1_234
10
10.1957737
20
-0.6513
11
10.1957737
21
0.3390133
0
LINE
8
DEFAULT_255_1_234
10
10.1957737
20
0.3390133
11
9.8961899
21
0.2289785
0
LINE
8
DEFAULT_255_1_234
10
9.8961899
20
0.2289785
11
9.8961899
21
0.3639117
0
LINE
8
DEFAULT_255_1_234
10
9.8961899
20
0.3639117
11
10.321872
21
0.5237433
0
LINE
8
DEFAULT_255_1_234
10
10.321872
20
0.5237433
11
10.3451641
21
0.5237433
0
LINE
8
DEFAULT_255_1_234
10
10.996538
20
-0.1155831
11
10.996538
21
0.0056962
0
LINE
8
DEFAULT_255_1_234
10
10.996538
20
0.0056962
11
11.1081792
21
0.0056962
0
LINE
8
DEFAULT_255_1_234
10
10.917827
20
0.2113087
11
10.7692398
21
0.2113087
0
LINE
8
DEFAULT_255_1_234
10
10.7587986
20
-0.3428812
11
10.9081889
21
-0.3428812
0
LINE
8
DEFAULT_255_1_234
10
11.1081792
20
-0.1155831
11
10.996538
21
-0.1155831
0
ARC
8
DEFAULT_255_1_234
10
11.1052658
20
0.3449713
40
0.3392876
50
270.4919872
51
281.8951556
0
ARC
8
DEFAULT_255_1_234
10
11.129392
20
0.2347702
40
0.2264817
50
281.6691735
51
301.2943132
0
ARC
8
DEFAULT_255_1_234
10
11.146413
20
0.2036304
40
0.1910381
50
301.7833094
51
311.7545298
0
ARC
8
DEFAULT_255_1_234
10
11.1555706
20
0.1934748
40
0.1773635
50
311.7323931
51
354.2802411
0
ARC
8
DEFAULT_255_1_234
10
11.0829331
20
0.2059722
40
0.2509385
50
353.0937916
51
0.1181479
0
ARC
8
DEFAULT_255_1_234
10
11.0368116
20
0.2107386
40
0.2970898
50
359.1805295
51
15.0453146
0
ARC
8
DEFAULT_255_1_234
10
11.1713953
20
0.2499992
40
0.1569564
50
13.9577229
51
77.6713066
0
ARC
8
DEFAULT_255_1_234
10
11.1327482
20
0.1114949
40
0.3006298
50
76.1116566
51
90.7026153
0
ARC
8
DEFAULT_255_1_234
10
11.1268321
20
0.1388545
40
0.2732568
50
89.5324876
51
103.531937
0
ARC
8
DEFAULT_255_1_234
10
11.1067765
20
0.2187884
40
0.1908508
50
103.2931773
51
133.5619022
0
ARC
8
DEFAULT_255_1_234
10
11.1023253
20
0.2247375
40
0.1834746
50
133.8349307
51
173.5344437
0
ARC
8
DEFAULT_255_1_234
10
11.1746296
20
0.2119213
40
0.2568033
50
172.5096846
51
180.1366907
0
ARC
8
DEFAULT_255_1_234
10
11.079519
20
0.2153622
40
0.3103056
50
155.3484492
51
180.7484736
0
ARC
8
DEFAULT_255_1_234
10
11.0746279
20
0.2124846
40
0.3070957
50
131.5744599
51
154.4798489
0
ARC
8
DEFAULT_255_1_234
10
11.1059427
20
0.180831
40
0.3515643
50
96.9875458
51
131.9690667
0
ARC
8
DEFAULT_255_1_234
10
11.1278906
20
0.0562636
40
0.4779224
50
89.8596053
51
97.7825159
0
ARC
8
DEFAULT_255_1_234
10
11.132697
20
0.0300616
40
0.5041361
50
78.3655447
51
90.4131539
0
ARC
8
DEFAULT_255_1_234
10
11.1684887
20
0.1959887
40
0.3344039
50
56.6229102
51
78.638727
0
ARC
8
DEFAULT_255_1_234
10
11.1899831
20
0.2335805
40
0.2912001
50
47.0253525
51
56.0854072
0
ARC
8
DEFAULT_255_1_234
10
11.1919611
20
0.2375223
40
0.2869704
50
10.9208013
51
46.7778124
0
ARC
8
DEFAULT_255_1_234
10
11.0555678
20
0.2059857
40
0.426899
50
359.6364486
51
11.6087304
0
ARC
8
DEFAULT_255_1_234
10
11.2390522
20
0.2044752
40
0.243409
50
332.3549906
51
359.7179418
0
ARC
8
DEFAULT_255_1_234
10
11.1740123
20
0.2353142
40
0.3153459
50
325.2333722
51
332.8745602
0
ARC
8
DEFAULT_255_1_234
10
11.1892747
20
0.2246828
40
0.2967456
50
292.9802137
51
325.2392345
0
ARC
8
DEFAULT_255_1_234
10
11.1618121
20
0.2780863
40
0.3566604
50
292.5402179
51
293.6924929
0
ARC
8
DEFAULT_255_1_234
10
11.2010717
20
-0.3673909
40
0.3307468
50
57.6435486
51
72.8625112
0
ARC
8
DEFAULT_255_1_234
10
11.2365216
20
-0.3099451
40
0.2632492
50
36.7248896
51
57.4697979
0
ARC
8
DEFAULT_255_1_234
10
11.2353849
20
-0.308678
40
0.2634081
50
8.0545065
51
36.356114
0
ARC
8
DEFAULT_255_1_234
10
11.1491034
20
-0.3241826
40
0.3510261
50
359.8320645
51
8.5869982
0
ARC
8
DEFAULT_255_1_234
10
11.1115811
20
-0.3289899
40
0.3885653
50
343.9829931
51
0.5571613
0
ARC
8
DEFAULT_255_1_234
10
11.2002008
20
-0.3532562
40
0.2966924
50
311.6359546
51
343.7651759
0
ARC
8
DEFAULT_255_1_234
10
11.1623577
20
-0.3105898
40
0.3537231
50
279.7829875
51
311.6255694
0
ARC
8
DEFAULT_255_1_234
10
11.1322353
20
-0.166872
40
0.5004971
50
269.7286406
51
280.3856417
0
ARC
8
DEFAULT_255_1_234
10
11.1260426
20
-0.1710004
40
0.4963778
50
256.6828919
51
270.4412052
0
ARC
8
DEFAULT_255_1_234
10
11.0921722
20
-0.3094606
40
0.3538406
50
229.4223008
51
256.8556159
0
ARC
8
DEFAULT_255_1_234
10
11.0507114
20
-0.3561264
40
0.2914296
50
181.818294
51
229.6455059
0
ARC
8
DEFAULT_255_1_234
10
11.1547071
20
-0.3430504
40
0.3959084
50
179.9755256
51
183.2323064
0
ARC
8
DEFAULT_255_1_234
10
11.1374816
20
-0.3450963
40
0.2293034
50
179.4465117
51
196.2869258
0
ARC
8
DEFAULT_255_1_234
10
11.0887224
20
-0.3584349
40
0.1787621
50
196.5661473
51
227.705904
0
ARC
8
DEFAULT_255_1_234
10
11.1051319
20
-0.3400845
40
0.2033784
50
227.7652068
51
257.8762805
0
ARC
8
DEFAULT_255_1_234
10
11.1276289
20
-0.2457844
40
0.3003081
50
257.4584385
51
270.426602
0
ARC
8
DEFAULT_255_1_234
10
11.1321856
20
-0.2168004
40
0.329292
50
269.5962073
51
280.8789248
0
ARC
8
DEFAULT_255_1_234
10
11.1551384
20
-0.3314315
40
0.2123908
50
280.6346389
51
299.8595945
0
ARC
8
DEFAULT_255_1_234
10
11.1742291
20
-0.3676788
40
0.171457
50
300.3576302
51
314.5517981
0
ARC
8
DEFAULT_255_1_234
10
11.1659351
20
-0.3616081
40
0.1816095
50
315.0728369
51
345.0431014
0
ARC
8
DEFAULT_255_1_234
10
11.0736166
20
-0.3347159
40
0.2777492
50
344.5986631
51
357.9269593
0
ARC
8
DEFAULT_255_1_234
10
10.9840492
20
-0.3285724
40
0.3674917
50
357.4748886
51
0.0231117
0
ARC
8
DEFAULT_255_1_234
10
11.0863601
20
-0.3261321
40
0.2651907
50
359.5047933
51
13.4239635
0
ARC
8
DEFAULT_255_1_234
10
11.1730245
20
-0.3039522
40
0.1757509
50
12.9498199
51
48.7551375
0
ARC
8
DEFAULT_255_1_234
10
11.1547979
20
-0.32886
40
0.2065134
50
49.5088623
51
72.1836453
0
ARC
8
DEFAULT_255_1_234
10
11.1190131
20
-0.4350709
40
0.3185836
50
71.9010081
51
84.3554254
0
ARC
8
DEFAULT_255_1_234
10
11.1028763
20
-0.5711674
40
0.4556151
50
84.0193428
51
89.333121
0
ARC
8
DEFAULT_255_1_234
10
12.1311125
20
0.2103703
40
0.2822356
50
338.8763615
51
0.5166041
0
ARC
8
DEFAULT_255_1_234
10
12.147978
20
0.2058208
40
0.2648703
50
325.8412414
51
338.4795939
0
ARC
8
DEFAULT_255_1_234
10
12.1089147
20
0.2329042
40
0.3124019
50
296.7586019
51
325.753654
0
ARC
8
DEFAULT_255_1_234
10
12.0801256
20
0.2813789
40
0.368668
50
296.0902311
51
297.3618122
0
ARC
8
DEFAULT_255_1_234
10
12.1058714
20
-0.3740959
40
0.3518806
50
47.9009248
51
67.1946869
0
ARC
8
DEFAULT_255_1_234
10
12.1254955
20
-0.3494605
40
0.320451
50
35.236241
51
47.551371
0
ARC
8
DEFAULT_255_1_234
10
12.1516573
20
-0.3320007
40
0.2890103
50
359.2759738
51
35.4014081
0
ARC
8
DEFAULT_255_1_234
10
12.0771605
20
-0.3393174
40
0.3635026
50
343.1294516
51
0.5776525
0
ARC
8
DEFAULT_255_1_234
10
12.1496149
20
-0.359267
40
0.2883832
50
310.8497458
51
342.744803
0
ARC
8
DEFAULT_255_1_234
10
12.1078263
20
-0.3115706
40
0.3517954
50
281.5473923
51
310.9169905
0
ARC
8
DEFAULT_255_1_234
10
12.0721712
20
-0.1562916
40
0.5110832
50
269.6192722
51
281.9789957
0
ARC
8
DEFAULT_255_1_234
10
12.0649501
20
-0.1562172
40
0.5111606
50
257.4584469
51
270.4287458
0
ARC
8
DEFAULT_255_1_234
10
12.0268644
20
-0.3165656
40
0.3463762
50
228.7553743
51
257.8484423
0
ARC
8
DEFAULT_255_1_234
10
11.9958843
20
-0.3538558
40
0.297916
50
184.0104442
51
228.5071787
0
ARC
8
DEFAULT_255_1_234
10
12.1121787
20
-0.3361488
40
0.4152734
50
179.9315461
51
185.3254504
0
ARC
8
DEFAULT_255_1_234
10
11.9945432
20
-0.3324008
40
0.2976554
50
145.6795913
51
180.6259649
0
ARC
8
DEFAULT_255_1_234
10
12.0108782
20
-0.3438071
40
0.3175776
50
115.5537925
51
145.6416199
0
ARC
8
DEFAULT_255_1_234
10
12.0449712
20
-0.4048972
40
0.3874232
50
113.2437915
51
116.2054627
0
ARC
8
DEFAULT_255_1_234
10
12.0296924
20
0.234958
40
0.3154751
50
222.9548379
51
244.1372485
0
ARC
8
DEFAULT_255_1_234
10
12.0175
20
0.2212834
40
0.2972382
50
213.3439227
51
222.6271327
0
ARC
8
DEFAULT_255_1_234
10
11.9982934
20
0.2082308
40
0.274019
50
180.4316517
51
213.2713999
0
ARC
8
DEFAULT_255_1_234
10
12.0557935
20
0.212911
40
0.33158
50
179.9992944
51
181.1655061
0
ARC
8
DEFAULT_255_1_234
10
12.0967353
20
0.2163561
40
0.3725376
50
164.6186108
51
180.5292368
0
ARC
8
DEFAULT_255_1_234
10
12.0069215
20
0.2405101
40
0.2795349
50
132.2454369
51
164.5092287
0
ARC
8
DEFAULT_255_1_234
10
12.0356319
20
0.2080028
40
0.3229019
50
100.7052766
51
132.1387266
0
ARC
8
DEFAULT_255_1_234
10
12.0661292
20
0.0702086
40
0.4639835
50
89.6732617
51
101.2449487
0
ARC
8
DEFAULT_255_1_234
10
12.072349
20
0.087699
40
0.4464999
50
76.2876631
51
90.4586123
0
ARC
8
DEFAULT_255_1_234
10
12.1029721
20
0.209922
40
0.3205023
50
47.8240157
51
76.4266918
0
ARC
8
DEFAULT_255_1_234
10
12.1252271
20
0.235959
40
0.2862661
50
6.9168658
51
47.6261438
0
ARC
8
DEFAULT_255_1_234
10
12.0065674
20
0.214037
40
0.4067708
50
359.8419705
51
7.9694496
0
ARC
8
DEFAULT_255_1_234
10
12.0407571
20
-0.3300075
40
0.2513121
50
359.4454068
51
16.9256425
0
ARC
8
DEFAULT_255_1_234
10
12.0876382
20
-0.3170967
40
0.2027071
50
17.292259
51
45.462717
0
ARC
8
DEFAULT_255_1_234
10
12.0822318
20
-0.3217566
40
0.2098212
50
45.3028762
51
83.1921472
0
ARC
8
DEFAULT_255_1_234
10
12.0679002
20
-0.4019105
40
0.2911472
50
82.2614531
51
90.143954
0
ARC
8
DEFAULT_255_1_234
10
12.0648123
20
-0.378605
40
0.2678513
50
89.4959189
51
104.8579811
0
ARC
8
DEFAULT_255_1_234
10
12.0471381
20
-0.311611
40
0.1985654
50
104.8855873
51
135.2448349
0
ARC
8
DEFAULT_255_1_234
10
12.0521154
20
-0.3160664
40
0.2052373
50
135.3398955
51
172.104394
0
ARC
8
DEFAULT_255_1_234
10
12.1328212
20
-0.3315075
40
0.2873299
50
171.2651929
51
180.1859362
0
ARC
8
DEFAULT_255_1_234
10
12.1158914
20
-0.3347267
40
0.2704083
50
179.515471
51
193.6466734
0
ARC
8
DEFAULT_255_1_234
10
12.0342683
20
-0.3555223
40
0.1861855
50
193.3540587
51
225.8256931
0
ARC
8
DEFAULT_255_1_234
10
12.038344
20
-0.3484476
40
0.1941102
50
226.418029
51
255.8553723
0
ARC
8
DEFAULT_255_1_234
10
12.0639872
20
-0.2548002
40
0.2911917
50
255.4655572
51
268.7985967
0
ARC
8
DEFAULT_255_1_234
10
12.0687064
20
-0.1709509
40
0.3751331
50
268.3464808
51
270.0104874
0
ARC
8
DEFAULT_255_1_234
10
12.0710452
20
-0.2393862
40
0.3067064
50
269.575914
51
282.0823146
0
ARC
8
DEFAULT_255_1_234
10
12.0935361
20
-0.3388197
40
0.2047712
50
281.7522535
51
306.6056425
0
ARC
8
DEFAULT_255_1_234
10
12.1033788
20
-0.3549513
40
0.1859604
50
307.1350025
51
314.0277951
0
ARC
8
DEFAULT_255_1_234
10
12.0997872
20
-0.3523234
40
0.1903475
50
314.2553419
51
350.169324
0
ARC
8
DEFAULT_255_1_234
10
12.014634
20
-0.3338591
40
0.2774269
50
349.4145679
51
0.2930737
0
ARC
8
DEFAULT_255_1_234
10
12.0666773
20
0.1820353
40
0.2300764
50
89.477591
51
105.729794
0
ARC
8
DEFAULT_255_1_234
10
12.0530687
20
0.2325637
40
0.1777519
50
105.922966
51
135.1662921
0
ARC
8
DEFAULT_255_1_234
10
12.0551189
20
0.2311419
40
0.1802087
50
135.3053131
51
168.9882338
0
ARC
8
DEFAULT_255_1_234
10
12.1378762
20
0.2121721
40
0.2650806
50
168.3802067
51
180.3602358
0
ARC
8
DEFAULT_255_1_234
10
12.1150341
20
0.2084041
40
0.2422425
50
179.5029707
51
194.9126783
0
ARC
8
DEFAULT_255_1_234
10
12.0565002
20
0.193011
40
0.1817188
50
194.9722181
51
224.1943972
0
ARC
8
DEFAULT_255_1_234
10
12.053687
20
0.1907169
40
0.1781027
50
224.2961434
51
262.0157375
0
ARC
8
DEFAULT_255_1_234
10
12.0679112
20
0.2638661
40
0.2525492
50
261.1250369
51
270.1959853
0
ARC
8
DEFAULT_255_1_234
10
12.0708867
20
0.2451339
40
0.233825
50
269.4825617
51
285.0988277
0
ARC
8
DEFAULT_255_1_234
10
12.0863027
20
0.187299
40
0.1739712
50
285.1585659
51
315.9484648
0
ARC
8
DEFAULT_255_1_234
10
12.0774038
20
0.1954886
40
0.1860616
50
316.0412958
51
351.9162715
0
ARC
8
DEFAULT_255_1_234
10
12.0040993
20
0.2096245
40
0.2606517
50
351.1056823
51
0.1936567
0
ARC
8
DEFAULT_255_1_234
10
12.0303822
20
0.2126369
40
0.234377
50
359.4789506
51
16.0679113
0
ARC
8
DEFAULT_255_1_234
10
12.0779781
20
0.225481
40
0.1850875
50
16.3251951
51
44.791304
0
ARC
8
DEFAULT_255_1_234
10
12.0762062
20
0.2255339
40
0.186312
50
44.3958661
51
88.2498933
0
ARC
8
DEFAULT_255_1_234
10
12.0688616
20
0.1644154
40
0.2476868
50
86.9833827
51
90.0200148
0
LINE
8
DEFAULT_255_1_234
10
12.9522663
20
-0.0938974
11
12.9522663
21
-0.2151766
0
LINE
8
DEFAULT_255_1_234
10
12.9522663
20
-0.2151766
11
12.5603175
21
-0.2151766
0
LINE
8
DEFAULT_255_1_234
10
12.5603175
20
-0.2151766
11
12.5603175
21
-0.0938974
0
LINE
8
DEFAULT_255_1_234
10
12.5603175
20
-0.0938974
11
12.9522663
21
-0.0938974
0
LINE
8
DEFAULT_255_1_234
10
13.7088561
20
0.5181211
11
13.7088561
21
-0.258548
0
LINE
8
DEFAULT_255_1_234
10
13.7088561
20
-0.258548
11
13.8710972
21
-0.258548
0
LINE
8
DEFAULT_255_1_234
10
13.8710972
20
-0.258548
11
13.8710972
21
-0.3798272
0
LINE
8
DEFAULT_255_1_234
10
13.8710972
20
-0.3798272
11
13.7088561
21
-0.3798272
0
LINE
8
DEFAULT_255_1_234
10
13.7088561
20
-0.3798272
11
13.7088561
21
-0.6513
0
LINE
8
DEFAULT_255_1_234
10
13.7088561
20
-0.6513
11
13.5594657
21
-0.6513
0
LINE
8
DEFAULT_255_1_234
10
13.5594657
20
-0.6513
11
13.5594657
21
-0.3798272
0
LINE
8
DEFAULT_255_1_234
10
13.5594657
20
-0.3798272
11
13.0269615
21
-0.3798272
0
LINE
8
DEFAULT_255_1_234
10
13.0269615
20
-0.3798272
11
13.0269615
21
-0.2922813
0
LINE
8
DEFAULT_255_1_234
10
13.0269615
20
-0.2922813
11
13.5506308
21
0.5181211
0
LINE
8
DEFAULT_255_1_234
10
13.5506308
20
0.5181211
11
13.7088561
21
0.5181211
0
LINE
8
DEFAULT_255_1_234
10
13.5417959
20
0.2827912
11
13.195628
21
-0.258548
0
LINE
8
DEFAULT_255_1_234
10
13.195628
20
-0.258548
11
13.5594657
21
-0.258548
0
LINE
8
DEFAULT_255_1_234
10
13.5594657
20
-0.258548
11
13.5594657
21
0.3149181
0
LINE
8
DEFAULT_255_1_234
10
13.5594657
20
0.3149181
11
13.5417959
21
0.2827912
0
LINE
8
DEFAULT_255_1_234
10
14.3674586
20
-0.6513
11
14.0437795
21
-0.6513
0
LINE
8
DEFAULT_255_1_234
10
14.0437795
20
-0.6513
11
14.0437795
21
0.5181211
0
LINE
8
DEFAULT_255_1_234
10
14.0437795
20
0.5181211
11
14.373884
21
0.5181211
0
LINE
8
DEFAULT_255_1_234
10
14.8895216
20
-0.0272339
11
14.8895216
21
-0.1019291
0
LINE
8
DEFAULT_255_1_234
10
14.3778999
20
0.3912196
11
14.1979889
21
0.3912196
0
LINE
8
DEFAULT_255_1_234
10
14.1979889
20
0.3912196
11
14.1979889
21
-0.5252017
0
LINE
8
DEFAULT_255_1_234
10
14.1979889
20
-0.5252017
11
14.36023
21
-0.5252017
0
LINE
8
DEFAULT_255_1_234
10
14.7369186
20
-0.0987164
11
14.7369186
21
-0.0304466
0
ARC
8
DEFAULT_255_1_234
10
14.3777782
20
-0.0684106
40
0.5865446
50
75.4101064
51
90.3804066
0
ARC
8
DEFAULT_255_1_234
10
14.4007296
20
0.0272492
40
0.4881916
50
60.145586
51
75.1888407
0
ARC
8
DEFAULT_255_1_234
10
14.4166071
20
0.0549199
40
0.4562893
50
26.5253612
51
60.1450928
0
ARC
8
DEFAULT_255_1_234
10
14.3045821
20
-0.0044842
40
0.5830602
50
7.4030428
51
26.8320788
0
ARC
8
DEFAULT_255_1_234
10
14.1451577
20
-0.0293196
40
0.7443669
50
0.1605367
51
7.7176192
0
ARC
8
DEFAULT_255_1_234
10
14.1615482
20
-0.1057566
40
0.7279835
50
348.7289388
51
0.3012466
0
ARC
8
DEFAULT_255_1_234
10
14.3271912
20
-0.1386614
40
0.559104
50
333.0706509
51
348.7181832
0
ARC
8
DEFAULT_255_1_234
10
14.423867
20
-0.1911681
40
0.4491417
50
299.2531685
51
333.4571258
0
ARC
8
DEFAULT_255_1_234
10
14.387781
20
-0.1226172
40
0.5265881
50
278.107187
51
299.0339503
0
ARC
8
DEFAULT_255_1_234
10
14.3621889
20
0.0281216
40
0.679442
50
270.4443897
51
278.4511052
0
ARC
8
DEFAULT_255_1_234
10
14.3642718
20
-0.0647787
40
0.4604407
50
269.4970433
51
284.0205042
0
ARC
8
DEFAULT_255_1_234
10
14.3998019
20
-0.2013022
40
0.3193797
50
283.7700273
51
318.1555492
0
ARC
8
DEFAULT_255_1_234
10
14.3660778
20
-0.1760633
40
0.3613588
50
318.7415601
51
343.6873628
0
ARC
8
DEFAULT_255_1_234
10
14.1856801
20
-0.1197168
40
0.5503313
50
343.3325091
51
355.8548958
0
ARC
8
DEFAULT_255_1_234
10
13.9758485
20
-0.0997681
40
0.7610708
50
355.4988528
51
0.0791727
0
ARC
8
DEFAULT_255_1_234
10
14.0541108
20
-0.026222
40
0.6828208
50
359.6455037
51
9.8607896
0
ARC
8
DEFAULT_255_1_234
10
14.2901806
20
0.0164099
40
0.4429406
50
9.6571907
51
26.1932807
0
ARC
8
DEFAULT_255_1_234
10
14.3829794
20
0.0595118
40
0.3406537
50
26.5777228
51
40.1532208
0
ARC
8
DEFAULT_255_1_234
10
14.4085521
20
0.0794619
40
0.308246
50
40.3840491
51
80.1431104
0
ARC
8
DEFAULT_255_1_234
10
14.3758638
20
-0.0654667
40
0.4566909
50
79.2152159
51
89.7445637
0
LINE
8
DEFAULT_255_1_234
10
15.446121
20
-0.6513
11
15.122442
21
-0.6513
0
LINE
8
DEFAULT_255_1_234
10
15.122442
20
-0.6513
11
15.122442
21
0.5181211
0
LINE
8
DEFAULT_255_1_234
10
15.122442
20
0.5181211
11
15.4525464
21
0.5181211
0
LINE
8
DEFAULT_255_1_234
10
15.968184
20
-0.0272339
11
15.968184
21
-0.1019291
0
LINE
8
DEFAULT_255_1_234
10
15.4565623
20
0.3912196
11
15.2766514
21
0.3912196
0
LINE
8
DEFAULT_255_1_234
10
15.2766514
20
0.3912196
11
15.2766514
21
-0.5252017
0
LINE
8
DEFAULT_255_1_234
10
15.2766514
20
-0.5252017
11
15.4388925
21
-0.5252017
0
LINE
8
DEFAULT_255_1_234
10
15.815581
20
-0.0987164
11
15.815581
21
-0.0304466
0
ARC
8
DEFAULT_255_1_234
10
15.4564407
20
-0.0684106
40
0.5865446
50
75.4101064
51
90.3804066
0
ARC
8
DEFAULT_255_1_234
10
15.4793921
20
0.0272492
40
0.4881916
50
60.145586
51
75.1888407
0
ARC
8
DEFAULT_255_1_234
10
15.4952696
20
0.0549199
40
0.4562893
50
26.5253612
51
60.1450928
0
ARC
8
DEFAULT_255_1_234
10
15.3832445
20
-0.0044842
40
0.5830602
50
7.4030428
51
26.8320788
0
ARC
8
DEFAULT_255_1_234
10
15.2238202
20
-0.0293196
40
0.7443669
50
0.1605367
51
7.7176192
0
ARC
8
DEFAULT_255_1_234
10
15.2402106
20
-0.1057566
40
0.7279835
50
348.7289388
51
0.3012466
0
ARC
8
DEFAULT_255_1_234
10
15.4058537
20
-0.1386614
40
0.559104
50
333.0706509
51
348.7181832
0
ARC
8
DEFAULT_255_1_234
10
15.5025294
20
-0.1911681
40
0.4491417
50
299.2531685
51
333.4571258
0
ARC
8
DEFAULT_255_1_234
10
15.4664434
20
-0.1226172
40
0.5265881
50
278.107187
51
299.0339503
0
ARC
8
DEFAULT_255_1_234
10
15.4408513
20
0.0281216
40
0.679442
50
270.4443897
51
278.4511052
0
ARC
8
DEFAULT_255_1_234
10
15.4429343
20
-0.0647787
40
0.4604407
50
269.4970433
51
284.0205042
0
ARC
8
DEFAULT_255_1_234
10
15.4784644
20
-0.2013022
40
0.3193797
50
283.7700273
51
318.1555492
0
ARC
8
DEFAULT_255_1_234
10
15.4447402
20
-0.1760633
40
0.3613588
50
318.7415601
51
343.6873628
0
ARC
8
DEFAULT_255_1_234
10
15.2643426
20
-0.1197168
40
0.5503313
50
343.3325091
51
355.8548958
0
ARC
8
DEFAULT_255_1_234
10
15.054511
20
-0.0997681
40
0.7610708
50
355.4988528
51
0.0791727
0
ARC
8
DEFAULT_255_1_234
10
15.1327733
20
-0.026222
40
0.6828208
50
359.6455037
51
9.8607896
0
ARC
8
DEFAULT_255_1_234
10
15.368843
20
0.0164099
40
0.4429406
50
9.6571907
51
26.1932807
0
ARC
8
DEFAULT_255_1_234
10
15.4616419
20
0.0595118
40
0.3406537
50
26.5777228
51
40.1532208
0
ARC
8
DEFAULT_255_1_234
10
15.4872145
20
0.0794619
40
0.308246
50
40.3840491
51
80.1431104
0
ARC
8
DEFAULT_255_1_234
10
15.4545263
20
-0.0654667
40
0.4566909
50
79.2152159
51
89.7445637
0
LINE
8
DEFAULT_255_1_234
10
16.8958498
20
0.0402327
11
16.8958498
21
-0.1525291
0
LINE
8
DEFAULT_255_1_234
10
16.1577331
20
-0.1726084
11
16.1577331
21
0.0257755
0
LINE
8
DEFAULT_255_1_234
10
16.7472626
20
-0.1926877
11
16.7472626
21
0.0506739
0
LINE
8
DEFAULT_255_1_234
10
16.3063202
20
0.0619184
11
16.3063202
21
-0.1758211
0
ARC
8
DEFAULT_255_1_234
10
15.6711388
20
-0.1574195
40
1.2247208
50
353.8441951
51
0.2287902
0
ARC
8
DEFAULT_255_1_234
10
16.1350891
20
-0.2092194
40
0.7578929
50
344.4934747
51
353.9765454
0
ARC
8
DEFAULT_255_1_234
10
16.4343481
20
-0.2943019
40
0.4467846
50
329.2803592
51
344.7472793
0
ARC
8
DEFAULT_255_1_234
10
16.5336306
20
-0.3487982
40
0.3336173
50
324.9352394
51
328.6160465
0
ARC
8
DEFAULT_255_1_234
10
16.5713415
20
-0.3751573
40
0.2876076
50
280.580143
51
324.9173126
0
ARC
8
DEFAULT_255_1_234
10
16.5312208
20
-0.2080901
40
0.4592847
50
269.5977311
51
281.6734359
0
ARC
8
DEFAULT_255_1_234
10
16.5240113
20
-0.2200827
40
0.4472986
50
256.6228859
51
270.51044
0
ARC
8
DEFAULT_255_1_234
10
16.4838091
20
-0.3749123
40
0.2873874
50
215.8618325
51
257.2788573
0
ARC
8
DEFAULT_255_1_234
10
16.5859123
20
-0.3064023
40
0.4102928
50
197.9693508
51
215.2623606
0
ARC
8
DEFAULT_255_1_234
10
16.8344238
20
-0.2225291
40
0.6725652
50
187.8816417
51
198.2346507
0
ARC
8
DEFAULT_255_1_234
10
17.2302447
20
-0.1653921
40
1.0724845
50
180.8976217
51
188.0055519
0
ARC
8
DEFAULT_255_1_234
10
17.5102635
20
-0.1550223
40
1.3526448
50
180.7449369
51
181.1510016
0
ARC
8
DEFAULT_255_1_234
10
17.3525364
20
0.0306042
40
1.1948131
50
173.7675579
51
180.231553
0
ARC
8
DEFAULT_255_1_234
10
16.900751
20
0.0816666
40
0.7401564
50
164.3058563
51
173.9002247
0
ARC
8
DEFAULT_255_1_234
10
16.6095579
20
0.1655656
40
0.4371288
50
148.7922025
51
164.568378
0
ARC
8
DEFAULT_255_1_234
10
16.5144031
20
0.2186929
40
0.3282386
50
144.5883898
51
148.1176286
0
ARC
8
DEFAULT_255_1_234
10
16.4800929
20
0.2426315
40
0.2864044
50
101.6440918
51
144.514236
0
ARC
8
DEFAULT_255_1_234
10
16.5225996
20
0.0737069
40
0.4604934
50
89.5284041
51
102.5819763
0
ARC
8
DEFAULT_255_1_234
10
16.5305084
20
0.0698018
40
0.464401
50
77.0437873
51
90.5081339
0
ARC
8
DEFAULT_255_1_234
10
16.5707086
20
0.2340615
40
0.2953195
50
48.2778575
51
77.4994676
0
ARC
8
DEFAULT_255_1_234
10
16.5779717
20
0.2469746
40
0.2808655
50
36.3142134
51
47.6305865
0
ARC
8
DEFAULT_255_1_234
10
16.4911024
20
0.1884515
40
0.3855453
50
18.2931786
51
35.6769206
0
ARC
8
DEFAULT_255_1_234
10
16.2367783
20
0.1011593
40
0.654423
50
8.024666
51
18.5605216
0
ARC
8
DEFAULT_255_1_234
10
15.8204703
20
0.0396792
40
1.0752407
50
1.1274072
51
8.1718305
0
ARC
8
DEFAULT_255_1_234
10
15.4968893
20
0.0269885
40
1.3990231
50
0.5424119
51
1.3863029
0
ARC
8
DEFAULT_255_1_234
10
15.6790271
20
0.0542342
40
1.0682415
50
359.8090433
51
4.9407866
0
ARC
8
DEFAULT_255_1_234
10
16.1000285
20
0.0918113
40
0.6455691
50
4.8362157
51
12.2904523
0
ARC
8
DEFAULT_255_1_234
10
16.37554
20
0.1531965
40
0.3633074
50
12.0805627
51
23.8173984
0
ARC
8
DEFAULT_255_1_234
10
16.4929105
20
0.2028919
40
0.2358723
50
24.2871213
51
31.3935614
0
ARC
8
DEFAULT_255_1_234
10
16.5453802
20
0.2372233
40
0.1732111
50
30.7407893
51
82.4657128
0
ARC
8
DEFAULT_255_1_234
10
16.5273937
20
0.1488691
40
0.263235
50
81.1060089
51
90.2184952
0
ARC
8
DEFAULT_255_1_234
10
16.5238236
20
0.1746924
40
0.2374236
50
89.3806855
51
105.6762551
0
ARC
8
DEFAULT_255_1_234
10
16.5054866
20
0.2413567
40
0.1682847
50
105.7981136
51
149.7388061
0
ARC
8
DEFAULT_255_1_234
10
16.6118945
20
0.177395
40
0.2924306
50
149.4208916
51
163.6286378
0
ARC
8
DEFAULT_255_1_234
10
16.8209833
20
0.113625
40
0.5110213
50
163.3763315
51
172.1410975
0
ARC
8
DEFAULT_255_1_234
10
17.1510552
20
0.0663518
40
0.8444586
50
172.0259487
51
178.0703232
0
ARC
8
DEFAULT_255_1_234
10
17.4540641
20
0.0519906
40
1.1477868
50
177.8631668
51
179.5044149
0
ARC
8
DEFAULT_255_1_234
10
17.3468046
20
-0.1794611
40
1.0404907
50
179.7995573
51
185.2460446
0
ARC
8
DEFAULT_255_1_234
10
16.9425085
20
-0.2177487
40
0.6343885
50
185.1411642
51
193.0079639
0
ARC
8
DEFAULT_255_1_234
10
16.6781557
20
-0.2802359
40
0.3627568
50
192.7897626
51
205.2507664
0
ARC
8
DEFAULT_255_1_234
10
16.5735104
20
-0.3269585
40
0.2481908
50
205.8005384
51
211.2537509
0
ARC
8
DEFAULT_255_1_234
10
16.5211545
20
-0.362042
40
0.1852521
50
210.3789793
51
238.4008143
0
ARC
8
DEFAULT_255_1_234
10
16.5192067
20
-0.3573624
40
0.1882621
50
239.6520629
51
265.9793761
0
ARC
8
DEFAULT_255_1_234
10
16.5277267
20
-0.2901573
40
0.2559272
50
265.1315437
51
270.060332
0
ARC
8
DEFAULT_255_1_234
10
16.5306046
20
-0.3225466
40
0.2235528
50
269.3314664
51
287.2178029
0
ARC
8
DEFAULT_255_1_234
10
16.5443898
20
-0.3728721
40
0.1714108
50
287.7958004
51
329.080874
0
ARC
8
DEFAULT_255_1_234
10
16.4486354
20
-0.313107
40
0.2842745
50
328.6634704
51
343.3325132
0
ARC
8
DEFAULT_255_1_234
10
16.2313375
20
-0.2454137
40
0.5118644
50
343.0499468
51
351.9393422
0
ARC
8
DEFAULT_255_1_234
10
15.8846674
20
-0.1943051
40
0.8622784
50
351.8069023
51
357.7959224
0
ARC
8
DEFAULT_255_1_234
10
15.561123
20
-0.1775279
40
1.1862365
50
357.5871873
51
359.2677531
0
LINE
8
DEFAULT_255_1_234
10
17.5745317
20
0.5237433
11
17.5745317
21
-0.6513
0
LINE
8
DEFAULT_255_1_234
10
17.5745317
20
-0.6513
11
17.4251414
21
-0.6513
0
LINE
8
DEFAULT_255_1_234
10
17.4251414
20
-0.6513
11
17.4251414
21
0.3390133
0
LINE
8
DEFAULT_255_1_234
10
17.4251414
20
0.3390133
11
17.1255575
21
0.2289785
0
LINE
8
DEFAULT_255_1_234
10
17.1255575
20
0.2289785
11
17.1255575
21
0.3639117
0
LINE
8
DEFAULT_255_1_234
10
17.1255575
20
0.3639117
11
17.5512396
21
0.5237433
0
LINE
8
DEFAULT_255_1_234
10
17.5512396
20
0.5237433
11
17.5745317
21
0.5237433
0
LINE
8
DEFAULT_255_1_234
10
18.3343341
20
-0.0938974
11
18.3343341
21
-0.2151766
0
LINE
8
DEFAULT_255_1_234
10
18.3343341
20
-0.2151766
11
17.9423853
21
-0.2151766
0
LINE
8
DEFAULT_255_1_234
10
17.9423853
20
-0.2151766
11
17.9423853
21
-0.0938974
0
LINE
8
DEFAULT_255_1_234
10
17.9423853
20
-0.0938974
11
18.3343341
21
-0.0938974
0
LINE
8
DEFAULT_255_1_234
10
19.1969428
20
0.0402327
11
19.1969428
21
-0.1525291
0
LINE
8
DEFAULT_255_1_234
10
18.4588261
20
-0.1726084
11
18.4588261
21
0.0257755
0
LINE
8
DEFAULT_255_1_234
10
19.0483557
20
-0.1926877
11
19.0483557
21
0.0506739
0
LINE
8
DEFAULT_255_1_234
10
18.6074132
20
0.0619184
11
18.6074132
21
-0.1758211
0
ARC
8
DEFAULT_255_1_234
10
17.9722318
20
-0.1574195
40
1.2247208
50
353.8441951
51
0.2287902
0
ARC
8
DEFAULT_255_1_234
10
18.4361821
20
-0.2092194
40
0.7578929
50
344.4934747
51
353.9765454
0
ARC
8
DEFAULT_255_1_234
10
18.7354412
20
-0.2943019
40
0.4467846
50
329.2803592
51
344.7472793
0
ARC
8
DEFAULT_255_1_234
10
18.8347236
20
-0.3487982
40
0.3336173
50
324.9352394
51
328.6160465
0
ARC
8
DEFAULT_255_1_234
10
18.8724345
20
-0.3751573
40
0.2876076
50
280.580143
51
324.9173126
0
ARC
8
DEFAULT_255_1_234
10
18.8323138
20
-0.2080901
40
0.4592847
50
269.5977311
51
281.6734359
0
ARC
8
DEFAULT_255_1_234
10
18.8251043
20
-0.2200827
40
0.4472986
50
256.6228859
51
270.51044
0
ARC
8
DEFAULT_255_1_234
10
18.7849021
20
-0.3749123
40
0.2873874
50
215.8618325
51
257.2788573
0
ARC
8
DEFAULT_255_1_234
10
18.8870053
20
-0.3064023
40
0.4102928
50
197.9693508
51
215.2623606
0
ARC
8
DEFAULT_255_1_234
10
19.1355168
20
-0.2225291
40
0.6725652
50
187.8816417
51
198.2346507
0
ARC
8
DEFAULT_255_1_234
10
19.5313377
20
-0.1653921
40
1.0724845
50
180.8976217
51
188.0055519
0
ARC
8
DEFAULT_255_1_234
10
19.8113565
20
-0.1550223
40
1.3526448
50
180.7449369
51
181.1510016
0
ARC
8
DEFAULT_255_1_234
10
19.6536294
20
0.0306042
40
1.1948131
50
173.7675579
51
180.231553
0
ARC
8
DEFAULT_255_1_234
10
19.201844
20
0.0816666
40
0.7401564
50
164.3058563
51
173.9002247
0
ARC
8
DEFAULT_255_1_234
10
18.9106509
20
0.1655656
40
0.4371288
50
148.7922025
51
164.568378
0
ARC
8
DEFAULT_255_1_234
10
18.8154962
20
0.2186929
40
0.3282386
50
144.5883898
51
148.1176286
0
ARC
8
DEFAULT_255_1_234
10
18.7811859
20
0.2426315
40
0.2864044
50
101.6440918
51
144.514236
0
ARC
8
DEFAULT_255_1_234
10
18.8236926
20
0.0737069
40
0.4604934
50
89.5284041
51
102.5819763
0
ARC
8
DEFAULT_255_1_234
10
18.8316014
20
0.0698018
40
0.464401
50
77.0437873
51
90.5081339
0
ARC
8
DEFAULT_255_1_234
10
18.8718016
20
0.2340615
40
0.2953195
50
48.2778575
51
77.4994676
0
ARC
8
DEFAULT_255_1_234
10
18.8790647
20
0.2469746
40
0.2808655
50
36.3142134
51
47.6305865
0
ARC
8
DEFAULT_255_1_234
10
18.7921954
20
0.1884515
40
0.3855453
50
18.2931786
51
35.6769206
0
ARC
8
DEFAULT_255_1_234
10
18.5378713
20
0.1011593
40
0.654423
50
8.024666
51
18.5605216
0
ARC
8
DEFAULT_255_1_234
10
18.1215633
20
0.0396792
40
1.0752407
50
1.1274072
51
8.1718305
0
ARC
8
DEFAULT_255_1_234
10
17.7979823
20
0.0269885
40
1.3990231
50
0.5424119
51
1.3863029
0
ARC
8
DEFAULT_255_1_234
10
17.9801201
20
0.0542342
40
1.0682415
50
359.8090433
51
4.9407866
0
ARC
8
DEFAULT_255_1_234
10
18.4011215
20
0.0918113
40
0.6455691
50
4.8362157
51
12.2904523
0
ARC
8
DEFAULT_255_1_234
10
18.676633
20
0.1531965
40
0.3633074
50
12.0805627
51
23.8173984
0
ARC
8
DEFAULT_255_1_234
10
18.7940035
20
0.2028919
40
0.2358723
50
24.2871213
51
31.3935614
0
ARC
8
DEFAULT_255_1_234
10
18.8464733
20
0.2372233
40
0.1732111
50
30.7407893
51
82.4657128
0
ARC
8
DEFAULT_255_1_234
10
18.8284867
20
0.1488691
40
0.263235
50
81.1060089
51
90.2184952
0
ARC
8
DEFAULT_255_1_234
10
18.8249166
20
0.1746924
40
0.2374236
50
89.3806855
51
105.6762551
0
ARC
8
DEFAULT_255_1_234
10
18.8065796
20
0.2413567
40
0.1682847
50
105.7981136
51
149.7388061
0
ARC
8
DEFAULT_255_1_234
10
18.9129875
20
0.177395
40
0.2924306
50
149.4208916
51
163.6286378
0
ARC
8
DEFAULT_255_1_234
10
19.1220763
20
0.113625
40
0.5110213
50
163.3763315
51
172.1410975
0
ARC
8
DEFAULT_255_1_234
10
19.4521482
20
0.0663518
40
0.8444586
50
172.0259487
51
178.0703232
0
ARC
8
DEFAULT_255_1_234
10
19.7551571
20
0.0519906
40
1.1477868
50
177.8631668
51
179.5044149
0
ARC
8
DEFAULT_255_1_234
10
19.6478976
20
-0.1794611
40
1.0404907
50
179.7995573
51
185.2460446
0
ARC
8
DEFAULT_255_1_234
10
19.2436015
20
-0.2177487
40
0.6343885
50
185.1411642
51
193.0079639
0
ARC
8
DEFAULT_255_1_234
10
18.9792488
20
-0.2802359
40
0.3627568
50
192.7897626
51
205.2507664
0
ARC
8
DEFAULT_255_1_234
10
18.8746035
20
-0.3269585
40
0.2481908
50
205.8005384
51
211.2537509
0
ARC
8
DEFAULT_255_1_234
10
18.8222475
20
-0.362042
40
0.1852521
50
210.3789793
51
238.4008143
0
ARC
8
DEFAULT_255_1_234
10
18.8202997
20
-0.3573624
40
0.1882621
50
239.6520629
51
265.9793761
0
ARC
8
DEFAULT_255_1_234
10
18.8288197
20
-0.2901573
40
0.2559272
50
265.1315437
51
270.060332
0
ARC
8
DEFAULT_255_1_234
10
18.8316976
20
-0.3225466
40
0.2235528
50
269.3314664
51
287.2178029
0
ARC
8
DEFAULT_255_1_234
10
18.8454828
20
-0.3728721
40
0.1714108
50
287.7958004
51
329.080874
0
ARC
8
DEFAULT_255_1_234
10
18.7497285
20
-0.313107
40
0.2842745
50
328.6634704
51
343.3325132
0
ARC
8
DEFAULT_255_1_234
10
18.5324305
20
-0.2454137
40
0.5118644
50
343.0499468
51
351.9393422
0
ARC
8
DEFAULT_255_1_234
10
18.1857605
20
-0.1943051
40
0.8622784
50
351.8069023
51
357.7959224
0
ARC
8
DEFAULT_255_1_234
10
17.8622161
20
-0.1775279
40
1.1862365
50
357.5871873
51
359.2677531
0
LINE
8
DEFAULT_255_1_234
10
20.1832403
20
-0.6513
11
20.0715991
21
-0.3460939
0
LINE
8
DEFAULT_255_1_234
10
20.0715991
20
-0.3460939
11
19.5816631
21
-0.3460939
0
LINE
8
DEFAULT_255_1_234
10
19.5816631
20
-0.3460939
11
19.4716283
21
-0.6513
0
LINE
8
DEFAULT_255_1_234
10
19.4716283
20
-0.6513
11
19.3125999
21
-0.6513
0
LINE
8
DEFAULT_255_1_234
10
19.3125999
20
-0.6513
11
19.7591645
21
0.5181211
0
LINE
8
DEFAULT_255_1_234
10
19.7591645
20
0.5181211
11
19.8940977
21
0.5181211
0
LINE
8
DEFAULT_255_1_234
10
19.8940977
20
0.5181211
11
20.3414655
21
-0.6513
0
LINE
8
DEFAULT_255_1_234
10
20.3414655
20
-0.6513
11
20.1832403
21
-0.6513
0
LINE
8
DEFAULT_255_1_234
10
19.8266311
20
0.3277689
11
19.6282472
21
-0.2191925
0
LINE
8
DEFAULT_255_1_234
10
19.6282472
20
-0.2191925
11
20.0258182
21
-0.2191925
0
LINE
8
DEFAULT_255_1_234
10
20.0258182
20
-0.2191925
11
19.8266311
21
0.3277689
0
LINE
8
DEFAULT_255_1_234
10
20.9044904
20
-0.6513
11
20.4988876
21
-0.6513
0
LINE
8
DEFAULT_255_1_234
10
20.4988876
20
-0.6513
11
20.4988876
21
0.5181211
0
LINE
8
DEFAULT_255_1_234
10
20.4988876
20
0.5181211
11
20.8811983
21
0.5181211
0
LINE
8
DEFAULT_255_1_234
10
20.9101126
20
-0.1043386
11
20.653097
21
-0.1043386
0
LINE
8
DEFAULT_255_1_234
10
20.653097
20
-0.1043386
11
20.653097
21
-0.5252017
0
LINE
8
DEFAULT_255_1_234
10
20.653097
20
-0.5252017
11
20.9077031
21
-0.5252017
0
LINE
8
DEFAULT_255_1_234
10
20.653097
20
0.3912196
11
20.653097
21
0.0193501
0
LINE
8
DEFAULT_255_1_234
10
20.653097
20
0.0193501
11
20.8860174
21
0.0193501
0
LINE
8
DEFAULT_255_1_234
10
20.8811983
20
0.3912196
11
20.653097
21
0.3912196
0
ARC
8
DEFAULT_255_1_234
10
20.8849692
20
-0.2186099
40
0.7367406
50
82.1257326
51
90.2932599
0
ARC
8
DEFAULT_255_1_234
10
20.9238647
20
0.0532013
40
0.4621653
50
69.9044149
51
82.2857423
0
ARC
8
DEFAULT_255_1_234
10
20.9809325
20
0.2074637
40
0.2976871
50
51.1838526
51
70.0181538
0
ARC
8
DEFAULT_255_1_234
10
21.0064291
20
0.244524
40
0.2528517
50
12.1017251
51
50.4214761
0
ARC
8
DEFAULT_255_1_234
10
20.8680165
20
0.2097676
40
0.3955061
50
359.5251267
51
12.8211707
0
ARC
8
DEFAULT_255_1_234
10
21.0260092
20
0.2028344
40
0.2375281
50
323.4908128
51
0.8817314
0
ARC
8
DEFAULT_255_1_234
10
20.9841778
20
0.235155
40
0.2903817
50
298.6825083
51
323.2756573
0
ARC
8
DEFAULT_255_1_234
10
20.9480141
20
0.2952649
40
0.3604842
50
293.1999386
51
299.1396394
0
ARC
8
DEFAULT_255_1_234
10
21.0153114
20
-0.3132874
40
0.2871098
50
54.0011765
51
74.9167975
0
ARC
8
DEFAULT_255_1_234
10
21.0269473
20
-0.2935668
40
0.2643248
50
36.3580696
51
53.5291921
0
ARC
8
DEFAULT_255_1_234
10
21.0142715
20
-0.3026002
40
0.2798884
50
4.8189881
51
36.3089977
0
ARC
8
DEFAULT_255_1_234
10
20.9363551
20
-0.313573
40
0.358478
50
359.9370252
51
5.5204067
0
ARC
8
DEFAULT_255_1_234
10
20.9039072
20
-0.3176333
40
0.3909429
50
344.7478609
51
0.5373281
0
ARC
8
DEFAULT_255_1_234
10
21.0030043
20
-0.3443456
40
0.2883093
50
311.1786488
51
344.6886812
0
ARC
8
DEFAULT_255_1_234
10
20.973809
20
-0.3080013
40
0.3348923
50
286.0418249
51
310.8441291
0
ARC
8
DEFAULT_255_1_234
10
20.9230922
20
-0.1433193
40
0.5071869
50
274.1042341
51
286.4071509
0
ARC
8
DEFAULT_255_1_234
10
20.9054178
20
0.0450229
40
0.6963234
50
269.9236873
51
274.445647
0
ARC
8
DEFAULT_255_1_234
10
20.9100179
20
-0.1889463
40
0.3362634
50
269.6055768
51
281.3740047
0
ARC
8
DEFAULT_255_1_234
10
20.9330817
20
-0.2982647
40
0.224546
50
281.1055983
51
302.5132223
0
ARC
8
DEFAULT_255_1_234
10
20.9477716
20
-0.3246177
40
0.1944357
50
303.0368945
51
311.8811219
0
ARC
8
DEFAULT_255_1_234
10
20.9549123
20
-0.333111
40
0.1833454
50
311.9916004
51
351.7143462
0
ARC
8
DEFAULT_255_1_234
10
20.8732353
20
-0.316607
40
0.2665871
50
350.7339597
51
0.2221581
0
ARC
8
DEFAULT_255_1_234
10
20.8624799
20
-0.3109533
40
0.2773789
50
359.0456241
51
17.2296242
0
ARC
8
DEFAULT_255_1_234
10
20.9663916
20
-0.2800837
40
0.1689915
50
17.6685481
51
78.9940892
0
ARC
8
DEFAULT_255_1_234
10
20.914708
20
-0.4655776
40
0.3612658
50
76.5635957
51
90.6980921
0
LINE
8
DEFAULT_255_1_234
10
20.9103064
20
-0.1043387
11
20.9101126
21
-0.1043386
0
ARC
8
DEFAULT_255_1_234
10
20.888274
20
0.3479036
40
0.3285612
50
269.6064736
51
281.4533503
0
ARC
8
DEFAULT_255_1_234
10
20.910556
20
0.2427688
40
0.2210975
50
281.2041486
51
302.5148063
0
ARC
8
DEFAULT_255_1_234
10
20.924241
20
0.2181241
40
0.1929674
50
303.021671
51
309.8369575
0
ARC
8
DEFAULT_255_1_234
10
20.9425872
20
0.1975488
40
0.1654181
50
309.5228395
51
356.9509836
0
ARC
8
DEFAULT_255_1_234
10
20.8762454
20
0.2070932
40
0.2322512
50
355.4701227
51
0.0492546
0
ARC
8
DEFAULT_255_1_234
10
20.8483545
20
0.2093094
40
0.2601498
50
359.5558597
51
11.2096359
0
ARC
8
DEFAULT_255_1_234
10
20.9440835
20
0.229123
40
0.1623975
50
10.9182341
51
31.3230275
0
ARC
8
DEFAULT_255_1_234
10
20.9726568
20
0.2450214
40
0.1297302
50
31.8852677
51
52.1412565
0
ARC
8
DEFAULT_255_1_234
10
20.9452301
20
0.206275
40
0.1771663
50
52.8285564
51
71.9850297
0
ARC
8
DEFAULT_255_1_234
10
20.9076478
20
0.0956664
40
0.2939794
50
71.6863486
51
82.8455995
0
ARC
8
DEFAULT_255_1_234
10
20.8837014
20
-0.0852851
40
0.476506
50
82.6984714
51
90.1729175
0
ARC
8
DEFAULT_255_1_234
10
20.8814648
20
0.0370623
40
0.3541573
50
89.8708275
51
90.0431131
0
LINE
8
DEFAULT_255_1_234
10
22.2176796
20
0.0402327
11
22.2176796
21
-0.1525291
0
LINE
8
DEFAULT_255_1_234
10
21.4795628
20
-0.1726084
11
21.4795628
21
0.0257755
0
LINE
8
DEFAULT_255_1_234
10
22.0690924
20
-0.1926877
11
22.0690924
21
0.0506739
0
LINE
8
DEFAULT_255_1_234
10
21.62815
20
0.0619184
11
21.62815
21
-0.1758211
0
ARC
8
DEFAULT_255_1_234
10
20.9929685
20
-0.1574195
40
1.2247208
50
353.8441951
51
0.2287902
0
ARC
8
DEFAULT_255_1_234
10
21.4569189
20
-0.2092194
40
0.7578929
50
344.4934747
51
353.9765454
0
ARC
8
DEFAULT_255_1_234
10
21.7561779
20
-0.2943019
40
0.4467846
50
329.2803592
51
344.7472793
0
ARC
8
DEFAULT_255_1_234
10
21.8554604
20
-0.3487982
40
0.3336173
50
324.9352394
51
328.6160465
0
ARC
8
DEFAULT_255_1_234
10
21.8931713
20
-0.3751573
40
0.2876076
50
280.580143
51
324.9173126
0
ARC
8
DEFAULT_255_1_234
10
21.8530505
20
-0.2080901
40
0.4592847
50
269.5977311
51
281.6734359
0
ARC
8
DEFAULT_255_1_234
10
21.8458411
20
-0.2200827
40
0.4472986
50
256.6228859
51
270.51044
0
ARC
8
DEFAULT_255_1_234
10
21.8056389
20
-0.3749123
40
0.2873874
50
215.8618325
51
257.2788573
0
ARC
8
DEFAULT_255_1_234
10
21.9077421
20
-0.3064023
40
0.4102928
50
197.9693508
51
215.2623606
0
ARC
8
DEFAULT_255_1_234
10
22.1562536
20
-0.2225291
40
0.6725652
50
187.8816417
51
198.2346507
0
ARC
8
DEFAULT_255_1_234
10
22.5520744
20
-0.1653921
40
1.0724845
50
180.8976217
51
188.0055519
0
ARC
8
DEFAULT_255_1_234
10
22.8320933
20
-0.1550223
40
1.3526448
50
180.7449369
51
181.1510016
0
ARC
8
DEFAULT_255_1_234
10
22.6743662
20
0.0306042
40
1.1948131
50
173.7675579
51
180.231553
0
ARC
8
DEFAULT_255_1_234
10
22.2225808
20
0.0816666
40
0.7401564
50
164.3058563
51
173.9002247
0
ARC
8
DEFAULT_255_1_234
10
21.9313877
20
0.1655656
40
0.4371288
50
148.7922025
51
164.568378
0
ARC
8
DEFAULT_255_1_234
10
21.8362329
20
0.2186929
40
0.3282386
50
144.5883898
51
148.1176286
0
ARC
8
DEFAULT_255_1_234
10
21.8019227
20
0.2426315
40
0.2864044
50
101.6440918
51
144.514236
0
ARC
8
DEFAULT_255_1_234
10
21.8444294
20
0.0737069
40
0.4604934
50
89.5284041
51
102.5819763
0
ARC
8
DEFAULT_255_1_234
10
21.8523382
20
0.0698018
40
0.464401
50
77.0437873
51
90.5081339
0
ARC
8
DEFAULT_255_1_234
10
21.8925383
20
0.2340615
40
0.2953195
50
48.2778575
51
77.4994676
0
ARC
8
DEFAULT_255_1_234
10
21.8998015
20
0.2469746
40
0.2808655
50
36.3142134
51
47.6305865
0
ARC
8
DEFAULT_255_1_234
10
21.8129322
20
0.1884515
40
0.3855453
50
18.2931786
51
35.6769206
0
ARC
8
DEFAULT_255_1_234
10
21.558608
20
0.1011593
40
0.654423
50
8.024666
51
18.5605216
0
ARC
8
DEFAULT_255_1_234
10
21.1423001
20
0.0396792
40
1.0752407
50
1.1274072
51
8.1718305
0
ARC
8
DEFAULT_255_1_234
10
20.8187191
20
0.0269885
40
1.3990231
50
0.5424119
51
1.3863029
0
ARC
8
DEFAULT_255_1_234
10
21.0008569
20
0.0542342
40
1.0682415
50
359.8090433
51
4.9407866
0
ARC
8
DEFAULT_255_1_234
10
21.4218583
20
0.0918113
40
0.6455691
50
4.8362157
51
12.2904523
0
ARC
8
DEFAULT_255_1_234
10
21.6973698
20
0.1531965
40
0.3633074
50
12.0805627
51
23.8173984
0
ARC
8
DEFAULT_255_1_234
10
21.8147403
20
0.2028919
40
0.2358723
50
24.2871213
51
31.3935614
0
ARC
8
DEFAULT_255_1_234
10
21.86721
20
0.2372233
40
0.1732111
50
30.7407893
51
82.4657128
0
ARC
8
DEFAULT_255_1_234
10
21.8492235
20
0.1488691
40
0.263235
50
81.1060089
51
90.2184952
0
ARC
8
DEFAULT_255_1_234
10
21.8456533
20
0.1746924
40
0.2374236
50
89.3806855
51
105.6762551
0
ARC
8
DEFAULT_255_1_234
10
21.8273164
20
0.2413567
40
0.1682847
50
105.7981136
51
149.7388061
0
ARC
8
DEFAULT_255_1_234
10
21.9337242
20
0.177395
40
0.2924306
50
149.4208916
51
163.6286378
0
ARC
8
DEFAULT_255_1_234
10
22.142813
20
0.113625
40
0.5110213
50
163.3763315
51
172.1410975
0
ARC
8
DEFAULT_255_1_234
10
22.4728849
20
0.0663518
40
0.8444586
50
172.0259487
51
178.0703232
0
ARC
8
DEFAULT_255_1_234
10
22.7758939
20
0.0519906
40
1.1477868
50
177.8631668
51
179.5044149
0
ARC
8
DEFAULT_255_1_234
10
22.6686343
20
-0.1794611
40
1.0404907
50
179.7995573
51
185.2460446
0
ARC
8
DEFAULT_255_1_234
10
22.2643383
20
-0.2177487
40
0.6343885
50
185.1411642
51
193.0079639
0
ARC
8
DEFAULT_255_1_234
10
21.9999855
20
-0.2802359
40
0.3627568
50
192.7897626
51
205.2507664
0
ARC
8
DEFAULT_255_1_234
10
21.8953402
20
-0.3269585
40
0.2481908
50
205.8005384
51
211.2537509
0
ARC
8
DEFAULT_255_1_234
10
21.8429843
20
-0.362042
40
0.1852521
50
210.3789793
51
238.4008143
0
ARC
8
DEFAULT_255_1_234
10
21.8410365
20
-0.3573624
40
0.1882621
50
239.6520629
51
265.9793761
0
ARC
8
DEFAULT_255_1_234
10
21.8495565
20
-0.2901573
40
0.2559272
50
265.1315437
51
270.060332
0
ARC
8
DEFAULT_255_1_234
10
21.8524344
20
-0.3225466
40
0.2235528
50
269.3314664
51
287.2178029
0
ARC
8
DEFAULT_255_1_234
10
21.8662196
20
-0.3728721
40
0.1714108
50
287.7958004
51
329.080874
0
ARC
8
DEFAULT_255_1_234
10
21.7704652
20
-0.313107
40
0.2842745
50
328.6634704
51
343.3325132
0
ARC
8
DEFAULT_255_1_234
10
21.5531672
20
-0.2454137
40
0.5118644
50
343.0499468
51
351.9393422
0
ARC
8
DEFAULT_255_1_234
10
21.2064972
20
-0.1943051
40
0.8622784
50
351.8069023
51
357.7959224
0
ARC
8
DEFAULT_255_1_234
10
20.8829528
20
-0.1775279
40
1.1862365
50
357.5871873
51
359.2677531
0
ARC
8
DEFAULT_255_2_778
10
7.7537338
20
28.5262992
40
3.0484709
50
251.6854144
51
258.6071955
0
ARC
8
DEFAULT_255_2_778
10
7.539521
20
27.4446738
40
1.9458471
50
258.4992492
51
268.3986479
0
ARC
8
DEFAULT_255_2_778
10
7.5172314
20
27.0144206
40
1.5151737
50
268.7865272
51
269.9950384
0
ARC
8
DEFAULT_255_2_778
10
7.5277432
20
26.5632355
40
1.0640417
50
269.426895
51
279.6711067
0
ARC
8
DEFAULT_255_2_778
10
7.6417753
20
25.9336746
40
0.4243233
50
278.7731084
51
300.3324923
0
ARC
8
DEFAULT_255_2_778
10
7.760746
20
25.7310552
40
0.1893587
50
300.2240287
51
1.9041213
0
ARC
8
DEFAULT_255_2_778
10
7.7452705
20
25.7402089
40
0.2047497
50
359.1991369
51
359.99965
0
ARC
8
DEFAULT_255_2_778
10
7.7523233
20
25.7410378
40
0.1976988
50
359.7594145
51
47.1793976
0
ARC
8
DEFAULT_255_2_778
10
7.6187277
20
25.592431
40
0.3975169
50
47.6144502
51
60.8366176
0
ARC
8
DEFAULT_255_2_778
10
7.0190958
20
24.5764865
40
1.5771337
50
59.799464
51
64.8885807
0
ARC
8
DEFAULT_255_2_778
10
6.0948833
20
22.6474682
40
3.7160912
50
64.6076081
51
66.8386974
0
ARC
8
DEFAULT_255_2_778
10
9.6419609
20
31.0105052
40
5.368109
50
244.3032309
51
247.1393781
0
ARC
8
DEFAULT_255_2_778
10
8.5507088
20
28.750518
40
2.8584574
50
240.2323579
51
244.3709759
0
ARC
8
DEFAULT_255_2_778
10
7.7800475
20
27.4136591
40
1.315392
50
233.2209971
51
240.4606284
0
ARC
8
DEFAULT_255_2_778
10
7.3561477
20
26.8425187
40
0.6041399
50
225.6990744
51
232.9899679
0
ARC
8
DEFAULT_255_2_778
10
7.3965073
20
26.8669214
40
0.6499005
50
178.2783416
51
224.6550883
0
ARC
8
DEFAULT_255_2_778
10
7.5059624
20
26.9002974
40
0.7591885
50
157.033673
51
181.0453383
0
ARC
8
DEFAULT_255_2_778
10
7.378439
20
26.9411396
40
0.6259551
50
124.9113017
51
155.9211516
0
ARC
8
DEFAULT_255_2_778
10
7.5960466
20
26.6325681
40
1.0035357
50
100.4079723
51
125.0168617
0
ARC
8
DEFAULT_255_2_778
10
7.6991199
20
26.1385046
40
1.5081396
50
89.6483922
51
100.8684975
0
ARC
8
DEFAULT_255_2_778
10
7.7083242
20
25.7862988
40
1.8603169
50
89.5079487
51
89.9984402
0
ARC
8
DEFAULT_255_2_778
10
7.7099573
20
25.7210694
40
1.9255311
50
83.9170631
51
89.5732113
0
ARC
8
DEFAULT_255_2_778
10
7.5071517
20
23.7134957
40
3.9433074
50
80.7325723
51
84.0779772
0
ARC
8
DEFAULT_255_2_778
10
7.0208457
20
20.690582
40
7.0050837
50
78.5086351
51
80.7886813
0
ARC
8
DEFAULT_255_2_778
10
7.6620177
20
25.2900544
40
1.9415426
50
67.135818
51
78.0934208
0
ARC
8
DEFAULT_255_2_778
10
7.7851814
20
25.8604809
40
1.3579807
50
78.2126325
51
89.7333975
0
ARC
8
DEFAULT_255_2_778
10
7.7793853
20
26.2756211
40
0.9429038
50
89.2638155
51
100.5666868
0
ARC
8
DEFAULT_255_2_778
10
7.6660949
20
26.8454419
40
0.362036
50
99.4784875
51
124.329414
0
ARC
8
DEFAULT_255_2_778
10
7.5705593
20
26.993551
40
0.1859067
50
125.7571195
51
182.2824883
0
ARC
8
DEFAULT_255_2_778
10
7.5493239
20
26.9868629
40
0.1645253
50
180.2492993
51
239.8144161
0
ARC
8
DEFAULT_255_2_778
10
7.932718
20
27.5869128
40
0.876484
50
237.8725734
51
242.8068846
0
ARC
8
DEFAULT_255_2_778
10
9.4175857
20
30.4034958
40
4.0604642
50
242.3328458
51
244.031083
0
ARC
8
DEFAULT_255_2_778
10
12.3804066
20
36.4519314
40
10.7955807
50
243.950624
51
244.8024316
0
ARC
8
DEFAULT_255_2_778
10
15.4009918
20
42.8359175
40
17.8580926
50
244.7535425
51
244.9563234
0
ARC
8
DEFAULT_255_2_778
10
5.8652927
20
22.3343264
40
4.7527588
50
62.2505456
51
65.4301556
0
ARC
8
DEFAULT_255_2_778
10
6.9275435
20
24.3424172
40
2.4810291
50
57.2951304
51
62.3684211
0
ARC
8
DEFAULT_255_2_778
10
7.6807233
20
25.5057235
40
1.0952081
50
48.7345704
51
57.5685367
0
ARC
8
DEFAULT_255_2_778
10
8.0117486
20
25.8932722
40
0.5856147
50
44.3236031
51
48.0704418
0
ARC
8
DEFAULT_255_2_778
10
7.9783002
20
25.8732468
40
0.6236013
50
1.3523843
51
43.4925744
0
ARC
8
DEFAULT_255_2_778
10
7.7103531
20
25.8403151
40
0.8926473
50
359.9763756
51
3.0599076
0
ARC
8
DEFAULT_255_2_778
10
7.8645343
20
25.8252407
40
0.7386124
50
333.0361889
51
1.1408766
0
ARC
8
DEFAULT_255_2_778
10
7.8947908
20
25.8321919
40
0.7150741
50
300.8430083
51
331.4403095
0
ARC
8
DEFAULT_255_2_778
10
7.694568
20
26.1457162
40
1.0869673
50
281.4258583
51
301.4316118
0
ARC
8
DEFAULT_255_2_778
10
7.5632666
20
26.7539414
40
1.7091691
50
270.2273513
51
281.7010805
0
ARC
8
DEFAULT_255_2_778
10
7.5453797
20
27.2306043
40
2.1859577
50
269.9983113
51
270.6466065
0
LINE
8
DEFAULT_255_2_778
10
7.5453153
20
25.0446465
11
7.5438002
21
25.044647
0
ARC
8
DEFAULT_255_2_778
10
7.5509161
20
28.2275969
40
3.1829579
50
256.2431122
51
269.871909
0
ARC
8
DEFAULT_255_2_778
10
21.7538511
20
28.4521629
40
2.9720345
50
251.5709223
51
258.7508181
0
ARC
8
DEFAULT_255_2_778
10
21.5538128
20
27.4289385
40
1.9294488
50
258.6495077
51
268.8281511
0
ARC
8
DEFAULT_255_2_778
10
21.5355488
20
27.0341193
40
1.5343723
50
269.2085037
51
269.9981866
0
ARC
8
DEFAULT_255_2_778
10
21.5473849
20
26.5657184
40
1.0660376
50
269.3612297
51
279.5899087
0
ARC
8
DEFAULT_255_2_778
10
21.6608439
20
25.9342324
40
0.424527
50
278.6895227
51
300.2363944
0
ARC
8
DEFAULT_255_2_778
10
21.7799083
20
25.7307793
40
0.188796
50
300.1108484
51
1.9024905
0
ARC
8
DEFAULT_255_2_778
10
21.7439577
20
25.7414221
40
0.2246851
50
358.8842611
51
0.0019649
0
ARC
8
DEFAULT_255_2_778
10
21.7769791
20
25.7453385
40
0.1917038
50
358.831716
51
47.0900458
0
ARC
8
DEFAULT_255_2_778
10
21.6364654
20
25.585984
40
0.4041259
50
47.8812665
51
61.174665
0
ARC
8
DEFAULT_255_2_778
10
21.0418848
20
24.5660117
40
1.5846568
50
60.1210877
51
65.1917015
0
ARC
8
DEFAULT_255_2_778
10
20.1415278
20
22.6604122
40
3.6922188
50
64.9168629
51
67.1565628
0
ARC
8
DEFAULT_255_2_778
10
23.6275467
20
30.9319888
40
5.2839333
50
244.2656926
51
247.1407051
0
ARC
8
DEFAULT_255_2_778
10
22.5594997
20
28.723765
40
2.8309849
50
240.1545061
51
244.3326325
0
ARC
8
DEFAULT_255_2_778
10
21.7856548
20
27.3877346
40
1.2870531
50
232.697515
51
240.4357497
0
ARC
8
DEFAULT_255_2_778
10
21.3705506
20
26.8367218
40
0.5972006
50
225.5850892
51
232.3393736
0
ARC
8
DEFAULT_255_2_778
10
21.4133941
20
26.8662933
40
0.6483829
50
178.7795739
51
224.7095916
0
ARC
8
DEFAULT_255_2_778
10
21.6669319
20
26.8903135
40
0.9018316
50
179.997867
51
180.6487041
0
ARC
8
DEFAULT_255_2_778
10
21.5167738
20
26.9041249
40
0.7517998
50
156.9195758
51
181.050088
0
ARC
8
DEFAULT_255_2_778
10
21.3928482
20
26.9435712
40
0.6224513
50
124.7111133
51
155.7879672
0
ARC
8
DEFAULT_255_2_778
10
21.6055459
20
26.6516942
40
0.9835402
50
101.7934503
51
125.2143527
0
ARC
8
DEFAULT_255_2_778
10
21.729848
20
26.0991326
40
1.5498677
50
89.5248728
51
102.1166783
0
ARC
8
DEFAULT_255_2_778
10
21.7283109
20
25.5455834
40
2.1034129
50
83.2889725
51
89.6080411
0
ARC
8
DEFAULT_255_2_778
10
21.529975
20
23.7777668
40
3.8823067
50
79.4764054
51
83.4308492
0
ARC
8
DEFAULT_255_2_778
10
21.2186357
20
22.0245673
40
5.6628977
50
78.2224868
51
79.6190915
0
ARC
8
DEFAULT_255_2_778
10
21.6838473
20
25.3020715
40
1.9311543
50
67.1323814
51
78.3148813
0
ARC
8
DEFAULT_255_2_778
10
21.801359
20
25.8535614
40
1.3672981
50
78.4565774
51
89.7552271
0
ARC
8
DEFAULT_255_2_778
10
21.7951366
20
26.284447
40
0.9364778
50
89.2619009
51
100.5950934
0
ARC
8
DEFAULT_255_2_778
10
21.6824182
20
26.8499169
40
0.3599879
50
99.5087086
51
124.406715
0
ARC
8
DEFAULT_255_2_778
10
21.5878565
20
26.996343
40
0.1858061
50
125.8630185
51
182.2986975
0
ARC
8
DEFAULT_255_2_778
10
21.5497296
20
26.9888047
40
0.1475296
50
179.9666559
51
180.100057
0
ARC
8
DEFAULT_255_2_778
10
21.566185
20
26.988793
40
0.163985
50
180.0859454
51
239.8819968
0
ARC
8
DEFAULT_255_2_778
10
21.9379018
20
27.5755619
40
0.8584853
50
238.072871
51
243.0442008
0
ARC
8
DEFAULT_255_2_778
10
23.4872034
20
30.5405845
40
4.2038426
50
242.5409111
51
244.1884903
0
ARC
8
DEFAULT_255_2_778
10
26.6463384
20
37.035196
40
11.4260319
50
244.1076525
51
244.9219574
0
ARC
8
DEFAULT_255_2_778
10
29.9038827
20
43.958855
40
19.0777309
50
244.8743531
51
245.066969
0
ARC
8
DEFAULT_255_2_778
10
19.8865272
20
22.3666274
40
4.7250654
50
62.0340028
51
65.293009
0
ARC
8
DEFAULT_255_2_778
10
20.9507744
20
24.3615758
40
2.464003
50
57.1127289
51
62.13736
0
ARC
8
DEFAULT_255_2_778
10
21.7037139
20
25.5152906
40
1.0863604
50
48.3695509
51
57.4197129
0
ARC
8
DEFAULT_255_2_778
10
22.0286268
20
25.8920419
40
0.5889589
50
44.472493
51
47.6467012
0
ARC
8
DEFAULT_255_2_778
10
21.9979457
20
25.8749032
40
0.6229283
50
1.2061613
51
43.6203607
0
ARC
8
DEFAULT_255_2_778
10
21.7312413
20
25.8424903
40
0.890659
50
359.9779196
51
2.9299178
0
ARC
8
DEFAULT_255_2_778
10
21.8802547
20
25.8273837
40
0.7417924
50
333.172934
51
1.140392
0
ARC
8
DEFAULT_255_2_778
10
21.9146167
20
25.8320736
40
0.7135172
50
300.9808035
51
331.5913995
0
ARC
8
DEFAULT_255_2_778
10
21.7182603
20
26.1419862
40
1.0803281
50
281.9040909
51
301.4483918
0
ARC
8
DEFAULT_255_2_778
10
21.5848425
20
26.7405518
40
1.6935565
50
270.5796874
51
282.1436175
0
ARC
8
DEFAULT_255_2_778
10
21.5636722
20
27.2354735
40
2.1887267
50
269.9959074
51
271.0027751
0
LINE
8
DEFAULT_255_2_778
10
21.5635158
20
25.0467468
11
21.5625002
21
25.046747
0
ARC
8
DEFAULT_255_2_778
10
21.5700221
20
28.2355174
40
3.1887792
50
256.2556596
51
269.8648469
0
LINE
8
DEFAULT_255_2_778
10
6.7958002
20
25.137547
11
6.7958002
21
25.632247
0
LINE
8
DEFAULT_255_2_778
10
8.4164002
20
27.555247
11
8.4164002
21
27.079047
0
LINE
8
DEFAULT_255_2_778
10
6.7940002
20
25.135947
11
6.7958002
21
25.137547
0
LINE
8
DEFAULT_255_2_778
10
8.9866002
20
27.604747
11
9.6629002
21
27.604747
0
LINE
8
DEFAULT_255_2_778
10
9.6629002
20
27.604747
11
9.6629002
21
25.097347
0
LINE
8
DEFAULT_255_2_778
10
9.6629002
20
25.097347
11
8.9866002
21
25.097347
0
LINE
8
DEFAULT_255_2_778
10
8.9866002
20
25.097347
11
8.9866002
21
27.604747
0
LINE
8
DEFAULT_255_2_778
10
10.2809002
20
25.097347
11
10.2809002
21
27.604747
0
LINE
8
DEFAULT_255_2_778
10
10.2809002
20
27.604747
11
12.0132002
21
27.604747
0
LINE
8
DEFAULT_255_2_778
10
12.0132002
20
27.604747
11
12.0132002
21
27.151047
0
LINE
8
DEFAULT_255_2_778
10
12.0132002
20
27.151047
11
10.9321002
21
27.151047
0
LINE
8
DEFAULT_255_2_778
10
10.9321002
20
27.151047
11
10.9321002
21
26.584747
0
LINE
8
DEFAULT_255_2_778
10
10.9321002
20
26.584747
11
11.8735002
21
26.584747
0
LINE
8
DEFAULT_255_2_778
10
11.8735002
20
26.584747
11
11.8735002
21
26.171247
0
LINE
8
DEFAULT_255_2_778
10
11.8735002
20
26.171247
11
10.9321002
21
26.171247
0
LINE
8
DEFAULT_255_2_778
10
10.9321002
20
26.171247
11
10.9321002
21
25.575947
0
LINE
8
DEFAULT_255_2_778
10
10.9321002
20
25.575947
11
12.0412002
21
25.575947
0
LINE
8
DEFAULT_255_2_778
10
12.0412002
20
25.575947
11
12.0412002
21
25.095747
0
LINE
8
DEFAULT_255_2_778
10
12.0412002
20
25.095747
11
10.2809002
21
25.097347
0
LINE
8
DEFAULT_255_2_778
10
12.4817002
20
25.097347
11
12.4817002
21
27.604747
0
LINE
8
DEFAULT_255_2_778
10
12.4817002
20
27.604747
11
13.3575002
21
27.604747
0
LINE
8
DEFAULT_255_2_778
10
13.3575002
20
27.604747
11
13.9671002
21
26.002447
0
LINE
8
DEFAULT_255_2_778
10
13.9671002
20
26.002447
11
14.5897002
21
27.604747
0
LINE
8
DEFAULT_255_2_778
10
14.5897002
20
27.604747
11
15.4215002
21
27.604747
0
LINE
8
DEFAULT_255_2_778
10
15.4215002
20
27.604747
11
15.4215002
21
25.097347
0
LINE
8
DEFAULT_255_2_778
10
15.4215002
20
25.097347
11
14.7812002
21
25.097347
0
LINE
8
DEFAULT_255_2_778
10
14.7812002
20
25.097347
11
14.7812002
21
26.873147
0
LINE
8
DEFAULT_255_2_778
10
14.7812002
20
26.873147
11
14.0724002
21
25.072947
0
LINE
8
DEFAULT_255_2_778
10
14.0724002
20
25.072947
11
13.6515002
21
25.072947
0
LINE
8
DEFAULT_255_2_778
10
13.6515002
20
25.072947
11
12.9559002
21
26.873147
0
LINE
8
DEFAULT_255_2_778
10
12.9559002
20
26.873147
11
12.9559002
21
25.097047
0
LINE
8
DEFAULT_255_2_778
10
12.9559002
20
25.097047
11
12.4817002
21
25.097347
0
LINE
8
DEFAULT_255_2_778
10
16.0409002
20
25.097347
11
16.0409002
21
27.604747
0
LINE
8
DEFAULT_255_2_778
10
16.0409002
20
27.604747
11
17.7731002
21
27.604747
0
LINE
8
DEFAULT_255_2_778
10
17.7731002
20
27.604747
11
17.7731002
21
27.151047
0
LINE
8
DEFAULT_255_2_778
10
17.7731002
20
27.151047
11
16.6921002
21
27.151047
0
LINE
8
DEFAULT_255_2_778
10
16.6921002
20
27.151047
11
16.6921002
21
26.584747
0
LINE
8
DEFAULT_255_2_778
10
16.6921002
20
26.584747
11
17.6334002
21
26.584747
0
LINE
8
DEFAULT_255_2_778
10
17.6334002
20
26.584747
11
17.6334002
21
26.171247
0
LINE
8
DEFAULT_255_2_778
10
17.6334002
20
26.171247
11
16.6921002
21
26.171247
0
LINE
8
DEFAULT_255_2_778
10
16.6921002
20
26.171247
11
16.6921002
21
25.575947
0
LINE
8
DEFAULT_255_2_778
10
16.6921002
20
25.575947
11
17.8030002
21
25.575947
0
LINE
8
DEFAULT_255_2_778
10
17.8030002
20
25.575947
11
17.8030002
21
25.095747
0
LINE
8
DEFAULT_255_2_778
10
17.8030002
20
25.095747
11
16.0409002
21
25.097347
0
LINE
8
DEFAULT_255_2_778
10
18.2454002
20
25.097347
11
18.2454002
21
27.604747
0
LINE
8
DEFAULT_255_2_778
10
18.2454002
20
27.604747
11
19.0283002
21
27.604747
0
LINE
8
DEFAULT_255_2_778
10
19.0283002
20
27.604747
11
19.8586002
21
25.925947
0
LINE
8
DEFAULT_255_2_778
10
19.8586002
20
25.925947
11
19.8586002
21
27.604747
0
LINE
8
DEFAULT_255_2_778
10
19.8586002
20
27.604747
11
20.3343002
21
27.604747
0
LINE
8
DEFAULT_255_2_778
10
20.3343002
20
27.604747
11
20.3343002
21
25.097347
0
LINE
8
DEFAULT_255_2_778
10
20.3343002
20
25.097347
11
19.5739002
21
25.097347
0
LINE
8
DEFAULT_255_2_778
10
19.5739002
20
25.097347
11
18.7214002
21
26.798547
0
LINE
8
DEFAULT_255_2_778
10
18.7214002
20
26.798547
11
18.7214002
21
25.097347
0
LINE
8
DEFAULT_255_2_778
10
18.7214002
20
25.097347
11
18.2454002
21
25.097347
0
LINE
8
DEFAULT_255_2_778
10
20.8143002
20
25.137747
11
20.8143002
21
25.632547
0
LINE
8
DEFAULT_255_2_778
10
22.3745002
20
27.568247
11
22.4343002
21
27.557647
0
LINE
8
DEFAULT_255_2_778
10
22.4343002
20
27.557647
11
22.4343002
21
27.081447
0
LINE
8
DEFAULT_255_2_778
10
20.8124002
20
25.138047
11
20.8143002
21
25.137747
0
LINE
8
DEFAULT_255_1_234
10
8.8530023
20
23.3309849
11
8.6979897
21
23.3309849
0
LINE
8
DEFAULT_255_1_234
10
8.0056539
20
22.8386394
11
8.1606665
21
22.8386394
0
ARC
8
DEFAULT_255_1_234
10
8.763871
20
24.2256768
40
1.252368
50
248.9199003
51
254.1439814
0
ARC
8
DEFAULT_255_1_234
10
8.5958205
20
23.7930234
40
0.788226
50
241.633709
51
249.0064503
0
ARC
8
DEFAULT_255_1_234
10
8.44296
20
23.5129317
40
0.4691427
50
230.498225
51
241.8087113
0
ARC
8
DEFAULT_255_1_234
10
8.3645174
20
23.4129906
40
0.3421437
50
227.4064532
51
229.9881192
0
ARC
8
DEFAULT_255_1_234
10
8.3157694
20
23.3654088
40
0.2741476
50
200.6781896
51
228.1763934
0
ARC
8
DEFAULT_255_1_234
10
8.3230005
20
23.3639077
40
0.2804109
50
179.5061581
51
199.8694617
0
ARC
8
DEFAULT_255_1_234
10
8.3220757
20
23.371321
40
0.2795204
50
132.4834203
51
181.0242172
0
ARC
8
DEFAULT_255_1_234
10
8.3816339
20
23.3150704
40
0.3612768
50
129.2532479
51
133.4242687
0
ARC
8
DEFAULT_255_1_234
10
8.3962789
20
23.2930965
40
0.3875675
50
101.98776
51
128.8742646
0
ARC
8
DEFAULT_255_1_234
10
8.4361399
20
23.1209741
40
0.5642249
50
89.5906553
51
102.3169264
0
ARC
8
DEFAULT_255_1_234
10
8.4431891
20
23.1528148
40
0.5323783
50
77.2360837
51
90.3248275
0
ARC
8
DEFAULT_255_1_234
10
8.4638971
20
23.24954
40
0.4334697
50
63.837784
51
77.0809408
0
ARC
8
DEFAULT_255_1_234
10
8.4916732
20
23.3012911
40
0.3747796
50
45.9864267
51
64.1607727
0
ARC
8
DEFAULT_255_1_234
10
8.5177614
20
23.3310866
40
0.3352302
50
32.2747395
51
45.6547121
0
ARC
8
DEFAULT_255_1_234
10
8.5244054
20
23.332988
40
0.328603
50
359.6507365
51
32.6130309
0
ARC
8
DEFAULT_255_1_234
10
8.430115
20
23.333466
40
0.2678863
50
359.469343
51
14.9832209
0
ARC
8
DEFAULT_255_1_234
10
8.5006212
20
23.3523539
40
0.1948938
50
14.9781179
51
48.2004265
0
ARC
8
DEFAULT_255_1_234
10
8.4841856
20
23.3316983
40
0.2212521
50
48.5927837
51
74.1241538
0
ARC
8
DEFAULT_255_1_234
10
8.4508346
20
23.2216248
40
0.3362561
50
73.7888341
51
86.6652678
0
ARC
8
DEFAULT_255_1_234
10
8.4405911
20
23.1008881
40
0.4573953
50
86.2640471
51
90.0526343
0
ARC
8
DEFAULT_255_1_234
10
8.4377624
20
23.1404192
40
0.4178709
50
89.6697524
51
99.2309573
0
ARC
8
DEFAULT_255_1_234
10
8.4135075
20
23.2848964
40
0.2713749
50
99.069534
51
113.7658566
0
ARC
8
DEFAULT_255_1_234
10
8.3861266
20
23.3494677
40
0.2012469
50
114.0401004
51
127.9850673
0
ARC
8
DEFAULT_255_1_234
10
8.362083
20
23.379073
40
0.1631167
50
127.7287463
51
176.7105154
0
ARC
8
DEFAULT_255_1_234
10
8.4299547
20
23.3689693
40
0.2315392
50
175.1779447
51
180.0581938
0
ARC
8
DEFAULT_255_1_234
10
8.3456394
20
23.3677428
40
0.1472271
50
179.6142195
51
228.1246017
0
ARC
8
DEFAULT_255_1_234
10
8.3898063
20
23.4086308
40
0.2072299
50
226.5779593
51
230.8800004
0
ARC
8
DEFAULT_255_1_234
10
8.4369141
20
23.4711636
40
0.2854818
50
231.4635071
51
241.9260842
0
ARC
8
DEFAULT_255_1_234
10
8.5566319
20
23.69148
40
0.53622
50
241.7178533
51
248.3259551
0
ARC
8
DEFAULT_255_1_234
10
8.6951691
20
24.0347064
40
0.9063478
50
248.2007737
51
252.4528373
0
ARC
8
DEFAULT_255_1_234
10
8.8155416
20
24.4068441
40
1.2974635
50
252.3391078
51
254.3469452
0
ARC
8
DEFAULT_255_1_234
10
8.0613119
20
21.7091148
40
1.5037162
50
71.0197183
51
74.4087047
0
ARC
8
DEFAULT_255_1_234
10
8.2307804
20
22.1983111
40
0.9859993
50
66.1847285
51
71.086374
0
ARC
8
DEFAULT_255_1_234
10
8.3864116
20
22.54872
40
0.6025855
50
59.3536294
51
66.2691831
0
ARC
8
DEFAULT_255_1_234
10
8.4752769
20
22.6990609
40
0.4279449
50
49.1020879
51
59.3293958
0
ARC
8
DEFAULT_255_1_234
10
8.5571509
20
22.7923834
40
0.3038015
50
32.7919921
51
49.2505539
0
ARC
8
DEFAULT_255_1_234
10
8.5892599
20
22.8152191
40
0.264448
50
31.1181161
51
32.4005348
0
ARC
8
DEFAULT_255_1_234
10
8.5804136
20
22.8116779
40
0.2738556
50
8.1116974
51
30.7958831
0
ARC
8
DEFAULT_255_1_234
10
8.4993804
20
22.7978753
40
0.3560327
50
359.8389159
51
8.4706516
0
ARC
8
DEFAULT_255_1_234
10
8.5619596
20
22.7930137
40
0.2934776
50
337.4731098
51
0.7537279
0
ARC
8
DEFAULT_255_1_234
10
8.5798291
20
22.7910387
40
0.2762607
50
307.5917067
51
336.4315538
0
ARC
8
DEFAULT_255_1_234
10
8.5338119
20
22.8423102
40
0.3449979
50
307.6551545
51
308.4529766
0
ARC
8
DEFAULT_255_1_234
10
8.5107838
20
22.877825
40
0.3871988
50
284.3734338
51
307.1424381
0
ARC
8
DEFAULT_255_1_234
10
8.4612668
20
23.0599932
40
0.5759636
50
272.4382747
51
284.646547
0
ARC
8
DEFAULT_255_1_234
10
8.4485876
20
23.2399893
40
0.7563528
50
269.9708387
51
272.8178037
0
ARC
8
DEFAULT_255_1_234
10
8.4442916
20
23.0361716
40
0.5525489
50
248.2707594
51
270.4055579
0
ARC
8
DEFAULT_255_1_234
10
8.4388657
20
23.0171192
40
0.5328452
50
246.1383403
51
248.0542782
0
ARC
8
DEFAULT_255_1_234
10
8.3970036
20
22.9291843
40
0.4355005
50
233.1670131
51
246.4950969
0
ARC
8
DEFAULT_255_1_234
10
8.3415941
20
22.8543812
40
0.3424126
50
215.3403242
51
233.0843104
0
ARC
8
DEFAULT_255_1_234
10
8.3143372
20
22.8345549
40
0.3087104
50
179.2419209
51
215.2648451
0
ARC
8
DEFAULT_255_1_234
10
8.3910966
20
22.8359666
40
0.2304457
50
179.335461
51
199.1045811
0
ARC
8
DEFAULT_255_1_234
10
8.3578643
20
22.8272766
40
0.1962176
50
199.8828939
51
232.7063202
0
ARC
8
DEFAULT_255_1_234
10
8.4050911
20
22.8866788
40
0.2720938
50
232.3738199
51
255.5136649
0
ARC
8
DEFAULT_255_1_234
10
8.4391778
20
23.0110835
40
0.4010747
50
255.2446292
51
267.5320849
0
ARC
8
DEFAULT_255_1_234
10
8.4479401
20
23.1343702
40
0.5246356
50
267.1557994
51
270.0286766
0
ARC
8
DEFAULT_255_1_234
10
8.4507173
20
23.089995
40
0.4802668
50
269.7000017
51
278.1660162
0
ARC
8
DEFAULT_255_1_234
10
8.4763178
20
22.9169515
40
0.3053425
50
278.0231263
51
290.625471
0
ARC
8
DEFAULT_255_1_234
10
8.5110865
20
22.8242025
40
0.206291
50
290.6619762
51
307.0370976
0
ARC
8
DEFAULT_255_1_234
10
8.5411254
20
22.7873504
40
0.1587906
50
306.3943566
51
355.3030547
0
ARC
8
DEFAULT_255_1_234
10
8.4899186
20
22.7950113
40
0.2104809
50
354.3660432
51
0.0698737
0
ARC
8
DEFAULT_255_1_234
10
8.5041531
20
22.7972617
40
0.1962563
50
359.417946
51
16.1971788
0
ARC
8
DEFAULT_255_1_234
10
8.5496841
20
22.8097418
40
0.149053
50
16.4723299
51
52.6262157
0
ARC
8
DEFAULT_255_1_234
10
8.4675895
20
22.7013433
40
0.2850296
50
52.7386432
51
62.4979148
0
ARC
8
DEFAULT_255_1_234
10
8.3290972
20
22.4407283
40
0.5801521
50
62.2515216
51
68.1220564
0
ARC
8
DEFAULT_255_1_234
10
8.1570883
20
22.0179872
40
1.0365451
50
68.0062803
51
71.8053402
0
ARC
8
DEFAULT_255_1_234
10
7.9775255
20
21.4794758
40
1.6042013
50
71.7183119
51
73.9258742
0
LINE
8
DEFAULT_255_1_234
10
9.2184464
20
23.6691211
11
9.2184464
21
22.4997
0
LINE
8
DEFAULT_255_1_234
10
9.2184464
20
22.4997
11
9.064237
21
22.4997
0
LINE
8
DEFAULT_255_1_234
10
9.064237
20
22.4997
11
9.064237
21
23.6691211
0
LINE
8
DEFAULT_255_1_234
10
9.064237
20
23.6691211
11
9.2184464
21
23.6691211
0
LINE
8
DEFAULT_255_1_234
10
9.5003604
20
23.6691211
11
9.6995475
21
23.6691211
0
LINE
8
DEFAULT_255_1_234
10
9.6995475
20
23.6691211
11
10.0818583
21
22.7149506
0
LINE
8
DEFAULT_255_1_234
10
10.0818583
20
22.7149506
11
10.464169
21
23.6691211
0
LINE
8
DEFAULT_255_1_234
10
10.464169
20
23.6691211
11
10.6641593
21
23.6691211
0
LINE
8
DEFAULT_255_1_234
10
10.6641593
20
23.6691211
11
10.6641593
21
22.4997
0
LINE
8
DEFAULT_255_1_234
10
10.6641593
20
22.4997
11
10.5099499
21
22.4997
0
LINE
8
DEFAULT_255_1_234
10
10.5099499
20
22.4997
11
10.5099499
21
22.9550996
0
LINE
8
DEFAULT_255_1_234
10
10.5099499
20
22.9550996
11
10.524407
21
23.4466419
0
LINE
8
DEFAULT_255_1_234
10
10.524407
20
23.4466419
11
10.1404899
21
22.4997
0
LINE
8
DEFAULT_255_1_234
10
10.1404899
20
22.4997
11
10.0224234
21
22.4997
0
LINE
8
DEFAULT_255_1_234
10
10.0224234
20
22.4997
11
9.6393095
21
23.4442324
0
LINE
8
DEFAULT_255_1_234
10
9.6393095
20
23.4442324
11
9.6545698
21
22.9550996
0
LINE
8
DEFAULT_255_1_234
10
9.6545698
20
22.9550996
11
9.6545698
21
22.4997
0
LINE
8
DEFAULT_255_1_234
10
9.6545698
20
22.4997
11
9.5003604
21
22.4997
0
LINE
8
DEFAULT_255_1_234
10
9.5003604
20
22.4997
11
9.5003604
21
23.6691211
0
LINE
8
DEFAULT_255_1_234
10
11.7082853
20
22.4997
11
11.5966441
21
22.8049061
0
LINE
8
DEFAULT_255_1_234
10
11.5966441
20
22.8049061
11
11.1067081
21
22.8049061
0
LINE
8
DEFAULT_255_1_234
10
11.1067081
20
22.8049061
11
10.9966732
21
22.4997
0
LINE
8
DEFAULT_255_1_234
10
10.9966732
20
22.4997
11
10.8376448
21
22.4997
0
LINE
8
DEFAULT_255_1_234
10
10.8376448
20
22.4997
11
11.2842095
21
23.6691211
0
LINE
8
DEFAULT_255_1_234
10
11.2842095
20
23.6691211
11
11.4191427
21
23.6691211
0
LINE
8
DEFAULT_255_1_234
10
11.4191427
20
23.6691211
11
11.8665105
21
22.4997
0
LINE
8
DEFAULT_255_1_234
10
11.8665105
20
22.4997
11
11.7082853
21
22.4997
0
LINE
8
DEFAULT_255_1_234
10
11.3516761
20
23.4787689
11
11.1532921
21
22.9318075
0
LINE
8
DEFAULT_255_1_234
10
11.1532921
20
22.9318075
11
11.5508632
21
22.9318075
0
LINE
8
DEFAULT_255_1_234
10
11.5508632
20
22.9318075
11
11.3516761
21
23.4787689
0
LINE
8
DEFAULT_255_1_234
10
12.728316
20
23.6691211
11
12.728316
21
23.5422196
0
LINE
8
DEFAULT_255_1_234
10
12.728316
20
23.5422196
11
12.3524307
21
23.5422196
0
LINE
8
DEFAULT_255_1_234
10
12.3524307
20
23.5422196
11
12.3524307
21
22.4997
0
LINE
8
DEFAULT_255_1_234
10
12.3524307
20
22.4997
11
12.1990245
21
22.4997
0
LINE
8
DEFAULT_255_1_234
10
12.1990245
20
22.4997
11
12.1990245
21
23.5422196
0
LINE
8
DEFAULT_255_1_234
10
12.1990245
20
23.5422196
11
11.8239423
21
23.5422196
0
LINE
8
DEFAULT_255_1_234
10
11.8239423
20
23.5422196
11
11.8239423
21
23.6691211
0
LINE
8
DEFAULT_255_1_234
10
11.8239423
20
23.6691211
11
12.728316
21
23.6691211
0
LINE
8
DEFAULT_255_1_234
10
13.0672554
20
23.6691211
11
13.0672554
21
22.4997
0
LINE
8
DEFAULT_255_1_234
10
13.0672554
20
22.4997
11
12.913046
21
22.4997
0
LINE
8
DEFAULT_255_1_234
10
12.913046
20
22.4997
11
12.913046
21
23.6691211
0
LINE
8
DEFAULT_255_1_234
10
12.913046
20
23.6691211
11
13.0672554
21
23.6691211
0
LINE
8
DEFAULT_255_1_234
10
14.054356
20
22.8707663
11
14.2093686
21
22.8707663
0
LINE
8
DEFAULT_255_1_234
10
13.3090107
20
23.0297947
11
13.3090107
21
23.1422391
0
LINE
8
DEFAULT_255_1_234
10
14.2093686
20
23.2932357
11
14.054356
21
23.2932357
0
LINE
8
DEFAULT_255_1_234
10
13.4640232
20
23.1382232
11
13.4640232
21
23.0249757
0
ARC
8
DEFAULT_255_1_234
10
13.6613072
20
22.9304846
40
0.5513052
50
340.1774281
51
353.7814284
0
ARC
8
DEFAULT_255_1_234
10
13.8184425
20
22.8719582
40
0.3836379
50
311.4558989
51
340.4421614
0
ARC
8
DEFAULT_255_1_234
10
13.8151093
20
22.8830528
40
0.3941894
50
282.4333181
51
310.7513653
0
ARC
8
DEFAULT_255_1_234
10
13.7711832
20
23.0645679
40
0.5809175
50
269.9358511
51
282.809604
0
ARC
8
DEFAULT_255_1_234
10
13.7659899
20
23.2103212
40
0.7266847
50
270.0021091
51
270.3581957
0
ARC
8
DEFAULT_255_1_234
10
13.7607315
20
22.9502585
40
0.4666519
50
250.7884749
51
270.6489167
0
ARC
8
DEFAULT_255_1_234
10
13.743915
20
22.8865319
40
0.4009729
50
219.3627325
51
250.0611886
0
ARC
8
DEFAULT_255_1_234
10
13.8268361
20
22.9570042
40
0.5097822
50
193.5479632
51
219.5756669
0
ARC
8
DEFAULT_255_1_234
10
14.0639982
20
23.0185919
40
0.7547848
50
181.1218675
51
193.87563
0
ARC
8
DEFAULT_255_1_234
10
14.2710163
20
23.029658
40
0.9620055
50
179.9918545
51
181.5394234
0
ARC
8
DEFAULT_255_1_234
10
14.0859265
20
23.1459788
40
0.7769248
50
169.5837241
51
180.2757934
0
ARC
8
DEFAULT_255_1_234
10
13.9022203
20
23.1799229
40
0.590109
50
155.0365899
51
169.6003176
0
ARC
8
DEFAULT_255_1_234
10
13.7886667
20
23.2346677
40
0.4640625
50
136.783148
51
155.2472683
0
ARC
8
DEFAULT_255_1_234
10
13.7497144
20
23.2677562
40
0.4130255
50
121.7633186
51
136.428115
0
ARC
8
DEFAULT_255_1_234
10
13.7632106
20
23.2428227
40
0.4413323
50
95.6459699
51
121.5490577
0
ARC
8
DEFAULT_255_1_234
10
13.7789388
20
23.1319949
40
0.55319
50
89.924208
51
96.1377933
0
ARC
8
DEFAULT_255_1_234
10
13.7839821
20
23.1438542
40
0.5413475
50
76.6779277
51
90.4563316
0
ARC
8
DEFAULT_255_1_234
10
13.8233444
20
23.3029114
40
0.3775041
50
47.485847
51
76.9287264
0
ARC
8
DEFAULT_255_1_234
10
13.8086417
20
23.2929159
40
0.3948286
50
16.5424086
51
46.8933463
0
ARC
8
DEFAULT_255_1_234
10
13.6478574
20
23.2400861
40
0.564021
50
5.4072051
51
17.0365086
0
ARC
8
DEFAULT_255_1_234
10
13.5039591
20
23.2169679
40
0.5556559
50
7.8891745
51
15.9239216
0
ARC
8
DEFAULT_255_1_234
10
13.7026605
20
23.2746631
40
0.3487515
50
15.7653144
51
27.9410532
0
ARC
8
DEFAULT_255_1_234
10
13.8130822
20
23.333779
40
0.2235026
50
27.8166557
51
46.4008329
0
ARC
8
DEFAULT_255_1_234
10
13.8180465
20
23.3332082
40
0.2205286
50
47.4371857
51
75.0698205
0
ARC
8
DEFAULT_255_1_234
10
13.787186
20
23.2257765
40
0.3322915
50
74.7008593
51
87.8124495
0
ARC
8
DEFAULT_255_1_234
10
13.7798547
20
23.1201844
40
0.4380987
50
87.3814673
51
90.0240855
0
ARC
8
DEFAULT_255_1_234
10
13.7760091
20
23.2379291
40
0.3203749
50
89.3451631
51
108.5745436
0
ARC
8
DEFAULT_255_1_234
10
13.7623196
20
23.2892908
40
0.2673494
50
109.2998449
51
143.3037509
0
ARC
8
DEFAULT_255_1_234
10
13.8385268
20
23.2306881
40
0.3634757
50
143.0753173
51
163.1916937
0
ARC
8
DEFAULT_255_1_234
10
14.0336996
20
23.1690967
40
0.5681262
50
162.9373603
51
174.6208611
0
ARC
8
DEFAULT_255_1_234
10
14.2963038
20
23.140301
40
0.8322832
50
174.3419979
51
180.1430411
0
ARC
8
DEFAULT_255_1_234
10
14.2032194
20
23.0208698
40
0.7392076
50
179.6817502
51
189.150529
0
ARC
8
DEFAULT_255_1_234
10
13.9531443
20
22.979219
40
0.4856932
50
188.9910863
51
203.5773039
0
ARC
8
DEFAULT_255_1_234
10
13.8451775
20
22.9344211
40
0.3688271
50
203.9077269
51
215.1312379
0
ARC
8
DEFAULT_255_1_234
10
13.7528869
20
22.8628941
40
0.2522457
50
213.9071664
51
263.8849284
0
ARC
8
DEFAULT_255_1_234
10
13.7654198
20
22.9413518
40
0.3316174
50
263.1758525
51
270.1031083
0
ARC
8
DEFAULT_255_1_234
10
13.768629
20
23.0660365
40
0.4563091
50
269.6719807
51
279.0609165
0
ARC
8
DEFAULT_255_1_234
10
13.7953058
20
22.9047907
40
0.2928759
50
278.8750225
51
293.6346586
0
ARC
8
DEFAULT_255_1_234
10
13.8273266
20
22.82959
40
0.2111472
50
293.8553404
51
310.0518804
0
ARC
8
DEFAULT_255_1_234
10
13.827812
20
22.8233516
40
0.2060917
50
311.0646779
51
332.0108348
0
ARC
8
DEFAULT_255_1_234
10
13.7085847
20
22.8890978
40
0.3422352
50
331.6588543
51
343.2878891
0
ARC
8
DEFAULT_255_1_234
10
13.5023362
20
22.9524798
40
0.5580003
50
343.1446044
51
351.010618
0
ARC
8
DEFAULT_255_1_234
10
13.3482008
20
22.9805871
40
0.7146438
50
350.7157277
51
351.1602153
0
LINE
8
DEFAULT_255_1_234
10
15.4880213
20
23.1663343
11
15.4880213
21
23.040236
0
LINE
8
DEFAULT_255_1_234
10
15.4880213
20
23.040236
11
14.9812186
21
23.040236
0
LINE
8
DEFAULT_255_1_234
10
14.9812186
20
23.040236
11
14.9812186
21
22.6257983
0
LINE
8
DEFAULT_255_1_234
10
14.9812186
20
22.6257983
11
15.569945
21
22.6257983
0
LINE
8
DEFAULT_255_1_234
10
15.569945
20
22.6257983
11
15.569945
21
22.4997
0
LINE
8
DEFAULT_255_1_234
10
15.569945
20
22.4997
11
14.8270092
21
22.4997
0
LINE
8
DEFAULT_255_1_234
10
14.8270092
20
22.4997
11
14.8270092
21
23.6691211
0
LINE
8
DEFAULT_255_1_234
10
14.8270092
20
23.6691211
11
15.5619133
21
23.6691211
0
LINE
8
DEFAULT_255_1_234
10
15.5619133
20
23.6691211
11
15.5619133
21
23.5422196
0
LINE
8
DEFAULT_255_1_234
10
15.5619133
20
23.5422196
11
14.9812186
21
23.5422196
0
LINE
8
DEFAULT_255_1_234
10
14.9812186
20
23.5422196
11
14.9812186
21
23.1663343
0
LINE
8
DEFAULT_255_1_234
10
14.9812186
20
23.1663343
11
15.4880213
21
23.1663343
0
LINE
8
DEFAULT_255_1_234
10
16.5859599
20
23.6691211
11
16.5859599
21
23.5422196
0
LINE
8
DEFAULT_255_1_234
10
16.5859599
20
23.5422196
11
16.2100746
21
23.5422196
0
LINE
8
DEFAULT_255_1_234
10
16.2100746
20
23.5422196
11
16.2100746
21
22.4997
0
LINE
8
DEFAULT_255_1_234
10
16.2100746
20
22.4997
11
16.0566684
21
22.4997
0
LINE
8
DEFAULT_255_1_234
10
16.0566684
20
22.4997
11
16.0566684
21
23.5422196
0
LINE
8
DEFAULT_255_1_234
10
16.0566684
20
23.5422196
11
15.6815862
21
23.5422196
0
LINE
8
DEFAULT_255_1_234
10
15.6815862
20
23.5422196
11
15.6815862
21
23.6691211
0
LINE
8
DEFAULT_255_1_234
10
15.6815862
20
23.6691211
11
16.5859599
21
23.6691211
0
LINE
8
DEFAULT_255_1_234
10
17.4871209
20
22.6209792
11
17.4871209
21
22.4997
0
LINE
8
DEFAULT_255_1_234
10
17.4871209
20
22.4997
11
16.7208931
21
22.4997
0
LINE
8
DEFAULT_255_1_234
10
16.7208931
20
22.4997
11
16.7208931
21
22.6065221
0
LINE
8
DEFAULT_255_1_234
10
16.7208931
20
22.6065221
11
17.1256927
21
23.0562995
0
LINE
8
DEFAULT_255_1_234
10
16.8469914
20
23.3245595
11
16.6984042
21
23.3245595
0
LINE
8
DEFAULT_255_1_234
10
17.2132387
20
22.9607218
11
16.9000009
21
22.6209792
0
LINE
8
DEFAULT_255_1_234
10
16.9000009
20
22.6209792
11
17.4871209
21
22.6209792
0
ARC
8
DEFAULT_255_1_234
10
15.7766761
20
24.2492527
40
1.8008286
50
318.5132453
51
320.7828378
0
ARC
8
DEFAULT_255_1_234
10
16.3053735
20
23.8189426
40
1.1191493
50
320.7372736
51
323.9737074
0
ARC
8
DEFAULT_255_1_234
10
16.6973591
20
23.5349361
40
0.6350923
50
323.8961724
51
328.6421089
0
ARC
8
DEFAULT_255_1_234
10
16.9020187
20
23.4087031
40
0.3946393
50
328.8299013
51
331.789948
0
ARC
8
DEFAULT_255_1_234
10
17.0017365
20
23.3572509
40
0.2824501
50
331.4255242
51
352.9364833
0
ARC
8
DEFAULT_255_1_234
10
17.0153866
20
23.3541976
40
0.2685315
50
353.2248685
51
0.0169286
0
ARC
8
DEFAULT_255_1_234
10
17.0363743
20
23.356495
40
0.2475536
50
359.4866256
51
15.9339782
0
ARC
8
DEFAULT_255_1_234
10
17.0870728
20
23.3701286
40
0.1950618
50
16.1714718
51
43.5284424
0
ARC
8
DEFAULT_255_1_234
10
17.0948037
20
23.3778573
40
0.184134
50
43.4415429
51
83.1661404
0
ARC
8
DEFAULT_255_1_234
10
17.0813955
20
23.3041771
40
0.258926
50
82.160215
51
90.1505798
0
ARC
8
DEFAULT_255_1_234
10
17.0782382
20
23.2504865
40
0.3126255
50
89.5460705
51
102.5418777
0
ARC
8
DEFAULT_255_1_234
10
17.0539468
20
23.3535665
40
0.2067346
50
102.1739365
51
129.2061916
0
ARC
8
DEFAULT_255_1_234
10
17.046054
20
23.3660094
40
0.1921118
50
129.7279328
51
135.7542026
0
ARC
8
DEFAULT_255_1_234
10
17.0582068
20
23.3563045
40
0.2075944
50
136.175737
51
166.3674722
0
ARC
8
DEFAULT_255_1_234
10
17.1588987
20
23.3293182
40
0.3118201
50
165.9092917
51
178.8683903
0
ARC
8
DEFAULT_255_1_234
10
17.2453848
20
23.3246179
40
0.3983935
50
178.438168
51
180.0083905
0
ARC
8
DEFAULT_255_1_234
10
17.105245
20
23.3285231
40
0.4068601
50
163.2878735
51
180.5581814
0
ARC
8
DEFAULT_255_1_234
10
17.0250712
20
23.350584
40
0.3237344
50
133.454115
51
162.9470031
0
ARC
8
DEFAULT_255_1_234
10
17.0429253
20
23.3316
40
0.349795
50
100.7869394
51
133.4384016
0
ARC
8
DEFAULT_255_1_234
10
17.0777024
20
23.1767319
40
0.5084616
50
89.6605301
51
101.3704185
0
ARC
8
DEFAULT_255_1_234
10
17.0843363
20
23.1828496
40
0.502348
50
78.2171172
51
90.4130393
0
ARC
8
DEFAULT_255_1_234
10
17.1198442
20
23.3452637
40
0.3361092
50
55.9268222
51
78.4888551
0
ARC
8
DEFAULT_255_1_234
10
17.1394882
20
23.3791324
40
0.2970617
50
47.9292255
51
55.4054003
0
ARC
8
DEFAULT_255_1_234
10
17.1496442
20
23.3894502
40
0.2825983
50
4.3347696
51
48.0560701
0
ARC
8
DEFAULT_255_1_234
10
17.0400836
20
23.3724601
40
0.393225
50
359.925209
51
5.5967654
0
ARC
8
DEFAULT_255_1_234
10
17.0829728
20
23.3780816
40
0.3503892
50
337.8914096
51
358.9967724
0
ARC
8
DEFAULT_255_1_234
10
16.811614
20
23.4827706
40
0.6412172
50
326.9135351
51
338.3505194
0
ARC
8
DEFAULT_255_1_234
10
16.4130444
20
23.7382284
40
1.1146189
50
319.6472867
51
327.095818
0
ARC
8
DEFAULT_255_1_234
10
16.0297447
20
24.0544
40
1.6114559
50
317.2586784
51
319.9046139
0
LINE
8
DEFAULT_255_1_234
10
18.3778407
20
23.1912327
11
18.3778407
21
22.9984709
0
LINE
8
DEFAULT_255_1_234
10
17.639724
20
22.9783916
11
17.639724
21
23.1767755
0
LINE
8
DEFAULT_255_1_234
10
18.2292536
20
22.9583123
11
18.2292536
21
23.2016739
0
LINE
8
DEFAULT_255_1_234
10
17.7883111
20
23.2129184
11
17.7883111
21
22.9751789
0
ARC
8
DEFAULT_255_1_234
10
17.1531297
20
22.9935805
40
1.2247208
50
353.8441951
51
0.2287902
0
ARC
8
DEFAULT_255_1_234
10
17.61708
20
22.9417806
40
0.7578929
50
344.4934747
51
353.9765454
0
ARC
8
DEFAULT_255_1_234
10
17.9163391
20
22.8566981
40
0.4467846
50
329.2803592
51
344.7472793
0
ARC
8
DEFAULT_255_1_234
10
18.0156216
20
22.8022018
40
0.3336173
50
324.9352394
51
328.6160465
0
ARC
8
DEFAULT_255_1_234
10
18.0533324
20
22.7758427
40
0.2876076
50
280.580143
51
324.9173126
0
ARC
8
DEFAULT_255_1_234
10
18.0132117
20
22.9429099
40
0.4592847
50
269.5977311
51
281.6734359
0
ARC
8
DEFAULT_255_1_234
10
18.0060022
20
22.9309173
40
0.4472986
50
256.6228859
51
270.51044
0
ARC
8
DEFAULT_255_1_234
10
17.9658
20
22.7760877
40
0.2873874
50
215.8618325
51
257.2788573
0
ARC
8
DEFAULT_255_1_234
10
18.0679032
20
22.8445977
40
0.4102928
50
197.9693508
51
215.2623606
0
ARC
8
DEFAULT_255_1_234
10
18.3164147
20
22.9284709
40
0.6725652
50
187.8816417
51
198.2346507
0
ARC
8
DEFAULT_255_1_234
10
18.7122356
20
22.9856079
40
1.0724845
50
180.8976217
51
188.0055519
0
ARC
8
DEFAULT_255_1_234
10
18.9922544
20
22.9959777
40
1.3526448
50
180.7449369
51
181.1510016
0
ARC
8
DEFAULT_255_1_234
10
18.8345273
20
23.1816042
40
1.1948131
50
173.7675579
51
180.231553
0
ARC
8
DEFAULT_255_1_234
10
18.382742
20
23.2326666
40
0.7401564
50
164.3058563
51
173.9002247
0
ARC
8
DEFAULT_255_1_234
10
18.0915488
20
23.3165656
40
0.4371288
50
148.7922025
51
164.568378
0
ARC
8
DEFAULT_255_1_234
10
17.9963941
20
23.3696929
40
0.3282386
50
144.5883898
51
148.1176286
0
ARC
8
DEFAULT_255_1_234
10
17.9620838
20
23.3936315
40
0.2864044
50
101.6440918
51
144.514236
0
ARC
8
DEFAULT_255_1_234
10
18.0045905
20
23.2247069
40
0.4604934
50
89.5284041
51
102.5819763
0
ARC
8
DEFAULT_255_1_234
10
18.0124993
20
23.2208018
40
0.464401
50
77.0437873
51
90.5081339
0
ARC
8
DEFAULT_255_1_234
10
18.0526995
20
23.3850615
40
0.2953195
50
48.2778575
51
77.4994676
0
ARC
8
DEFAULT_255_1_234
10
18.0599626
20
23.3979746
40
0.2808655
50
36.3142134
51
47.6305865
0
ARC
8
DEFAULT_255_1_234
10
17.9730933
20
23.3394515
40
0.3855453
50
18.2931786
51
35.6769206
0
ARC
8
DEFAULT_255_1_234
10
17.7187692
20
23.2521593
40
0.654423
50
8.024666
51
18.5605216
0
ARC
8
DEFAULT_255_1_234
10
17.3024612
20
23.1906792
40
1.0752407
50
1.1274072
51
8.1718305
0
ARC
8
DEFAULT_255_1_234
10
16.9788802
20
23.1779885
40
1.3990231
50
0.5424119
51
1.3863029
0
ARC
8
DEFAULT_255_1_234
10
17.161018
20
23.2052342
40
1.0682415
50
359.8090433
51
4.9407866
0
ARC
8
DEFAULT_255_1_234
10
17.5820194
20
23.2428113
40
0.6455691
50
4.8362157
51
12.2904523
0
ARC
8
DEFAULT_255_1_234
10
17.8575309
20
23.3041965
40
0.3633074
50
12.0805627
51
23.8173984
0
ARC
8
DEFAULT_255_1_234
10
17.9749014
20
23.3538919
40
0.2358723
50
24.2871213
51
31.3935614
0
ARC
8
DEFAULT_255_1_234
10
18.0273712
20
23.3882233
40
0.1732111
50
30.7407893
51
82.4657128
0
ARC
8
DEFAULT_255_1_234
10
18.0093846
20
23.2998691
40
0.263235
50
81.1060089
51
90.2184952
0
ARC
8
DEFAULT_255_1_234
10
18.0058145
20
23.3256924
40
0.2374236
50
89.3806855
51
105.6762551
0
ARC
8
DEFAULT_255_1_234
10
17.9874775
20
23.3923567
40
0.1682847
50
105.7981136
51
149.7388061
0
ARC
8
DEFAULT_255_1_234
10
18.0938854
20
23.328395
40
0.2924306
50
149.4208916
51
163.6286378
0
ARC
8
DEFAULT_255_1_234
10
18.3029742
20
23.264625
40
0.5110213
50
163.3763315
51
172.1410975
0
ARC
8
DEFAULT_255_1_234
10
18.6330461
20
23.2173518
40
0.8444586
50
172.0259487
51
178.0703232
0
ARC
8
DEFAULT_255_1_234
10
18.936055
20
23.2029906
40
1.1477868
50
177.8631668
51
179.5044149
0
ARC
8
DEFAULT_255_1_234
10
18.8287955
20
22.9715389
40
1.0404907
50
179.7995573
51
185.2460446
0
ARC
8
DEFAULT_255_1_234
10
18.4244994
20
22.9332513
40
0.6343885
50
185.1411642
51
193.0079639
0
ARC
8
DEFAULT_255_1_234
10
18.1601467
20
22.8707641
40
0.3627568
50
192.7897626
51
205.2507664
0
ARC
8
DEFAULT_255_1_234
10
18.0555014
20
22.8240415
40
0.2481908
50
205.8005384
51
211.2537509
0
ARC
8
DEFAULT_255_1_234
10
18.0031454
20
22.788958
40
0.1852521
50
210.3789793
51
238.4008143
0
ARC
8
DEFAULT_255_1_234
10
18.0011976
20
22.7936376
40
0.1882621
50
239.6520629
51
265.9793761
0
ARC
8
DEFAULT_255_1_234
10
18.0097176
20
22.8608427
40
0.2559272
50
265.1315437
51
270.060332
0
ARC
8
DEFAULT_255_1_234
10
18.0125955
20
22.8284534
40
0.2235528
50
269.3314664
51
287.2178029
0
ARC
8
DEFAULT_255_1_234
10
18.0263807
20
22.7781279
40
0.1714108
50
287.7958004
51
329.080874
0
ARC
8
DEFAULT_255_1_234
10
17.9306264
20
22.837893
40
0.2842745
50
328.6634704
51
343.3325132
0
ARC
8
DEFAULT_255_1_234
10
17.7133284
20
22.9055863
40
0.5118644
50
343.0499468
51
351.9393422
0
ARC
8
DEFAULT_255_1_234
10
17.3666584
20
22.9566949
40
0.8622784
50
351.8069023
51
357.7959224
0
ARC
8
DEFAULT_255_1_234
10
17.043114
20
22.9734721
40
1.1862365
50
357.5871873
51
359.2677531
0
LINE
8
DEFAULT_255_1_234
10
19.3014906
20
23.1912327
11
19.3014906
21
22.9984709
0
LINE
8
DEFAULT_255_1_234
10
18.5633739
20
22.9783916
11
18.5633739
21
23.1767755
0
LINE
8
DEFAULT_255_1_234
10
19.1529035
20
22.9583123
11
19.1529035
21
23.2016739
0
LINE
8
DEFAULT_255_1_234
10
18.711961
20
23.2129184
11
18.711961
21
22.9751789
0
ARC
8
DEFAULT_255_1_234
10
18.0767796
20
22.9935805
40
1.2247208
50
353.8441951
51
0.2287902
0
ARC
8
DEFAULT_255_1_234
10
18.5407299
20
22.9417806
40
0.7578929
50
344.4934747
51
353.9765454
0
ARC
8
DEFAULT_255_1_234
10
18.839989
20
22.8566981
40
0.4467846
50
329.2803592
51
344.7472793
0
ARC
8
DEFAULT_255_1_234
10
18.9392715
20
22.8022018
40
0.3336173
50
324.9352394
51
328.6160465
0
ARC
8
DEFAULT_255_1_234
10
18.9769823
20
22.7758427
40
0.2876076
50
280.580143
51
324.9173126
0
ARC
8
DEFAULT_255_1_234
10
18.9368616
20
22.9429099
40
0.4592847
50
269.5977311
51
281.6734359
0
ARC
8
DEFAULT_255_1_234
10
18.9296521
20
22.9309173
40
0.4472986
50
256.6228859
51
270.51044
0
ARC
8
DEFAULT_255_1_234
10
18.8894499
20
22.7760877
40
0.2873874
50
215.8618325
51
257.2788573
0
ARC
8
DEFAULT_255_1_234
10
18.9915531
20
22.8445977
40
0.4102928
50
197.9693508
51
215.2623606
0
ARC
8
DEFAULT_255_1_234
10
19.2400647
20
22.9284709
40
0.6725652
50
187.8816417
51
198.2346507
0
ARC
8
DEFAULT_255_1_234
10
19.6358855
20
22.9856079
40
1.0724845
50
180.8976217
51
188.0055519
0
ARC
8
DEFAULT_255_1_234
10
19.9159043
20
22.9959777
40
1.3526448
50
180.7449369
51
181.1510016
0
ARC
8
DEFAULT_255_1_234
10
19.7581772
20
23.1816042
40
1.1948131
50
173.7675579
51
180.231553
0
ARC
8
DEFAULT_255_1_234
10
19.3063919
20
23.2326666
40
0.7401564
50
164.3058563
51
173.9002247
0
ARC
8
DEFAULT_255_1_234
10
19.0151987
20
23.3165656
40
0.4371288
50
148.7922025
51
164.568378
0
ARC
8
DEFAULT_255_1_234
10
18.920044
20
23.3696929
40
0.3282386
50
144.5883898
51
148.1176286
0
ARC
8
DEFAULT_255_1_234
10
18.8857337
20
23.3936315
40
0.2864044
50
101.6440918
51
144.514236
0
ARC
8
DEFAULT_255_1_234
10
18.9282404
20
23.2247069
40
0.4604934
50
89.5284041
51
102.5819763
0
ARC
8
DEFAULT_255_1_234
10
18.9361492
20
23.2208018
40
0.464401
50
77.0437873
51
90.5081339
0
ARC
8
DEFAULT_255_1_234
10
18.9763494
20
23.3850615
40
0.2953195
50
48.2778575
51
77.4994676
0
ARC
8
DEFAULT_255_1_234
10
18.9836125
20
23.3979746
40
0.2808655
50
36.3142134
51
47.6305865
0
ARC
8
DEFAULT_255_1_234
10
18.8967432
20
23.3394515
40
0.3855453
50
18.2931786
51
35.6769206
0
ARC
8
DEFAULT_255_1_234
10
18.6424191
20
23.2521593
40
0.654423
50
8.024666
51
18.5605216
0
ARC
8
DEFAULT_255_1_234
10
18.2261111
20
23.1906792
40
1.0752407
50
1.1274072
51
8.1718305
0
ARC
8
DEFAULT_255_1_234
10
17.9025301
20
23.1779885
40
1.3990231
50
0.5424119
51
1.3863029
0
ARC
8
DEFAULT_255_1_234
10
18.0846679
20
23.2052342
40
1.0682415
50
359.8090433
51
4.9407866
0
ARC
8
DEFAULT_255_1_234
10
18.5056693
20
23.2428113
40
0.6455691
50
4.8362157
51
12.2904523
0
ARC
8
DEFAULT_255_1_234
10
18.7811808
20
23.3041965
40
0.3633074
50
12.0805627
51
23.8173984
0
ARC
8
DEFAULT_255_1_234
10
18.8985513
20
23.3538919
40
0.2358723
50
24.2871213
51
31.3935614
0
ARC
8
DEFAULT_255_1_234
10
18.9510211
20
23.3882233
40
0.1732111
50
30.7407893
51
82.4657128
0
ARC
8
DEFAULT_255_1_234
10
18.9330345
20
23.2998691
40
0.263235
50
81.1060089
51
90.2184952
0
ARC
8
DEFAULT_255_1_234
10
18.9294644
20
23.3256924
40
0.2374236
50
89.3806855
51
105.6762551
0
ARC
8
DEFAULT_255_1_234
10
18.9111274
20
23.3923567
40
0.1682847
50
105.7981136
51
149.7388061
0
ARC
8
DEFAULT_255_1_234
10
19.0175353
20
23.328395
40
0.2924306
50
149.4208916
51
163.6286378
0
ARC
8
DEFAULT_255_1_234
10
19.2266241
20
23.264625
40
0.5110213
50
163.3763315
51
172.1410975
0
ARC
8
DEFAULT_255_1_234
10
19.556696
20
23.2173518
40
0.8444586
50
172.0259487
51
178.0703232
0
ARC
8
DEFAULT_255_1_234
10
19.8597049
20
23.2029906
40
1.1477868
50
177.8631668
51
179.5044149
0
ARC
8
DEFAULT_255_1_234
10
19.7524454
20
22.9715389
40
1.0404907
50
179.7995573
51
185.2460446
0
ARC
8
DEFAULT_255_1_234
10
19.3481493
20
22.9332513
40
0.6343885
50
185.1411642
51
193.0079639
0
ARC
8
DEFAULT_255_1_234
10
19.0837966
20
22.8707641
40
0.3627568
50
192.7897626
51
205.2507664
0
ARC
8
DEFAULT_255_1_234
10
18.9791513
20
22.8240415
40
0.2481908
50
205.8005384
51
211.2537509
0
ARC
8
DEFAULT_255_1_234
10
18.9267953
20
22.788958
40
0.1852521
50
210.3789793
51
238.4008143
0
ARC
8
DEFAULT_255_1_234
10
18.9248475
20
22.7936376
40
0.1882621
50
239.6520629
51
265.9793761
0
ARC
8
DEFAULT_255_1_234
10
18.9333675
20
22.8608427
40
0.2559272
50
265.1315437
51
270.060332
0
ARC
8
DEFAULT_255_1_234
10
18.9362454
20
22.8284534
40
0.2235528
50
269.3314664
51
287.2178029
0
ARC
8
DEFAULT_255_1_234
10
18.9500306
20
22.7781279
40
0.1714108
50
287.7958004
51
329.080874
0
ARC
8
DEFAULT_255_1_234
10
18.8542763
20
22.837893
40
0.2842745
50
328.6634704
51
343.3325132
0
ARC
8
DEFAULT_255_1_234
10
18.6369783
20
22.9055863
40
0.5118644
50
343.0499468
51
351.9393422
0
ARC
8
DEFAULT_255_1_234
10
18.2903083
20
22.9566949
40
0.8622784
50
351.8069023
51
357.7959224
0
ARC
8
DEFAULT_255_1_234
10
17.9667639
20
22.9734721
40
1.1862365
50
357.5871873
51
359.2677531
0
LINE
8
DEFAULT_255_1_234
10
20.3062611
20
23.3309849
11
20.1512485
21
23.3309849
0
LINE
8
DEFAULT_255_1_234
10
19.4589127
20
22.8386394
11
19.6139252
21
22.8386394
0
ARC
8
DEFAULT_255_1_234
10
20.2171298
20
24.2256768
40
1.252368
50
248.9199003
51
254.1439814
0
ARC
8
DEFAULT_255_1_234
10
20.0490793
20
23.7930234
40
0.788226
50
241.633709
51
249.0064503
0
ARC
8
DEFAULT_255_1_234
10
19.8962187
20
23.5129317
40
0.4691427
50
230.498225
51
241.8087113
0
ARC
8
DEFAULT_255_1_234
10
19.8177762
20
23.4129906
40
0.3421437
50
227.4064532
51
229.9881192
0
ARC
8
DEFAULT_255_1_234
10
19.7690282
20
23.3654088
40
0.2741476
50
200.6781896
51
228.1763934
0
ARC
8
DEFAULT_255_1_234
10
19.7762593
20
23.3639077
40
0.2804109
50
179.5061581
51
199.8694617
0
ARC
8
DEFAULT_255_1_234
10
19.7753345
20
23.371321
40
0.2795204
50
132.4834203
51
181.0242172
0
ARC
8
DEFAULT_255_1_234
10
19.8348927
20
23.3150704
40
0.3612768
50
129.2532479
51
133.4242687
0
ARC
8
DEFAULT_255_1_234
10
19.8495377
20
23.2930965
40
0.3875675
50
101.98776
51
128.8742646
0
ARC
8
DEFAULT_255_1_234
10
19.8893987
20
23.1209741
40
0.5642249
50
89.5906553
51
102.3169264
0
ARC
8
DEFAULT_255_1_234
10
19.8964479
20
23.1528148
40
0.5323783
50
77.2360837
51
90.3248275
0
ARC
8
DEFAULT_255_1_234
10
19.9171558
20
23.24954
40
0.4334697
50
63.837784
51
77.0809408
0
ARC
8
DEFAULT_255_1_234
10
19.944932
20
23.3012911
40
0.3747796
50
45.9864267
51
64.1607727
0
ARC
8
DEFAULT_255_1_234
10
19.9710201
20
23.3310866
40
0.3352302
50
32.2747395
51
45.6547121
0
ARC
8
DEFAULT_255_1_234
10
19.9776642
20
23.332988
40
0.328603
50
359.6507365
51
32.6130309
0
ARC
8
DEFAULT_255_1_234
10
19.8833737
20
23.333466
40
0.2678863
50
359.469343
51
14.9832209
0
ARC
8
DEFAULT_255_1_234
10
19.95388
20
23.3523539
40
0.1948938
50
14.9781179
51
48.2004265
0
ARC
8
DEFAULT_255_1_234
10
19.9374444
20
23.3316983
40
0.2212521
50
48.5927837
51
74.1241538
0
ARC
8
DEFAULT_255_1_234
10
19.9040934
20
23.2216248
40
0.3362561
50
73.7888341
51
86.6652678
0
ARC
8
DEFAULT_255_1_234
10
19.8938499
20
23.1008881
40
0.4573953
50
86.2640471
51
90.0526343
0
ARC
8
DEFAULT_255_1_234
10
19.8910212
20
23.1404192
40
0.4178709
50
89.6697524
51
99.2309573
0
ARC
8
DEFAULT_255_1_234
10
19.8667663
20
23.2848964
40
0.2713749
50
99.069534
51
113.7658566
0
ARC
8
DEFAULT_255_1_234
10
19.8393854
20
23.3494677
40
0.2012469
50
114.0401004
51
127.9850673
0
ARC
8
DEFAULT_255_1_234
10
19.8153418
20
23.379073
40
0.1631167
50
127.7287463
51
176.7105154
0
ARC
8
DEFAULT_255_1_234
10
19.8832135
20
23.3689693
40
0.2315392
50
175.1779447
51
180.0581938
0
ARC
8
DEFAULT_255_1_234
10
19.7988982
20
23.3677428
40
0.1472271
50
179.6142195
51
228.1246017
0
ARC
8
DEFAULT_255_1_234
10
19.8430651
20
23.4086308
40
0.2072299
50
226.5779593
51
230.8800004
0
ARC
8
DEFAULT_255_1_234
10
19.8901729
20
23.4711636
40
0.2854818
50
231.4635071
51
241.9260842
0
ARC
8
DEFAULT_255_1_234
10
20.0098907
20
23.69148
40
0.53622
50
241.7178533
51
248.3259551
0
ARC
8
DEFAULT_255_1_234
10
20.1484279
20
24.0347064
40
0.9063478
50
248.2007737
51
252.4528373
0
ARC
8
DEFAULT_255_1_234
10
20.2688004
20
24.4068441
40
1.2974635
50
252.3391078
51
254.3469452
0
ARC
8
DEFAULT_255_1_234
10
19.5145707
20
21.7091148
40
1.5037162
50
71.0197183
51
74.4087047
0
ARC
8
DEFAULT_255_1_234
10
19.6840392
20
22.1983111
40
0.9859993
50
66.1847285
51
71.086374
0
ARC
8
DEFAULT_255_1_234
10
19.8396704
20
22.54872
40
0.6025855
50
59.3536294
51
66.2691831
0
ARC
8
DEFAULT_255_1_234
10
19.9285357
20
22.6990609
40
0.4279449
50
49.1020879
51
59.3293958
0
ARC
8
DEFAULT_255_1_234
10
20.0104097
20
22.7923834
40
0.3038015
50
32.7919921
51
49.2505539
0
ARC
8
DEFAULT_255_1_234
10
20.0425186
20
22.8152191
40
0.264448
50
31.1181161
51
32.4005348
0
ARC
8
DEFAULT_255_1_234
10
20.0336724
20
22.8116779
40
0.2738556
50
8.1116974
51
30.7958831
0
ARC
8
DEFAULT_255_1_234
10
19.9526392
20
22.7978753
40
0.3560327
50
359.8389159
51
8.4706516
0
ARC
8
DEFAULT_255_1_234
10
20.0152184
20
22.7930137
40
0.2934776
50
337.4731098
51
0.7537279
0
ARC
8
DEFAULT_255_1_234
10
20.0330879
20
22.7910387
40
0.2762607
50
307.5917067
51
336.4315538
0
ARC
8
DEFAULT_255_1_234
10
19.9870707
20
22.8423102
40
0.3449979
50
307.6551545
51
308.4529766
0
ARC
8
DEFAULT_255_1_234
10
19.9640425
20
22.877825
40
0.3871988
50
284.3734338
51
307.1424381
0
ARC
8
DEFAULT_255_1_234
10
19.9145256
20
23.0599932
40
0.5759636
50
272.4382747
51
284.646547
0
ARC
8
DEFAULT_255_1_234
10
19.9018464
20
23.2399893
40
0.7563528
50
269.9708387
51
272.8178037
0
ARC
8
DEFAULT_255_1_234
10
19.8975504
20
23.0361716
40
0.5525489
50
248.2707594
51
270.4055579
0
ARC
8
DEFAULT_255_1_234
10
19.8921245
20
23.0171192
40
0.5328452
50
246.1383403
51
248.0542782
0
ARC
8
DEFAULT_255_1_234
10
19.8502624
20
22.9291843
40
0.4355005
50
233.1670131
51
246.4950969
0
ARC
8
DEFAULT_255_1_234
10
19.7948529
20
22.8543812
40
0.3424126
50
215.3403242
51
233.0843104
0
ARC
8
DEFAULT_255_1_234
10
19.767596
20
22.8345549
40
0.3087104
50
179.2419209
51
215.2648451
0
ARC
8
DEFAULT_255_1_234
10
19.8443554
20
22.8359666
40
0.2304457
50
179.335461
51
199.1045811
0
ARC
8
DEFAULT_255_1_234
10
19.8111231
20
22.8272766
40
0.1962176
50
199.8828939
51
232.7063202
0
ARC
8
DEFAULT_255_1_234
10
19.8583499
20
22.8866788
40
0.2720938
50
232.3738199
51
255.5136649
0
ARC
8
DEFAULT_255_1_234
10
19.8924366
20
23.0110835
40
0.4010747
50
255.2446292
51
267.5320849
0
ARC
8
DEFAULT_255_1_234
10
19.9011989
20
23.1343702
40
0.5246356
50
267.1557994
51
270.0286766
0
ARC
8
DEFAULT_255_1_234
10
19.9039761
20
23.089995
40
0.4802668
50
269.7000017
51
278.1660162
0
ARC
8
DEFAULT_255_1_234
10
19.9295766
20
22.9169515
40
0.3053425
50
278.0231263
51
290.625471
0
ARC
8
DEFAULT_255_1_234
10
19.9643453
20
22.8242025
40
0.206291
50
290.6619762
51
307.0370976
0
ARC
8
DEFAULT_255_1_234
10
19.9943842
20
22.7873504
40
0.1587906
50
306.3943566
51
355.3030547
0
ARC
8
DEFAULT_255_1_234
10
19.9431774
20
22.7950113
40
0.2104809
50
354.3660432
51
0.0698737
0
ARC
8
DEFAULT_255_1_234
10
19.9574119
20
22.7972617
40
0.1962563
50
359.417946
51
16.1971788
0
ARC
8
DEFAULT_255_1_234
10
20.0029429
20
22.8097418
40
0.149053
50
16.4723299
51
52.6262157
0
ARC
8
DEFAULT_255_1_234
10
19.9208483
20
22.7013433
40
0.2850296
50
52.7386432
51
62.4979148
0
ARC
8
DEFAULT_255_1_234
10
19.782356
20
22.4407283
40
0.5801521
50
62.2515216
51
68.1220564
0
ARC
8
DEFAULT_255_1_234
10
19.6103471
20
22.0179872
40
1.0365451
50
68.0062803
51
71.8053402
0
ARC
8
DEFAULT_255_1_234
10
19.4307843
20
21.4794758
40
1.6042013
50
71.7183119
51
73.9258742
0
LINE
8
DEFAULT_255_1_234
10
4.2459489
20
21.6848211
11
4.2459489
21
20.6414983
0
LINE
8
DEFAULT_255_1_234
10
4.2459489
20
20.6414983
11
4.8001389
21
20.6414983
0
LINE
8
DEFAULT_255_1_234
10
4.8001389
20
20.6414983
11
4.8001389
21
20.5154
0
LINE
8
DEFAULT_255_1_234
10
4.8001389
20
20.5154
11
4.0909364
21
20.5154
0
LINE
8
DEFAULT_255_1_234
10
4.0909364
20
20.5154
11
4.0909364
21
21.6848211
0
LINE
8
DEFAULT_255_1_234
10
4.0909364
20
21.6848211
11
4.2459489
21
21.6848211
0
LINE
8
DEFAULT_255_1_234
10
5.378424
20
21.4840276
11
5.378424
21
21.1426788
0
LINE
8
DEFAULT_255_1_234
10
5.378424
20
21.1426788
11
5.7045126
21
21.1426788
0
LINE
8
DEFAULT_255_1_234
10
5.7045126
20
21.1426788
11
5.7045126
21
21.0021233
0
LINE
8
DEFAULT_255_1_234
10
5.7045126
20
21.0021233
11
5.378424
21
21.0021233
0
LINE
8
DEFAULT_255_1_234
10
5.378424
20
21.0021233
11
5.378424
21
20.6326634
0
LINE
8
DEFAULT_255_1_234
10
5.378424
20
20.6326634
11
5.2290337
21
20.6326634
0
LINE
8
DEFAULT_255_1_234
10
5.2290337
20
20.6326634
11
5.2290337
21
21.0021233
0
LINE
8
DEFAULT_255_1_234
10
5.2290337
20
21.0021233
11
4.9029451
21
21.0021233
0
LINE
8
DEFAULT_255_1_234
10
4.9029451
20
21.0021233
11
4.9029451
21
21.1426788
0
LINE
8
DEFAULT_255_1_234
10
4.9029451
20
21.1426788
11
5.2290337
21
21.1426788
0
LINE
8
DEFAULT_255_1_234
10
5.2290337
20
21.1426788
11
5.2290337
21
21.4840276
0
LINE
8
DEFAULT_255_1_234
10
5.2290337
20
21.4840276
11
5.378424
21
21.4840276
0
LINE
8
DEFAULT_255_1_234
10
4.8400628
20
5.8098211
11
4.8400628
21
5.033152
0
LINE
8
DEFAULT_255_1_234
10
4.8400628
20
5.033152
11
5.0023039
21
5.033152
0
LINE
8
DEFAULT_255_1_234
10
5.0023039
20
5.033152
11
5.0023039
21
4.9118728
0
LINE
8
DEFAULT_255_1_234
10
5.0023039
20
4.9118728
11
4.8400628
21
4.9118728
0
LINE
8
DEFAULT_255_1_234
10
4.8400628
20
4.9118728
11
4.8400628
21
4.6404
0
LINE
8
DEFAULT_255_1_234
10
4.8400628
20
4.6404
11
4.6906725
21
4.6404
0
LINE
8
DEFAULT_255_1_234
10
4.6906725
20
4.6404
11
4.6906725
21
4.9118728
0
LINE
8
DEFAULT_255_1_234
10
4.6906725
20
4.9118728
11
4.1581682
21
4.9118728
0
LINE
8
DEFAULT_255_1_234
10
4.1581682
20
4.9118728
11
4.1581682
21
4.9994187
0
LINE
8
DEFAULT_255_1_234
10
4.1581682
20
4.9994187
11
4.6818375
21
5.8098211
0
LINE
8
DEFAULT_255_1_234
10
4.6818375
20
5.8098211
11
4.8400628
21
5.8098211
0
LINE
8
DEFAULT_255_1_234
10
4.6730026
20
5.5744912
11
4.3268347
21
5.033152
0
LINE
8
DEFAULT_255_1_234
10
4.3268347
20
5.033152
11
4.6906725
21
5.033152
0
LINE
8
DEFAULT_255_1_234
10
4.6906725
20
5.033152
11
4.6906725
21
5.6066181
0
LINE
8
DEFAULT_255_1_234
10
4.6906725
20
5.6066181
11
4.6730026
21
5.5744912
0
LINE
8
DEFAULT_255_1_234
10
4.4812137
20
13.7529433
11
4.4812137
21
12.5779
0
LINE
8
DEFAULT_255_1_234
10
4.4812137
20
12.5779
11
4.3318234
21
12.5779
0
LINE
8
DEFAULT_255_1_234
10
4.3318234
20
12.5779
11
4.3318234
21
13.5682133
0
LINE
8
DEFAULT_255_1_234
10
4.3318234
20
13.5682133
11
4.0322396
21
13.4581785
0
LINE
8
DEFAULT_255_1_234
10
4.0322396
20
13.4581785
11
4.0322396
21
13.5931117
0
LINE
8
DEFAULT_255_1_234
10
4.0322396
20
13.5931117
11
4.4579217
21
13.7529433
0
LINE
8
DEFAULT_255_1_234
10
4.4579217
20
13.7529433
11
4.4812137
21
13.7529433
0
LINE
8
DEFAULT_255_1_234
10
23.0445364
20
21.6848211
11
23.2437235
21
21.6848211
0
LINE
8
DEFAULT_255_1_234
10
23.2437235
20
21.6848211
11
23.6260342
21
20.7306506
0
LINE
8
DEFAULT_255_1_234
10
23.6260342
20
20.7306506
11
24.008345
21
21.6848211
0
LINE
8
DEFAULT_255_1_234
10
24.008345
20
21.6848211
11
24.2083353
21
21.6848211
0
LINE
8
DEFAULT_255_1_234
10
24.2083353
20
21.6848211
11
24.2083353
21
20.5154
0
LINE
8
DEFAULT_255_1_234
10
24.2083353
20
20.5154
11
24.0541259
21
20.5154
0
LINE
8
DEFAULT_255_1_234
10
24.0541259
20
20.5154
11
24.0541259
21
20.9707996
0
LINE
8
DEFAULT_255_1_234
10
24.0541259
20
20.9707996
11
24.068583
21
21.4623419
0
LINE
8
DEFAULT_255_1_234
10
24.068583
20
21.4623419
11
23.6846659
21
20.5154
0
LINE
8
DEFAULT_255_1_234
10
23.6846659
20
20.5154
11
23.5665994
21
20.5154
0
LINE
8
DEFAULT_255_1_234
10
23.5665994
20
20.5154
11
23.1834854
21
21.4599324
0
LINE
8
DEFAULT_255_1_234
10
23.1834854
20
21.4599324
11
23.1987458
21
20.9707996
0
LINE
8
DEFAULT_255_1_234
10
23.1987458
20
20.9707996
11
23.1987458
21
20.5154
0
LINE
8
DEFAULT_255_1_234
10
23.1987458
20
20.5154
11
23.0445364
21
20.5154
0
LINE
8
DEFAULT_255_1_234
10
23.0445364
20
20.5154
11
23.0445364
21
21.6848211
0
ARC
8
DEFAULT_255_1_234
10
24.0067624
20
5.5020703
40
0.2822356
50
338.8763615
51
0.5166041
0
ARC
8
DEFAULT_255_1_234
10
24.0236278
20
5.4975208
40
0.2648703
50
325.8412414
51
338.4795939
0
ARC
8
DEFAULT_255_1_234
10
23.9845646
20
5.5246042
40
0.3124019
50
296.7586019
51
325.753654
0
ARC
8
DEFAULT_255_1_234
10
23.9557754
20
5.5730789
40
0.368668
50
296.0902311
51
297.3618122
0
ARC
8
DEFAULT_255_1_234
10
23.9815212
20
4.9176041
40
0.3518806
50
47.9009248
51
67.1946869
0
ARC
8
DEFAULT_255_1_234
10
24.0011454
20
4.9422395
40
0.320451
50
35.236241
51
47.551371
0
ARC
8
DEFAULT_255_1_234
10
24.0273072
20
4.9596993
40
0.2890103
50
359.2759738
51
35.4014081
0
ARC
8
DEFAULT_255_1_234
10
23.9528103
20
4.9523826
40
0.3635026
50
343.1294516
51
0.5776525
0
ARC
8
DEFAULT_255_1_234
10
24.0252648
20
4.932433
40
0.2883832
50
310.8497458
51
342.744803
0
ARC
8
DEFAULT_255_1_234
10
23.9834761
20
4.9801294
40
0.3517954
50
281.5473923
51
310.9169905
0
ARC
8
DEFAULT_255_1_234
10
23.947821
20
5.1354084
40
0.5110832
50
269.6192722
51
281.9789957
0
ARC
8
DEFAULT_255_1_234
10
23.9406
20
5.1354828
40
0.5111606
50
257.4584469
51
270.4287458
0
ARC
8
DEFAULT_255_1_234
10
23.9025143
20
4.9751344
40
0.3463762
50
228.7553743
51
257.8484423
0
ARC
8
DEFAULT_255_1_234
10
23.8715341
20
4.9378442
40
0.297916
50
184.0104442
51
228.5071787
0
ARC
8
DEFAULT_255_1_234
10
23.9878285
20
4.9555512
40
0.4152734
50
179.9315461
51
185.3254504
0
ARC
8
DEFAULT_255_1_234
10
23.8701931
20
4.9592992
40
0.2976554
50
145.6795913
51
180.6259649
0
ARC
8
DEFAULT_255_1_234
10
23.886528
20
4.9478929
40
0.3175776
50
115.5537925
51
145.6416199
0
ARC
8
DEFAULT_255_1_234
10
23.920621
20
4.8868028
40
0.3874232
50
113.2437915
51
116.2054627
0
ARC
8
DEFAULT_255_1_234
10
23.9053423
20
5.526658
40
0.3154751
50
222.9548379
51
244.1372485
0
ARC
8
DEFAULT_255_1_234
10
23.8931498
20
5.5129834
40
0.2972382
50
213.3439227
51
222.6271327
0
ARC
8
DEFAULT_255_1_234
10
23.8739433
20
5.4999308
40
0.274019
50
180.4316517
51
213.2713999
0
ARC
8
DEFAULT_255_1_234
10
23.9314434
20
5.504611
40
0.33158
50
179.9992944
51
181.1655061
0
ARC
8
DEFAULT_255_1_234
10
23.9723851
20
5.5080561
40
0.3725376
50
164.6186108
51
180.5292368
0
ARC
8
DEFAULT_255_1_234
10
23.8825714
20
5.5322101
40
0.2795349
50
132.2454369
51
164.5092287
0
ARC
8
DEFAULT_255_1_234
10
23.9112818
20
5.4997028
40
0.3229019
50
100.7052766
51
132.1387266
0
ARC
8
DEFAULT_255_1_234
10
23.941779
20
5.3619086
40
0.4639835
50
89.6732617
51
101.2449487
0
ARC
8
DEFAULT_255_1_234
10
23.9479988
20
5.379399
40
0.4464999
50
76.2876631
51
90.4586123
0
ARC
8
DEFAULT_255_1_234
10
23.978622
20
5.501622
40
0.3205023
50
47.8240157
51
76.4266918
0
ARC
8
DEFAULT_255_1_234
10
24.000877
20
5.527659
40
0.2862661
50
6.9168658
51
47.6261438
0
ARC
8
DEFAULT_255_1_234
10
23.8822173
20
5.505737
40
0.4067708
50
359.8419705
51
7.9694496
0
ARC
8
DEFAULT_255_1_234
10
23.916407
20
4.9616925
40
0.2513121
50
359.4454068
51
16.9256425
0
ARC
8
DEFAULT_255_1_234
10
23.9632881
20
4.9746033
40
0.2027071
50
17.292259
51
45.462717
0
ARC
8
DEFAULT_255_1_234
10
23.9578817
20
4.9699434
40
0.2098212
50
45.3028762
51
83.1921472
0
ARC
8
DEFAULT_255_1_234
10
23.9435501
20
4.8897895
40
0.2911472
50
82.2614531
51
90.143954
0
ARC
8
DEFAULT_255_1_234
10
23.9404621
20
4.913095
40
0.2678513
50
89.4959189
51
104.8579811
0
ARC
8
DEFAULT_255_1_234
10
23.922788
20
4.980089
40
0.1985654
50
104.8855873
51
135.2448349
0
ARC
8
DEFAULT_255_1_234
10
23.9277653
20
4.9756336
40
0.2052373
50
135.3398955
51
172.104394
0
ARC
8
DEFAULT_255_1_234
10
24.0084711
20
4.9601925
40
0.2873299
50
171.2651929
51
180.1859362
0
ARC
8
DEFAULT_255_1_234
10
23.9915412
20
4.9569733
40
0.2704083
50
179.515471
51
193.6466734
0
ARC
8
DEFAULT_255_1_234
10
23.9099181
20
4.9361777
40
0.1861855
50
193.3540587
51
225.8256931
0
ARC
8
DEFAULT_255_1_234
10
23.9139938
20
4.9432524
40
0.1941102
50
226.418029
51
255.8553723
0
ARC
8
DEFAULT_255_1_234
10
23.9396371
20
5.0368998
40
0.2911917
50
255.4655572
51
268.7985967
0
ARC
8
DEFAULT_255_1_234
10
23.9443563
20
5.1207491
40
0.3751331
50
268.3464808
51
270.0104874
0
ARC
8
DEFAULT_255_1_234
10
23.9466951
20
5.0523138
40
0.3067064
50
269.575914
51
282.0823146
0
ARC
8
DEFAULT_255_1_234
10
23.969186
20
4.9528803
40
0.2047712
50
281.7522535
51
306.6056425
0
ARC
8
DEFAULT_255_1_234
10
23.9790286
20
4.9367487
40
0.1859604
50
307.1350025
51
314.0277951
0
ARC
8
DEFAULT_255_1_234
10
23.975437
20
4.9393766
40
0.1903475
50
314.2553419
51
350.169324
0
ARC
8
DEFAULT_255_1_234
10
23.8902839
20
4.9578409
40
0.2774269
50
349.4145679
51
0.2930737
0
ARC
8
DEFAULT_255_1_234
10
23.9423272
20
5.4737353
40
0.2300764
50
89.477591
51
105.729794
0
ARC
8
DEFAULT_255_1_234
10
23.9287185
20
5.5242637
40
0.1777519
50
105.922966
51
135.1662921
0
ARC
8
DEFAULT_255_1_234
10
23.9307688
20
5.5228419
40
0.1802087
50
135.3053131
51
168.9882338
0
ARC
8
DEFAULT_255_1_234
10
24.013526
20
5.5038721
40
0.2650806
50
168.3802067
51
180.3602358
0
ARC
8
DEFAULT_255_1_234
10
23.990684
20
5.5001041
40
0.2422425
50
179.5029707
51
194.9126783
0
ARC
8
DEFAULT_255_1_234
10
23.9321501
20
5.484711
40
0.1817188
50
194.9722181
51
224.1943972
0
ARC
8
DEFAULT_255_1_234
10
23.9293368
20
5.4824169
40
0.1781027
50
224.2961434
51
262.0157375
0
ARC
8
DEFAULT_255_1_234
10
23.9435611
20
5.5555661
40
0.2525492
50
261.1250369
51
270.1959853
0
ARC
8
DEFAULT_255_1_234
10
23.9465366
20
5.5368339
40
0.233825
50
269.4825617
51
285.0988277
0
ARC
8
DEFAULT_255_1_234
10
23.9619525
20
5.478999
40
0.1739712
50
285.1585659
51
315.9484648
0
ARC
8
DEFAULT_255_1_234
10
23.9530537
20
5.4871886
40
0.1860616
50
316.0412958
51
351.9162715
0
ARC
8
DEFAULT_255_1_234
10
23.8797492
20
5.5013245
40
0.2606517
50
351.1056823
51
0.1936567
0
ARC
8
DEFAULT_255_1_234
10
23.9060321
20
5.5043369
40
0.234377
50
359.4789506
51
16.0679113
0
ARC
8
DEFAULT_255_1_234
10
23.953628
20
5.517181
40
0.1850875
50
16.3251951
51
44.791304
0
ARC
8
DEFAULT_255_1_234
10
23.9518561
20
5.5172339
40
0.186312
50
44.3958661
51
88.2498933
0
ARC
8
DEFAULT_255_1_234
10
23.9445115
20
5.4561154
40
0.2476868
50
86.9833827
51
90.0200148
0
LINE
8
DEFAULT_255_1_234
10
23.7669235
20
13.1336963
11
23.6480538
21
13.1642169
0
LINE
8
DEFAULT_255_1_234
10
23.6480538
20
13.1642169
11
23.7074887
21
13.7473211
0
LINE
8
DEFAULT_255_1_234
10
23.7074887
20
13.7473211
11
24.3066563
21
13.7473211
0
LINE
8
DEFAULT_255_1_234
10
24.3066563
20
13.7473211
11
24.3066563
21
13.6099784
0
LINE
8
DEFAULT_255_1_234
10
24.3066563
20
13.6099784
11
23.833587
21
13.6099784
0
LINE
8
DEFAULT_255_1_234
10
23.833587
20
13.6099784
11
23.7982473
21
13.2911184
0
LINE
8
DEFAULT_255_1_234
10
23.6062888
20
12.8855156
11
23.7468442
21
12.8855156
0
LINE
8
DEFAULT_255_1_234
10
23.8062791
20
13.1658232
11
23.7669235
21
13.1336963
0
ARC
8
DEFAULT_255_1_234
10
23.9837257
20
12.973123
40
0.3681349
50
93.7182161
51
120.2538958
0
ARC
8
DEFAULT_255_1_234
10
23.993152
20
12.8923394
40
0.449379
50
89.9660152
51
94.2496022
0
ARC
8
DEFAULT_255_1_234
10
23.9972254
20
12.9512549
40
0.390482
50
73.8043271
51
90.5585896
0
ARC
8
DEFAULT_255_1_234
10
24.0207151
20
13.0370602
40
0.3015334
50
41.3071453
51
73.5430202
0
ARC
8
DEFAULT_255_1_234
10
23.9790978
20
13.0012324
40
0.3564457
50
13.5075983
51
41.2174222
0
ARC
8
DEFAULT_255_1_234
10
23.8149182
20
12.9582486
40
0.5261351
50
1.1331335
51
13.8829381
0
ARC
8
DEFAULT_255_1_234
10
23.6737551
20
12.9506665
40
0.6674378
50
359.9919444
51
1.544251
0
ARC
8
DEFAULT_255_1_234
10
23.8014377
20
12.946528
40
0.5397702
50
347.8572367
51
0.4293338
0
ARC
8
DEFAULT_255_1_234
10
23.9764695
20
12.9068736
40
0.3603188
50
323.673004
51
348.1672506
0
ARC
8
DEFAULT_255_1_234
10
24.0059203
20
12.8889168
40
0.3259678
50
316.8171152
51
323.1492751
0
ARC
8
DEFAULT_255_1_234
10
24.0120392
20
12.885246
40
0.3189975
50
281.8396411
51
316.5457803
0
ARC
8
DEFAULT_255_1_234
10
23.9744656
20
13.0407762
40
0.4789527
50
269.5770101
51
282.4214771
0
ARC
8
DEFAULT_255_1_234
10
23.9673467
20
13.0194125
40
0.45759
50
256.2427136
51
270.4486331
0
ARC
8
DEFAULT_255_1_234
10
23.937437
20
12.8994229
40
0.3339303
50
228.9023911
51
256.3314342
0
ARC
8
DEFAULT_255_1_234
10
23.9300602
20
12.8877746
40
0.32031
50
193.753695
51
228.5271154
0
ARC
8
DEFAULT_255_1_234
10
24.0538556
20
12.92408
40
0.4492253
50
184.924711
51
194.497588
0
ARC
8
DEFAULT_255_1_234
10
24.0731123
20
12.9276591
40
0.3289787
50
187.3600538
51
198.6732863
0
ARC
8
DEFAULT_255_1_234
10
23.9681417
20
12.8912674
40
0.217884
50
198.4451669
51
217.794479
0
ARC
8
DEFAULT_255_1_234
10
23.9385592
20
12.8703085
40
0.1816698
50
218.2887171
51
228.5612368
0
ARC
8
DEFAULT_255_1_234
10
23.9483379
20
12.8834963
40
0.1980329
50
228.9654866
51
258.1234728
0
ARC
8
DEFAULT_255_1_234
10
23.9689089
20
12.9715833
40
0.2884748
50
257.7258293
51
270.401361
0
ARC
8
DEFAULT_255_1_234
10
23.9733975
20
12.9270821
40
0.2439788
50
269.4204404
51
286.4209037
0
ARC
8
DEFAULT_255_1_234
10
23.9882463
20
12.8731657
40
0.1880666
50
286.7251356
51
320.600362
0
ARC
8
DEFAULT_255_1_234
10
23.9499288
20
12.9042595
40
0.2374121
50
320.6712579
51
344.5441685
0
ARC
8
DEFAULT_255_1_234
10
23.8342614
20
12.9382045
40
0.3579479
50
344.2412205
51
356.7357071
0
ARC
8
DEFAULT_255_1_234
10
23.7093763
20
12.9485444
40
0.4832297
50
356.3548756
51
0.0500261
0
ARC
8
DEFAULT_255_1_234
10
23.8430272
20
12.951665
40
0.3495889
50
359.5576869
51
12.953486
0
ARC
8
DEFAULT_255_1_234
10
23.9485169
20
12.9772434
40
0.2410532
50
12.6490276
51
41.6081334
0
ARC
8
DEFAULT_255_1_234
10
23.971554
20
12.9968321
40
0.2108218
50
41.7850273
51
85.9892764
0
ARC
8
DEFAULT_255_1_234
10
23.9592277
20
12.9155462
40
0.2928454
50
84.6957577
51
90.0676183
0
ARC
8
DEFAULT_255_1_234
10
23.9568761
20
12.8486716
40
0.3597255
50
89.6804936
51
99.1614436
0
ARC
8
DEFAULT_255_1_234
10
23.9363392
20
12.9714131
40
0.235281
50
98.9830931
51
113.8908934
0
ARC
8
DEFAULT_255_1_234
10
23.9133802
20
13.0255587
40
0.176479
50
114.1950727
51
127.3641004
0
ENDSEC
0
EOF