0
SECTION
2
HEADER
9
$MEASUREMENT
70
1
0
ENDSEC
0
SECTION
2
TABLES
0
TABLE
2
LTYPE
0
LTYPE
72
65
70
64
2
CONTINUOUS
3
______
73
0
40
0
0
ENDTAB
0
TABLE
2
LAYER
0
LAYER
2
DEFAULT_255_2_778
70
0
62
255
6
CONTINUOUS
0
ENDTAB
0
ENDSEC
0
SECTION
2
ENTITIES
0
ARC
8
DEFAULT_255_2_778
10
0.6729857
20
3.6471853
40
0.5000969
50
179.9996485
51
270.0003515
0
ARC
8
DEFAULT_255_2_778
10
14.6728131
20
3.647164
40
0.5000756
50
270.0086621
51
0.0028016
0
LINE
8
DEFAULT_255_2_778
10
6.0997888
20
87.6319884
11
6.1381888
21
87.6436884
0
LINE
8
DEFAULT_255_2_778
10
6.1381888
20
87.6436884
11
6.1728888
21
87.6470884
0
LINE
8
DEFAULT_255_2_778
10
6.1728888
20
87.6470884
11
9.1729888
21
87.6470884
0
LINE
8
DEFAULT_255_2_778
10
9.1729888
20
87.6470884
11
9.2075888
21
87.6436884
0
LINE
8
DEFAULT_255_2_778
10
9.2075888
20
87.6436884
11
9.2459888
21
87.6319884
0
LINE
8
DEFAULT_255_2_778
10
3.8799888
20
16.9874884
11
4.0728888
21
16.9874884
0
LINE
8
DEFAULT_255_2_778
10
4.0728888
20
16.9874884
11
4.0728888
21
15.2970884
0
LINE
8
DEFAULT_255_2_778
10
4.0728888
20
15.2970884
11
3.8450888
21
15.2970884
0
LINE
8
DEFAULT_255_2_778
10
3.8450888
20
15.2970884
11
3.8450888
21
16.7246884
0
LINE
8
DEFAULT_255_2_778
10
3.8450888
20
16.7246884
11
3.5772888
21
16.5577884
0
LINE
8
DEFAULT_255_2_778
10
3.5772888
20
16.5577884
11
3.4727888
21
16.5140884
0
LINE
8
DEFAULT_255_2_778
10
3.4727888
20
16.5140884
11
3.4727888
21
16.7260884
0
LINE
8
DEFAULT_255_2_778
10
3.4727888
20
16.7260884
11
3.7815888
21
16.9017884
0
LINE
8
DEFAULT_255_2_778
10
3.7815888
20
16.9017884
11
3.8799888
21
16.9874884
0
LINE
8
DEFAULT_255_2_778
10
10.8257888
20
16.9874884
11
11.8100888
21
16.9874884
0
LINE
8
DEFAULT_255_2_778
10
11.8100888
20
16.9874884
11
11.8100888
21
16.8019884
0
LINE
8
DEFAULT_255_2_778
10
11.8100888
20
16.8019884
11
11.0390888
21
16.8019884
0
LINE
8
DEFAULT_255_2_778
10
11.0390888
20
16.8019884
11
11.0257888
21
16.2550884
0
LINE
8
DEFAULT_255_2_778
10
11.0257888
20
16.2550884
11
11.1385888
21
16.3550884
0
LINE
8
DEFAULT_255_2_778
10
11.1385888
20
16.3550884
11
11.2940888
21
16.4153884
0
LINE
8
DEFAULT_255_2_778
10
11.2940888
20
16.4153884
11
11.5091888
21
16.4159884
0
LINE
8
DEFAULT_255_2_778
10
11.5091888
20
16.4159884
11
11.6676888
21
16.3563884
0
LINE
8
DEFAULT_255_2_778
10
11.6676888
20
16.3563884
11
11.7623888
21
16.2754884
0
LINE
8
DEFAULT_255_2_778
10
11.7623888
20
16.2754884
11
11.8206888
21
16.1926884
0
LINE
8
DEFAULT_255_2_778
10
11.8206888
20
16.1926884
11
11.8531888
21
16.1232884
0
LINE
8
DEFAULT_255_2_778
10
11.8531888
20
16.1232884
11
11.8748888
21
16.0560884
0
LINE
8
DEFAULT_255_2_778
10
11.8748888
20
16.0560884
11
11.8862888
21
16.0042884
0
LINE
8
DEFAULT_255_2_778
10
11.8862888
20
16.0042884
11
11.8912888
21
15.9732884
0
LINE
8
DEFAULT_255_2_778
10
11.8912888
20
15.9732884
11
11.8904888
21
15.7227884
0
LINE
8
DEFAULT_255_2_778
10
11.8904888
20
15.7227884
11
11.8830888
21
15.6814884
0
LINE
8
DEFAULT_255_2_778
10
11.8830888
20
15.6814884
11
11.8690888
21
15.6266884
0
LINE
8
DEFAULT_255_2_778
10
11.8690888
20
15.6266884
11
11.8499888
21
15.5734884
0
LINE
8
DEFAULT_255_2_778
10
11.8499888
20
15.5734884
11
11.8171888
21
15.5076884
0
LINE
8
DEFAULT_255_2_778
10
11.8171888
20
15.5076884
11
11.7647888
21
15.4345884
0
LINE
8
DEFAULT_255_2_778
10
11.7647888
20
15.4345884
11
11.6666888
21
15.3478884
0
LINE
8
DEFAULT_255_2_778
10
11.6666888
20
15.3478884
11
11.5361888
21
15.2864884
0
LINE
8
DEFAULT_255_2_778
10
11.5361888
20
15.2864884
11
11.3567888
21
15.2586884
0
LINE
8
DEFAULT_255_2_778
10
11.3567888
20
15.2586884
11
11.1557888
21
15.2811884
0
LINE
8
DEFAULT_255_2_778
10
11.1557888
20
15.2811884
11
11.0173888
21
15.3398884
0
LINE
8
DEFAULT_255_2_778
10
11.0173888
20
15.3398884
11
10.9077888
21
15.4277884
0
LINE
8
DEFAULT_255_2_778
10
10.9077888
20
15.4277884
11
10.8474888
21
15.5065884
0
LINE
8
DEFAULT_255_2_778
10
10.8474888
20
15.5065884
11
10.8104888
21
15.5806884
0
LINE
8
DEFAULT_255_2_778
10
10.8104888
20
15.5806884
11
10.7934888
21
15.6298884
0
LINE
8
DEFAULT_255_2_778
10
10.7934888
20
15.6298884
11
10.7810888
21
15.6817884
0
LINE
8
DEFAULT_255_2_778
10
10.7810888
20
15.6817884
11
10.7754888
21
15.7166884
0
LINE
8
DEFAULT_255_2_778
10
10.7754888
20
15.7166884
11
10.7736888
21
15.7340884
0
LINE
8
DEFAULT_255_2_778
10
10.7736888
20
15.7340884
11
11.0062888
21
15.7340884
0
LINE
8
DEFAULT_255_2_778
10
11.0062888
20
15.7340884
11
11.0109888
21
15.7049884
0
LINE
8
DEFAULT_255_2_778
10
11.0109888
20
15.7049884
11
11.0289888
21
15.6475884
0
LINE
8
DEFAULT_255_2_778
10
11.0289888
20
15.6475884
11
11.0808888
21
15.5613884
0
LINE
8
DEFAULT_255_2_778
10
11.0808888
20
15.5613884
11
11.1787888
21
15.4824884
0
LINE
8
DEFAULT_255_2_778
10
11.1787888
20
15.4824884
11
11.3705888
21
15.4525884
0
LINE
8
DEFAULT_255_2_778
10
11.3705888
20
15.4525884
11
11.5210888
21
15.5052884
0
LINE
8
DEFAULT_255_2_778
10
11.5210888
20
15.5052884
11
11.5946888
21
15.5822884
0
LINE
8
DEFAULT_255_2_778
10
11.5946888
20
15.5822884
11
11.6322888
21
15.6518884
0
LINE
8
DEFAULT_255_2_778
10
11.6322888
20
15.6518884
11
11.6510888
21
15.7089884
0
LINE
8
DEFAULT_255_2_778
10
11.6510888
20
15.7089884
11
11.6610888
21
15.7581884
0
LINE
8
DEFAULT_255_2_778
10
11.6610888
20
15.7581884
11
11.6586888
21
15.9547884
0
LINE
8
DEFAULT_255_2_778
10
11.6586888
20
15.9547884
11
11.6441888
21
16.0124884
0
LINE
8
DEFAULT_255_2_778
10
11.6441888
20
16.0124884
11
11.6115888
21
16.0859884
0
LINE
8
DEFAULT_255_2_778
10
11.6115888
20
16.0859884
11
11.5443888
21
16.1695884
0
LINE
8
DEFAULT_255_2_778
10
11.5443888
20
16.1695884
11
11.4361888
21
16.2283884
0
LINE
8
DEFAULT_255_2_778
10
11.4361888
20
16.2283884
11
11.2737888
21
16.2365884
0
LINE
8
DEFAULT_255_2_778
10
11.2737888
20
16.2365884
11
11.1371888
21
16.1764884
0
LINE
8
DEFAULT_255_2_778
10
11.1371888
20
16.1764884
11
11.0773888
21
16.1098884
0
LINE
8
DEFAULT_255_2_778
10
11.0773888
20
16.1098884
11
11.0522888
21
16.0552884
0
LINE
8
DEFAULT_255_2_778
10
11.0522888
20
16.0552884
11
11.0421888
21
16.0142884
0
LINE
8
DEFAULT_255_2_778
10
11.0421888
20
16.0142884
11
11.0395888
21
15.9933884
0
LINE
8
DEFAULT_255_2_778
10
11.0395888
20
15.9933884
11
10.8117888
21
15.9933884
0
LINE
8
DEFAULT_255_2_778
10
10.8117888
20
15.9933884
11
10.8262888
21
16.9874884
0
LINE
8
DEFAULT_255_2_778
10
0.6729888
20
3.1470884
11
14.6728888
21
3.1470884
0
LINE
8
DEFAULT_255_2_778
10
6.8726573
20
73.8471927
11
5.6727573
21
73.8471927
0
LINE
8
DEFAULT_255_2_778
10
5.6727573
20
73.8471927
11
5.6727573
21
71.8471927
0
LINE
8
DEFAULT_255_2_778
10
5.6727573
20
71.8471927
11
6.8726573
21
71.8471927
0
LINE
8
DEFAULT_255_2_778
10
6.8726573
20
71.8471927
11
6.8726573
21
73.8471927
0
LINE
8
DEFAULT_255_2_778
10
5.6227511
20
73.8968989
11
6.9226511
21
73.8968989
0
LINE
8
DEFAULT_255_2_778
10
6.9226511
20
73.8968989
11
6.9226511
21
71.7968989
0
LINE
8
DEFAULT_255_2_778
10
6.9226511
20
71.7968989
11
5.6227511
21
71.7968989
0
LINE
8
DEFAULT_255_2_778
10
5.6227511
20
71.7968989
11
5.6227511
21
73.8968989
0
LINE
8
DEFAULT_255_2_778
10
9.6727573
20
12.1470927
11
8.4728573
21
12.1470927
0
LINE
8
DEFAULT_255_2_778
10
8.4728573
20
12.1470927
11
8.4728573
21
10.1470927
0
LINE
8
DEFAULT_255_2_778
10
8.4728573
20
10.1470927
11
9.6727573
21
10.1470927
0
LINE
8
DEFAULT_255_2_778
10
9.6727573
20
10.1470927
11
9.6727573
21
12.1470927
0
LINE
8
DEFAULT_255_2_778
10
8.4228511
20
12.1970989
11
9.7227511
21
12.1970989
0
LINE
8
DEFAULT_255_2_778
10
9.7227511
20
12.1970989
11
9.7227511
21
10.0970989
0
LINE
8
DEFAULT_255_2_778
10
9.7227511
20
10.0970989
11
8.4228511
21
10.0970989
0
LINE
8
DEFAULT_255_2_778
10
8.4228511
20
10.0970989
11
8.4228511
21
12.1970989
0
LINE
8
DEFAULT_255_2_778
10
9.6727573
20
17.1469927
11
8.4728573
21
17.1469927
0
LINE
8
DEFAULT_255_2_778
10
8.4728573
20
17.1469927
11
8.4728573
21
15.1469927
0
LINE
8
DEFAULT_255_2_778
10
8.4728573
20
15.1469927
11
9.6727573
21
15.1469927
0
LINE
8
DEFAULT_255_2_778
10
9.6727573
20
15.1469927
11
9.6727573
21
17.1469927
0
LINE
8
DEFAULT_255_2_778
10
8.4228511
20
17.1969989
11
9.7227511
21
17.1969989
0
LINE
8
DEFAULT_255_2_778
10
9.7227511
20
17.1969989
11
9.7227511
21
15.0969989
0
LINE
8
DEFAULT_255_2_778
10
9.7227511
20
15.0969989
11
8.4228511
21
15.0969989
0
LINE
8
DEFAULT_255_2_778
10
8.4228511
20
15.0969989
11
8.4228511
21
17.1969989
0
LINE
8
DEFAULT_255_2_778
10
6.8726573
20
12.1470927
11
5.6727573
21
12.1470927
0
LINE
8
DEFAULT_255_2_778
10
5.6727573
20
12.1470927
11
5.6727573
21
10.1470927
0
LINE
8
DEFAULT_255_2_778
10
5.6727573
20
10.1470927
11
6.8726573
21
10.1470927
0
LINE
8
DEFAULT_255_2_778
10
6.8726573
20
10.1470927
11
6.8726573
21
12.1470927
0
LINE
8
DEFAULT_255_2_778
10
5.6227511
20
12.1970989
11
6.9226511
21
12.1970989
0
LINE
8
DEFAULT_255_2_778
10
6.9226511
20
12.1970989
11
6.9226511
21
10.0970989
0
LINE
8
DEFAULT_255_2_778
10
6.9226511
20
10.0970989
11
5.6227511
21
10.0970989
0
LINE
8
DEFAULT_255_2_778
10
5.6227511
20
10.0970989
11
5.6227511
21
12.1970989
0
LINE
8
DEFAULT_255_2_778
10
6.8726573
20
17.1469927
11
5.6727573
21
17.1469927
0
LINE
8
DEFAULT_255_2_778
10
5.6727573
20
17.1469927
11
5.6727573
21
15.1469927
0
LINE
8
DEFAULT_255_2_778
10
5.6727573
20
15.1469927
11
6.8726573
21
15.1469927
0
LINE
8
DEFAULT_255_2_778
10
6.8726573
20
15.1469927
11
6.8726573
21
17.1469927
0
LINE
8
DEFAULT_255_2_778
10
5.6227511
20
17.1969989
11
6.9226511
21
17.1969989
0
LINE
8
DEFAULT_255_2_778
10
6.9226511
20
17.1969989
11
6.9226511
21
15.0969989
0
LINE
8
DEFAULT_255_2_778
10
6.9226511
20
15.0969989
11
5.6227511
21
15.0969989
0
LINE
8
DEFAULT_255_2_778
10
5.6227511
20
15.0969989
11
5.6227511
21
17.1969989
0
ARC
8
DEFAULT_255_2_778
10
9.1729793
20
87.1473149
40
0.4997474
50
44.9793514
51
90.0112208
0
ARC
8
DEFAULT_255_2_778
10
9.173234
20
87.1470602
40
0.4997474
50
359.9887792
51
45.0206486
0
ARC
8
DEFAULT_255_2_778
10
6.1724328
20
87.1471999
40
0.4996515
50
134.9909954
51
180.0272389
0
ARC
8
DEFAULT_255_2_778
10
6.1728278
20
87.1469667
40
0.5000956
50
90.0053149
51
135.0041129
0
ARC
8
DEFAULT_255_2_778
10
9.172627
20
0.3470166
40
0.5000544
50
270.006231
51
359.9937771
0
ARC
8
DEFAULT_255_2_778
10
6.1728572
20
0.3472381
40
0.5000758
50
179.9972237
51
269.991324
0
LINE
8
DEFAULT_255_2_778
10
9.6729814
20
87.1469623
11
9.6729814
21
84.3469623
0
LINE
8
DEFAULT_255_2_778
10
5.6727814
20
84.3471623
11
5.6727814
21
87.1469623
0
LINE
8
DEFAULT_255_2_778
10
9.6726814
20
3.1470623
11
9.6726814
21
0.3469623
0
LINE
8
DEFAULT_255_2_778
10
9.1726814
20
-0.1530377
11
6.1727814
21
-0.1530377
0
LINE
8
DEFAULT_255_2_778
10
5.6727814
20
0.3472623
11
5.6727814
21
3.1470623
0
LINE
8
DEFAULT_255_2_778
10
1.1729814
20
70.4470623
11
14.1729814
21
70.4470623
0
LINE
8
DEFAULT_255_2_778
10
14.1729814
20
70.4470623
11
14.1729814
21
67.4469623
0
LINE
8
DEFAULT_255_2_778
10
14.1729814
20
67.4469623
11
13.4728814
21
67.4469623
0
LINE
8
DEFAULT_255_2_778
10
13.4728814
20
67.4469623
11
13.4728814
21
19.4469623
0
LINE
8
DEFAULT_255_2_778
10
13.4728814
20
19.4469623
11
1.8730814
21
19.4469623
0
LINE
8
DEFAULT_255_2_778
10
1.8730814
20
19.4469623
11
1.8730814
21
67.4469623
0
LINE
8
DEFAULT_255_2_778
10
1.8730814
20
67.4469623
11
1.1729814
21
67.4469623
0
LINE
8
DEFAULT_255_2_778
10
1.1729814
20
67.4469623
11
1.1729814
21
70.4470623
0
ARC
8
DEFAULT_255_2_778
10
1.3945982
20
2.1466513
40
0.1781907
50
359.9696534
51
0.0910427
0
ARC
8
DEFAULT_255_2_778
10
1.1731571
20
2.1464676
40
0.3996318
50
315.0099835
51
0.0128069
0
ARC
8
DEFAULT_255_2_778
10
1.1731452
20
2.1464911
40
0.3996569
50
270.0029649
51
315.008803
0
LINE
8
DEFAULT_255_2_778
10
1.1731659
20
1.7468342
11
1.1727888
21
1.7468344
0
ARC
8
DEFAULT_255_2_778
10
0.6726362
20
83.8471323
40
0.4997474
50
134.9793514
51
180.0112208
0
ARC
8
DEFAULT_255_2_778
10
0.6728909
20
83.847387
40
0.4997474
50
89.9887792
51
135.0206486
0
ARC
8
DEFAULT_255_2_778
10
14.6729106
20
83.8474446
40
0.4996898
50
44.9766189
51
90.0025007
0
ARC
8
DEFAULT_255_2_778
10
14.6731413
20
83.8471323
40
0.4997474
50
359.9887792
51
45.0206486
0
LINE
8
DEFAULT_255_2_778
10
14.1727888
20
1.7471344
11
14.1724112
21
1.7471342
0
ARC
8
DEFAULT_255_2_778
10
14.1723219
20
2.1467661
40
0.3996318
50
225.0099835
51
270.0128069
0
ARC
8
DEFAULT_255_2_778
10
14.1723454
20
2.1467779
40
0.3996569
50
180.0029649
51
225.008803
0
ARC
8
DEFAULT_255_2_778
10
13.9505231
20
2.1468515
40
0.1778345
50
179.9088607
51
180.0303788
0
LINE
8
DEFAULT_255_2_778
10
1.5727888
20
3.1470344
11
1.5727888
21
2.1469344
0
LINE
8
DEFAULT_255_2_778
10
1.1727888
20
1.7468344
11
0.1728888
21
1.7468344
0
LINE
8
DEFAULT_255_2_778
10
0.1728888
20
1.7468344
11
0.1728888
21
83.8470344
0
LINE
8
DEFAULT_255_2_778
10
0.6729888
20
84.3471344
11
14.6728888
21
84.3471344
0
LINE
8
DEFAULT_255_2_778
10
15.1728888
20
83.8470344
11
15.1728888
21
1.7471344
0
LINE
8
DEFAULT_255_2_778
10
15.1728888
20
1.7471344
11
14.1727888
21
1.7471344
0
LINE
8
DEFAULT_255_2_778
10
13.7726888
20
2.1471344
11
13.7726888
21
3.1473344
0
LINE
8
DEFAULT_255_2_778
10
1.5425888
20
82.3879344
11
1.7629888
21
82.3879344
0
LINE
8
DEFAULT_255_2_778
10
1.7629888
20
82.3879344
11
1.7651888
21
82.4313344
0
LINE
8
DEFAULT_255_2_778
10
1.7651888
20
82.4313344
11
1.7701888
21
82.4638344
0
LINE
8
DEFAULT_255_2_778
10
1.7701888
20
82.4638344
11
1.7860888
21
82.5164344
0
LINE
8
DEFAULT_255_2_778
10
1.7860888
20
82.5164344
11
1.8312888
21
82.5897344
0
LINE
8
DEFAULT_255_2_778
10
1.8312888
20
82.5897344
11
1.9310888
21
82.6617344
0
LINE
8
DEFAULT_255_2_778
10
1.9310888
20
82.6617344
11
2.1254888
21
82.6866344
0
LINE
8
DEFAULT_255_2_778
10
2.1254888
20
82.6866344
11
2.2834888
21
82.6313344
0
LINE
8
DEFAULT_255_2_778
10
2.2834888
20
82.6313344
11
2.3532888
21
82.5572344
0
LINE
8
DEFAULT_255_2_778
10
2.3532888
20
82.5572344
11
2.3794888
21
82.4950344
0
LINE
8
DEFAULT_255_2_778
10
2.3794888
20
82.4950344
11
2.3868888
21
82.4585344
0
LINE
8
DEFAULT_255_2_778
10
2.3868888
20
82.4585344
11
2.3842888
21
82.3635344
0
LINE
8
DEFAULT_255_2_778
10
2.3842888
20
82.3635344
11
2.3768888
21
82.3315344
0
LINE
8
DEFAULT_255_2_778
10
2.3768888
20
82.3315344
11
2.3548888
21
82.2693344
0
LINE
8
DEFAULT_255_2_778
10
2.3548888
20
82.2693344
11
2.3122888
21
82.1857344
0
LINE
8
DEFAULT_255_2_778
10
2.3122888
20
82.1857344
11
2.2244888
21
82.0590344
0
LINE
8
DEFAULT_255_2_778
10
2.2244888
20
82.0590344
11
2.0797888
21
81.8904344
0
LINE
8
DEFAULT_255_2_778
10
2.0797888
20
81.8904344
11
1.8495888
21
81.6637344
0
LINE
8
DEFAULT_255_2_778
10
1.8495888
20
81.6637344
11
1.5709888
21
81.4266344
0
LINE
8
DEFAULT_255_2_778
10
1.5709888
20
81.4266344
11
1.4724888
21
81.3504344
0
LINE
8
DEFAULT_255_2_778
10
1.4724888
20
81.3504344
11
1.4724888
21
81.1467344
0
LINE
8
DEFAULT_255_2_778
10
1.4724888
20
81.1467344
11
2.6448888
21
81.1467344
0
LINE
8
DEFAULT_255_2_778
10
2.6448888
20
81.1467344
11
2.6448888
21
81.3322344
0
LINE
8
DEFAULT_255_2_778
10
2.6448888
20
81.3322344
11
1.7497888
21
81.3322344
0
LINE
8
DEFAULT_255_2_778
10
1.7497888
20
81.3322344
11
2.1566888
21
81.6679344
0
LINE
8
DEFAULT_255_2_778
10
2.1566888
20
81.6679344
11
2.3207888
21
81.8285344
0
LINE
8
DEFAULT_255_2_778
10
2.3207888
20
81.8285344
11
2.4257888
21
81.9563344
0
LINE
8
DEFAULT_255_2_778
10
2.4257888
20
81.9563344
11
2.4982888
21
82.0675344
0
LINE
8
DEFAULT_255_2_778
10
2.4982888
20
82.0675344
11
2.5543888
21
82.1791344
0
LINE
8
DEFAULT_255_2_778
10
2.5543888
20
82.1791344
11
2.5787888
21
82.2434344
0
LINE
8
DEFAULT_255_2_778
10
2.5787888
20
82.2434344
11
2.5914888
21
82.2871344
0
LINE
8
DEFAULT_255_2_778
10
2.5914888
20
82.2871344
11
2.6011888
21
82.3312344
0
LINE
8
DEFAULT_255_2_778
10
2.6011888
20
82.3312344
11
2.6048888
21
82.3535344
0
LINE
8
DEFAULT_255_2_778
10
2.6048888
20
82.3535344
11
2.6048888
21
82.4995344
0
LINE
8
DEFAULT_255_2_778
10
2.6048888
20
82.4995344
11
2.5972888
21
82.5384344
0
LINE
8
DEFAULT_255_2_778
10
2.5972888
20
82.5384344
11
2.5866888
21
82.5749344
0
LINE
8
DEFAULT_255_2_778
10
2.5866888
20
82.5749344
11
2.5657888
21
82.6252344
0
LINE
8
DEFAULT_255_2_778
10
2.5657888
20
82.6252344
11
2.5273888
21
82.6866344
0
LINE
8
DEFAULT_255_2_778
10
2.5273888
20
82.6866344
11
2.4630888
21
82.7519344
0
LINE
8
DEFAULT_255_2_778
10
2.4630888
20
82.7519344
11
2.3620888
21
82.8154344
0
LINE
8
DEFAULT_255_2_778
10
2.3620888
20
82.8154344
11
2.2194888
21
82.8599344
0
LINE
8
DEFAULT_255_2_778
10
2.2194888
20
82.8599344
11
2.0270888
21
82.8705344
0
LINE
8
DEFAULT_255_2_778
10
2.0270888
20
82.8705344
11
1.8651888
21
82.8416344
0
LINE
8
DEFAULT_255_2_778
10
1.8651888
20
82.8416344
11
1.7476888
21
82.7869344
0
LINE
8
DEFAULT_255_2_778
10
1.7476888
20
82.7869344
11
1.6111888
21
82.6511344
0
LINE
8
DEFAULT_255_2_778
10
1.6111888
20
82.6511344
11
1.5645888
21
82.5477344
0
LINE
8
DEFAULT_255_2_778
10
1.5645888
20
82.5477344
11
1.5497888
21
82.4834344
0
LINE
8
DEFAULT_255_2_778
10
1.5497888
20
82.4834344
11
1.5449888
21
82.4450344
0
LINE
8
DEFAULT_255_2_778
10
1.5449888
20
82.4450344
11
1.5428888
21
82.3876344
0
LINE
8
DEFAULT_255_2_778
10
6.4223888
20
82.8469344
11
6.6535888
21
82.8469344
0
LINE
8
DEFAULT_255_2_778
10
6.6535888
20
82.8469344
11
6.6511888
21
81.7132344
0
LINE
8
DEFAULT_255_2_778
10
6.6511888
20
81.7132344
11
6.6490888
21
81.6883344
0
LINE
8
DEFAULT_255_2_778
10
6.6490888
20
81.6883344
11
6.6464888
21
81.6634344
0
LINE
8
DEFAULT_255_2_778
10
6.6464888
20
81.6634344
11
6.6390888
21
81.6140344
0
LINE
8
DEFAULT_255_2_778
10
6.6390888
20
81.6140344
11
6.6292888
21
81.5679344
0
LINE
8
DEFAULT_255_2_778
10
6.6292888
20
81.5679344
11
6.6104888
21
81.5044344
0
LINE
8
DEFAULT_255_2_778
10
6.6104888
20
81.5044344
11
6.5852888
21
81.4433344
0
LINE
8
DEFAULT_255_2_778
10
6.5852888
20
81.4433344
11
6.5368888
21
81.3605344
0
LINE
8
DEFAULT_255_2_778
10
6.5368888
20
81.3605344
11
6.4641888
21
81.2769344
0
LINE
8
DEFAULT_255_2_778
10
6.4641888
20
81.2769344
11
6.3437888
21
81.1917344
0
LINE
8
DEFAULT_255_2_778
10
6.3437888
20
81.1917344
11
6.1992888
21
81.1377344
0
LINE
8
DEFAULT_255_2_778
10
6.1992888
20
81.1377344
11
5.9793888
21
81.1131344
0
LINE
8
DEFAULT_255_2_778
10
5.9793888
20
81.1131344
11
5.7595888
21
81.1377344
0
LINE
8
DEFAULT_255_2_778
10
5.7595888
20
81.1377344
11
5.5986888
21
81.2004344
0
LINE
8
DEFAULT_255_2_778
10
5.5986888
20
81.2004344
11
5.4944888
21
81.2769344
0
LINE
8
DEFAULT_255_2_778
10
5.4944888
20
81.2769344
11
5.4216888
21
81.3605344
0
LINE
8
DEFAULT_255_2_778
10
5.4216888
20
81.3605344
11
5.3830888
21
81.4235344
0
LINE
8
DEFAULT_255_2_778
10
5.3830888
20
81.4235344
11
5.3557888
21
81.4838344
0
LINE
8
DEFAULT_255_2_778
10
5.3557888
20
81.4838344
11
5.3348888
21
81.5468344
0
LINE
8
DEFAULT_255_2_778
10
5.3348888
20
81.5468344
11
5.3242888
21
81.5896344
0
LINE
8
DEFAULT_255_2_778
10
5.3242888
20
81.5896344
11
5.3152888
21
81.6388344
0
LINE
8
DEFAULT_255_2_778
10
5.3152888
20
81.6388344
11
5.3118888
21
81.6634344
0
LINE
8
DEFAULT_255_2_778
10
5.3118888
20
81.6634344
11
5.3092888
21
81.6883344
0
LINE
8
DEFAULT_255_2_778
10
5.3092888
20
81.6883344
11
5.3070888
21
81.7132344
0
LINE
8
DEFAULT_255_2_778
10
5.3070888
20
81.7132344
11
5.3047888
21
82.8469344
0
LINE
8
DEFAULT_255_2_778
10
5.3047888
20
82.8469344
11
5.5372888
21
82.8469344
0
LINE
8
DEFAULT_255_2_778
10
5.5372888
20
82.8469344
11
5.5391888
21
81.7754344
0
LINE
8
DEFAULT_255_2_778
10
5.5391888
20
81.7754344
11
5.5407888
21
81.7544344
0
LINE
8
DEFAULT_255_2_778
10
5.5407888
20
81.7544344
11
5.5454888
21
81.7126344
0
LINE
8
DEFAULT_255_2_778
10
5.5454888
20
81.7126344
11
5.5547888
21
81.6600344
0
LINE
8
DEFAULT_255_2_778
10
5.5547888
20
81.6600344
11
5.5714888
21
81.5973344
0
LINE
8
DEFAULT_255_2_778
10
5.5714888
20
81.5973344
11
5.6002888
21
81.5264344
0
LINE
8
DEFAULT_255_2_778
10
5.6002888
20
81.5264344
11
5.6539888
21
81.4436344
0
LINE
8
DEFAULT_255_2_778
10
5.6539888
20
81.4436344
11
5.7378888
21
81.3687344
0
LINE
8
DEFAULT_255_2_778
10
5.7378888
20
81.3687344
11
5.8566888
21
81.3192344
0
LINE
8
DEFAULT_255_2_778
10
5.8566888
20
81.3192344
11
6.0590888
21
81.3107344
0
LINE
8
DEFAULT_255_2_778
10
6.0590888
20
81.3107344
11
6.2132888
21
81.3623344
0
LINE
8
DEFAULT_255_2_778
10
6.2132888
20
81.3623344
11
6.3074888
21
81.4438344
0
LINE
8
DEFAULT_255_2_778
10
6.3074888
20
81.4438344
11
6.3606888
21
81.5261344
0
LINE
8
DEFAULT_255_2_778
10
6.3606888
20
81.5261344
11
6.3892888
21
81.5968344
0
LINE
8
DEFAULT_255_2_778
10
6.3892888
20
81.5968344
11
6.4056888
21
81.6595344
0
LINE
8
DEFAULT_255_2_778
10
6.4056888
20
81.6595344
11
6.4114888
21
81.6912344
0
LINE
8
DEFAULT_255_2_778
10
6.4114888
20
81.6912344
11
6.4170888
21
81.7330344
0
LINE
8
DEFAULT_255_2_778
10
6.4170888
20
81.7330344
11
6.4191888
21
81.7539344
0
LINE
8
DEFAULT_255_2_778
10
6.4191888
20
81.7539344
11
6.4217888
21
81.7960344
0
LINE
8
DEFAULT_255_2_778
10
6.4217888
20
81.7960344
11
6.4225888
21
82.8466344
0
LINE
8
DEFAULT_255_2_778
10
10.0005888
20
82.8469344
11
11.0366888
21
82.8469344
0
LINE
8
DEFAULT_255_2_778
10
11.0366888
20
82.8469344
11
11.0366888
21
82.6540344
0
LINE
8
DEFAULT_255_2_778
10
11.0366888
20
82.6540344
11
10.2331888
21
82.6540344
0
LINE
8
DEFAULT_255_2_778
10
10.2331888
20
82.6540344
11
10.2331888
21
82.1180344
0
LINE
8
DEFAULT_255_2_778
10
10.2331888
20
82.1180344
11
11.0054888
21
82.1180344
0
LINE
8
DEFAULT_255_2_778
10
11.0054888
20
82.1180344
11
11.0054888
21
81.9251344
0
LINE
8
DEFAULT_255_2_778
10
11.0054888
20
81.9251344
11
10.2331888
21
81.9251344
0
LINE
8
DEFAULT_255_2_778
10
10.2331888
20
81.9251344
11
10.2331888
21
81.3396344
0
LINE
8
DEFAULT_255_2_778
10
10.2331888
20
81.3396344
11
11.0583888
21
81.3396344
0
LINE
8
DEFAULT_255_2_778
10
11.0583888
20
81.3396344
11
11.0583888
21
81.1467344
0
LINE
8
DEFAULT_255_2_778
10
11.0583888
20
81.1467344
11
10.0005888
21
81.1467344
0
LINE
8
DEFAULT_255_2_778
10
10.0005888
20
81.1467344
11
10.0005888
21
82.8466344
0
LINE
8
DEFAULT_255_2_778
10
7.0824888
20
82.8469344
11
7.3150888
21
82.8469344
0
LINE
8
DEFAULT_255_2_778
10
7.3150888
20
82.8469344
11
7.3150888
21
81.3396344
0
LINE
8
DEFAULT_255_2_778
10
7.3150888
20
81.3396344
11
8.1174888
21
81.3396344
0
LINE
8
DEFAULT_255_2_778
10
8.1174888
20
81.3396344
11
8.1174888
21
81.1467344
0
LINE
8
DEFAULT_255_2_778
10
8.1174888
20
81.1467344
11
7.0824888
21
81.1467344
0
LINE
8
DEFAULT_255_2_778
10
7.0824888
20
81.1467344
11
7.0824888
21
82.8466344
0
LINE
8
DEFAULT_255_2_778
10
9.3618888
20
82.4215344
11
9.5981888
21
82.4215344
0
LINE
8
DEFAULT_255_2_778
10
9.5981888
20
82.4215344
11
9.5954888
21
82.4953344
0
LINE
8
DEFAULT_255_2_778
10
9.5954888
20
82.4953344
11
9.5904888
21
82.5236344
0
LINE
8
DEFAULT_255_2_778
10
9.5904888
20
82.5236344
11
9.5787888
21
82.5649344
0
LINE
8
DEFAULT_255_2_778
10
9.5787888
20
82.5649344
11
9.5499888
21
82.6292344
0
LINE
8
DEFAULT_255_2_778
10
9.5499888
20
82.6292344
11
9.4978888
21
82.7025344
0
LINE
8
DEFAULT_255_2_778
10
9.4978888
20
82.7025344
11
9.4099888
21
82.7805344
0
LINE
8
DEFAULT_255_2_778
10
9.4099888
20
82.7805344
11
9.3022888
21
82.8374344
0
LINE
8
DEFAULT_255_2_778
10
9.3022888
20
82.8374344
11
9.1147888
21
82.8768344
0
LINE
8
DEFAULT_255_2_778
10
9.1147888
20
82.8768344
11
8.8675888
21
82.8720344
0
LINE
8
DEFAULT_255_2_778
10
8.8675888
20
82.8720344
11
8.6754888
21
82.8252344
0
LINE
8
DEFAULT_255_2_778
10
8.6754888
20
82.8252344
11
8.5424888
21
82.7530344
0
LINE
8
DEFAULT_255_2_778
10
8.5424888
20
82.7530344
11
8.4688888
21
82.6853344
0
LINE
8
DEFAULT_255_2_778
10
8.4688888
20
82.6853344
11
8.4228888
21
82.6188344
0
LINE
8
DEFAULT_255_2_778
10
8.4228888
20
82.6188344
11
8.3963888
21
82.5604344
0
LINE
8
DEFAULT_255_2_778
10
8.3963888
20
82.5604344
11
8.3818888
21
82.5114344
0
LINE
8
DEFAULT_255_2_778
10
8.3818888
20
82.5114344
11
8.3751888
21
82.4773344
0
LINE
8
DEFAULT_255_2_778
10
8.3751888
20
82.4773344
11
8.3775888
21
82.2950344
0
LINE
8
DEFAULT_255_2_778
10
8.3775888
20
82.2950344
11
8.3945888
21
82.2339344
0
LINE
8
DEFAULT_255_2_778
10
8.3945888
20
82.2339344
11
8.4352888
21
82.1548344
0
LINE
8
DEFAULT_255_2_778
10
8.4352888
20
82.1548344
11
8.5365888
21
82.0571344
0
LINE
8
DEFAULT_255_2_778
10
8.5365888
20
82.0571344
11
8.7821888
21
81.9574344
0
LINE
8
DEFAULT_255_2_778
10
8.7821888
20
81.9574344
11
9.2652888
21
81.8293344
0
LINE
8
DEFAULT_255_2_778
10
9.2652888
20
81.8293344
11
9.3639888
21
81.7574344
0
LINE
8
DEFAULT_255_2_778
10
9.3639888
20
81.7574344
11
9.3949888
21
81.7047344
0
LINE
8
DEFAULT_255_2_778
10
9.3949888
20
81.7047344
11
9.4060888
21
81.6634344
0
LINE
8
DEFAULT_255_2_778
10
9.4060888
20
81.6634344
11
9.4046888
21
81.5491344
0
LINE
8
DEFAULT_255_2_778
10
9.4046888
20
81.5491344
11
9.3911888
21
81.5015344
0
LINE
8
DEFAULT_255_2_778
10
9.3911888
20
81.5015344
11
9.3586888
21
81.4414344
0
LINE
8
DEFAULT_255_2_778
10
9.3586888
20
81.4414344
11
9.2533888
21
81.3544344
0
LINE
8
DEFAULT_255_2_778
10
9.2533888
20
81.3544344
11
9.0559888
21
81.3073344
0
LINE
8
DEFAULT_255_2_778
10
9.0559888
20
81.3073344
11
8.8297888
21
81.3234344
0
LINE
8
DEFAULT_255_2_778
10
8.8297888
20
81.3234344
11
8.6479888
21
81.4372344
0
LINE
8
DEFAULT_255_2_778
10
8.6479888
20
81.4372344
11
8.5942888
21
81.5348344
0
LINE
8
DEFAULT_255_2_778
10
8.5942888
20
81.5348344
11
8.5844888
21
81.5793344
0
LINE
8
DEFAULT_255_2_778
10
8.5844888
20
81.5793344
11
8.5839888
21
81.6396344
0
LINE
8
DEFAULT_255_2_778
10
8.5839888
20
81.6396344
11
8.3503888
21
81.6396344
0
LINE
8
DEFAULT_255_2_778
10
8.3503888
20
81.6396344
11
8.3513888
21
81.5893344
0
LINE
8
DEFAULT_255_2_778
10
8.3513888
20
81.5893344
11
8.3529888
21
81.5727344
0
LINE
8
DEFAULT_255_2_778
10
8.3529888
20
81.5727344
11
8.3579888
21
81.5401344
0
LINE
8
DEFAULT_255_2_778
10
8.3579888
20
81.5401344
11
8.3699888
21
81.4925344
0
LINE
8
DEFAULT_255_2_778
10
8.3699888
20
81.4925344
11
8.3934888
21
81.4317344
0
LINE
8
DEFAULT_255_2_778
10
8.3934888
20
81.4317344
11
8.4434888
21
81.3475344
0
LINE
8
DEFAULT_255_2_778
10
8.4434888
20
81.3475344
11
8.5268888
21
81.2570344
0
LINE
8
DEFAULT_255_2_778
10
8.5268888
20
81.2570344
11
8.6434888
21
81.1795344
0
LINE
8
DEFAULT_255_2_778
10
8.6434888
20
81.1795344
11
8.8027888
21
81.1284344
0
LINE
8
DEFAULT_255_2_778
10
8.8027888
20
81.1284344
11
9.0729888
21
81.1160344
0
LINE
8
DEFAULT_255_2_778
10
9.0729888
20
81.1160344
11
9.2596888
21
81.1467344
0
LINE
8
DEFAULT_255_2_778
10
9.2596888
20
81.1467344
11
9.4192888
21
81.2163344
0
LINE
8
DEFAULT_255_2_778
10
9.4192888
20
81.2163344
11
9.5134888
21
81.2920344
0
LINE
8
DEFAULT_255_2_778
10
9.5134888
20
81.2920344
11
9.5663888
21
81.3584344
0
LINE
8
DEFAULT_255_2_778
10
9.5663888
20
81.3584344
11
9.5983888
21
81.4179344
0
LINE
8
DEFAULT_255_2_778
10
9.5983888
20
81.4179344
11
9.6213888
21
81.4817344
0
LINE
8
DEFAULT_255_2_778
10
9.6213888
20
81.4817344
11
9.6303888
21
81.5179344
0
LINE
8
DEFAULT_255_2_778
10
9.6303888
20
81.5179344
11
9.6369888
21
81.5547344
0
LINE
8
DEFAULT_255_2_778
10
9.6369888
20
81.5547344
11
9.6351888
21
81.7378344
0
LINE
8
DEFAULT_255_2_778
10
9.6351888
20
81.7378344
11
9.6224888
21
81.7894344
0
LINE
8
DEFAULT_255_2_778
10
9.6224888
20
81.7894344
11
9.5893888
21
81.8640344
0
LINE
8
DEFAULT_255_2_778
10
9.5893888
20
81.8640344
11
9.5105888
21
81.9569344
0
LINE
8
DEFAULT_255_2_778
10
9.5105888
20
81.9569344
11
9.3237888
21
82.0574344
0
LINE
8
DEFAULT_255_2_778
10
9.3237888
20
82.0574344
11
8.7366888
21
82.2172344
0
LINE
8
DEFAULT_255_2_778
10
8.7366888
20
82.2172344
11
8.6418888
21
82.2923344
0
LINE
8
DEFAULT_255_2_778
10
8.6418888
20
82.2923344
11
8.6164888
21
82.3426344
0
LINE
8
DEFAULT_255_2_778
10
8.6164888
20
82.3426344
11
8.6088888
21
82.3746344
0
LINE
8
DEFAULT_255_2_778
10
8.6088888
20
82.3746344
11
8.6112888
21
82.4664344
0
LINE
8
DEFAULT_255_2_778
10
8.6112888
20
82.4664344
11
8.6273888
21
82.5149344
0
LINE
8
DEFAULT_255_2_778
10
8.6273888
20
82.5149344
11
8.6717888
21
82.5792344
0
LINE
8
DEFAULT_255_2_778
10
8.6717888
20
82.5792344
11
8.8048888
21
82.6554344
0
LINE
8
DEFAULT_255_2_778
10
8.8048888
20
82.6554344
11
9.0520888
21
82.6818344
0
LINE
8
DEFAULT_255_2_778
10
9.0520888
20
82.6818344
11
9.2922888
21
82.5823344
0
LINE
8
DEFAULT_255_2_778
10
9.2922888
20
82.5823344
11
9.3512888
21
82.4850344
0
LINE
8
DEFAULT_255_2_778
10
9.3512888
20
82.4850344
11
9.3610888
21
82.4395344
0
LINE
8
DEFAULT_255_2_778
10
9.3610888
20
82.4395344
11
9.3623888
21
82.4220344
0
LINE
8
DEFAULT_255_2_778
10
4.4643888
20
82.0614344
11
4.6673888
21
82.1056344
0
LINE
8
DEFAULT_255_2_778
10
4.6673888
20
82.1056344
11
4.7575888
21
82.1849344
0
LINE
8
DEFAULT_255_2_778
10
4.7575888
20
82.1849344
11
4.7903888
21
82.2505344
0
LINE
8
DEFAULT_255_2_778
10
4.7903888
20
82.2505344
11
4.8001888
21
82.2884344
0
LINE
8
DEFAULT_255_2_778
10
4.8001888
20
82.2884344
11
4.8046888
21
82.3188344
0
LINE
8
DEFAULT_255_2_778
10
4.8046888
20
82.3188344
11
4.8033888
21
82.4109344
0
LINE
8
DEFAULT_255_2_778
10
4.8033888
20
82.4109344
11
4.7953888
21
82.4508344
0
LINE
8
DEFAULT_255_2_778
10
4.7953888
20
82.4508344
11
4.7715888
21
82.5104344
0
LINE
8
DEFAULT_255_2_778
10
4.7715888
20
82.5104344
11
4.7064888
21
82.5852344
0
LINE
8
DEFAULT_255_2_778
10
4.7064888
20
82.5852344
11
4.5591888
21
82.6464344
0
LINE
8
DEFAULT_255_2_778
10
4.5591888
20
82.6464344
11
4.4641888
21
82.6540344
0
LINE
8
DEFAULT_255_2_778
10
4.4641888
20
82.6540344
11
4.0786888
21
82.6540344
0
LINE
8
DEFAULT_255_2_778
10
4.0786888
20
82.6540344
11
4.0786888
21
82.0614344
0
LINE
8
DEFAULT_255_2_778
10
4.0786888
20
82.0614344
11
4.4643888
21
82.0614344
0
LINE
8
DEFAULT_255_2_778
10
3.8463888
20
82.8469344
11
4.5987888
21
82.8379344
0
LINE
8
DEFAULT_255_2_778
10
4.5987888
20
82.8379344
11
4.7850888
21
82.7837344
0
LINE
8
DEFAULT_255_2_778
10
4.7850888
20
82.7837344
11
4.9030888
21
82.7048344
0
LINE
8
DEFAULT_255_2_778
10
4.9030888
20
82.7048344
11
4.9705888
21
82.6249344
0
LINE
8
DEFAULT_255_2_778
10
4.9705888
20
82.6249344
11
5.0073888
21
82.5516344
0
LINE
8
DEFAULT_255_2_778
10
5.0073888
20
82.5516344
11
5.0245888
21
82.4963344
0
LINE
8
DEFAULT_255_2_778
10
5.0245888
20
82.4963344
11
5.0311888
21
82.4633344
0
LINE
8
DEFAULT_255_2_778
10
5.0311888
20
82.4633344
11
5.0356888
21
82.4299344
0
LINE
8
DEFAULT_255_2_778
10
5.0356888
20
82.4299344
11
5.0337888
21
82.2773344
0
LINE
8
DEFAULT_255_2_778
10
5.0337888
20
82.2773344
11
5.0282888
21
82.2437344
0
LINE
8
DEFAULT_255_2_778
10
5.0282888
20
82.2437344
11
5.0160888
21
82.1958344
0
LINE
8
DEFAULT_255_2_778
10
5.0160888
20
82.1958344
11
4.9940888
21
82.1384344
0
LINE
8
DEFAULT_255_2_778
10
4.9940888
20
82.1384344
11
4.9554888
21
82.0725344
0
LINE
8
DEFAULT_255_2_778
10
4.9554888
20
82.0725344
11
4.8705888
21
81.9857344
0
LINE
8
DEFAULT_255_2_778
10
4.8705888
20
81.9857344
11
4.7422888
21
81.9143344
0
LINE
8
DEFAULT_255_2_778
10
4.7422888
20
81.9143344
11
4.5554888
21
81.8730344
0
LINE
8
DEFAULT_255_2_778
10
4.5554888
20
81.8730344
11
4.4643888
21
81.8690344
0
LINE
8
DEFAULT_255_2_778
10
4.4643888
20
81.8690344
11
4.0788888
21
81.8690344
0
LINE
8
DEFAULT_255_2_778
10
4.0788888
20
81.8690344
11
4.0788888
21
81.1472344
0
LINE
8
DEFAULT_255_2_778
10
4.0788888
20
81.1472344
11
3.8463888
21
81.1472344
0
LINE
8
DEFAULT_255_2_778
10
3.8463888
20
81.1472344
11
3.8463888
21
82.8469344
0
LINE
8
DEFAULT_255_2_778
10
3.653971
20
73.6971918
11
4.596171
21
73.6971918
0
LINE
8
DEFAULT_255_2_778
10
4.596171
20
73.6971918
11
4.596171
21
73.5042918
0
LINE
8
DEFAULT_255_2_778
10
4.596171
20
73.5042918
11
3.863271
21
73.5042918
0
LINE
8
DEFAULT_255_2_778
10
3.863271
20
73.5042918
11
3.863271
21
72.9682918
0
LINE
8
DEFAULT_255_2_778
10
3.863271
20
72.9682918
11
4.558371
21
72.9682918
0
LINE
8
DEFAULT_255_2_778
10
4.558371
20
72.9682918
11
4.558371
21
72.7753918
0
LINE
8
DEFAULT_255_2_778
10
4.558371
20
72.7753918
11
3.863271
21
72.7753918
0
LINE
8
DEFAULT_255_2_778
10
3.863271
20
72.7753918
11
3.863271
21
71.9969918
0
LINE
8
DEFAULT_255_2_778
10
3.863271
20
71.9969918
11
3.653971
21
71.9969918
0
LINE
8
DEFAULT_255_2_778
10
3.653971
20
71.9969918
11
3.653971
21
73.6968918
0
LINE
8
DEFAULT_255_2_778
10
3.083871
20
73.2716918
11
3.296271
21
73.2716918
0
LINE
8
DEFAULT_255_2_778
10
3.296271
20
73.2716918
11
3.294971
21
73.3434918
0
LINE
8
DEFAULT_255_2_778
10
3.294971
20
73.3434918
11
3.290771
21
73.3714918
0
LINE
8
DEFAULT_255_2_778
10
3.290771
20
73.3714918
11
3.280371
21
73.4127918
0
LINE
8
DEFAULT_255_2_778
10
3.280371
20
73.4127918
11
3.253971
21
73.4780918
0
LINE
8
DEFAULT_255_2_778
10
3.253971
20
73.4780918
11
3.198371
21
73.5624918
0
LINE
8
DEFAULT_255_2_778
10
3.198371
20
73.5624918
11
3.099171
21
73.6511918
0
LINE
8
DEFAULT_255_2_778
10
3.099171
20
73.6511918
11
2.980871
21
73.7053918
0
LINE
8
DEFAULT_255_2_778
10
2.980871
20
73.7053918
11
2.743271
21
73.7307918
0
LINE
8
DEFAULT_255_2_778
10
2.743271
20
73.7307918
11
2.538571
21
73.7016918
0
LINE
8
DEFAULT_255_2_778
10
2.538571
20
73.7016918
11
2.384571
21
73.6315918
0
LINE
8
DEFAULT_255_2_778
10
2.384571
20
73.6315918
11
2.300371
21
73.5595918
0
LINE
8
DEFAULT_255_2_778
10
2.300371
20
73.5595918
11
2.253571
21
73.4963918
0
LINE
8
DEFAULT_255_2_778
10
2.253571
20
73.4963918
11
2.225771
21
73.4399918
0
LINE
8
DEFAULT_255_2_778
10
2.225771
20
73.4399918
11
2.210471
21
73.3952918
0
LINE
8
DEFAULT_255_2_778
10
2.210471
20
73.3952918
11
2.201971
21
73.3613918
0
LINE
8
DEFAULT_255_2_778
10
2.201971
20
73.3613918
11
2.195871
21
73.3269918
0
LINE
8
DEFAULT_255_2_778
10
2.195871
20
73.3269918
11
2.197971
21
73.1449918
0
LINE
8
DEFAULT_255_2_778
10
2.197971
20
73.1449918
11
2.213071
21
73.0838918
0
LINE
8
DEFAULT_255_2_778
10
2.213071
20
73.0838918
11
2.249571
21
73.0047918
0
LINE
8
DEFAULT_255_2_778
10
2.249571
20
73.0047918
11
2.340871
21
72.9071918
0
LINE
8
DEFAULT_255_2_778
10
2.340871
20
72.9071918
11
2.562071
21
72.8070918
0
LINE
8
DEFAULT_255_2_778
10
2.562071
20
72.8070918
11
2.999171
21
72.6777918
0
LINE
8
DEFAULT_255_2_778
10
2.999171
20
72.6777918
11
3.085971
21
72.6062918
0
LINE
8
DEFAULT_255_2_778
10
3.085971
20
72.6062918
11
3.111571
21
72.5597918
0
LINE
8
DEFAULT_255_2_778
10
3.111571
20
72.5597918
11
3.121371
21
72.5245918
0
LINE
8
DEFAULT_255_2_778
10
3.121371
20
72.5245918
11
3.120571
21
72.3893918
0
LINE
8
DEFAULT_255_2_778
10
3.120571
20
72.3893918
11
3.107071
21
72.3422918
0
LINE
8
DEFAULT_255_2_778
10
3.107071
20
72.3422918
11
3.069771
21
72.2760918
0
LINE
8
DEFAULT_255_2_778
10
3.069771
20
72.2760918
11
2.961571
21
72.1911918
0
LINE
8
DEFAULT_255_2_778
10
2.961571
20
72.1911918
11
2.690371
21
72.1578918
0
LINE
8
DEFAULT_255_2_778
10
2.690371
20
72.1578918
11
2.476571
21
72.2459918
0
LINE
8
DEFAULT_255_2_778
10
2.476571
20
72.2459918
11
2.397471
21
72.3673918
0
LINE
8
DEFAULT_255_2_778
10
2.397471
20
72.3673918
11
2.383771
21
72.4239918
0
LINE
8
DEFAULT_255_2_778
10
2.383771
20
72.4239918
11
2.383171
21
72.4890918
0
LINE
8
DEFAULT_255_2_778
10
2.383171
20
72.4890918
11
2.172871
21
72.4890918
0
LINE
8
DEFAULT_255_2_778
10
2.172871
20
72.4890918
11
2.174771
21
72.4245918
0
LINE
8
DEFAULT_255_2_778
10
2.174771
20
72.4245918
11
2.178971
21
72.3924918
0
LINE
8
DEFAULT_255_2_778
10
2.178971
20
72.3924918
11
2.189571
21
72.3448918
0
LINE
8
DEFAULT_255_2_778
10
2.189571
20
72.3448918
11
2.210971
21
72.2832918
0
LINE
8
DEFAULT_255_2_778
10
2.210971
20
72.2832918
11
2.248271
21
72.2104918
0
LINE
8
DEFAULT_255_2_778
10
2.248271
20
72.2104918
11
2.319471
21
72.1186918
0
LINE
8
DEFAULT_255_2_778
10
2.319471
20
72.1186918
11
2.422371
21
72.0368918
0
LINE
8
DEFAULT_255_2_778
10
2.422371
20
72.0368918
11
2.553871
21
71.9839918
0
LINE
8
DEFAULT_255_2_778
10
2.553871
20
71.9839918
11
2.778271
21
71.9630918
0
LINE
8
DEFAULT_255_2_778
10
2.778271
20
71.9630918
11
2.999171
21
71.9982918
0
LINE
8
DEFAULT_255_2_778
10
2.999171
20
71.9982918
11
3.135471
21
72.0657918
0
LINE
8
DEFAULT_255_2_778
10
3.135471
20
72.0657918
11
3.220371
21
72.1416918
0
LINE
8
DEFAULT_255_2_778
10
3.220371
20
72.1416918
11
3.267671
21
72.2078918
0
LINE
8
DEFAULT_255_2_778
10
3.267671
20
72.2078918
11
3.296571
21
72.2676918
0
LINE
8
DEFAULT_255_2_778
10
3.296571
20
72.2676918
11
3.317171
21
72.3308918
0
LINE
8
DEFAULT_255_2_778
10
3.317171
20
72.3308918
11
3.325371
21
72.3673918
0
LINE
8
DEFAULT_255_2_778
10
3.325371
20
72.3673918
11
3.331171
21
72.4043918
0
LINE
8
DEFAULT_255_2_778
10
3.331171
20
72.4043918
11
3.330171
21
72.5832918
0
LINE
8
DEFAULT_255_2_778
10
3.330171
20
72.5832918
11
3.318271
21
72.6388918
0
LINE
8
DEFAULT_255_2_778
10
3.318271
20
72.6388918
11
3.288371
21
72.7134918
0
LINE
8
DEFAULT_255_2_778
10
3.288371
20
72.7134918
11
3.217171
21
72.8062918
0
LINE
8
DEFAULT_255_2_778
10
3.217171
20
72.8062918
11
3.048871
21
72.9068918
0
LINE
8
DEFAULT_255_2_778
10
3.048871
20
72.9068918
11
2.520271
21
73.0669918
0
LINE
8
DEFAULT_255_2_778
10
2.520271
20
73.0669918
11
2.435871
21
73.1412918
0
LINE
8
DEFAULT_255_2_778
10
2.435871
20
73.1412918
11
2.412071
21
73.1925918
0
LINE
8
DEFAULT_255_2_778
10
2.412071
20
73.1925918
11
2.405171
21
73.2243918
0
LINE
8
DEFAULT_255_2_778
10
2.405171
20
73.2243918
11
2.406771
21
73.3124918
0
LINE
8
DEFAULT_255_2_778
10
2.406771
20
73.3124918
11
2.418671
21
73.3563918
0
LINE
8
DEFAULT_255_2_778
10
2.418671
20
73.3563918
11
2.455971
21
73.4219918
0
LINE
8
DEFAULT_255_2_778
10
2.455971
20
73.4219918
11
2.561271
21
73.4968918
0
LINE
8
DEFAULT_255_2_778
10
2.561271
20
73.4968918
11
2.790671
21
73.5320918
0
LINE
8
DEFAULT_255_2_778
10
2.790671
20
73.5320918
11
3.020071
21
73.4315918
0
LINE
8
DEFAULT_255_2_778
10
3.020071
20
73.4315918
11
3.071671
21
73.3391918
0
LINE
8
DEFAULT_255_2_778
10
3.071671
20
73.3391918
11
3.081671
21
73.2902918
0
LINE
8
DEFAULT_255_2_778
10
3.081671
20
73.2902918
11
3.083071
21
73.2716918
0
LINE
8
DEFAULT_255_2_778
10
11.122171
20
11.1864918
11
10.966871
21
11.1110918
0
LINE
8
DEFAULT_255_2_778
10
10.966871
20
11.1110918
11
10.878671
21
11.0334918
0
LINE
8
DEFAULT_255_2_778
10
10.878671
20
11.0334918
11
10.824471
21
10.9575918
0
LINE
8
DEFAULT_255_2_778
10
10.824471
20
10.9575918
11
10.795671
21
10.8922918
0
LINE
8
DEFAULT_255_2_778
10
10.795671
20
10.8922918
11
10.782971
21
10.8459918
0
LINE
8
DEFAULT_255_2_778
10
10.782971
20
10.8459918
11
10.777071
21
10.8128918
0
LINE
8
DEFAULT_255_2_778
10
10.777071
20
10.8128918
11
10.778671
21
10.6630918
0
LINE
8
DEFAULT_255_2_778
10
10.778671
20
10.6630918
11
10.785071
21
10.6308918
0
LINE
8
DEFAULT_255_2_778
10
10.785071
20
10.6308918
11
10.798771
21
10.5842918
0
LINE
8
DEFAULT_255_2_778
10
10.798771
20
10.5842918
11
10.823971
21
10.5276918
0
LINE
8
DEFAULT_255_2_778
10
10.823971
20
10.5276918
11
10.867371
21
10.4627918
0
LINE
8
DEFAULT_255_2_778
10
10.867371
20
10.4627918
11
10.963171
21
10.3754918
0
LINE
8
DEFAULT_255_2_778
10
10.963171
20
10.3754918
11
11.103071
21
10.3032918
0
LINE
8
DEFAULT_255_2_778
10
11.103071
20
10.3032918
11
11.289071
21
10.2627918
0
LINE
8
DEFAULT_255_2_778
10
11.289071
20
10.2627918
11
11.513671
21
10.2680918
0
LINE
8
DEFAULT_255_2_778
10
11.513671
20
10.2680918
11
11.647571
21
10.3000918
0
LINE
8
DEFAULT_255_2_778
10
11.647571
20
10.3000918
11
11.826771
21
10.3984918
0
LINE
8
DEFAULT_255_2_778
10
11.826771
20
10.3984918
11
11.908771
21
10.4847918
0
LINE
8
DEFAULT_255_2_778
10
11.908771
20
10.4847918
11
11.951871
21
10.5625918
0
LINE
8
DEFAULT_255_2_778
10
11.951871
20
10.5625918
11
11.969071
21
10.6112918
0
LINE
8
DEFAULT_255_2_778
10
11.969071
20
10.6112918
11
11.978371
21
10.6509918
0
LINE
8
DEFAULT_255_2_778
10
11.978371
20
10.6509918
11
11.977571
21
10.8392918
0
LINE
8
DEFAULT_255_2_778
10
11.977571
20
10.8392918
11
11.964071
21
10.8906918
0
LINE
8
DEFAULT_255_2_778
10
11.964071
20
10.8906918
11
11.932571
21
10.9607918
0
LINE
8
DEFAULT_255_2_778
10
11.932571
20
10.9607918
11
11.869071
21
11.0448918
0
LINE
8
DEFAULT_255_2_778
10
11.869071
20
11.0448918
11
11.762171
21
11.1287918
0
LINE
8
DEFAULT_255_2_778
10
11.762171
20
11.1287918
11
11.635671
21
11.1851918
0
LINE
8
DEFAULT_255_2_778
10
11.635671
20
11.1851918
11
11.756571
21
11.2446918
0
LINE
8
DEFAULT_255_2_778
10
11.756571
20
11.2446918
11
11.844671
21
11.3205918
0
LINE
8
DEFAULT_255_2_778
10
11.844671
20
11.3205918
11
11.894971
21
11.3912918
0
LINE
8
DEFAULT_255_2_778
10
11.894971
20
11.3912918
11
11.921671
21
11.4520918
0
LINE
8
DEFAULT_255_2_778
10
11.921671
20
11.4520918
11
11.933571
21
11.4951918
0
LINE
8
DEFAULT_255_2_778
10
11.933571
20
11.4951918
11
11.938871
21
11.5261918
0
LINE
8
DEFAULT_255_2_778
10
11.938871
20
11.5261918
11
11.937071
21
11.6634918
0
LINE
8
DEFAULT_255_2_778
10
11.937071
20
11.6634918
11
11.927271
21
11.7071918
0
LINE
8
DEFAULT_255_2_778
10
11.927271
20
11.7071918
11
11.907171
21
11.7605918
0
LINE
8
DEFAULT_255_2_778
10
11.907171
20
11.7605918
11
11.862171
21
11.8322918
0
LINE
8
DEFAULT_255_2_778
10
11.862171
20
11.8322918
11
11.761071
21
11.9217918
0
LINE
8
DEFAULT_255_2_778
10
11.761071
20
11.9217918
11
11.613971
21
11.9902918
0
LINE
8
DEFAULT_255_2_778
10
11.613971
20
11.9902918
11
11.399671
21
12.0227918
0
LINE
8
DEFAULT_255_2_778
10
11.399671
20
12.0227918
11
11.180571
21
12.0002918
0
LINE
8
DEFAULT_255_2_778
10
11.180571
20
12.0002918
11
11.010471
21
11.9301918
0
LINE
8
DEFAULT_255_2_778
10
11.010471
20
11.9301918
11
10.904071
21
11.8417918
0
LINE
8
DEFAULT_255_2_778
10
10.904071
20
11.8417918
11
10.853071
21
11.7642918
0
LINE
8
DEFAULT_255_2_778
10
10.853071
20
11.7642918
11
10.831871
21
11.7100918
0
LINE
8
DEFAULT_255_2_778
10
10.831871
20
11.7100918
11
10.821071
21
11.6624918
0
LINE
8
DEFAULT_255_2_778
10
10.821071
20
11.6624918
11
10.823671
21
11.5023918
0
LINE
8
DEFAULT_255_2_778
10
10.823671
20
11.5023918
11
10.836371
21
11.4547918
0
LINE
8
DEFAULT_255_2_778
10
10.836371
20
11.4547918
11
10.865471
21
11.3893918
0
LINE
8
DEFAULT_255_2_778
10
10.865471
20
11.3893918
11
10.933271
21
11.3020918
0
LINE
8
DEFAULT_255_2_778
10
10.933271
20
11.3020918
11
11.055971
21
11.2147918
0
LINE
8
DEFAULT_255_2_778
10
11.055971
20
11.2147918
11
11.122171
21
11.1864918
0
LINE
8
DEFAULT_255_2_778
10
11.644971
20
11.0128918
11
11.716171
21
10.9411918
0
LINE
8
DEFAULT_255_2_778
10
11.716171
20
10.9411918
11
11.746771
21
10.8787918
0
LINE
8
DEFAULT_255_2_778
10
11.746771
20
10.8787918
11
11.757371
21
10.8377918
0
LINE
8
DEFAULT_255_2_778
10
11.757371
20
10.8377918
11
11.755271
21
10.6964918
0
LINE
8
DEFAULT_255_2_778
10
11.755271
20
10.6964918
11
11.739971
21
10.6464918
0
LINE
8
DEFAULT_255_2_778
10
11.739971
20
10.6464918
11
11.704771
21
10.5852918
0
LINE
8
DEFAULT_255_2_778
10
11.704771
20
10.5852918
11
11.625371
21
10.5141918
0
LINE
8
DEFAULT_255_2_778
10
11.625371
20
10.5141918
11
11.480871
21
10.4596918
0
LINE
8
DEFAULT_255_2_778
10
11.480871
20
10.4596918
11
11.249971
21
10.4649918
0
LINE
8
DEFAULT_255_2_778
10
11.249971
20
10.4649918
11
11.094871
21
10.5408918
0
LINE
8
DEFAULT_255_2_778
10
11.094871
20
10.5408918
11
11.035571
21
10.6101918
0
LINE
8
DEFAULT_255_2_778
10
11.035571
20
10.6101918
11
11.010971
21
10.6651918
0
LINE
8
DEFAULT_255_2_778
10
11.010971
20
10.6651918
11
11.000671
21
10.7070918
0
LINE
8
DEFAULT_255_2_778
10
11.000671
20
10.7070918
11
11.003071
21
10.8477918
0
LINE
8
DEFAULT_255_2_778
10
11.003071
20
10.8477918
11
11.018671
21
10.8967918
0
LINE
8
DEFAULT_255_2_778
10
11.018671
20
10.8967918
11
11.060771
21
10.9647918
0
LINE
8
DEFAULT_255_2_778
10
11.060771
20
10.9647918
11
11.155771
21
11.0387918
0
LINE
8
DEFAULT_255_2_778
10
11.155771
20
11.0387918
11
11.320871
21
11.0850918
0
LINE
8
DEFAULT_255_2_778
10
11.320871
20
11.0850918
11
11.532271
21
11.0673918
0
LINE
8
DEFAULT_255_2_778
10
11.532271
20
11.0673918
11
11.644971
21
11.0128918
0
LINE
8
DEFAULT_255_2_778
10
11.142471
20
11.3454918
11
11.074471
21
11.4163918
0
LINE
8
DEFAULT_255_2_778
10
11.074471
20
11.4163918
11
11.049371
21
11.4724918
0
LINE
8
DEFAULT_255_2_778
10
11.049371
20
11.4724918
11
11.041171
21
11.5097918
0
LINE
8
DEFAULT_255_2_778
10
11.041171
20
11.5097918
11
11.042771
21
11.6142918
0
LINE
8
DEFAULT_255_2_778
10
11.042771
20
11.6142918
11
11.055171
21
11.6584918
0
LINE
8
DEFAULT_255_2_778
10
11.055171
20
11.6584918
11
11.090371
21
11.7190918
0
LINE
8
DEFAULT_255_2_778
10
11.090371
20
11.7190918
11
11.190671
21
11.7939918
0
LINE
8
DEFAULT_255_2_778
10
11.190671
20
11.7939918
11
11.404471
21
11.8296918
0
LINE
8
DEFAULT_255_2_778
10
11.404471
20
11.8296918
11
11.585971
21
11.7843918
0
LINE
8
DEFAULT_255_2_778
10
11.585971
20
11.7843918
11
11.672471
21
11.7121918
0
LINE
8
DEFAULT_255_2_778
10
11.672471
20
11.7121918
11
11.704971
21
11.6505918
0
LINE
8
DEFAULT_255_2_778
10
11.704971
20
11.6505918
11
11.714571
21
11.6145918
0
LINE
8
DEFAULT_255_2_778
10
11.714571
20
11.6145918
11
11.712671
21
11.4912918
0
LINE
8
DEFAULT_255_2_778
10
11.712671
20
11.4912918
11
11.695271
21
11.4398918
0
LINE
8
DEFAULT_255_2_778
10
11.695271
20
11.4398918
11
11.642871
21
11.3684918
0
LINE
8
DEFAULT_255_2_778
10
11.642871
20
11.3684918
11
11.525871
21
11.3017918
0
LINE
8
DEFAULT_255_2_778
10
11.525871
20
11.3017918
11
11.300971
21
11.2859918
0
LINE
8
DEFAULT_255_2_778
10
11.300971
20
11.2859918
11
11.151471
21
11.3396918
0
LINE
8
DEFAULT_255_2_778
10
11.151471
20
11.3396918
11
11.142471
21
11.3454918
0
LINE
8
DEFAULT_255_2_778
10
4.022271
20
11.9971918
11
4.290871
21
11.9971918
0
LINE
8
DEFAULT_255_2_778
10
4.290871
20
11.9971918
11
4.290871
21
10.9080918
0
LINE
8
DEFAULT_255_2_778
10
4.290871
20
10.9080918
11
4.612571
21
10.9080918
0
LINE
8
DEFAULT_255_2_778
10
4.612571
20
10.9080918
11
4.612571
21
10.7226918
0
LINE
8
DEFAULT_255_2_778
10
4.612571
20
10.7226918
11
4.290871
21
10.7226918
0
LINE
8
DEFAULT_255_2_778
10
4.290871
20
10.7226918
11
4.290871
21
10.2974918
0
LINE
8
DEFAULT_255_2_778
10
4.290871
20
10.2974918
11
4.063071
21
10.2974918
0
LINE
8
DEFAULT_255_2_778
10
4.063071
20
10.2974918
11
4.063071
21
10.7226918
0
LINE
8
DEFAULT_255_2_778
10
4.063071
20
10.7226918
11
3.272771
21
10.7226918
0
LINE
8
DEFAULT_255_2_778
10
3.272771
20
10.7226918
11
3.272771
21
10.9273918
0
LINE
8
DEFAULT_255_2_778
10
3.272771
20
10.9273918
11
4.022271
21
11.9971918
0
LINE
8
DEFAULT_255_2_778
10
3.471671
20
10.9078918
11
4.063271
21
10.9078918
0
LINE
8
DEFAULT_255_2_778
10
4.063271
20
10.9078918
11
4.063271
21
11.7547918
0
LINE
8
DEFAULT_255_2_778
10
4.063271
20
11.7547918
11
3.471671
21
10.9078918
0
LINE
8
DEFAULT_255_2_778
10
7.429125
20
6.1373437
11
7.586225
21
6.1373437
0
LINE
8
DEFAULT_255_2_778
10
7.586225
20
6.1373437
11
7.586225
21
4.4469437
0
LINE
8
DEFAULT_255_2_778
10
7.586225
20
4.4469437
11
7.400825
21
4.4469437
0
LINE
8
DEFAULT_255_2_778
10
7.400825
20
4.4469437
11
7.400825
21
5.8746437
0
LINE
8
DEFAULT_255_2_778
10
7.400825
20
5.8746437
11
7.182525
21
5.7077437
0
LINE
8
DEFAULT_255_2_778
10
7.182525
20
5.7077437
11
7.097325
21
5.6640437
0
LINE
8
DEFAULT_255_2_778
10
7.097325
20
5.6640437
11
7.097325
21
5.8759437
0
LINE
8
DEFAULT_255_2_778
10
7.097325
20
5.8759437
11
7.349225
21
6.0519437
0
LINE
8
DEFAULT_255_2_778
10
7.349225
20
6.0519437
11
7.429125
21
6.1376437
0
LINE
8
DEFAULT_255_2_778
10
7.593125
20
8.6374437
11
7.750225
21
8.6374437
0
LINE
8
DEFAULT_255_2_778
10
7.750225
20
8.6374437
11
7.750225
21
6.9470437
0
LINE
8
DEFAULT_255_2_778
10
7.750225
20
6.9470437
11
7.564825
21
6.9470437
0
LINE
8
DEFAULT_255_2_778
10
7.564825
20
6.9470437
11
7.564825
21
8.3747437
0
LINE
8
DEFAULT_255_2_778
10
7.564825
20
8.3747437
11
7.346525
21
8.2078437
0
LINE
8
DEFAULT_255_2_778
10
7.346525
20
8.2078437
11
7.261325
21
8.1641437
0
LINE
8
DEFAULT_255_2_778
10
7.261325
20
8.1641437
11
7.261325
21
8.3760437
0
LINE
8
DEFAULT_255_2_778
10
7.261325
20
8.3760437
11
7.513225
21
8.5520437
0
LINE
8
DEFAULT_255_2_778
10
7.513225
20
8.5520437
11
7.593125
21
8.6377437
0
LINE
8
DEFAULT_255_2_778
10
8.1458387
20
5.1663114
11
8.6231387
21
5.1663114
0
LINE
8
DEFAULT_255_2_778
10
8.6231387
20
5.1663114
11
8.6231387
21
5.0060114
0
LINE
8
DEFAULT_255_2_778
10
8.6231387
20
5.0060114
11
8.1458387
21
5.0060114
0
LINE
8
DEFAULT_255_2_778
10
8.1458387
20
5.0060114
11
8.1458387
21
5.1663114
0
LINE
8
DEFAULT_255_2_778
10
10.8316387
20
7.6664114
11
11.3089387
21
7.6664114
0
LINE
8
DEFAULT_255_2_778
10
11.3089387
20
7.6664114
11
11.3089387
21
7.5060114
0
LINE
8
DEFAULT_255_2_778
10
11.3089387
20
7.5060114
11
10.8316387
21
7.5060114
0
LINE
8
DEFAULT_255_2_778
10
10.8316387
20
7.5060114
11
10.8316387
21
7.6664114
0
LINE
8
DEFAULT_255_2_778
10
8.8509387
20
7.1012114
11
8.6880387
21
7.1573114
0
LINE
8
DEFAULT_255_2_778
10
8.6880387
20
7.1573114
11
8.5991387
21
7.2650114
0
LINE
8
DEFAULT_255_2_778
10
8.5991387
20
7.2650114
11
8.5615387
21
7.3557114
0
LINE
8
DEFAULT_255_2_778
10
8.5615387
20
7.3557114
11
8.5475387
21
7.4108114
0
LINE
8
DEFAULT_255_2_778
10
8.5475387
20
7.4108114
11
8.3580387
21
7.4108114
0
LINE
8
DEFAULT_255_2_778
10
8.3580387
20
7.4108114
11
8.3641387
21
7.3692114
0
LINE
8
DEFAULT_255_2_778
10
8.3641387
20
7.3692114
11
8.3723387
21
7.3280114
0
LINE
8
DEFAULT_255_2_778
10
8.3723387
20
7.3280114
11
8.3890387
21
7.2671114
0
LINE
8
DEFAULT_255_2_778
10
8.3890387
20
7.2671114
11
8.4199387
21
7.1891114
0
LINE
8
DEFAULT_255_2_778
10
8.4199387
20
7.1891114
11
8.4699387
21
7.1047114
0
LINE
8
DEFAULT_255_2_778
10
8.4699387
20
7.1047114
11
8.5554387
21
7.0126114
0
LINE
8
DEFAULT_255_2_778
10
8.5554387
20
7.0126114
11
8.6708387
21
6.9419114
0
LINE
8
DEFAULT_255_2_778
10
8.6708387
20
6.9419114
11
8.8486387
21
6.9081114
0
LINE
8
DEFAULT_255_2_778
10
8.8486387
20
6.9081114
11
9.0399387
21
6.9385114
0
LINE
8
DEFAULT_255_2_778
10
9.0399387
20
6.9385114
11
9.1589387
21
7.0023114
0
LINE
8
DEFAULT_255_2_778
10
9.1589387
20
7.0023114
11
9.2425387
21
7.0859114
0
LINE
8
DEFAULT_255_2_778
10
9.2425387
20
7.0859114
11
9.2891387
21
7.1629114
0
LINE
8
DEFAULT_255_2_778
10
9.2891387
20
7.1629114
11
9.3118387
21
7.2205114
0
LINE
8
DEFAULT_255_2_778
10
9.3118387
20
7.2205114
11
9.3243387
21
7.2653114
0
LINE
8
DEFAULT_255_2_778
10
9.3243387
20
7.2653114
11
9.3317387
21
7.3036114
0
LINE
8
DEFAULT_255_2_778
10
9.3317387
20
7.3036114
11
9.3367387
21
7.3425114
0
LINE
8
DEFAULT_255_2_778
10
9.3367387
20
7.3425114
11
9.3343387
21
7.5118114
0
LINE
8
DEFAULT_255_2_778
10
9.3343387
20
7.5118114
11
9.3224387
21
7.5701114
0
LINE
8
DEFAULT_255_2_778
10
9.3224387
20
7.5701114
11
9.2804387
21
7.6661114
0
LINE
8
DEFAULT_255_2_778
10
9.2804387
20
7.6661114
11
9.1444387
21
7.7934114
0
LINE
8
DEFAULT_255_2_778
10
9.1444387
20
7.7934114
11
9.0832387
21
7.8166114
0
LINE
8
DEFAULT_255_2_778
10
9.0832387
20
7.8166114
11
9.1843387
21
7.8913114
0
LINE
8
DEFAULT_255_2_778
10
9.1843387
20
7.8913114
11
9.2473387
21
7.9717114
0
LINE
8
DEFAULT_255_2_778
10
9.2473387
20
7.9717114
11
9.2796387
21
8.0384114
0
LINE
8
DEFAULT_255_2_778
10
9.2796387
20
8.0384114
11
9.2970387
21
8.0953114
0
LINE
8
DEFAULT_255_2_778
10
9.2970387
20
8.0953114
11
9.3034387
21
8.1270114
0
LINE
8
DEFAULT_255_2_778
10
9.3034387
20
8.1270114
11
9.3023387
21
8.3260114
0
LINE
8
DEFAULT_255_2_778
10
9.3023387
20
8.3260114
11
9.2915387
21
8.3725114
0
LINE
8
DEFAULT_255_2_778
10
9.2915387
20
8.3725114
11
9.2669387
21
8.4371114
0
LINE
8
DEFAULT_255_2_778
10
9.2669387
20
8.4371114
11
9.2235387
21
8.5069114
0
LINE
8
DEFAULT_255_2_778
10
9.2235387
20
8.5069114
11
9.1425387
21
8.5853114
0
LINE
8
DEFAULT_255_2_778
10
9.1425387
20
8.5853114
11
9.0179387
21
8.6482114
0
LINE
8
DEFAULT_255_2_778
10
9.0179387
20
8.6482114
11
8.8359387
21
8.6718114
0
LINE
8
DEFAULT_255_2_778
10
8.8359387
20
8.6718114
11
8.6504387
21
8.6345114
0
LINE
8
DEFAULT_255_2_778
10
8.6504387
20
8.6345114
11
8.4932387
21
8.5167114
0
LINE
8
DEFAULT_255_2_778
10
8.4932387
20
8.5167114
11
8.4345387
21
8.4173114
0
LINE
8
DEFAULT_255_2_778
10
8.4345387
20
8.4173114
11
8.4123387
21
8.3474114
0
LINE
8
DEFAULT_255_2_778
10
8.4123387
20
8.3474114
11
8.4022387
21
8.2926114
0
LINE
8
DEFAULT_255_2_778
10
8.4022387
20
8.2926114
11
8.3988387
21
8.2596114
0
LINE
8
DEFAULT_255_2_778
10
8.3988387
20
8.2596114
11
8.3969387
21
8.2045114
0
LINE
8
DEFAULT_255_2_778
10
8.3969387
20
8.2045114
11
8.5766387
21
8.2045114
0
LINE
8
DEFAULT_255_2_778
10
8.5766387
20
8.2045114
11
8.5792387
21
8.2519114
0
LINE
8
DEFAULT_255_2_778
10
8.5792387
20
8.2519114
11
8.5861387
21
8.2895114
0
LINE
8
DEFAULT_255_2_778
10
8.5861387
20
8.2895114
11
8.6062387
21
8.3458114
0
LINE
8
DEFAULT_255_2_778
10
8.6062387
20
8.3458114
11
8.6739387
21
8.4300114
0
LINE
8
DEFAULT_255_2_778
10
8.6739387
20
8.4300114
11
8.8152387
21
8.4868114
0
LINE
8
DEFAULT_255_2_778
10
8.8152387
20
8.4868114
11
8.9896387
21
8.4577114
0
LINE
8
DEFAULT_255_2_778
10
8.9896387
20
8.4577114
11
9.0814387
21
8.3752114
0
LINE
8
DEFAULT_255_2_778
10
9.0814387
20
8.3752114
11
9.1105387
21
8.3138114
0
LINE
8
DEFAULT_255_2_778
10
9.1105387
20
8.3138114
11
9.1213387
21
8.2699114
0
LINE
8
DEFAULT_255_2_778
10
9.1213387
20
8.2699114
11
9.1190387
21
8.1318114
0
LINE
8
DEFAULT_255_2_778
10
9.1190387
20
8.1318114
11
9.0909387
21
8.0603114
0
LINE
8
DEFAULT_255_2_778
10
9.0909387
20
8.0603114
11
8.9650387
21
7.9455114
0
LINE
8
DEFAULT_255_2_778
10
8.9650387
20
7.9455114
11
8.8126387
21
7.9106114
0
LINE
8
DEFAULT_255_2_778
10
8.8126387
20
7.9106114
11
8.7507387
21
7.9106114
0
LINE
8
DEFAULT_255_2_778
10
8.7507387
20
7.9106114
11
8.7507387
21
7.7203114
0
LINE
8
DEFAULT_255_2_778
10
8.7507387
20
7.7203114
11
8.9811387
21
7.6936114
0
LINE
8
DEFAULT_255_2_778
10
8.9811387
20
7.6936114
11
9.0957387
21
7.6156114
0
LINE
8
DEFAULT_255_2_778
10
9.0957387
20
7.6156114
11
9.1378387
21
7.5441114
0
LINE
8
DEFAULT_255_2_778
10
9.1378387
20
7.5441114
11
9.1481387
21
7.5089114
0
LINE
8
DEFAULT_255_2_778
10
9.1481387
20
7.5089114
11
9.1528387
21
7.4790114
0
LINE
8
DEFAULT_255_2_778
10
9.1528387
20
7.4790114
11
9.1518387
21
7.3759114
0
LINE
8
DEFAULT_255_2_778
10
9.1518387
20
7.3759114
11
9.1433387
21
7.3290114
0
LINE
8
DEFAULT_255_2_778
10
9.1433387
20
7.3290114
11
9.1245387
21
7.2727114
0
LINE
8
DEFAULT_255_2_778
10
9.1245387
20
7.2727114
11
9.0735387
21
7.1936114
0
LINE
8
DEFAULT_255_2_778
10
9.0735387
20
7.1936114
11
8.9713387
21
7.1224114
0
LINE
8
DEFAULT_255_2_778
10
8.9713387
20
7.1224114
11
8.8509387
21
7.1012114
0
LINE
8
DEFAULT_255_2_778
10
5.1904387
20
8.6469114
11
6.1321387
21
8.6469114
0
LINE
8
DEFAULT_255_2_778
10
6.1321387
20
8.6469114
11
6.1321387
21
8.4384114
0
LINE
8
DEFAULT_255_2_778
10
6.1321387
20
8.4384114
11
5.6008387
21
6.9470114
0
LINE
8
DEFAULT_255_2_778
10
5.6008387
20
6.9470114
11
5.3780387
21
6.9470114
0
LINE
8
DEFAULT_255_2_778
10
5.3780387
20
6.9470114
11
5.9368387
21
8.4567114
0
LINE
8
DEFAULT_255_2_778
10
5.9368387
20
8.4567114
11
5.1904387
21
8.4567114
0
LINE
8
DEFAULT_255_2_778
10
5.1904387
20
8.4567114
11
5.1904387
21
8.6469114
0
LINE
8
DEFAULT_255_2_778
10
2.7621387
20
8.6469114
11
3.6066387
21
8.6469114
0
LINE
8
DEFAULT_255_2_778
10
3.6066387
20
8.6469114
11
3.6066387
21
8.4540114
0
LINE
8
DEFAULT_255_2_778
10
3.6066387
20
8.4540114
11
2.9518387
21
8.4540114
0
LINE
8
DEFAULT_255_2_778
10
2.9518387
20
8.4540114
11
2.9518387
21
7.9180114
0
LINE
8
DEFAULT_255_2_778
10
2.9518387
20
7.9180114
11
3.5812387
21
7.9180114
0
LINE
8
DEFAULT_255_2_778
10
3.5812387
20
7.9180114
11
3.5812387
21
7.7251114
0
LINE
8
DEFAULT_255_2_778
10
3.5812387
20
7.7251114
11
2.9518387
21
7.7251114
0
LINE
8
DEFAULT_255_2_778
10
2.9518387
20
7.7251114
11
2.9518387
21
7.1396114
0
LINE
8
DEFAULT_255_2_778
10
2.9518387
20
7.1396114
11
3.6244387
21
7.1396114
0
LINE
8
DEFAULT_255_2_778
10
3.6244387
20
7.1396114
11
3.6244387
21
6.9467114
0
LINE
8
DEFAULT_255_2_778
10
3.6244387
20
6.9467114
11
2.7621387
21
6.9467114
0
LINE
8
DEFAULT_255_2_778
10
2.7621387
20
6.9467114
11
2.7621387
21
8.6466114
0
LINE
8
DEFAULT_255_2_778
10
4.6893387
20
8.2217114
11
4.8817387
21
8.2217114
0
LINE
8
DEFAULT_255_2_778
10
4.8817387
20
8.2217114
11
4.8793387
21
8.3051114
0
LINE
8
DEFAULT_255_2_778
10
4.8793387
20
8.3051114
11
4.8716387
21
8.3463114
0
LINE
8
DEFAULT_255_2_778
10
4.8716387
20
8.3463114
11
4.8549387
21
8.4003114
0
LINE
8
DEFAULT_255_2_778
10
4.8549387
20
8.4003114
11
4.8174387
21
8.4765114
0
LINE
8
DEFAULT_255_2_778
10
4.8174387
20
8.4765114
11
4.7470387
21
8.5646114
0
LINE
8
DEFAULT_255_2_778
10
4.7470387
20
8.5646114
11
4.6570387
21
8.6297114
0
LINE
8
DEFAULT_255_2_778
10
4.6570387
20
8.6297114
11
4.4787387
21
8.6776114
0
LINE
8
DEFAULT_255_2_778
10
4.4787387
20
8.6776114
11
4.2467387
21
8.6652114
0
LINE
8
DEFAULT_255_2_778
10
4.2467387
20
8.6652114
11
4.0927387
21
8.6056114
0
LINE
8
DEFAULT_255_2_778
10
4.0927387
20
8.6056114
11
3.9853387
21
8.5159114
0
LINE
8
DEFAULT_255_2_778
10
3.9853387
20
8.5159114
11
3.9371387
21
8.4458114
0
LINE
8
DEFAULT_255_2_778
10
3.9371387
20
8.4458114
11
3.9120387
21
8.3895114
0
LINE
8
DEFAULT_255_2_778
10
3.9120387
20
8.3895114
11
3.8982387
21
8.3453114
0
LINE
8
DEFAULT_255_2_778
10
3.8982387
20
8.3453114
11
3.8905387
21
8.3114114
0
LINE
8
DEFAULT_255_2_778
10
3.8905387
20
8.3114114
11
3.8850387
21
8.2770114
0
LINE
8
DEFAULT_255_2_778
10
3.8850387
20
8.2770114
11
3.8868387
21
8.0953114
0
LINE
8
DEFAULT_255_2_778
10
3.8868387
20
8.0953114
11
3.9006387
21
8.0344114
0
LINE
8
DEFAULT_255_2_778
10
3.9006387
20
8.0344114
11
3.9382387
21
7.9474114
0
LINE
8
DEFAULT_255_2_778
10
3.9382387
20
7.9474114
11
4.0384387
21
7.8407114
0
LINE
8
DEFAULT_255_2_778
10
4.0384387
20
7.8407114
11
4.2311387
21
7.7529114
0
LINE
8
DEFAULT_255_2_778
10
4.2311387
20
7.7529114
11
4.6123387
21
7.6280114
0
LINE
8
DEFAULT_255_2_778
10
4.6123387
20
7.6280114
11
4.6954387
21
7.5494114
0
LINE
8
DEFAULT_255_2_778
10
4.6954387
20
7.5494114
11
4.7168387
21
7.5013114
0
LINE
8
DEFAULT_255_2_778
10
4.7168387
20
7.5013114
11
4.7245387
21
7.4655114
0
LINE
8
DEFAULT_255_2_778
10
4.7245387
20
7.4655114
11
4.7234387
21
7.3457114
0
LINE
8
DEFAULT_255_2_778
10
4.7234387
20
7.3457114
11
4.7142387
21
7.3057114
0
LINE
8
DEFAULT_255_2_778
10
4.7142387
20
7.3057114
11
4.6904387
21
7.2494114
0
LINE
8
DEFAULT_255_2_778
10
4.6904387
20
7.2494114
11
4.6171387
21
7.1663114
0
LINE
8
DEFAULT_255_2_778
10
4.6171387
20
7.1663114
11
4.4824387
21
7.1118114
0
LINE
8
DEFAULT_255_2_778
10
4.4824387
20
7.1118114
11
4.2639387
21
7.1211114
0
LINE
8
DEFAULT_255_2_778
10
4.2639387
20
7.1211114
11
4.1101387
21
7.2322114
0
LINE
8
DEFAULT_255_2_778
10
4.1101387
20
7.2322114
11
4.0633387
21
7.3319114
0
LINE
8
DEFAULT_255_2_778
10
4.0633387
20
7.3319114
11
4.0546387
21
7.3761114
0
LINE
8
DEFAULT_255_2_778
10
4.0546387
20
7.3761114
11
4.0543387
21
7.4394114
0
LINE
8
DEFAULT_255_2_778
10
4.0543387
20
7.4394114
11
3.8638387
21
7.4394114
0
LINE
8
DEFAULT_255_2_778
10
3.8638387
20
7.4394114
11
3.8651387
21
7.3766114
0
LINE
8
DEFAULT_255_2_778
10
3.8651387
20
7.3766114
11
3.8688387
21
7.3452114
0
LINE
8
DEFAULT_255_2_778
10
3.8688387
20
7.3452114
11
3.8784387
21
7.2978114
0
LINE
8
DEFAULT_255_2_778
10
3.8784387
20
7.2978114
11
3.8977387
21
7.2356114
0
LINE
8
DEFAULT_255_2_778
10
3.8977387
20
7.2356114
11
3.9318387
21
7.1613114
0
LINE
8
DEFAULT_255_2_778
10
3.9318387
20
7.1613114
11
4.0017387
21
7.0626114
0
LINE
8
DEFAULT_255_2_778
10
4.0017387
20
7.0626114
11
4.1030387
21
6.9787114
0
LINE
8
DEFAULT_255_2_778
10
4.1030387
20
6.9787114
11
4.2403387
21
6.9271114
0
LINE
8
DEFAULT_255_2_778
10
4.2403387
20
6.9271114
11
4.4530387
21
6.9155114
0
LINE
8
DEFAULT_255_2_778
10
4.4530387
20
6.9155114
11
4.6271387
21
6.9546114
0
LINE
8
DEFAULT_255_2_778
10
4.6271387
20
6.9546114
11
4.7475387
21
7.0261114
0
LINE
8
DEFAULT_255_2_778
10
4.7475387
20
7.0261114
11
4.8216387
21
7.1049114
0
LINE
8
DEFAULT_255_2_778
10
4.8216387
20
7.1049114
11
4.8621387
21
7.1729114
0
LINE
8
DEFAULT_255_2_778
10
4.8621387
20
7.1729114
11
4.8864387
21
7.2338114
0
LINE
8
DEFAULT_255_2_778
10
4.8864387
20
7.2338114
11
4.8997387
21
7.2811114
0
LINE
8
DEFAULT_255_2_778
10
4.8997387
20
7.2811114
11
4.9071387
21
7.3176114
0
LINE
8
DEFAULT_255_2_778
10
4.9071387
20
7.3176114
11
4.9124387
21
7.3547114
0
LINE
8
DEFAULT_255_2_778
10
4.9124387
20
7.3547114
11
4.9116387
21
7.5333114
0
LINE
8
DEFAULT_255_2_778
10
4.9116387
20
7.5333114
11
4.9007387
21
7.5888114
0
LINE
8
DEFAULT_255_2_778
10
4.9007387
20
7.5888114
11
4.8737387
21
7.6635114
0
LINE
8
DEFAULT_255_2_778
10
4.8737387
20
7.6635114
11
4.8092387
21
7.7563114
0
LINE
8
DEFAULT_255_2_778
10
4.8092387
20
7.7563114
11
4.6568387
21
7.8569114
0
LINE
8
DEFAULT_255_2_778
10
4.6568387
20
7.8569114
11
4.1779387
21
8.0169114
0
LINE
8
DEFAULT_255_2_778
10
4.1779387
20
8.0169114
11
4.1017387
21
8.0915114
0
LINE
8
DEFAULT_255_2_778
10
4.1017387
20
8.0915114
11
4.0802387
21
8.1429114
0
LINE
8
DEFAULT_255_2_778
10
4.0802387
20
8.1429114
11
4.0742387
21
8.1746114
0
LINE
8
DEFAULT_255_2_778
10
4.0742387
20
8.1746114
11
4.0757387
21
8.2625114
0
LINE
8
DEFAULT_255_2_778
10
4.0757387
20
8.2625114
11
4.0866387
21
8.3064114
0
LINE
8
DEFAULT_255_2_778
10
4.0866387
20
8.3064114
11
4.1205387
21
8.3720114
0
LINE
8
DEFAULT_255_2_778
10
4.1205387
20
8.3720114
11
4.2157387
21
8.4469114
0
LINE
8
DEFAULT_255_2_778
10
4.2157387
20
8.4469114
11
4.4507387
21
8.4794114
0
LINE
8
DEFAULT_255_2_778
10
4.4507387
20
8.4794114
11
4.6385387
21
8.3723114
0
LINE
8
DEFAULT_255_2_778
10
4.6385387
20
8.3723114
11
4.6798387
21
8.2828114
0
LINE
8
DEFAULT_255_2_778
10
4.6798387
20
8.2828114
11
4.6872387
21
8.2400114
0
LINE
8
DEFAULT_255_2_778
10
4.6872387
20
8.2400114
11
4.6885387
21
8.2215114
0
LINE
8
DEFAULT_255_2_778
10
1.7752387
20
7.7711114
11
1.8681387
21
7.8418114
0
LINE
8
DEFAULT_255_2_778
10
1.8681387
20
7.8418114
11
2.0395387
21
7.8693114
0
LINE
8
DEFAULT_255_2_778
10
2.0395387
20
7.8693114
11
2.1565387
21
7.8209114
0
LINE
8
DEFAULT_255_2_778
10
2.1565387
20
7.8209114
11
2.2102387
21
7.7579114
0
LINE
8
DEFAULT_255_2_778
10
2.2102387
20
7.7579114
11
2.2461387
21
7.6828114
0
LINE
8
DEFAULT_255_2_778
10
2.2461387
20
7.6828114
11
2.2604387
21
7.6322114
0
LINE
8
DEFAULT_255_2_778
10
2.2604387
20
7.6322114
11
2.2676387
21
7.5936114
0
LINE
8
DEFAULT_255_2_778
10
2.2676387
20
7.5936114
11
2.2718387
21
7.5595114
0
LINE
8
DEFAULT_255_2_778
10
2.2718387
20
7.5595114
11
2.2708387
21
7.4124114
0
LINE
8
DEFAULT_255_2_778
10
2.2708387
20
7.4124114
11
2.2641387
21
7.3676114
0
LINE
8
DEFAULT_255_2_778
10
2.2641387
20
7.3676114
11
2.2506387
21
7.3142114
0
LINE
8
DEFAULT_255_2_778
10
2.2506387
20
7.3142114
11
2.2229387
21
7.2483114
0
LINE
8
DEFAULT_255_2_778
10
2.2229387
20
7.2483114
11
2.1636387
21
7.1697114
0
LINE
8
DEFAULT_255_2_778
10
2.1636387
20
7.1697114
11
2.0668387
21
7.1136114
0
LINE
8
DEFAULT_255_2_778
10
2.0668387
20
7.1136114
11
1.9144387
21
7.1081114
0
LINE
8
DEFAULT_255_2_778
10
1.9144387
20
7.1081114
11
1.8117387
21
7.1573114
0
LINE
8
DEFAULT_255_2_778
10
1.8117387
20
7.1573114
11
1.7482387
21
7.2306114
0
LINE
8
DEFAULT_255_2_778
10
1.7482387
20
7.2306114
11
1.7186387
21
7.2899114
0
LINE
8
DEFAULT_255_2_778
10
1.7186387
20
7.2899114
11
1.7019387
21
7.3422114
0
LINE
8
DEFAULT_255_2_778
10
1.7019387
20
7.3422114
11
1.6934387
21
7.3827114
0
LINE
8
DEFAULT_255_2_778
10
1.6934387
20
7.3827114
11
1.6892387
21
7.4134114
0
LINE
8
DEFAULT_255_2_778
10
1.6892387
20
7.4134114
11
1.6900387
21
7.5698114
0
LINE
8
DEFAULT_255_2_778
10
1.6900387
20
7.5698114
11
1.6977387
21
7.6132114
0
LINE
8
DEFAULT_255_2_778
10
1.6977387
20
7.6132114
11
1.7154387
21
7.6722114
0
LINE
8
DEFAULT_255_2_778
10
1.7154387
20
7.6722114
11
1.7540387
21
7.7444114
0
LINE
8
DEFAULT_255_2_778
10
1.7540387
20
7.7444114
11
1.7752387
21
7.7711114
0
LINE
8
DEFAULT_255_2_778
10
2.2456387
20
8.2217114
11
2.4274387
21
8.2217114
0
LINE
8
DEFAULT_255_2_778
10
2.4274387
20
8.2217114
11
2.4253387
21
8.2805114
0
LINE
8
DEFAULT_255_2_778
10
2.4253387
20
8.2805114
11
2.4234387
21
8.3000114
0
LINE
8
DEFAULT_255_2_778
10
2.4234387
20
8.3000114
11
2.4179387
21
8.3392114
0
LINE
8
DEFAULT_255_2_778
10
2.4179387
20
8.3392114
11
2.4102387
21
8.3754114
0
LINE
8
DEFAULT_255_2_778
10
2.4102387
20
8.3754114
11
2.3951387
21
8.4249114
0
LINE
8
DEFAULT_255_2_778
10
2.3951387
20
8.4249114
11
2.3665387
21
8.4863114
0
LINE
8
DEFAULT_255_2_778
10
2.3665387
20
8.4863114
11
2.3194387
21
8.5511114
0
LINE
8
DEFAULT_255_2_778
10
2.3194387
20
8.5511114
11
2.2398387
21
8.6165114
0
LINE
8
DEFAULT_255_2_778
10
2.2398387
20
8.6165114
11
2.1128387
21
8.6636114
0
LINE
8
DEFAULT_255_2_778
10
2.1128387
20
8.6636114
11
1.9472387
21
8.6678114
0
LINE
8
DEFAULT_255_2_778
10
1.9472387
20
8.6678114
11
1.8202387
21
8.6305114
0
LINE
8
DEFAULT_255_2_778
10
1.8202387
20
8.6305114
11
1.7135387
21
8.5551114
0
LINE
8
DEFAULT_255_2_778
10
1.7135387
20
8.5551114
11
1.6440387
21
8.4720114
0
LINE
8
DEFAULT_255_2_778
10
1.6440387
20
8.4720114
11
1.5887387
21
8.3728114
0
LINE
8
DEFAULT_255_2_778
10
1.5887387
20
8.3728114
11
1.5603387
21
8.3048114
0
LINE
8
DEFAULT_255_2_778
10
1.5603387
20
8.3048114
11
1.5347387
21
8.2270114
0
LINE
8
DEFAULT_255_2_778
10
1.5347387
20
8.2270114
11
1.5138387
21
8.1439114
0
LINE
8
DEFAULT_255_2_778
10
1.5138387
20
8.1439114
11
1.5019387
21
8.0828114
0
LINE
8
DEFAULT_255_2_778
10
1.5019387
20
8.0828114
11
1.4924387
21
8.0214114
0
LINE
8
DEFAULT_255_2_778
10
1.4924387
20
8.0214114
11
1.4849387
21
7.9598114
0
LINE
8
DEFAULT_255_2_778
10
1.4849387
20
7.9598114
11
1.4810387
21
7.9185114
0
LINE
8
DEFAULT_255_2_778
10
1.4810387
20
7.9185114
11
1.4778387
21
7.8772114
0
LINE
8
DEFAULT_255_2_778
10
1.4778387
20
7.8772114
11
1.4778387
21
7.5658114
0
LINE
8
DEFAULT_255_2_778
10
1.4778387
20
7.5658114
11
1.4807387
21
7.5314114
0
LINE
8
DEFAULT_255_2_778
10
1.4807387
20
7.5314114
11
1.4841387
21
7.4970114
0
LINE
8
DEFAULT_255_2_778
10
1.4841387
20
7.4970114
11
1.4910387
21
7.4441114
0
LINE
8
DEFAULT_255_2_778
10
1.4910387
20
7.4441114
11
1.5000387
21
7.3915114
0
LINE
8
DEFAULT_255_2_778
10
1.5000387
20
7.3915114
11
1.5114387
21
7.3393114
0
LINE
8
DEFAULT_255_2_778
10
1.5114387
20
7.3393114
11
1.5357387
21
7.2552114
0
LINE
8
DEFAULT_255_2_778
10
1.5357387
20
7.2552114
11
1.5659387
21
7.1798114
0
LINE
8
DEFAULT_255_2_778
10
1.5659387
20
7.1798114
11
1.6088387
21
7.1012114
0
LINE
8
DEFAULT_255_2_778
10
1.6088387
20
7.1012114
11
1.6842387
21
7.0110114
0
LINE
8
DEFAULT_255_2_778
10
1.6842387
20
7.0110114
11
1.7908387
21
6.9417114
0
LINE
8
DEFAULT_255_2_778
10
1.7908387
20
6.9417114
11
1.9646387
21
6.9081114
0
LINE
8
DEFAULT_255_2_778
10
1.9646387
20
6.9081114
11
2.1350387
21
6.9351114
0
LINE
8
DEFAULT_255_2_778
10
2.1350387
20
6.9351114
11
2.2504387
21
6.9959114
0
LINE
8
DEFAULT_255_2_778
10
2.2504387
20
6.9959114
11
2.3335387
21
7.0769114
0
LINE
8
DEFAULT_255_2_778
10
2.3335387
20
7.0769114
11
2.3814387
21
7.1491114
0
LINE
8
DEFAULT_255_2_778
10
2.3814387
20
7.1491114
11
2.4115387
21
7.2147114
0
LINE
8
DEFAULT_255_2_778
10
2.4115387
20
7.2147114
11
2.4290387
21
7.2682114
0
LINE
8
DEFAULT_255_2_778
10
2.4290387
20
7.2682114
11
2.4417387
21
7.3229114
0
LINE
8
DEFAULT_255_2_778
10
2.4417387
20
7.3229114
11
2.4486387
21
7.3650114
0
LINE
8
DEFAULT_255_2_778
10
2.4486387
20
7.3650114
11
2.4531387
21
7.4073114
0
LINE
8
DEFAULT_255_2_778
10
2.4531387
20
7.4073114
11
2.4523387
21
7.5870114
0
LINE
8
DEFAULT_255_2_778
10
2.4523387
20
7.5870114
11
2.4472387
21
7.6288114
0
LINE
8
DEFAULT_255_2_778
10
2.4472387
20
7.6288114
11
2.4372387
21
7.6841114
0
LINE
8
DEFAULT_255_2_778
10
2.4372387
20
7.6841114
11
2.4239387
21
7.7354114
0
LINE
8
DEFAULT_255_2_778
10
2.4239387
20
7.7354114
11
2.3948387
21
7.8119114
0
LINE
8
DEFAULT_255_2_778
10
2.3948387
20
7.8119114
11
2.3361387
21
7.9098114
0
LINE
8
DEFAULT_255_2_778
10
2.3361387
20
7.9098114
11
2.2459387
21
7.9976114
0
LINE
8
DEFAULT_255_2_778
10
2.2459387
20
7.9976114
11
2.1120387
21
8.0550114
0
LINE
8
DEFAULT_255_2_778
10
2.1120387
20
8.0550114
11
1.9376387
21
8.0534114
0
LINE
8
DEFAULT_255_2_778
10
1.9376387
20
8.0534114
11
1.8038387
21
7.9897114
0
LINE
8
DEFAULT_255_2_778
10
1.8038387
20
7.9897114
11
1.7077387
21
7.8928114
0
LINE
8
DEFAULT_255_2_778
10
1.7077387
20
7.8928114
11
1.6543387
21
7.8092114
0
LINE
8
DEFAULT_255_2_778
10
1.6543387
20
7.8092114
11
1.6564387
21
7.8428114
0
LINE
8
DEFAULT_255_2_778
10
1.6564387
20
7.8428114
11
1.6590387
21
7.8764114
0
LINE
8
DEFAULT_255_2_778
10
1.6590387
20
7.8764114
11
1.6622387
21
7.9100114
0
LINE
8
DEFAULT_255_2_778
10
1.6622387
20
7.9100114
11
1.6699387
21
7.9770114
0
LINE
8
DEFAULT_255_2_778
10
1.6699387
20
7.9770114
11
1.6815387
21
8.0500114
0
LINE
8
DEFAULT_255_2_778
10
1.6815387
20
8.0500114
11
1.6971387
21
8.1222114
0
LINE
8
DEFAULT_255_2_778
10
1.6971387
20
8.1222114
11
1.7212387
21
8.2051114
0
LINE
8
DEFAULT_255_2_778
10
1.7212387
20
8.2051114
11
1.7643387
21
8.3085114
0
LINE
8
DEFAULT_255_2_778
10
1.7643387
20
8.3085114
11
1.8360387
21
8.4090114
0
LINE
8
DEFAULT_255_2_778
10
1.8360387
20
8.4090114
11
1.9281387
21
8.4691114
0
LINE
8
DEFAULT_255_2_778
10
1.9281387
20
8.4691114
11
2.0580387
21
8.4810114
0
LINE
8
DEFAULT_255_2_778
10
2.0580387
20
8.4810114
11
2.1517387
21
8.4440114
0
LINE
8
DEFAULT_255_2_778
10
2.1517387
20
8.4440114
11
2.2083387
21
8.3815114
0
LINE
8
DEFAULT_255_2_778
10
2.2083387
20
8.3815114
11
2.2313387
21
8.3289114
0
LINE
8
DEFAULT_255_2_778
10
2.2313387
20
8.3289114
11
2.2385387
21
8.3000114
0
LINE
8
DEFAULT_255_2_778
10
2.2385387
20
8.3000114
11
2.2427387
21
8.2738114
0
LINE
8
DEFAULT_255_2_778
10
2.2427387
20
8.2738114
11
2.2451387
21
8.2477114
0
LINE
8
DEFAULT_255_2_778
10
2.2451387
20
8.2477114
11
2.2456387
21
8.2217114
0
LINE
8
DEFAULT_255_2_778
10
9.9008387
20
7.8362114
11
9.7741387
21
7.7608114
0
LINE
8
DEFAULT_255_2_778
10
9.7741387
20
7.7608114
11
9.7018387
21
7.6828114
0
LINE
8
DEFAULT_255_2_778
10
9.7018387
20
7.6828114
11
9.6622387
21
7.6164114
0
LINE
8
DEFAULT_255_2_778
10
9.6622387
20
7.6164114
11
9.6394387
21
7.5584114
0
LINE
8
DEFAULT_255_2_778
10
9.6394387
20
7.5584114
11
9.6272387
21
7.5121114
0
LINE
8
DEFAULT_255_2_778
10
9.6272387
20
7.5121114
11
9.6214387
21
7.4790114
0
LINE
8
DEFAULT_255_2_778
10
9.6214387
20
7.4790114
11
9.6219387
21
7.3031114
0
LINE
8
DEFAULT_255_2_778
10
9.6219387
20
7.3031114
11
9.6286387
21
7.2668114
0
LINE
8
DEFAULT_255_2_778
10
9.6286387
20
7.2668114
11
9.6413387
21
7.2203114
0
LINE
8
DEFAULT_255_2_778
10
9.6413387
20
7.2203114
11
9.6698387
21
7.1515114
0
LINE
8
DEFAULT_255_2_778
10
9.6698387
20
7.1515114
11
9.7190387
21
7.0779114
0
LINE
8
DEFAULT_255_2_778
10
9.7190387
20
7.0779114
11
9.8180387
21
6.9901114
0
LINE
8
DEFAULT_255_2_778
10
9.8180387
20
6.9901114
11
9.9490387
21
6.9300114
0
LINE
8
DEFAULT_255_2_778
10
9.9490387
20
6.9300114
11
10.1466387
21
6.9097114
0
LINE
8
DEFAULT_255_2_778
10
10.1466387
20
6.9097114
11
10.3141387
21
6.9443114
0
LINE
8
DEFAULT_255_2_778
10
10.3141387
20
6.9443114
11
10.4586387
21
7.0332114
0
LINE
8
DEFAULT_255_2_778
10
10.4586387
20
7.0332114
11
10.5353387
21
7.1245114
0
LINE
8
DEFAULT_255_2_778
10
10.5353387
20
7.1245114
11
10.5710387
21
7.1967114
0
LINE
8
DEFAULT_255_2_778
10
10.5710387
20
7.1967114
11
10.5874387
21
7.2481114
0
LINE
8
DEFAULT_255_2_778
10
10.5874387
20
7.2481114
11
10.5967387
21
7.2917114
0
LINE
8
DEFAULT_255_2_778
10
10.5967387
20
7.2917114
11
10.5959387
21
7.4991114
0
LINE
8
DEFAULT_255_2_778
10
10.5959387
20
7.4991114
11
10.5861387
21
7.5417114
0
LINE
8
DEFAULT_255_2_778
10
10.5861387
20
7.5417114
11
10.5628387
21
7.6066114
0
LINE
8
DEFAULT_255_2_778
10
10.5628387
20
7.6066114
11
10.5138387
21
7.6889114
0
LINE
8
DEFAULT_255_2_778
10
10.5138387
20
7.6889114
11
10.4342387
21
7.7698114
0
LINE
8
DEFAULT_255_2_778
10
10.4342387
20
7.7698114
11
10.3191387
21
7.8352114
0
LINE
8
DEFAULT_255_2_778
10
10.3191387
20
7.8352114
11
10.4178387
21
7.8947114
0
LINE
8
DEFAULT_255_2_778
10
10.4178387
20
7.8947114
11
10.4898387
21
7.9712114
0
LINE
8
DEFAULT_255_2_778
10
10.4898387
20
7.9712114
11
10.5265387
21
8.0331114
0
LINE
8
DEFAULT_255_2_778
10
10.5265387
20
8.0331114
11
10.5477387
21
8.0868114
0
LINE
8
DEFAULT_255_2_778
10
10.5477387
20
8.0868114
11
10.5588387
21
8.1299114
0
LINE
8
DEFAULT_255_2_778
10
10.5588387
20
8.1299114
11
10.5641387
21
8.1606114
0
LINE
8
DEFAULT_255_2_778
10
10.5641387
20
8.1606114
11
10.5623387
21
8.3273114
0
LINE
8
DEFAULT_255_2_778
10
10.5623387
20
8.3273114
11
10.5527387
21
8.3707114
0
LINE
8
DEFAULT_255_2_778
10
10.5527387
20
8.3707114
11
10.5350387
21
8.4217114
0
LINE
8
DEFAULT_255_2_778
10
10.5350387
20
8.4217114
11
10.4956387
21
8.4927114
0
LINE
8
DEFAULT_255_2_778
10
10.4956387
20
8.4927114
11
10.4210387
21
8.5710114
0
LINE
8
DEFAULT_255_2_778
10
10.4210387
20
8.5710114
11
10.3014387
21
8.6392114
0
LINE
8
DEFAULT_255_2_778
10
10.3014387
20
8.6392114
11
10.1265387
21
8.6720114
0
LINE
8
DEFAULT_255_2_778
10
10.1265387
20
8.6720114
11
9.9476387
21
8.6496114
0
LINE
8
DEFAULT_255_2_778
10
9.9476387
20
8.6496114
11
9.8090387
21
8.5794114
0
LINE
8
DEFAULT_255_2_778
10
9.8090387
20
8.5794114
11
9.7230387
21
8.4919114
0
LINE
8
DEFAULT_255_2_778
10
9.7230387
20
8.4919114
11
9.6823387
21
8.4173114
0
LINE
8
DEFAULT_255_2_778
10
9.6823387
20
8.4173114
11
9.6635387
21
8.3582114
0
LINE
8
DEFAULT_255_2_778
10
9.6635387
20
8.3582114
11
9.6558387
21
8.3188114
0
LINE
8
DEFAULT_255_2_778
10
9.6558387
20
8.3188114
11
9.6563387
21
8.1561114
0
LINE
8
DEFAULT_255_2_778
10
9.6563387
20
8.1561114
11
9.6643387
21
8.1154114
0
LINE
8
DEFAULT_255_2_778
10
9.6643387
20
8.1154114
11
9.6841387
21
8.0545114
0
LINE
8
DEFAULT_255_2_778
10
9.6841387
20
8.0545114
11
9.7272387
21
7.9762114
0
LINE
8
DEFAULT_255_2_778
10
9.7272387
20
7.9762114
11
9.8156387
21
7.8849114
0
LINE
8
DEFAULT_255_2_778
10
9.8156387
20
7.8849114
11
9.9008387
21
7.8362114
0
LINE
8
DEFAULT_255_2_778
10
10.3271387
20
7.6627114
11
10.3853387
21
7.5907114
0
LINE
8
DEFAULT_255_2_778
10
10.3853387
20
7.5907114
11
10.4101387
21
7.5285114
0
LINE
8
DEFAULT_255_2_778
10
10.4101387
20
7.5285114
11
10.4175387
21
7.4954114
0
LINE
8
DEFAULT_255_2_778
10
10.4175387
20
7.4954114
11
10.4154387
21
7.3372114
0
LINE
8
DEFAULT_255_2_778
10
10.4154387
20
7.3372114
11
10.4017387
21
7.2877114
0
LINE
8
DEFAULT_255_2_778
10
10.4017387
20
7.2877114
11
10.3657387
21
7.2200114
0
LINE
8
DEFAULT_255_2_778
10
10.3657387
20
7.2200114
11
10.2747387
21
7.1398114
0
LINE
8
DEFAULT_255_2_778
10
10.2747387
20
7.1398114
11
10.1223387
21
7.1012114
0
LINE
8
DEFAULT_255_2_778
10
10.1223387
20
7.1012114
11
9.9540387
21
7.1353114
0
LINE
8
DEFAULT_255_2_778
10
9.9540387
20
7.1353114
11
9.8606387
21
7.2123114
0
LINE
8
DEFAULT_255_2_778
10
9.8606387
20
7.2123114
11
9.8230387
21
7.2782114
0
LINE
8
DEFAULT_255_2_778
10
9.8230387
20
7.2782114
11
9.8085387
21
7.3248114
0
LINE
8
DEFAULT_255_2_778
10
9.8085387
20
7.3248114
11
9.8019387
21
7.3610114
0
LINE
8
DEFAULT_255_2_778
10
9.8019387
20
7.3610114
11
9.8037387
21
7.4946114
0
LINE
8
DEFAULT_255_2_778
10
9.8037387
20
7.4946114
11
9.8167387
21
7.5460114
0
LINE
8
DEFAULT_255_2_778
10
9.8167387
20
7.5460114
11
9.8508387
21
7.6140114
0
LINE
8
DEFAULT_255_2_778
10
9.8508387
20
7.6140114
11
9.9281387
21
7.6881114
0
LINE
8
DEFAULT_255_2_778
10
9.9281387
20
7.6881114
11
10.0627387
21
7.7344114
0
LINE
8
DEFAULT_255_2_778
10
10.0627387
20
7.7344114
11
10.2352387
21
7.7166114
0
LINE
8
DEFAULT_255_2_778
10
10.2352387
20
7.7166114
11
10.3271387
21
7.6627114
0
LINE
8
DEFAULT_255_2_778
10
9.9175387
20
7.9952114
11
9.8619387
21
8.0664114
0
LINE
8
DEFAULT_255_2_778
10
9.8619387
20
8.0664114
11
9.8415387
21
8.1222114
0
LINE
8
DEFAULT_255_2_778
10
9.8415387
20
8.1222114
11
9.8355387
21
8.1537114
0
LINE
8
DEFAULT_255_2_778
10
9.8355387
20
8.1537114
11
9.8370387
21
8.2707114
0
LINE
8
DEFAULT_255_2_778
10
9.8370387
20
8.2707114
11
9.8487387
21
8.3157114
0
LINE
8
DEFAULT_255_2_778
10
9.8487387
20
8.3157114
11
9.8841387
21
8.3815114
0
LINE
8
DEFAULT_255_2_778
10
9.8841387
20
8.3815114
11
9.9725387
21
8.4516114
0
LINE
8
DEFAULT_255_2_778
10
9.9725387
20
8.4516114
11
10.1620387
21
8.4760114
0
LINE
8
DEFAULT_255_2_778
10
10.1620387
20
8.4760114
11
10.2937387
21
8.4225114
0
LINE
8
DEFAULT_255_2_778
10
10.2937387
20
8.4225114
11
10.3572387
21
8.3466114
0
LINE
8
DEFAULT_255_2_778
10
10.3572387
20
8.3466114
11
10.3779387
21
8.2913114
0
LINE
8
DEFAULT_255_2_778
10
10.3779387
20
8.2913114
11
10.3839387
21
8.2601114
0
LINE
8
DEFAULT_255_2_778
10
10.3839387
20
8.2601114
11
10.3824387
21
8.1429114
0
LINE
8
DEFAULT_255_2_778
10
10.3824387
20
8.1429114
11
10.3707387
21
8.0974114
0
LINE
8
DEFAULT_255_2_778
10
10.3707387
20
8.0974114
11
10.3355387
21
8.0307114
0
LINE
8
DEFAULT_255_2_778
10
10.3355387
20
8.0307114
11
10.2474387
21
7.9587114
0
LINE
8
DEFAULT_255_2_778
10
10.2474387
20
7.9587114
11
10.0672387
21
7.9320114
0
LINE
8
DEFAULT_255_2_778
10
10.0672387
20
7.9320114
11
9.9233387
21
7.9894114
0
LINE
8
DEFAULT_255_2_778
10
9.9233387
20
7.9894114
11
9.9175387
21
7.9952114
0
LINE
8
DEFAULT_255_2_778
10
12.9427625
20
5.8806656
11
12.9067625
21
5.7994656
0
LINE
8
DEFAULT_255_2_778
10
12.9067625
20
5.7994656
11
12.8781625
21
5.7155656
0
LINE
8
DEFAULT_255_2_778
10
12.8781625
20
5.7155656
11
12.8609625
21
5.6510656
0
LINE
8
DEFAULT_255_2_778
10
12.8609625
20
5.6510656
11
12.8475625
21
5.5856656
0
LINE
8
DEFAULT_255_2_778
10
12.8475625
20
5.5856656
11
12.8371625
21
5.5195656
0
LINE
8
DEFAULT_255_2_778
10
12.8371625
20
5.5195656
11
12.8329625
21
5.4830656
0
LINE
8
DEFAULT_255_2_778
10
12.8329625
20
5.4830656
11
12.8295625
21
5.4464656
0
LINE
8
DEFAULT_255_2_778
10
12.8295625
20
5.4464656
11
12.8292625
21
5.1506656
0
LINE
8
DEFAULT_255_2_778
10
12.8292625
20
5.1506656
11
12.8326625
21
5.1136656
0
LINE
8
DEFAULT_255_2_778
10
12.8326625
20
5.1136656
11
12.8369625
21
5.0766656
0
LINE
8
DEFAULT_255_2_778
10
12.8369625
20
5.0766656
11
12.8469625
21
5.0096656
0
LINE
8
DEFAULT_255_2_778
10
12.8469625
20
5.0096656
11
12.8602625
21
4.9432656
0
LINE
8
DEFAULT_255_2_778
10
12.8602625
20
4.9432656
11
12.8771625
21
4.8776656
0
LINE
8
DEFAULT_255_2_778
10
12.8771625
20
4.8776656
11
12.8959625
21
4.8181656
0
LINE
8
DEFAULT_255_2_778
10
12.8959625
20
4.8181656
11
12.9308625
21
4.7310656
0
LINE
8
DEFAULT_255_2_778
10
12.9308625
20
4.7310656
11
12.9758625
21
4.6448656
0
LINE
8
DEFAULT_255_2_778
10
12.9758625
20
4.6448656
11
13.0258625
21
4.5725656
0
LINE
8
DEFAULT_255_2_778
10
13.0258625
20
4.5725656
11
13.0964625
21
4.5008656
0
LINE
8
DEFAULT_255_2_778
10
13.0964625
20
4.5008656
11
13.1925625
21
4.4416656
0
LINE
8
DEFAULT_255_2_778
10
13.1925625
20
4.4416656
11
13.3234625
21
4.4101656
0
LINE
8
DEFAULT_255_2_778
10
13.3234625
20
4.4101656
11
13.4586625
21
4.4204656
0
LINE
8
DEFAULT_255_2_778
10
13.4586625
20
4.4204656
11
13.5568625
21
4.4582656
0
LINE
8
DEFAULT_255_2_778
10
13.5568625
20
4.4582656
11
13.6476625
21
4.5262656
0
LINE
8
DEFAULT_255_2_778
10
13.6476625
20
4.5262656
11
13.7161625
21
4.6080656
0
LINE
8
DEFAULT_255_2_778
10
13.7161625
20
4.6080656
11
13.7711625
21
4.7030656
0
LINE
8
DEFAULT_255_2_778
10
13.7711625
20
4.7030656
11
13.8087625
21
4.7892656
0
LINE
8
DEFAULT_255_2_778
10
13.8087625
20
4.7892656
11
13.8293625
21
4.8485656
0
LINE
8
DEFAULT_255_2_778
10
13.8293625
20
4.8485656
11
13.8473625
21
4.9112656
0
LINE
8
DEFAULT_255_2_778
10
13.8473625
20
4.9112656
11
13.8624625
21
4.9773656
0
LINE
8
DEFAULT_255_2_778
10
13.8624625
20
4.9773656
11
13.8740625
21
5.0440656
0
LINE
8
DEFAULT_255_2_778
10
13.8740625
20
5.0440656
11
13.8788625
21
5.0776656
0
LINE
8
DEFAULT_255_2_778
10
13.8788625
20
5.0776656
11
13.8830625
21
5.1147656
0
LINE
8
DEFAULT_255_2_778
10
13.8830625
20
5.1147656
11
13.8865625
21
5.1517656
0
LINE
8
DEFAULT_255_2_778
10
13.8865625
20
5.1517656
11
13.8865625
21
5.4470656
0
LINE
8
DEFAULT_255_2_778
10
13.8865625
20
5.4470656
11
13.8830625
21
5.4835656
0
LINE
8
DEFAULT_255_2_778
10
13.8830625
20
5.4835656
11
13.8788625
21
5.5200656
0
LINE
8
DEFAULT_255_2_778
10
13.8788625
20
5.5200656
11
13.8685625
21
5.5861656
0
LINE
8
DEFAULT_255_2_778
10
13.8685625
20
5.5861656
11
13.8550625
21
5.6515656
0
LINE
8
DEFAULT_255_2_778
10
13.8550625
20
5.6515656
11
13.8378625
21
5.7161656
0
LINE
8
DEFAULT_255_2_778
10
13.8378625
20
5.7161656
11
13.8185625
21
5.7748656
0
LINE
8
DEFAULT_255_2_778
10
13.8185625
20
5.7748656
11
13.7830625
21
5.8605656
0
LINE
8
DEFAULT_255_2_778
10
13.7830625
20
5.8605656
11
13.7380625
21
5.9447656
0
LINE
8
DEFAULT_255_2_778
10
13.7380625
20
5.9447656
11
13.6883625
21
6.0145656
0
LINE
8
DEFAULT_255_2_778
10
13.6883625
20
6.0145656
11
13.6179625
21
6.0838656
0
LINE
8
DEFAULT_255_2_778
10
13.6179625
20
6.0838656
11
13.5224625
21
6.1412656
0
LINE
8
DEFAULT_255_2_778
10
13.5224625
20
6.1412656
11
13.3957625
21
6.1714656
0
LINE
8
DEFAULT_255_2_778
10
13.3957625
20
6.1714656
11
13.2652625
21
6.1635656
0
LINE
8
DEFAULT_255_2_778
10
13.2652625
20
6.1635656
11
13.1607625
21
6.1254656
0
LINE
8
DEFAULT_255_2_778
10
13.1607625
20
6.1254656
11
13.0705625
21
6.0597656
0
LINE
8
DEFAULT_255_2_778
10
13.0705625
20
6.0597656
11
13.0022625
21
5.9809656
0
LINE
8
DEFAULT_255_2_778
10
13.0022625
20
5.9809656
11
12.9427625
21
5.8806656
0
LINE
8
DEFAULT_255_2_778
10
13.0750625
20
4.8482656
11
13.0533625
21
4.9138656
0
LINE
8
DEFAULT_255_2_778
10
13.0533625
20
4.9138656
11
13.0364625
21
4.9808656
0
LINE
8
DEFAULT_255_2_778
10
13.0364625
20
4.9808656
11
13.0250625
21
5.0403656
0
LINE
8
DEFAULT_255_2_778
10
13.0250625
20
5.0403656
11
13.0165625
21
5.1004656
0
LINE
8
DEFAULT_255_2_778
10
13.0165625
20
5.1004656
11
13.0133625
21
5.1305656
0
LINE
8
DEFAULT_255_2_778
10
13.0133625
20
5.1305656
11
13.0104625
21
5.1639656
0
LINE
8
DEFAULT_255_2_778
10
13.0104625
20
5.1639656
11
13.0104625
21
5.4295656
0
LINE
8
DEFAULT_255_2_778
10
13.0104625
20
5.4295656
11
13.0133625
21
5.4623656
0
LINE
8
DEFAULT_255_2_778
10
13.0133625
20
5.4623656
11
13.0165625
21
5.4920656
0
LINE
8
DEFAULT_255_2_778
10
13.0165625
20
5.4920656
11
13.0253625
21
5.5510656
0
LINE
8
DEFAULT_255_2_778
10
13.0253625
20
5.5510656
11
13.0369625
21
5.6094656
0
LINE
8
DEFAULT_255_2_778
10
13.0369625
20
5.6094656
11
13.0541625
21
5.6750656
0
LINE
8
DEFAULT_255_2_778
10
13.0541625
20
5.6750656
11
13.0890625
21
5.7706656
0
LINE
8
DEFAULT_255_2_778
10
13.0890625
20
5.7706656
11
13.1290625
21
5.8449656
0
LINE
8
DEFAULT_255_2_778
10
13.1290625
20
5.8449656
11
13.1917625
21
5.9177656
0
LINE
8
DEFAULT_255_2_778
10
13.1917625
20
5.9177656
11
13.2756625
21
5.9661656
0
LINE
8
DEFAULT_255_2_778
10
13.2756625
20
5.9661656
11
13.3936625
21
5.9767656
0
LINE
8
DEFAULT_255_2_778
10
13.3936625
20
5.9767656
11
13.4941625
21
5.9402656
0
LINE
8
DEFAULT_255_2_778
10
13.4941625
20
5.9402656
11
13.5666625
21
5.8727656
0
LINE
8
DEFAULT_255_2_778
10
13.5666625
20
5.8727656
11
13.6118625
21
5.8012656
0
LINE
8
DEFAULT_255_2_778
10
13.6118625
20
5.8012656
11
13.6415625
21
5.7338656
0
LINE
8
DEFAULT_255_2_778
10
13.6415625
20
5.7338656
11
13.6658625
21
5.6597656
0
LINE
8
DEFAULT_255_2_778
10
13.6658625
20
5.6597656
11
13.6785625
21
5.6094656
0
LINE
8
DEFAULT_255_2_778
10
13.6785625
20
5.6094656
11
13.6902625
21
5.5510656
0
LINE
8
DEFAULT_255_2_778
10
13.6902625
20
5.5510656
11
13.6989625
21
5.4920656
0
LINE
8
DEFAULT_255_2_778
10
13.6989625
20
5.4920656
11
13.7021625
21
5.4623656
0
LINE
8
DEFAULT_255_2_778
10
13.7021625
20
5.4623656
11
13.7050625
21
5.4295656
0
LINE
8
DEFAULT_255_2_778
10
13.7050625
20
5.4295656
11
13.7050625
21
5.1639656
0
LINE
8
DEFAULT_255_2_778
10
13.7050625
20
5.1639656
11
13.7021625
21
5.1305656
0
LINE
8
DEFAULT_255_2_778
10
13.7021625
20
5.1305656
11
13.6989625
21
5.1004656
0
LINE
8
DEFAULT_255_2_778
10
13.6989625
20
5.1004656
11
13.6904625
21
5.0403656
0
LINE
8
DEFAULT_255_2_778
10
13.6904625
20
5.0403656
11
13.6790625
21
4.9808656
0
LINE
8
DEFAULT_255_2_778
10
13.6790625
20
4.9808656
11
13.6621625
21
4.9138656
0
LINE
8
DEFAULT_255_2_778
10
13.6621625
20
4.9138656
11
13.6341625
21
4.8321656
0
LINE
8
DEFAULT_255_2_778
10
13.6341625
20
4.8321656
11
13.5965625
21
4.7543656
0
LINE
8
DEFAULT_255_2_778
10
13.5965625
20
4.7543656
11
13.5340625
21
4.6733656
0
LINE
8
DEFAULT_255_2_778
10
13.5340625
20
4.6733656
11
13.4518625
21
4.6188656
0
LINE
8
DEFAULT_255_2_778
10
13.4518625
20
4.6188656
11
13.3338625
21
4.6024656
0
LINE
8
DEFAULT_255_2_778
10
13.3338625
20
4.6024656
11
13.2314625
21
4.6350656
0
LINE
8
DEFAULT_255_2_778
10
13.2314625
20
4.6350656
11
13.1560625
21
4.7014656
0
LINE
8
DEFAULT_255_2_778
10
13.1560625
20
4.7014656
11
13.1107625
21
4.7696656
0
LINE
8
DEFAULT_255_2_778
10
13.1107625
20
4.7696656
11
13.0750625
21
4.8482656
0
LINE
8
DEFAULT_255_2_778
10
11.6426084
20
6.1471656
11
12.2599084
21
6.1344656
0
LINE
8
DEFAULT_255_2_778
10
12.2599084
20
6.1344656
11
12.4356084
21
6.0674656
0
LINE
8
DEFAULT_255_2_778
10
12.4356084
20
6.0674656
11
12.5295084
21
5.9809656
0
LINE
8
DEFAULT_255_2_778
10
12.5295084
20
5.9809656
11
12.5655084
21
5.9177656
0
LINE
8
DEFAULT_255_2_778
10
12.5655084
20
5.9177656
11
12.5819084
21
5.8700656
0
LINE
8
DEFAULT_255_2_778
10
12.5819084
20
5.8700656
11
12.5922084
21
5.8200656
0
LINE
8
DEFAULT_255_2_778
10
12.5922084
20
5.8200656
11
12.5967084
21
5.7817656
0
LINE
8
DEFAULT_255_2_778
10
12.5967084
20
5.7817656
11
12.5948084
21
5.6565656
0
LINE
8
DEFAULT_255_2_778
10
12.5948084
20
5.6565656
11
12.5906084
21
5.6277656
0
LINE
8
DEFAULT_255_2_778
10
12.5906084
20
5.6277656
11
12.5808084
21
5.5853656
0
LINE
8
DEFAULT_255_2_778
10
12.5808084
20
5.5853656
11
12.5578084
21
5.5253656
0
LINE
8
DEFAULT_255_2_778
10
12.5578084
20
5.5253656
11
12.5062084
21
5.4462656
0
LINE
8
DEFAULT_255_2_778
10
12.5062084
20
5.4462656
11
12.4078084
21
5.3660656
0
LINE
8
DEFAULT_255_2_778
10
12.4078084
20
5.3660656
11
12.3543084
21
5.3435656
0
LINE
8
DEFAULT_255_2_778
10
12.3543084
20
5.3435656
11
12.4800084
21
5.2856656
0
LINE
8
DEFAULT_255_2_778
10
12.4800084
20
5.2856656
11
12.5607084
21
5.2102656
0
LINE
8
DEFAULT_255_2_778
10
12.5607084
20
5.2102656
11
12.6033084
21
5.1419656
0
LINE
8
DEFAULT_255_2_778
10
12.6033084
20
5.1419656
11
12.6282084
21
5.0768656
0
LINE
8
DEFAULT_255_2_778
10
12.6282084
20
5.0768656
11
12.6390084
21
5.0324656
0
LINE
8
DEFAULT_255_2_778
10
12.6390084
20
5.0324656
11
12.6446084
21
4.9972656
0
LINE
8
DEFAULT_255_2_778
10
12.6446084
20
4.9972656
11
12.6441084
21
4.8043656
0
LINE
8
DEFAULT_255_2_778
10
12.6441084
20
4.8043656
11
12.6364084
21
4.7609656
0
LINE
8
DEFAULT_255_2_778
10
12.6364084
20
4.7609656
11
12.6250084
21
4.7186656
0
LINE
8
DEFAULT_255_2_778
10
12.6250084
20
4.7186656
11
12.6030084
21
4.6649656
0
LINE
8
DEFAULT_255_2_778
10
12.6030084
20
4.6649656
11
12.5528084
21
4.5908656
0
LINE
8
DEFAULT_255_2_778
10
12.5528084
20
4.5908656
11
12.4446084
21
4.5045656
0
LINE
8
DEFAULT_255_2_778
10
12.4446084
20
4.5045656
11
12.2705084
21
4.4532656
0
LINE
8
DEFAULT_255_2_778
10
12.2705084
20
4.4532656
11
12.1622084
21
4.4476656
0
LINE
8
DEFAULT_255_2_778
10
12.1622084
20
4.4476656
11
11.6426084
21
4.4476656
0
LINE
8
DEFAULT_255_2_778
10
11.6426084
20
4.4476656
11
11.6426084
21
6.1471656
0
LINE
8
DEFAULT_255_2_778
10
12.1453084
20
4.6397656
11
12.3477084
21
4.6815656
0
LINE
8
DEFAULT_255_2_778
10
12.3477084
20
4.6815656
11
12.4194084
21
4.7538656
0
LINE
8
DEFAULT_255_2_778
10
12.4194084
20
4.7538656
11
12.4454084
21
4.8162656
0
LINE
8
DEFAULT_255_2_778
10
12.4454084
20
4.8162656
11
12.4546084
21
4.8575656
0
LINE
8
DEFAULT_255_2_778
10
12.4546084
20
4.8575656
11
12.4538084
21
5.0138656
0
LINE
8
DEFAULT_255_2_778
10
12.4538084
20
5.0138656
11
12.4419084
21
5.0591656
0
LINE
8
DEFAULT_255_2_778
10
12.4419084
20
5.0591656
11
12.4078084
21
5.1215656
0
LINE
8
DEFAULT_255_2_778
10
12.4078084
20
5.1215656
11
12.3070084
21
5.1985656
0
LINE
8
DEFAULT_255_2_778
10
12.3070084
20
5.1985656
11
12.1149084
21
5.2311656
0
LINE
8
DEFAULT_255_2_778
10
12.1149084
20
5.2311656
11
11.8320084
21
5.2311656
0
LINE
8
DEFAULT_255_2_778
10
11.8320084
20
5.2311656
11
11.8320084
21
4.6395656
0
LINE
8
DEFAULT_255_2_778
10
11.8320084
20
4.6395656
11
12.1453084
21
4.6397656
0
LINE
8
DEFAULT_255_2_778
10
12.0913084
20
5.4290656
11
12.3091084
21
5.4787656
0
LINE
8
DEFAULT_255_2_778
10
12.3091084
20
5.4787656
11
12.3784084
21
5.5488656
0
LINE
8
DEFAULT_255_2_778
10
12.3784084
20
5.5488656
11
12.3996084
21
5.6010656
0
LINE
8
DEFAULT_255_2_778
10
12.3996084
20
5.6010656
11
12.4070084
21
5.6414656
0
LINE
8
DEFAULT_255_2_778
10
12.4070084
20
5.6414656
11
12.4046084
21
5.7499656
0
LINE
8
DEFAULT_255_2_778
10
12.4046084
20
5.7499656
11
12.3919084
21
5.7973656
0
LINE
8
DEFAULT_255_2_778
10
12.3919084
20
5.7973656
11
12.3509084
21
5.8645656
0
LINE
8
DEFAULT_255_2_778
10
12.3509084
20
5.8645656
11
12.2583084
21
5.9282656
0
LINE
8
DEFAULT_255_2_778
10
12.2583084
20
5.9282656
11
12.0913084
21
5.9542656
0
LINE
8
DEFAULT_255_2_778
10
12.0913084
20
5.9542656
11
11.8320084
21
5.9542656
0
LINE
8
DEFAULT_255_2_778
10
11.8320084
20
5.9542656
11
11.8320084
21
5.4290656
0
LINE
8
DEFAULT_255_2_778
10
11.8320084
20
5.4290656
11
12.0913084
21
5.4290656
0
LINE
8
DEFAULT_255_2_778
10
10.6176084
20
6.1471656
11
10.8258084
21
6.1471656
0
LINE
8
DEFAULT_255_2_778
10
10.8258084
20
6.1471656
11
11.3944084
21
4.4471656
0
LINE
8
DEFAULT_255_2_778
10
11.3944084
20
4.4471656
11
11.1883084
21
4.4471656
0
LINE
8
DEFAULT_255_2_778
10
11.1883084
20
4.4471656
11
11.0489084
21
4.8906656
0
LINE
8
DEFAULT_255_2_778
10
11.0489084
20
4.8906656
11
10.3969084
21
4.8906656
0
LINE
8
DEFAULT_255_2_778
10
10.3969084
20
4.8906656
11
10.2594084
21
4.4471656
0
LINE
8
DEFAULT_255_2_778
10
10.2594084
20
4.4471656
11
10.0493084
21
4.4471656
0
LINE
8
DEFAULT_255_2_778
10
10.0493084
20
4.4471656
11
10.6176084
21
6.1471656
0
LINE
8
DEFAULT_255_2_778
10
10.4575084
20
5.0832656
11
10.9888084
21
5.0832656
0
LINE
8
DEFAULT_255_2_778
10
10.9888084
20
5.0832656
11
10.7226084
21
5.9277656
0
LINE
8
DEFAULT_255_2_778
10
10.7226084
20
5.9277656
11
10.4575084
21
5.0832656
0
LINE
8
DEFAULT_255_2_778
10
8.9375084
20
5.8806656
11
8.9015084
21
5.7994656
0
LINE
8
DEFAULT_255_2_778
10
8.9015084
20
5.7994656
11
8.8729084
21
5.7155656
0
LINE
8
DEFAULT_255_2_778
10
8.8729084
20
5.7155656
11
8.8557084
21
5.6510656
0
LINE
8
DEFAULT_255_2_778
10
8.8557084
20
5.6510656
11
8.8423084
21
5.5856656
0
LINE
8
DEFAULT_255_2_778
10
8.8423084
20
5.5856656
11
8.8319084
21
5.5195656
0
LINE
8
DEFAULT_255_2_778
10
8.8319084
20
5.5195656
11
8.8277084
21
5.4830656
0
LINE
8
DEFAULT_255_2_778
10
8.8277084
20
5.4830656
11
8.8243084
21
5.4464656
0
LINE
8
DEFAULT_255_2_778
10
8.8243084
20
5.4464656
11
8.8240084
21
5.1506656
0
LINE
8
DEFAULT_255_2_778
10
8.8240084
20
5.1506656
11
8.8274084
21
5.1136656
0
LINE
8
DEFAULT_255_2_778
10
8.8274084
20
5.1136656
11
8.8317084
21
5.0766656
0
LINE
8
DEFAULT_255_2_778
10
8.8317084
20
5.0766656
11
8.8417084
21
5.0096656
0
LINE
8
DEFAULT_255_2_778
10
8.8417084
20
5.0096656
11
8.8550084
21
4.9432656
0
LINE
8
DEFAULT_255_2_778
10
8.8550084
20
4.9432656
11
8.8719084
21
4.8776656
0
LINE
8
DEFAULT_255_2_778
10
8.8719084
20
4.8776656
11
8.8907084
21
4.8181656
0
LINE
8
DEFAULT_255_2_778
10
8.8907084
20
4.8181656
11
8.9256084
21
4.7310656
0
LINE
8
DEFAULT_255_2_778
10
8.9256084
20
4.7310656
11
8.9706084
21
4.6448656
0
LINE
8
DEFAULT_255_2_778
10
8.9706084
20
4.6448656
11
9.0206084
21
4.5725656
0
LINE
8
DEFAULT_255_2_778
10
9.0206084
20
4.5725656
11
9.0912084
21
4.5008656
0
LINE
8
DEFAULT_255_2_778
10
9.0912084
20
4.5008656
11
9.1873084
21
4.4416656
0
LINE
8
DEFAULT_255_2_778
10
9.1873084
20
4.4416656
11
9.3182084
21
4.4101656
0
LINE
8
DEFAULT_255_2_778
10
9.3182084
20
4.4101656
11
9.4534084
21
4.4204656
0
LINE
8
DEFAULT_255_2_778
10
9.4534084
20
4.4204656
11
9.5516084
21
4.4582656
0
LINE
8
DEFAULT_255_2_778
10
9.5516084
20
4.4582656
11
9.6424084
21
4.5262656
0
LINE
8
DEFAULT_255_2_778
10
9.6424084
20
4.5262656
11
9.7109084
21
4.6080656
0
LINE
8
DEFAULT_255_2_778
10
9.7109084
20
4.6080656
11
9.7659084
21
4.7030656
0
LINE
8
DEFAULT_255_2_778
10
9.7659084
20
4.7030656
11
9.8035084
21
4.7892656
0
LINE
8
DEFAULT_255_2_778
10
9.8035084
20
4.7892656
11
9.8241084
21
4.8485656
0
LINE
8
DEFAULT_255_2_778
10
9.8241084
20
4.8485656
11
9.8421084
21
4.9112656
0
LINE
8
DEFAULT_255_2_778
10
9.8421084
20
4.9112656
11
9.8572084
21
4.9773656
0
LINE
8
DEFAULT_255_2_778
10
9.8572084
20
4.9773656
11
9.8688084
21
5.0440656
0
LINE
8
DEFAULT_255_2_778
10
9.8688084
20
5.0440656
11
9.8736084
21
5.0776656
0
LINE
8
DEFAULT_255_2_778
10
9.8736084
20
5.0776656
11
9.8778084
21
5.1147656
0
LINE
8
DEFAULT_255_2_778
10
9.8778084
20
5.1147656
11
9.8813084
21
5.1517656
0
LINE
8
DEFAULT_255_2_778
10
9.8813084
20
5.1517656
11
9.8813084
21
5.4470656
0
LINE
8
DEFAULT_255_2_778
10
9.8813084
20
5.4470656
11
9.8778084
21
5.4835656
0
LINE
8
DEFAULT_255_2_778
10
9.8778084
20
5.4835656
11
9.8736084
21
5.5200656
0
LINE
8
DEFAULT_255_2_778
10
9.8736084
20
5.5200656
11
9.8633084
21
5.5861656
0
LINE
8
DEFAULT_255_2_778
10
9.8633084
20
5.5861656
11
9.8498084
21
5.6515656
0
LINE
8
DEFAULT_255_2_778
10
9.8498084
20
5.6515656
11
9.8326084
21
5.7161656
0
LINE
8
DEFAULT_255_2_778
10
9.8326084
20
5.7161656
11
9.8133084
21
5.7748656
0
LINE
8
DEFAULT_255_2_778
10
9.8133084
20
5.7748656
11
9.7778084
21
5.8605656
0
LINE
8
DEFAULT_255_2_778
10
9.7778084
20
5.8605656
11
9.7328084
21
5.9447656
0
LINE
8
DEFAULT_255_2_778
10
9.7328084
20
5.9447656
11
9.6831084
21
6.0145656
0
LINE
8
DEFAULT_255_2_778
10
9.6831084
20
6.0145656
11
9.6127084
21
6.0838656
0
LINE
8
DEFAULT_255_2_778
10
9.6127084
20
6.0838656
11
9.5172084
21
6.1412656
0
LINE
8
DEFAULT_255_2_778
10
9.5172084
20
6.1412656
11
9.3905084
21
6.1714656
0
LINE
8
DEFAULT_255_2_778
10
9.3905084
20
6.1714656
11
9.2600084
21
6.1635656
0
LINE
8
DEFAULT_255_2_778
10
9.2600084
20
6.1635656
11
9.1555084
21
6.1254656
0
LINE
8
DEFAULT_255_2_778
10
9.1555084
20
6.1254656
11
9.0653084
21
6.0597656
0
LINE
8
DEFAULT_255_2_778
10
9.0653084
20
6.0597656
11
8.9970084
21
5.9809656
0
LINE
8
DEFAULT_255_2_778
10
8.9970084
20
5.9809656
11
8.9375084
21
5.8806656
0
LINE
8
DEFAULT_255_2_778
10
9.6365084
20
5.7340656
11
9.6609084
21
5.6600656
0
LINE
8
DEFAULT_255_2_778
10
9.6609084
20
5.6600656
11
9.6736084
21
5.6097656
0
LINE
8
DEFAULT_255_2_778
10
9.6736084
20
5.6097656
11
9.6852084
21
5.5512656
0
LINE
8
DEFAULT_255_2_778
10
9.6852084
20
5.5512656
11
9.6939084
21
5.4922656
0
LINE
8
DEFAULT_255_2_778
10
9.6939084
20
5.4922656
11
9.6971084
21
5.4626656
0
LINE
8
DEFAULT_255_2_778
10
9.6971084
20
5.4626656
11
9.7000084
21
5.4298656
0
LINE
8
DEFAULT_255_2_778
10
9.7000084
20
5.4298656
11
9.7000084
21
5.1641656
0
LINE
8
DEFAULT_255_2_778
10
9.7000084
20
5.1641656
11
9.6971084
21
5.1308656
0
LINE
8
DEFAULT_255_2_778
10
9.6971084
20
5.1308656
11
9.6939084
21
5.1006656
0
LINE
8
DEFAULT_255_2_778
10
9.6939084
20
5.1006656
11
9.6855084
21
5.0406656
0
LINE
8
DEFAULT_255_2_778
10
9.6855084
20
5.0406656
11
9.6741084
21
4.9810656
0
LINE
8
DEFAULT_255_2_778
10
9.6741084
20
4.9810656
11
9.6572084
21
4.9141656
0
LINE
8
DEFAULT_255_2_778
10
9.6572084
20
4.9141656
11
9.6291084
21
4.8323656
0
LINE
8
DEFAULT_255_2_778
10
9.6291084
20
4.8323656
11
9.5916084
21
4.7546656
0
LINE
8
DEFAULT_255_2_778
10
9.5916084
20
4.7546656
11
9.5291084
21
4.6736656
0
LINE
8
DEFAULT_255_2_778
10
9.5291084
20
4.6736656
11
9.4468084
21
4.6191656
0
LINE
8
DEFAULT_255_2_778
10
9.4468084
20
4.6191656
11
9.3288084
21
4.6027656
0
LINE
8
DEFAULT_255_2_778
10
9.3288084
20
4.6027656
11
9.2264084
21
4.6352656
0
LINE
8
DEFAULT_255_2_778
10
9.2264084
20
4.6352656
11
9.1510084
21
4.7016656
0
LINE
8
DEFAULT_255_2_778
10
9.1510084
20
4.7016656
11
9.1058084
21
4.7699656
0
LINE
8
DEFAULT_255_2_778
10
9.1058084
20
4.7699656
11
9.0703084
21
4.8487656
0
LINE
8
DEFAULT_255_2_778
10
9.0703084
20
4.8487656
11
9.0486084
21
4.9144656
0
LINE
8
DEFAULT_255_2_778
10
9.0486084
20
4.9144656
11
9.0317084
21
4.9813656
0
LINE
8
DEFAULT_255_2_778
10
9.0317084
20
4.9813656
11
9.0203084
21
5.0408656
0
LINE
8
DEFAULT_255_2_778
10
9.0203084
20
5.0408656
11
9.0119084
21
5.1009656
0
LINE
8
DEFAULT_255_2_778
10
9.0119084
20
5.1009656
11
9.0087084
21
5.1311656
0
LINE
8
DEFAULT_255_2_778
10
9.0087084
20
5.1311656
11
9.0058084
21
5.1644656
0
LINE
8
DEFAULT_255_2_778
10
9.0058084
20
5.1644656
11
9.0058084
21
5.4300656
0
LINE
8
DEFAULT_255_2_778
10
9.0058084
20
5.4300656
11
9.0087084
21
5.4628656
0
LINE
8
DEFAULT_255_2_778
10
9.0087084
20
5.4628656
11
9.0119084
21
5.4925656
0
LINE
8
DEFAULT_255_2_778
10
9.0119084
20
5.4925656
11
9.0206084
21
5.5515656
0
LINE
8
DEFAULT_255_2_778
10
9.0206084
20
5.5515656
11
9.0322084
21
5.6100656
0
LINE
8
DEFAULT_255_2_778
10
9.0322084
20
5.6100656
11
9.0494084
21
5.6756656
0
LINE
8
DEFAULT_255_2_778
10
9.0494084
20
5.6756656
11
9.0843084
21
5.7711656
0
LINE
8
DEFAULT_255_2_778
10
9.0843084
20
5.7711656
11
9.1243084
21
5.8454656
0
LINE
8
DEFAULT_255_2_778
10
9.1243084
20
5.8454656
11
9.1870084
21
5.9182656
0
LINE
8
DEFAULT_255_2_778
10
9.1870084
20
5.9182656
11
9.2709084
21
5.9666656
0
LINE
8
DEFAULT_255_2_778
10
9.2709084
20
5.9666656
11
9.3889084
21
5.9772656
0
LINE
8
DEFAULT_255_2_778
10
9.3889084
20
5.9772656
11
9.4894084
21
5.9407656
0
LINE
8
DEFAULT_255_2_778
10
9.4894084
20
5.9407656
11
9.5619084
21
5.8732656
0
LINE
8
DEFAULT_255_2_778
10
9.5619084
20
5.8732656
11
9.6072084
21
5.8018656
0
LINE
8
DEFAULT_255_2_778
10
9.6072084
20
5.8018656
11
9.6365084
21
5.7340656
0
LINE
8
DEFAULT_255_2_778
10
5.7481625
20
5.8806656
11
5.7121625
21
5.7994656
0
LINE
8
DEFAULT_255_2_778
10
5.7121625
20
5.7994656
11
5.6835625
21
5.7155656
0
LINE
8
DEFAULT_255_2_778
10
5.6835625
20
5.7155656
11
5.6663625
21
5.6510656
0
LINE
8
DEFAULT_255_2_778
10
5.6663625
20
5.6510656
11
5.6529625
21
5.5856656
0
LINE
8
DEFAULT_255_2_778
10
5.6529625
20
5.5856656
11
5.6425625
21
5.5195656
0
LINE
8
DEFAULT_255_2_778
10
5.6425625
20
5.5195656
11
5.6383625
21
5.4830656
0
LINE
8
DEFAULT_255_2_778
10
5.6383625
20
5.4830656
11
5.6349625
21
5.4464656
0
LINE
8
DEFAULT_255_2_778
10
5.6349625
20
5.4464656
11
5.6346625
21
5.1506656
0
LINE
8
DEFAULT_255_2_778
10
5.6346625
20
5.1506656
11
5.6380625
21
5.1136656
0
LINE
8
DEFAULT_255_2_778
10
5.6380625
20
5.1136656
11
5.6423625
21
5.0766656
0
LINE
8
DEFAULT_255_2_778
10
5.6423625
20
5.0766656
11
5.6523625
21
5.0096656
0
LINE
8
DEFAULT_255_2_778
10
5.6523625
20
5.0096656
11
5.6656625
21
4.9432656
0
LINE
8
DEFAULT_255_2_778
10
5.6656625
20
4.9432656
11
5.6825625
21
4.8776656
0
LINE
8
DEFAULT_255_2_778
10
5.6825625
20
4.8776656
11
5.7013625
21
4.8181656
0
LINE
8
DEFAULT_255_2_778
10
5.7013625
20
4.8181656
11
5.7362625
21
4.7310656
0
LINE
8
DEFAULT_255_2_778
10
5.7362625
20
4.7310656
11
5.7812625
21
4.6448656
0
LINE
8
DEFAULT_255_2_778
10
5.7812625
20
4.6448656
11
5.8312625
21
4.5725656
0
LINE
8
DEFAULT_255_2_778
10
5.8312625
20
4.5725656
11
5.9018625
21
4.5008656
0
LINE
8
DEFAULT_255_2_778
10
5.9018625
20
4.5008656
11
5.9979625
21
4.4416656
0
LINE
8
DEFAULT_255_2_778
10
5.9979625
20
4.4416656
11
6.1288625
21
4.4101656
0
LINE
8
DEFAULT_255_2_778
10
6.1288625
20
4.4101656
11
6.2640625
21
4.4204656
0
LINE
8
DEFAULT_255_2_778
10
6.2640625
20
4.4204656
11
6.3622625
21
4.4582656
0
LINE
8
DEFAULT_255_2_778
10
6.3622625
20
4.4582656
11
6.4530625
21
4.5262656
0
LINE
8
DEFAULT_255_2_778
10
6.4530625
20
4.5262656
11
6.5215625
21
4.6080656
0
LINE
8
DEFAULT_255_2_778
10
6.5215625
20
4.6080656
11
6.5765625
21
4.7030656
0
LINE
8
DEFAULT_255_2_778
10
6.5765625
20
4.7030656
11
6.6141625
21
4.7892656
0
LINE
8
DEFAULT_255_2_778
10
6.6141625
20
4.7892656
11
6.6347625
21
4.8485656
0
LINE
8
DEFAULT_255_2_778
10
6.6347625
20
4.8485656
11
6.6527625
21
4.9112656
0
LINE
8
DEFAULT_255_2_778
10
6.6527625
20
4.9112656
11
6.6678625
21
4.9773656
0
LINE
8
DEFAULT_255_2_778
10
6.6678625
20
4.9773656
11
6.6794625
21
5.0440656
0
LINE
8
DEFAULT_255_2_778
10
6.6794625
20
5.0440656
11
6.6842625
21
5.0776656
0
LINE
8
DEFAULT_255_2_778
10
6.6842625
20
5.0776656
11
6.6884625
21
5.1147656
0
LINE
8
DEFAULT_255_2_778
10
6.6884625
20
5.1147656
11
6.6919625
21
5.1517656
0
LINE
8
DEFAULT_255_2_778
10
6.6919625
20
5.1517656
11
6.6919625
21
5.4470656
0
LINE
8
DEFAULT_255_2_778
10
6.6919625
20
5.4470656
11
6.6884625
21
5.4835656
0
LINE
8
DEFAULT_255_2_778
10
6.6884625
20
5.4835656
11
6.6842625
21
5.5200656
0
LINE
8
DEFAULT_255_2_778
10
6.6842625
20
5.5200656
11
6.6739625
21
5.5861656
0
LINE
8
DEFAULT_255_2_778
10
6.6739625
20
5.5861656
11
6.6604625
21
5.6515656
0
LINE
8
DEFAULT_255_2_778
10
6.6604625
20
5.6515656
11
6.6432625
21
5.7161656
0
LINE
8
DEFAULT_255_2_778
10
6.6432625
20
5.7161656
11
6.6239625
21
5.7748656
0
LINE
8
DEFAULT_255_2_778
10
6.6239625
20
5.7748656
11
6.5884625
21
5.8605656
0
LINE
8
DEFAULT_255_2_778
10
6.5884625
20
5.8605656
11
6.5434625
21
5.9447656
0
LINE
8
DEFAULT_255_2_778
10
6.5434625
20
5.9447656
11
6.4937625
21
6.0145656
0
LINE
8
DEFAULT_255_2_778
10
6.4937625
20
6.0145656
11
6.4233625
21
6.0838656
0
LINE
8
DEFAULT_255_2_778
10
6.4233625
20
6.0838656
11
6.3278625
21
6.1412656
0
LINE
8
DEFAULT_255_2_778
10
6.3278625
20
6.1412656
11
6.2011625
21
6.1714656
0
LINE
8
DEFAULT_255_2_778
10
6.2011625
20
6.1714656
11
6.0706625
21
6.1635656
0
LINE
8
DEFAULT_255_2_778
10
6.0706625
20
6.1635656
11
5.9661625
21
6.1254656
0
LINE
8
DEFAULT_255_2_778
10
5.9661625
20
6.1254656
11
5.8759625
21
6.0597656
0
LINE
8
DEFAULT_255_2_778
10
5.8759625
20
6.0597656
11
5.8076625
21
5.9809656
0
LINE
8
DEFAULT_255_2_778
10
5.8076625
20
5.9809656
11
5.7481625
21
5.8806656
0
LINE
8
DEFAULT_255_2_778
10
5.8804625
20
4.8482656
11
5.8587625
21
4.9138656
0
LINE
8
DEFAULT_255_2_778
10
5.8587625
20
4.9138656
11
5.8418625
21
4.9808656
0
LINE
8
DEFAULT_255_2_778
10
5.8418625
20
4.9808656
11
5.8304625
21
5.0403656
0
LINE
8
DEFAULT_255_2_778
10
5.8304625
20
5.0403656
11
5.8219625
21
5.1004656
0
LINE
8
DEFAULT_255_2_778
10
5.8219625
20
5.1004656
11
5.8187625
21
5.1305656
0
LINE
8
DEFAULT_255_2_778
10
5.8187625
20
5.1305656
11
5.8158625
21
5.1639656
0
LINE
8
DEFAULT_255_2_778
10
5.8158625
20
5.1639656
11
5.8158625
21
5.4295656
0
LINE
8
DEFAULT_255_2_778
10
5.8158625
20
5.4295656
11
5.8187625
21
5.4623656
0
LINE
8
DEFAULT_255_2_778
10
5.8187625
20
5.4623656
11
5.8219625
21
5.4920656
0
LINE
8
DEFAULT_255_2_778
10
5.8219625
20
5.4920656
11
5.8307625
21
5.5510656
0
LINE
8
DEFAULT_255_2_778
10
5.8307625
20
5.5510656
11
5.8423625
21
5.6094656
0
LINE
8
DEFAULT_255_2_778
10
5.8423625
20
5.6094656
11
5.8595625
21
5.6750656
0
LINE
8
DEFAULT_255_2_778
10
5.8595625
20
5.6750656
11
5.8944625
21
5.7706656
0
LINE
8
DEFAULT_255_2_778
10
5.8944625
20
5.7706656
11
5.9344625
21
5.8449656
0
LINE
8
DEFAULT_255_2_778
10
5.9344625
20
5.8449656
11
5.9971625
21
5.9177656
0
LINE
8
DEFAULT_255_2_778
10
5.9971625
20
5.9177656
11
6.0810625
21
5.9661656
0
LINE
8
DEFAULT_255_2_778
10
6.0810625
20
5.9661656
11
6.1990625
21
5.9767656
0
LINE
8
DEFAULT_255_2_778
10
6.1990625
20
5.9767656
11
6.2995625
21
5.9402656
0
LINE
8
DEFAULT_255_2_778
10
6.2995625
20
5.9402656
11
6.3720625
21
5.8727656
0
LINE
8
DEFAULT_255_2_778
10
6.3720625
20
5.8727656
11
6.4172625
21
5.8012656
0
LINE
8
DEFAULT_255_2_778
10
6.4172625
20
5.8012656
11
6.4469625
21
5.7338656
0
LINE
8
DEFAULT_255_2_778
10
6.4469625
20
5.7338656
11
6.4712625
21
5.6597656
0
LINE
8
DEFAULT_255_2_778
10
6.4712625
20
5.6597656
11
6.4839625
21
5.6094656
0
LINE
8
DEFAULT_255_2_778
10
6.4839625
20
5.6094656
11
6.4956625
21
5.5510656
0
LINE
8
DEFAULT_255_2_778
10
6.4956625
20
5.5510656
11
6.5043625
21
5.4920656
0
LINE
8
DEFAULT_255_2_778
10
6.5043625
20
5.4920656
11
6.5075625
21
5.4623656
0
LINE
8
DEFAULT_255_2_778
10
6.5075625
20
5.4623656
11
6.5104625
21
5.4295656
0
LINE
8
DEFAULT_255_2_778
10
6.5104625
20
5.4295656
11
6.5104625
21
5.1639656
0
LINE
8
DEFAULT_255_2_778
10
6.5104625
20
5.1639656
11
6.5075625
21
5.1305656
0
LINE
8
DEFAULT_255_2_778
10
6.5075625
20
5.1305656
11
6.5043625
21
5.1004656
0
LINE
8
DEFAULT_255_2_778
10
6.5043625
20
5.1004656
11
6.4958625
21
5.0403656
0
LINE
8
DEFAULT_255_2_778
10
6.4958625
20
5.0403656
11
6.4844625
21
4.9808656
0
LINE
8
DEFAULT_255_2_778
10
6.4844625
20
4.9808656
11
6.4675625
21
4.9138656
0
LINE
8
DEFAULT_255_2_778
10
6.4675625
20
4.9138656
11
6.4395625
21
4.8321656
0
LINE
8
DEFAULT_255_2_778
10
6.4395625
20
4.8321656
11
6.4019625
21
4.7543656
0
LINE
8
DEFAULT_255_2_778
10
6.4019625
20
4.7543656
11
6.3394625
21
4.6733656
0
LINE
8
DEFAULT_255_2_778
10
6.3394625
20
4.6733656
11
6.2572625
21
4.6188656
0
LINE
8
DEFAULT_255_2_778
10
6.2572625
20
4.6188656
11
6.1392625
21
4.6024656
0
LINE
8
DEFAULT_255_2_778
10
6.1392625
20
4.6024656
11
6.0368625
21
4.6350656
0
LINE
8
DEFAULT_255_2_778
10
6.0368625
20
4.6350656
11
5.9614625
21
4.7014656
0
LINE
8
DEFAULT_255_2_778
10
5.9614625
20
4.7014656
11
5.9161625
21
4.7696656
0
LINE
8
DEFAULT_255_2_778
10
5.9161625
20
4.7696656
11
5.8804625
21
4.8482656
0
LINE
8
DEFAULT_255_2_778
10
4.2693833
20
6.1471385
11
4.8429833
21
6.1378385
0
LINE
8
DEFAULT_255_2_778
10
4.8429833
20
6.1378385
11
4.9961833
21
6.0995385
0
LINE
8
DEFAULT_255_2_778
10
4.9961833
20
6.0995385
11
5.0956833
21
6.0497385
0
LINE
8
DEFAULT_255_2_778
10
5.0956833
20
6.0497385
11
5.1811833
21
5.9807385
0
LINE
8
DEFAULT_255_2_778
10
5.1811833
20
5.9807385
11
5.2525833
21
5.8952385
0
LINE
8
DEFAULT_255_2_778
10
5.2525833
20
5.8952385
11
5.2991833
21
5.8188385
0
LINE
8
DEFAULT_255_2_778
10
5.2991833
20
5.8188385
11
5.3277833
21
5.7582385
0
LINE
8
DEFAULT_255_2_778
10
5.3277833
20
5.7582385
11
5.3496833
21
5.7002385
0
LINE
8
DEFAULT_255_2_778
10
5.3496833
20
5.7002385
11
5.3671833
21
5.6412385
0
LINE
8
DEFAULT_255_2_778
10
5.3671833
20
5.6412385
11
5.3806833
21
5.5812385
0
LINE
8
DEFAULT_255_2_778
10
5.3806833
20
5.5812385
11
5.3906833
21
5.5203385
0
LINE
8
DEFAULT_255_2_778
10
5.3906833
20
5.5203385
11
5.3890833
21
5.0229385
0
LINE
8
DEFAULT_255_2_778
10
5.3890833
20
5.0229385
11
5.3779833
21
4.9618385
0
LINE
8
DEFAULT_255_2_778
10
5.3779833
20
4.9618385
11
5.3629833
21
4.9017385
0
LINE
8
DEFAULT_255_2_778
10
5.3629833
20
4.9017385
11
5.3433833
21
4.8427385
0
LINE
8
DEFAULT_255_2_778
10
5.3433833
20
4.8427385
11
5.3046833
21
4.7565385
0
LINE
8
DEFAULT_255_2_778
10
5.3046833
20
4.7565385
11
5.2480833
21
4.6670385
0
LINE
8
DEFAULT_255_2_778
10
5.2480833
20
4.6670385
11
5.1776833
21
4.5892385
0
LINE
8
DEFAULT_255_2_778
10
5.1776833
20
4.5892385
11
5.0927833
21
4.5268385
0
LINE
8
DEFAULT_255_2_778
10
5.0927833
20
4.5268385
11
4.9686833
21
4.4755385
0
LINE
8
DEFAULT_255_2_778
10
4.9686833
20
4.4755385
11
4.7450833
21
4.4466385
0
LINE
8
DEFAULT_255_2_778
10
4.7450833
20
4.4466385
11
4.2688833
21
4.4466385
0
LINE
8
DEFAULT_255_2_778
10
4.2688833
20
4.4466385
11
4.2693833
21
6.1471385
0
LINE
8
DEFAULT_255_2_778
10
4.7466833
20
4.6398385
11
4.9168833
21
4.6644385
0
LINE
8
DEFAULT_255_2_778
10
4.9168833
20
4.6644385
11
5.0255833
21
4.7202385
0
LINE
8
DEFAULT_255_2_778
10
5.0255833
20
4.7202385
11
5.0999833
21
4.7956385
0
LINE
8
DEFAULT_255_2_778
10
5.0999833
20
4.7956385
11
5.1361833
21
4.8546385
0
LINE
8
DEFAULT_255_2_778
10
5.1361833
20
4.8546385
11
5.1660833
21
4.9266385
0
LINE
8
DEFAULT_255_2_778
10
5.1660833
20
4.9266385
11
5.1845833
21
4.9906385
0
LINE
8
DEFAULT_255_2_778
10
5.1845833
20
4.9906385
11
5.1943833
21
5.0366385
0
LINE
8
DEFAULT_255_2_778
10
5.1943833
20
5.0366385
11
5.2020833
21
5.0832385
0
LINE
8
DEFAULT_255_2_778
10
5.2020833
20
5.0832385
11
5.2086833
21
5.1396385
0
LINE
8
DEFAULT_255_2_778
10
5.2086833
20
5.1396385
11
5.2083833
21
5.4658385
0
LINE
8
DEFAULT_255_2_778
10
5.2083833
20
5.4658385
11
5.2022833
21
5.5113385
0
LINE
8
DEFAULT_255_2_778
10
5.2022833
20
5.5113385
11
5.1938833
21
5.5563385
0
LINE
8
DEFAULT_255_2_778
10
5.1938833
20
5.5563385
11
5.1824833
21
5.6007385
0
LINE
8
DEFAULT_255_2_778
10
5.1824833
20
5.6007385
11
5.1597833
21
5.6661385
0
LINE
8
DEFAULT_255_2_778
10
5.1597833
20
5.6661385
11
5.1229833
21
5.7399385
0
LINE
8
DEFAULT_255_2_778
10
5.1229833
20
5.7399385
11
5.0644833
21
5.8193385
0
LINE
8
DEFAULT_255_2_778
10
5.0644833
20
5.8193385
11
4.9906833
21
5.8825385
0
LINE
8
DEFAULT_255_2_778
10
4.9906833
20
5.8825385
11
4.8638833
21
5.9365385
0
LINE
8
DEFAULT_255_2_778
10
4.8638833
20
5.9365385
11
4.7085833
21
5.9547385
0
LINE
8
DEFAULT_255_2_778
10
4.7085833
20
5.9547385
11
4.4590833
21
5.9547385
0
LINE
8
DEFAULT_255_2_778
10
4.4590833
20
5.9547385
11
4.4590833
21
4.6403385
0
LINE
8
DEFAULT_255_2_778
10
4.4590833
20
4.6403385
11
4.7466833
21
4.6398385
0
LINE
8
DEFAULT_255_2_778
10
2.8229833
20
6.1471385
11
3.3965833
21
6.1378385
0
LINE
8
DEFAULT_255_2_778
10
3.3965833
20
6.1378385
11
3.5497833
21
6.0995385
0
LINE
8
DEFAULT_255_2_778
10
3.5497833
20
6.0995385
11
3.6492833
21
6.0497385
0
LINE
8
DEFAULT_255_2_778
10
3.6492833
20
6.0497385
11
3.7347833
21
5.9807385
0
LINE
8
DEFAULT_255_2_778
10
3.7347833
20
5.9807385
11
3.8061833
21
5.8952385
0
LINE
8
DEFAULT_255_2_778
10
3.8061833
20
5.8952385
11
3.8527833
21
5.8188385
0
LINE
8
DEFAULT_255_2_778
10
3.8527833
20
5.8188385
11
3.8813833
21
5.7582385
0
LINE
8
DEFAULT_255_2_778
10
3.8813833
20
5.7582385
11
3.9032833
21
5.7002385
0
LINE
8
DEFAULT_255_2_778
10
3.9032833
20
5.7002385
11
3.9207833
21
5.6412385
0
LINE
8
DEFAULT_255_2_778
10
3.9207833
20
5.6412385
11
3.9342833
21
5.5812385
0
LINE
8
DEFAULT_255_2_778
10
3.9342833
20
5.5812385
11
3.9442833
21
5.5203385
0
LINE
8
DEFAULT_255_2_778
10
3.9442833
20
5.5203385
11
3.9426833
21
5.0229385
0
LINE
8
DEFAULT_255_2_778
10
3.9426833
20
5.0229385
11
3.9315833
21
4.9618385
0
LINE
8
DEFAULT_255_2_778
10
3.9315833
20
4.9618385
11
3.9165833
21
4.9017385
0
LINE
8
DEFAULT_255_2_778
10
3.9165833
20
4.9017385
11
3.8969833
21
4.8427385
0
LINE
8
DEFAULT_255_2_778
10
3.8969833
20
4.8427385
11
3.8582833
21
4.7565385
0
LINE
8
DEFAULT_255_2_778
10
3.8582833
20
4.7565385
11
3.8016833
21
4.6670385
0
LINE
8
DEFAULT_255_2_778
10
3.8016833
20
4.6670385
11
3.7312833
21
4.5892385
0
LINE
8
DEFAULT_255_2_778
10
3.7312833
20
4.5892385
11
3.6463833
21
4.5268385
0
LINE
8
DEFAULT_255_2_778
10
3.6463833
20
4.5268385
11
3.5222833
21
4.4755385
0
LINE
8
DEFAULT_255_2_778
10
3.5222833
20
4.4755385
11
3.2986833
21
4.4466385
0
LINE
8
DEFAULT_255_2_778
10
3.2986833
20
4.4466385
11
2.8224833
21
4.4466385
0
LINE
8
DEFAULT_255_2_778
10
2.8224833
20
4.4466385
11
2.8229833
21
6.1471385
0
LINE
8
DEFAULT_255_2_778
10
3.3002833
20
4.6398385
11
3.4704833
21
4.6644385
0
LINE
8
DEFAULT_255_2_778
10
3.4704833
20
4.6644385
11
3.5791833
21
4.7202385
0
LINE
8
DEFAULT_255_2_778
10
3.5791833
20
4.7202385
11
3.6535833
21
4.7956385
0
LINE
8
DEFAULT_255_2_778
10
3.6535833
20
4.7956385
11
3.6897833
21
4.8546385
0
LINE
8
DEFAULT_255_2_778
10
3.6897833
20
4.8546385
11
3.7196833
21
4.9266385
0
LINE
8
DEFAULT_255_2_778
10
3.7196833
20
4.9266385
11
3.7381833
21
4.9906385
0
LINE
8
DEFAULT_255_2_778
10
3.7381833
20
4.9906385
11
3.7479833
21
5.0366385
0
LINE
8
DEFAULT_255_2_778
10
3.7479833
20
5.0366385
11
3.7556833
21
5.0832385
0
LINE
8
DEFAULT_255_2_778
10
3.7556833
20
5.0832385
11
3.7622833
21
5.1396385
0
LINE
8
DEFAULT_255_2_778
10
3.7622833
20
5.1396385
11
3.7619833
21
5.4658385
0
LINE
8
DEFAULT_255_2_778
10
3.7619833
20
5.4658385
11
3.7558833
21
5.5113385
0
LINE
8
DEFAULT_255_2_778
10
3.7558833
20
5.5113385
11
3.7474833
21
5.5563385
0
LINE
8
DEFAULT_255_2_778
10
3.7474833
20
5.5563385
11
3.7360833
21
5.6007385
0
LINE
8
DEFAULT_255_2_778
10
3.7360833
20
5.6007385
11
3.7133833
21
5.6661385
0
LINE
8
DEFAULT_255_2_778
10
3.7133833
20
5.6661385
11
3.6765833
21
5.7399385
0
LINE
8
DEFAULT_255_2_778
10
3.6765833
20
5.7399385
11
3.6180833
21
5.8193385
0
LINE
8
DEFAULT_255_2_778
10
3.6180833
20
5.8193385
11
3.5442833
21
5.8825385
0
LINE
8
DEFAULT_255_2_778
10
3.5442833
20
5.8825385
11
3.4174833
21
5.9365385
0
LINE
8
DEFAULT_255_2_778
10
3.4174833
20
5.9365385
11
3.2621833
21
5.9547385
0
LINE
8
DEFAULT_255_2_778
10
3.2621833
20
5.9547385
11
3.0126833
21
5.9547385
0
LINE
8
DEFAULT_255_2_778
10
3.0126833
20
5.9547385
11
3.0126833
21
4.6403385
0
LINE
8
DEFAULT_255_2_778
10
3.0126833
20
4.6403385
11
3.3002833
21
4.6398385
0
LINE
8
DEFAULT_255_2_778
10
2.0835323
20
6.1471416
11
2.3025323
21
6.1471416
0
LINE
8
DEFAULT_255_2_778
10
2.3025323
20
6.1471416
11
2.3025323
21
5.0581416
0
LINE
8
DEFAULT_255_2_778
10
2.3025323
20
5.0581416
11
2.5647323
21
5.0581416
0
LINE
8
DEFAULT_255_2_778
10
2.5647323
20
5.0581416
11
2.5647323
21
4.8726416
0
LINE
8
DEFAULT_255_2_778
10
2.5647323
20
4.8726416
11
2.3025323
21
4.8726416
0
LINE
8
DEFAULT_255_2_778
10
2.3025323
20
4.8726416
11
2.3025323
21
4.4474416
0
LINE
8
DEFAULT_255_2_778
10
2.3025323
20
4.4474416
11
2.1171323
21
4.4474416
0
LINE
8
DEFAULT_255_2_778
10
2.1171323
20
4.4474416
11
2.1171323
21
4.8726416
0
LINE
8
DEFAULT_255_2_778
10
2.1171323
20
4.8726416
11
1.4728323
21
4.8726416
0
LINE
8
DEFAULT_255_2_778
10
1.4728323
20
4.8726416
11
1.4728323
21
5.0774416
0
LINE
8
DEFAULT_255_2_778
10
1.4728323
20
5.0774416
11
2.0835323
21
6.1471416
0
LINE
8
DEFAULT_255_2_778
10
1.6347323
20
5.0578416
11
2.1168323
21
5.0578416
0
LINE
8
DEFAULT_255_2_778
10
2.1168323
20
5.0578416
11
2.1168323
21
5.9047416
0
LINE
8
DEFAULT_255_2_778
10
2.1168323
20
5.9047416
11
1.6347323
21
5.0578416
0
ENDSEC
0
EOF