0
SECTION
2
HEADER
9
$MEASUREMENT
70
1
0
ENDSEC
0
SECTION
2
TABLES
0
TABLE
2
LTYPE
0
LTYPE
72
65
70
64
2
CONTINUOUS
3
______
73
0
40
0
0
ENDTAB
0
TABLE
2
LAYER
0
LAYER
2
DEFAULT_255_2_778
70
0
62
255
6
CONTINUOUS
0
ENDTAB
0
ENDSEC
0
SECTION
2
ENTITIES
0
ARC
8
DEFAULT_255_2_778
10
29.261913
20
95.1441716
40
7.9975793
50
249.6306923
51
270.001313
0
LINE
8
DEFAULT_255_2_778
10
29.2620962
20
87.1465923
11
29.4782962
21
87.1465923
0
LINE
8
DEFAULT_255_2_778
10
29.4782962
20
87.1465923
11
29.5129962
21
87.1431923
0
LINE
8
DEFAULT_255_2_778
10
29.5129962
20
87.1431923
11
29.5512962
21
87.1315923
0
LINE
8
DEFAULT_255_2_778
10
29.5512962
20
87.1315923
11
29.5915962
21
87.1095923
0
LINE
8
DEFAULT_255_2_778
10
29.5915962
20
87.1095923
11
29.6319962
21
87.0759923
0
LINE
8
DEFAULT_255_2_778
10
51.1780962
20
77.7467923
11
55.7781962
21
77.7467923
0
LINE
8
DEFAULT_255_2_778
10
55.7781962
20
77.7467923
11
56.1781962
21
77.3466923
0
LINE
8
DEFAULT_255_2_778
10
56.1781962
20
77.3466923
11
56.1781962
21
55.5667923
0
LINE
8
DEFAULT_255_2_778
10
56.1781962
20
55.5667923
11
55.7781962
21
55.1666923
0
LINE
8
DEFAULT_255_2_778
10
55.7781962
20
55.1666923
11
51.1780962
21
55.1666923
0
LINE
8
DEFAULT_255_2_778
10
33.2779962
20
82.4467923
11
33.3829962
21
83.6466923
0
LINE
8
DEFAULT_255_2_778
10
33.3829962
20
83.6466923
11
33.8830962
21
83.6466923
0
LINE
8
DEFAULT_255_2_778
10
33.8830962
20
83.6466923
11
35.3131962
21
82.4467923
0
ARC
8
DEFAULT_255_2_778
10
29.4780778
20
86.6469091
40
0.4996897
50
44.9766167
51
90.0025073
0
ARC
8
DEFAULT_255_2_778
10
29.4783085
20
86.6465967
40
0.4997474
50
359.9887792
51
45.0206486
0
ARC
8
DEFAULT_255_2_778
10
23.0783376
20
0.8715612
40
0.4997183
50
314.4937586
51
359.9928428
0
ARC
8
DEFAULT_255_2_778
10
23.0778711
20
0.8719634
40
0.5003321
50
269.9903751
51
314.4995829
0
ARC
8
DEFAULT_255_2_778
10
23.0777783
20
0.8732066
40
0.5015754
50
269.0607039
51
270.001007
0
ARC
8
DEFAULT_255_2_778
10
22.9309975
20
-7.6243844
40
7.9972836
50
89.0072617
51
89.9999757
0
ARC
8
DEFAULT_255_2_778
10
22.9311215
20
-7.6257583
40
7.9986574
50
90.000864
51
110.8964768
0
ARC
8
DEFAULT_255_2_778
10
20.0781528
20
0.3468957
40
0.5000969
50
179.9996485
51
270.0003515
0
LINE
8
DEFAULT_255_2_778
10
3.9782559
20
45.4466988
11
3.9778786
21
45.4466989
0
ARC
8
DEFAULT_255_2_778
10
3.9779076
20
44.5467968
40
0.8999021
50
90.0018454
51
134.9932326
0
ARC
8
DEFAULT_255_2_778
10
3.9776365
20
44.5471214
40
0.8994808
50
134.9956406
51
180.0092286
0
LINE
8
DEFAULT_255_2_778
10
3.0781558
20
44.5469765
11
3.0781559
21
44.5465988
0
LINE
8
DEFAULT_255_2_778
10
3.0781559
20
42.9465988
11
3.0781558
21
42.9462211
0
ARC
8
DEFAULT_255_2_778
10
3.9776365
20
42.9460762
40
0.8994807
50
179.9907714
51
225.0043594
0
ARC
8
DEFAULT_255_2_778
10
3.9779076
20
42.9464008
40
0.8999021
50
225.0067674
51
269.9981546
0
LINE
8
DEFAULT_255_2_778
10
3.9778786
20
42.0464987
11
3.9782559
21
42.0464988
0
ARC
8
DEFAULT_255_2_778
10
0.4781644
20
3.4466077
40
0.3001085
50
179.9826024
51
224.9730497
0
ARC
8
DEFAULT_255_2_778
10
0.4779647
20
3.4468069
40
0.3001081
50
225.0269039
51
270.0174139
0
ARC
8
DEFAULT_255_2_778
10
50.6782801
20
2.2468745
40
0.5000757
50
269.9972237
51
359.991324
0
LINE
8
DEFAULT_255_2_778
10
29.9780559
20
86.6464988
11
29.9780559
21
84.3464988
0
LINE
8
DEFAULT_255_2_778
10
23.5780559
20
3.1466988
11
23.5780559
21
0.8714988
0
LINE
8
DEFAULT_255_2_778
10
19.5780559
20
0.3468988
11
19.5780559
21
3.1466988
0
LINE
8
DEFAULT_255_2_778
10
3.0781559
20
44.5465988
11
3.0781559
21
42.9465988
0
LINE
8
DEFAULT_255_2_778
10
3.9782559
20
42.0464988
11
4.8783559
21
42.0464988
0
LINE
8
DEFAULT_255_2_778
10
4.8783559
20
42.0464988
11
4.8783559
21
45.4463988
0
LINE
8
DEFAULT_255_2_778
10
4.8783559
20
45.4463988
11
3.9782559
21
45.4463988
0
LINE
8
DEFAULT_255_2_778
10
0.1780559
20
84.3443988
11
0.1780559
21
3.4466988
0
LINE
8
DEFAULT_255_2_778
10
0.4780559
20
3.1466988
11
31.1782559
21
3.1466988
0
LINE
8
DEFAULT_255_2_778
10
31.1782559
20
3.1466988
11
31.1782559
21
1.7467988
0
LINE
8
DEFAULT_255_2_778
10
31.1782559
20
1.7467988
11
50.6782559
21
1.7467988
0
LINE
8
DEFAULT_255_2_778
10
51.1783559
20
2.2467988
11
51.1783559
21
82.4081988
0
LINE
8
DEFAULT_255_2_778
10
51.1783559
20
82.4081988
11
51.1672559
21
82.4295988
0
LINE
8
DEFAULT_255_2_778
10
51.1672559
20
82.4295988
11
51.1558559
21
82.4425988
0
LINE
8
DEFAULT_255_2_778
10
51.1558559
20
82.4425988
11
51.1442559
21
82.4470988
0
ARC
8
DEFAULT_255_2_778
10
33.1754787
20
79.5491099
40
2.1941333
50
234.1143922
51
260.0446646
0
ARC
8
DEFAULT_255_2_778
10
33.1790378
20
79.5549808
40
2.2009764
50
187.8797628
51
234.1289135
0
ARC
8
DEFAULT_255_2_778
10
33.1896233
20
79.5542837
40
2.2113675
50
179.9888514
51
187.8242708
0
ARC
8
DEFAULT_255_2_778
10
26.4782024
20
87.1466184
40
0.5000956
50
90.0053149
51
135.0041129
0
ARC
8
DEFAULT_255_2_778
10
26.4778074
20
87.1468515
40
0.4996515
50
134.9909954
51
180.0272389
0
LINE
8
DEFAULT_255_2_778
10
51.178056
20
74.146914
11
32.796156
21
77.388014
0
LINE
8
DEFAULT_255_2_778
10
30.978256
20
79.554714
11
30.978256
21
84.346814
0
LINE
8
DEFAULT_255_2_778
10
30.978256
20
84.346814
11
0.180456
21
84.346814
0
LINE
8
DEFAULT_255_2_778
10
26.443256
20
87.643314
11
26.478156
21
87.646714
0
LINE
8
DEFAULT_255_2_778
10
25.978156
20
87.146614
11
25.978156
21
84.346614
0
LINE
8
DEFAULT_255_2_778
10
51.178056
20
50.334914
11
55.778156
21
50.334914
0
LINE
8
DEFAULT_255_2_778
10
51.178056
20
46.358514
11
55.778156
21
46.358514
0
LINE
8
DEFAULT_255_2_778
10
51.1780865
20
43.5464495
11
55.7780865
21
43.5464495
0
LINE
8
DEFAULT_255_2_778
10
55.7780865
20
43.5464495
11
55.7780865
21
53.1463495
0
LINE
8
DEFAULT_255_2_778
10
55.7780865
20
53.1463495
11
51.1780865
21
53.1463495
0
LINE
8
DEFAULT_255_2_778
10
51.1780865
20
82.4465495
11
30.9781865
21
82.4465495
0
LINE
8
DEFAULT_255_2_778
10
51.1777865
20
79.1466495
11
50.7777865
21
79.5467495
0
LINE
8
DEFAULT_255_2_778
10
50.7777865
20
79.5467495
11
30.9776865
21
79.5467495
0
ENDSEC
0
EOF