0
SECTION
2
HEADER
9
$MEASUREMENT
70
1
0
ENDSEC
0
SECTION
2
TABLES
0
TABLE
2
LTYPE
0
LTYPE
72
65
70
64
2
CONTINUOUS
3
______
73
0
40
0
0
ENDTAB
0
TABLE
2
LAYER
0
LAYER
2
DEFAULT_255_2_778
70
0
62
255
6
CONTINUOUS
0
ENDTAB
0
ENDSEC
0
SECTION
2
ENTITIES
0
LINE
8
DEFAULT_255_2_778
10
2.1804619
20
119.7749004
11
2.6805619
21
120.0749004
0
LINE
8
DEFAULT_255_2_778
10
2.6805619
20
120.0749004
11
4.7947619
21
120.0749004
0
LINE
8
DEFAULT_255_2_778
10
4.7947619
20
120.0749004
11
4.7947619
21
122.0606004
0
LINE
8
DEFAULT_255_2_778
10
4.7947619
20
122.0606004
11
5.0906619
21
122.0648004
0
LINE
8
DEFAULT_255_2_778
10
5.0906619
20
122.0648004
11
5.9907619
21
122.0648004
0
LINE
8
DEFAULT_255_2_778
10
5.9907619
20
122.0648004
11
5.9907619
21
126.4850004
0
LINE
8
DEFAULT_255_2_778
10
5.9907619
20
126.4850004
11
5.0906619
21
126.4850004
0
LINE
8
DEFAULT_255_2_778
10
5.0906619
20
126.4850004
11
4.7947619
21
126.4892004
0
LINE
8
DEFAULT_255_2_778
10
4.7947619
20
126.4892004
11
4.7947619
21
129.7748004
0
LINE
8
DEFAULT_255_2_778
10
18.4303619
20
71.7549004
11
18.7304619
21
72.0549004
0
LINE
8
DEFAULT_255_2_778
10
18.7304619
20
72.0549004
11
18.7304619
21
103.5347004
0
LINE
8
DEFAULT_255_2_778
10
18.7304619
20
103.5347004
11
30.5302619
21
103.5347004
0
LINE
8
DEFAULT_255_2_778
10
30.5302619
20
103.5347004
11
30.5302619
21
72.0546004
0
LINE
8
DEFAULT_255_2_778
10
30.5302619
20
72.0546004
11
30.8303619
21
71.7546004
0
LINE
8
DEFAULT_255_2_778
10
5.4745619
20
9.5746004
11
5.4745619
21
8.1686004
0
LINE
8
DEFAULT_255_2_778
10
5.4745619
20
8.1686004
11
6.4151619
21
8.1686004
0
LINE
8
DEFAULT_255_2_778
10
18.4303619
20
13.7746004
11
6.0304619
21
13.7746004
0
LINE
8
DEFAULT_255_2_778
10
6.0304619
20
13.7746004
11
6.0304619
21
23.1247004
0
LINE
8
DEFAULT_255_2_778
10
6.0304619
20
30.2748004
11
6.0304619
21
34.2748004
0
LINE
8
DEFAULT_255_2_778
10
6.0304619
20
43.2748004
11
6.0304619
21
47.2748004
0
LINE
8
DEFAULT_255_2_778
10
6.0304619
20
56.2746004
11
6.0304619
21
60.2746004
0
LINE
8
DEFAULT_255_2_778
10
6.0304619
20
69.2746004
11
6.0304619
21
73.2746004
0
LINE
8
DEFAULT_255_2_778
10
6.0304619
20
82.2747004
11
6.0304619
21
86.2747004
0
LINE
8
DEFAULT_255_2_778
10
6.0304619
20
95.2747004
11
6.0304619
21
99.2747004
0
LINE
8
DEFAULT_255_2_778
10
6.0304619
20
108.2748004
11
6.0304619
21
112.2747004
0
LINE
8
DEFAULT_255_2_778
10
2.1804619
20
119.3574004
11
5.1980619
21
119.3574004
0
LINE
8
DEFAULT_255_2_778
10
5.1980619
20
119.3574004
11
5.1980619
21
121.6574004
0
LINE
8
DEFAULT_255_2_778
10
5.1980619
20
121.6574004
11
6.3979619
21
121.6574004
0
LINE
8
DEFAULT_255_2_778
10
6.3979619
20
121.6574004
11
6.3979619
21
126.8924004
0
LINE
8
DEFAULT_255_2_778
10
6.3979619
20
126.8924004
11
5.1980619
21
126.8924004
0
LINE
8
DEFAULT_255_2_778
10
5.1980619
20
126.8924004
11
5.1980619
21
129.7748004
0
LINE
8
DEFAULT_255_2_778
10
6.4151402
20
9.5745961
11
6.4137402
21
0.2678961
0
LINE
8
DEFAULT_255_2_778
10
6.4137402
20
0.2678961
11
6.4124402
21
0.2564961
0
LINE
8
DEFAULT_255_2_778
10
6.4124402
20
0.2564961
11
6.3746402
21
0.2186961
0
LINE
8
DEFAULT_255_2_778
10
6.3746402
20
0.2186961
11
5.4745402
21
0.2186961
0
LINE
8
DEFAULT_255_2_778
10
5.4745402
20
0.2186961
11
5.1702402
21
0.2143961
0
LINE
8
DEFAULT_255_2_778
10
5.1702402
20
0.2143961
11
4.7945402
21
-0.1613039
0
LINE
8
DEFAULT_255_2_778
10
4.7945402
20
-0.1613039
11
4.7945402
21
3.0602961
0
LINE
8
DEFAULT_255_2_778
10
4.7945402
20
3.0602961
11
5.4742402
21
2.3805961
0
LINE
8
DEFAULT_255_2_778
10
5.4742402
20
2.3805961
11
5.4742402
21
0.2186961
0
LINE
8
DEFAULT_255_2_778
10
23.5804402
20
128.5746961
11
17.7305402
21
128.5746961
0
LINE
8
DEFAULT_255_2_778
10
17.7305402
20
128.5746961
11
17.7305402
21
118.2746961
0
LINE
8
DEFAULT_255_2_778
10
17.7305402
20
118.2746961
11
23.5804402
21
118.2746961
0
LINE
8
DEFAULT_255_2_778
10
23.5804402
20
118.2746961
11
23.5804402
21
128.5746961
0
LINE
8
DEFAULT_255_2_778
10
18.2303402
20
130.9746961
11
23.0804402
21
130.9746961
0
LINE
8
DEFAULT_255_2_778
10
23.0804402
20
130.9746961
11
23.0804402
21
129.6279961
0
LINE
8
DEFAULT_255_2_778
10
23.0804402
20
129.6279961
11
18.2303402
21
129.6279961
0
LINE
8
DEFAULT_255_2_778
10
18.2303402
20
129.6279961
11
18.2303402
21
130.9746961
0
LINE
8
DEFAULT_255_2_778
10
24.5128402
20
-0.2253039
11
24.6803402
21
-0.0578039
0
LINE
8
DEFAULT_255_2_778
10
24.6803402
20
-0.0578039
11
24.6803402
21
9.5745961
0
LINE
8
DEFAULT_255_2_778
10
24.6803402
20
9.5745961
11
47.1802402
21
9.5745961
0
ARC
8
DEFAULT_255_2_778
10
37.2302899
20
115.4748173
40
0.9998905
50
300.8135841
51
359.985986
0
LINE
8
DEFAULT_255_2_778
10
44.7303803
20
127.2747727
11
36.9304803
21
127.2747727
0
LINE
8
DEFAULT_255_2_778
10
36.9304803
20
127.2747727
11
35.4305803
21
128.7746727
0
LINE
8
DEFAULT_255_2_778
10
35.4305803
20
128.7746727
11
35.4305803
21
117.2745727
0
LINE
8
DEFAULT_255_2_778
10
35.4305803
20
117.2745727
11
36.9304803
21
115.7746727
0
LINE
8
DEFAULT_255_2_778
10
36.9304803
20
115.7746727
11
36.9304803
21
127.2747727
0
LINE
8
DEFAULT_255_2_778
10
43.4302803
20
114.4845727
11
43.4302803
21
124.9747727
0
LINE
8
DEFAULT_255_2_778
10
43.4302803
20
124.9747727
11
38.2301803
21
124.9747727
0
LINE
8
DEFAULT_255_2_778
10
38.2301803
20
124.9747727
11
38.2301803
21
115.4745727
0
LINE
8
DEFAULT_255_2_778
10
40.1804011
20
33.0246614
11
42.2804011
21
33.0246614
0
LINE
8
DEFAULT_255_2_778
10
42.2804011
20
33.0246614
11
42.2804011
21
31.5247614
0
LINE
8
DEFAULT_255_2_778
10
42.2804011
20
31.5247614
11
40.1804011
21
31.5247614
0
LINE
8
DEFAULT_255_2_778
10
40.1804011
20
31.5247614
11
40.1804011
21
33.0246614
0
LINE
8
DEFAULT_255_2_778
10
40.1804011
20
123.5248614
11
42.2804011
21
123.5248614
0
LINE
8
DEFAULT_255_2_778
10
42.2804011
20
123.5248614
11
42.2804011
21
122.0249614
0
LINE
8
DEFAULT_255_2_778
10
42.2804011
20
122.0249614
11
40.1804011
21
122.0249614
0
LINE
8
DEFAULT_255_2_778
10
40.1804011
20
122.0249614
11
40.1804011
21
123.5248614
0
ARC
8
DEFAULT_255_2_778
10
19.740857
20
4.9772872
40
4.7929589
50
165.7660202
51
180.0262425
0
ARC
8
DEFAULT_255_2_778
10
19.7116167
20
4.9808401
40
4.7637444
50
143.5458944
51
165.7209675
0
ARC
8
DEFAULT_255_2_778
10
19.7395599
20
4.9657807
40
4.79517
50
109.196989
51
143.5995491
0
ARC
8
DEFAULT_255_2_778
10
19.7233456
20
4.9936353
40
4.7635366
50
93.6056399
51
109.1229736
0
ARC
8
DEFAULT_255_2_778
10
19.7313401
20
4.9011198
40
4.8563722
50
90.0134687
51
93.6311303
0
ARC
8
DEFAULT_255_2_778
10
19.7322104
20
4.9643056
40
4.7931867
50
75.7644485
51
90.0240485
0
ARC
8
DEFAULT_255_2_778
10
19.7357646
20
4.9935414
40
4.7639762
50
53.5452309
51
75.7194165
0
ARC
8
DEFAULT_255_2_778
10
19.7207808
20
4.9656879
40
4.7952848
50
19.1970635
51
53.59898
0
ARC
8
DEFAULT_255_2_778
10
19.7487286
20
4.9819434
40
4.76355
50
3.6056476
51
19.122948
0
ARC
8
DEFAULT_255_2_778
10
19.6562263
20
4.9739503
40
4.8563723
50
0.0134687
51
3.6311303
0
ARC
8
DEFAULT_255_2_778
10
29.7220378
20
124.2713687
40
4.490662
50
345.5979468
51
0.0424013
0
ARC
8
DEFAULT_255_2_778
10
29.746761
20
124.2690047
40
4.4661294
50
321.9757624
51
345.5484327
0
ARC
8
DEFAULT_255_2_778
10
29.7243236
20
124.2802952
40
4.4907621
50
288.5191006
51
322.0386265
0
ARC
8
DEFAULT_255_2_778
10
29.7374635
20
124.2594814
40
4.4668564
50
272.8769558
51
288.4440812
0
ARC
8
DEFAULT_255_2_778
10
29.7306033
20
124.3483941
40
4.5560021
50
269.9974252
51
272.9069987
0
ARC
8
DEFAULT_255_2_778
10
29.7269756
20
124.2812717
40
4.4888811
50
255.241016
51
270.0436905
0
ARC
8
DEFAULT_255_2_778
10
29.7256243
20
124.2601031
40
4.4680685
50
231.1649272
51
255.1886179
0
ARC
8
DEFAULT_255_2_778
10
29.7354571
20
124.2805457
40
4.4901612
50
198.5325127
51
231.2307686
0
ARC
8
DEFAULT_255_2_778
10
29.7148755
20
124.2676246
40
4.4665437
50
182.8794199
51
198.4592755
0
ARC
8
DEFAULT_255_2_778
10
29.8036127
20
124.2744854
40
4.5555141
50
179.9974022
51
182.9095353
0
LINE
8
DEFAULT_255_2_778
10
43.4304985
20
99.2746919
11
43.4304985
21
95.2747919
0
LINE
8
DEFAULT_255_2_778
10
43.4304985
20
73.2745919
11
43.4304985
21
69.2746919
0
LINE
8
DEFAULT_255_2_778
10
43.4304985
20
47.2745919
11
43.4304985
21
30.2745919
0
LINE
8
DEFAULT_255_2_778
10
43.4304985
20
21.2747919
11
43.4304985
21
17.2747919
0
LINE
8
DEFAULT_255_2_778
10
2.1803985
20
9.7745919
11
2.6804985
21
9.4745919
0
LINE
8
DEFAULT_255_2_778
10
2.6804985
20
9.4745919
11
4.7946985
21
9.4745919
0
LINE
8
DEFAULT_255_2_778
10
4.7946985
20
3.0605919
11
5.0905985
21
3.0647919
0
LINE
8
DEFAULT_255_2_778
10
5.0905985
20
3.0647919
11
5.9906985
21
3.0647919
0
LINE
8
DEFAULT_255_2_778
10
5.9906985
20
3.0647919
11
5.9906985
21
7.4848919
0
LINE
8
DEFAULT_255_2_778
10
5.9906985
20
7.4848919
11
5.0905985
21
7.4848919
0
LINE
8
DEFAULT_255_2_778
10
5.0905985
20
7.4848919
11
4.7946985
21
7.4891919
0
LINE
8
DEFAULT_255_2_778
10
4.7946985
20
7.4891919
11
4.7946985
21
9.5748919
0
LINE
8
DEFAULT_255_2_778
10
4.7946985
20
9.5748919
11
14.7803985
21
9.5748919
0
LINE
8
DEFAULT_255_2_778
10
14.7803985
20
9.5748919
11
14.7803985
21
-0.0575081
0
LINE
8
DEFAULT_255_2_778
10
14.7803985
20
-0.0575081
11
14.9478985
21
-0.2250081
0
LINE
8
DEFAULT_255_2_778
10
14.9478985
20
-0.2250081
11
14.9478985
21
4.9750919
0
LINE
8
DEFAULT_255_2_778
10
24.5125985
20
4.9750919
11
24.5125985
21
-0.2626081
0
LINE
8
DEFAULT_255_2_778
10
24.5125985
20
-0.2626081
11
46.6800985
21
-0.2626081
0
LINE
8
DEFAULT_255_2_778
10
46.6800985
20
-0.2626081
11
46.8705985
21
-0.2250081
0
LINE
8
DEFAULT_255_2_778
10
46.8705985
20
-0.2250081
11
47.0330985
21
-0.1168081
0
LINE
8
DEFAULT_255_2_778
10
47.0330985
20
-0.1168081
11
47.1420985
21
0.0458919
0
LINE
8
DEFAULT_255_2_778
10
47.1420985
20
0.0458919
11
47.1801985
21
0.2374919
0
LINE
8
DEFAULT_255_2_778
10
47.1801985
20
0.2374919
11
47.1801985
21
129.3122919
0
LINE
8
DEFAULT_255_2_778
10
47.1801985
20
129.3122919
11
47.1420985
21
129.5038919
0
LINE
8
DEFAULT_255_2_778
10
47.1420985
20
129.5038919
11
47.0330985
21
129.6665919
0
LINE
8
DEFAULT_255_2_778
10
47.0330985
20
129.6665919
11
46.8705985
21
129.7747919
0
LINE
8
DEFAULT_255_2_778
10
46.8705985
20
129.7747919
11
46.6800985
21
129.8123919
0
LINE
8
DEFAULT_255_2_778
10
46.6800985
20
129.8123919
11
34.2126985
21
129.8123919
0
LINE
8
DEFAULT_255_2_778
10
34.2126985
20
129.8123919
11
34.2126985
21
124.2746919
0
LINE
8
DEFAULT_255_2_778
10
25.2480985
20
124.2746919
11
25.2480985
21
129.7747919
0
LINE
8
DEFAULT_255_2_778
10
25.2480985
20
129.7747919
11
23.0805985
21
129.7747919
0
ARC
8
DEFAULT_255_2_778
10
2.6805274
20
129.2746919
40
0.5000969
50
89.9996485
51
180.0003515
0
ARC
8
DEFAULT_255_2_778
10
4.0275034
20
124.2777824
40
3.8460661
50
118.7017265
51
142.2630483
0
ARC
8
DEFAULT_255_2_778
10
4.0295264
20
124.2750859
40
3.8493163
50
142.249736
51
175.7851248
0
ARC
8
DEFAULT_255_2_778
10
4.0395032
20
124.2749962
40
3.8592728
50
175.7946842
51
180.0015948
0
ARC
8
DEFAULT_255_2_778
10
4.0260266
20
124.273972
40
3.8457963
50
179.9863404
51
203.5486004
0
ARC
8
DEFAULT_255_2_778
10
4.0293486
20
124.2744376
40
3.8490277
50
203.5351988
51
237.0727795
0
ARC
8
DEFAULT_255_2_778
10
4.0341643
20
124.2830654
40
3.8588872
50
237.0823958
51
241.2897497
0
ARC
8
DEFAULT_255_2_778
10
4.0269928
20
5.2784801
40
3.8453843
50
118.6986145
51
142.2637409
0
ARC
8
DEFAULT_255_2_778
10
4.0296571
20
5.2752852
40
3.8494469
50
142.2504049
51
175.7852394
0
ARC
8
DEFAULT_255_2_778
10
4.0395561
20
5.2751956
40
3.8593256
50
175.7947139
51
180.0015858
0
ARC
8
DEFAULT_255_2_778
10
4.0260266
20
5.274172
40
3.8457963
50
179.9863404
51
203.5486004
0
ARC
8
DEFAULT_255_2_778
10
4.0293486
20
5.2746376
40
3.8490277
50
203.5351988
51
237.0727795
0
ARC
8
DEFAULT_255_2_778
10
4.0341643
20
5.2832654
40
3.8588872
50
237.0823958
51
241.2897497
0
ARC
8
DEFAULT_255_2_778
10
2.6805274
20
0.2752857
40
0.5000969
50
179.9996485
51
270.0003515
0
LINE
8
DEFAULT_255_2_778
10
18.2303305
20
129.7747888
11
2.6805305
21
129.7747888
0
LINE
8
DEFAULT_255_2_778
10
2.1804305
20
129.2746888
11
2.1804305
21
127.6512888
0
LINE
8
DEFAULT_255_2_778
10
2.1804305
20
120.8985888
11
2.1804305
21
8.6514888
0
LINE
8
DEFAULT_255_2_778
10
2.1804305
20
1.8987888
11
2.1804305
21
0.2752888
0
LINE
8
DEFAULT_255_2_778
10
2.6805305
20
-0.2248112
11
14.9482305
21
-0.2248112
0
LINE
8
DEFAULT_255_2_778
10
2.1804256
20
1.1245357
11
4.7947256
21
1.1245357
0
LINE
8
DEFAULT_255_2_778
10
5.4745256
20
2.3805357
11
6.4151256
21
2.3805357
0
LINE
8
DEFAULT_255_2_778
10
37.4303256
20
13.7745357
11
34.0304256
21
13.7745357
0
LINE
8
DEFAULT_255_2_778
10
44.7304256
20
12.4746357
11
46.2303256
21
10.9747357
0
LINE
8
DEFAULT_255_2_778
10
30.5302256
20
72.0546357
11
18.7304256
21
72.0546357
0
LINE
8
DEFAULT_255_2_778
10
2.1804256
20
128.7246357
11
2.6805256
21
128.4246357
0
LINE
8
DEFAULT_255_2_778
10
2.6805256
20
128.4246357
11
4.7947256
21
128.4246357
0
LINE
8
DEFAULT_255_2_778
10
17.2249256
20
113.9003357
11
17.4305256
21
113.9003357
0
ARC
8
DEFAULT_255_2_778
10
4.0314319
20
5.2782883
40
1.8509604
50
155.4322666
51
180.1050351
0
ARC
8
DEFAULT_255_2_778
10
4.0258667
20
5.2790199
40
1.8455956
50
99.7519877
51
155.3810892
0
ARC
8
DEFAULT_255_2_778
10
4.0295973
20
5.2476899
40
1.8771054
50
89.9732229
51
99.7022318
0
ARC
8
DEFAULT_255_2_778
10
4.0338736
20
5.273684
40
1.8511143
50
65.4346417
51
90.1052081
0
ARC
8
DEFAULT_255_2_778
10
4.0347484
20
5.2795176
40
1.8454455
50
9.7522284
51
65.3840464
0
ARC
8
DEFAULT_255_2_778
10
4.003322
20
5.2757738
40
1.8770527
50
359.9731785
51
9.7023658
0
ARC
8
DEFAULT_255_2_778
10
4.0291441
20
5.2715041
40
1.8512336
50
335.4354476
51
0.104952
0
ARC
8
DEFAULT_255_2_778
10
4.0350123
20
5.2705769
40
1.8455116
50
279.7545475
51
335.3858919
0
ARC
8
DEFAULT_255_2_778
10
4.0313533
20
5.3017265
40
1.8768317
50
269.9731736
51
279.7035181
0
ARC
8
DEFAULT_255_2_778
10
4.0270894
20
5.2759718
40
1.8510798
50
245.4330726
51
270.1047791
0
ARC
8
DEFAULT_255_2_778
10
4.0263054
20
5.2703721
40
1.8456617
50
189.7543067
51
245.3829347
0
ARC
8
DEFAULT_255_2_778
10
4.0573586
20
5.2740178
40
1.8768843
50
179.973218
51
189.7033841
0
ARC
8
DEFAULT_255_2_778
10
4.0340649
20
124.277171
40
2.1455395
50
23.1682239
51
47.2928877
0
ARC
8
DEFAULT_255_2_778
10
4.0287837
20
124.2713492
40
2.1533997
50
47.294693
51
89.9526321
0
ARC
8
DEFAULT_255_2_778
10
4.03078
20
124.2748112
40
2.1499371
50
90.0057577
51
98.6520504
0
ARC
8
DEFAULT_255_2_778
10
4.0333113
20
124.2563124
40
2.1686062
50
98.6446434
51
100.7567602
0
ARC
8
DEFAULT_255_2_778
10
4.034567
20
124.2494762
40
2.1755567
50
100.7556473
51
101.574086
0
ARC
8
DEFAULT_255_2_778
10
4.0270633
20
124.2804909
40
2.1436672
50
101.5439239
51
128.6260941
0
ARC
8
DEFAULT_255_2_778
10
4.0306023
20
124.2745028
40
2.1505547
50
128.6001658
51
173.3517178
0
ARC
8
DEFAULT_255_2_778
10
4.0413287
20
124.2749815
40
2.1611542
50
173.397248
51
180.0075929
0
ARC
8
DEFAULT_255_2_778
10
4.0245161
20
124.2729916
40
2.1443422
50
179.9544829
51
207.0272235
0
ARC
8
DEFAULT_255_2_778
10
4.0300233
20
124.2745979
40
2.1499781
50
206.9986632
51
251.7632196
0
ARC
8
DEFAULT_255_2_778
10
4.0316325
20
124.2851627
40
2.1605165
50
251.8103656
51
258.423665
0
ARC
8
DEFAULT_255_2_778
10
4.0356444
20
124.3024406
40
2.1782479
50
258.4114854
51
259.2027762
0
ARC
8
DEFAULT_255_2_778
10
4.0321134
20
124.2819713
40
2.1574794
50
259.1930525
51
267.3082042
0
ARC
8
DEFAULT_255_2_778
10
4.0312225
20
124.2690249
40
2.1445054
50
267.3157383
51
269.9994697
0
ARC
8
DEFAULT_255_2_778
10
4.0298132
20
124.275469
40
2.1509501
50
270.0370093
51
329.6513346
0
ARC
8
DEFAULT_255_2_778
10
4.019863
20
124.2788335
40
2.1612378
50
329.7076441
51
336.8162598
0
LINE
8
DEFAULT_255_2_778
10
35.4306746
20
117.2748951
11
3.2305746
21
117.2748951
0
LINE
8
DEFAULT_255_2_778
10
46.2304746
20
128.7746951
11
35.4303746
21
128.7746951
0
LINE
8
DEFAULT_255_2_778
10
2.1804746
20
5.2748951
11
2.1804746
21
5.2748951
0
LINE
8
DEFAULT_255_2_778
10
13.6186746
20
128.1745951
11
9.6422746
21
128.1745951
0
LINE
8
DEFAULT_255_2_778
10
9.6422746
20
128.1745951
11
6.8305746
21
125.3628951
0
LINE
8
DEFAULT_255_2_778
10
6.8305746
20
125.3628951
11
6.8305746
21
121.3864951
0
LINE
8
DEFAULT_255_2_778
10
6.8305746
20
121.3864951
11
9.6422746
21
118.5746951
0
LINE
8
DEFAULT_255_2_778
10
9.6422746
20
118.5746951
11
13.6186746
21
118.5746951
0
LINE
8
DEFAULT_255_2_778
10
13.6186746
20
118.5746951
11
16.4303746
21
121.3864951
0
LINE
8
DEFAULT_255_2_778
10
16.4303746
20
121.3864951
11
16.4303746
21
125.3628951
0
LINE
8
DEFAULT_255_2_778
10
16.4303746
20
125.3628951
11
13.6186746
21
128.1745951
0
LINE
8
DEFAULT_255_2_778
10
13.3702043
20
127.5747957
11
9.8910043
21
127.5747957
0
LINE
8
DEFAULT_255_2_778
10
9.8910043
20
127.5747957
11
7.4306043
21
125.1143957
0
LINE
8
DEFAULT_255_2_778
10
7.4306043
20
125.1143957
11
7.4306043
21
121.6351957
0
LINE
8
DEFAULT_255_2_778
10
7.4306043
20
121.6351957
11
9.8910043
21
119.1747957
0
LINE
8
DEFAULT_255_2_778
10
9.8910043
20
119.1747957
11
13.3702043
21
119.1747957
0
LINE
8
DEFAULT_255_2_778
10
13.3702043
20
119.1747957
11
15.8306043
21
121.6351957
0
LINE
8
DEFAULT_255_2_778
10
15.8306043
20
121.6351957
11
15.8306043
21
125.1143957
0
LINE
8
DEFAULT_255_2_778
10
15.8306043
20
125.1143957
11
13.3702043
21
127.5747957
0
LINE
8
DEFAULT_255_2_778
10
12.9804896
20
22.8746895
11
17.3804896
21
22.8746895
0
LINE
8
DEFAULT_255_2_778
10
17.3804896
20
22.8746895
11
17.3804896
21
14.5746895
0
LINE
8
DEFAULT_255_2_778
10
17.3804896
20
14.5746895
11
12.9804896
21
14.5746895
0
LINE
8
DEFAULT_255_2_778
10
12.9804896
20
14.5746895
11
12.9804896
21
22.8746895
0
LINE
8
DEFAULT_255_2_778
10
8.0803896
20
22.8746895
11
12.4803896
21
22.8746895
0
LINE
8
DEFAULT_255_2_778
10
12.4803896
20
22.8746895
11
12.4803896
21
14.5746895
0
LINE
8
DEFAULT_255_2_778
10
12.4803896
20
14.5746895
11
8.0803896
21
14.5746895
0
LINE
8
DEFAULT_255_2_778
10
8.0803896
20
14.5746895
11
8.0803896
21
22.8746895
0
LINE
8
DEFAULT_255_2_778
10
21.6553938
20
125.7745395
11
23.1552938
21
125.7745395
0
LINE
8
DEFAULT_255_2_778
10
23.1552938
20
125.7745395
11
23.1552938
21
118.2746395
0
LINE
8
DEFAULT_255_2_778
10
19.8053938
20
125.7745395
11
18.3054938
21
125.7745395
0
LINE
8
DEFAULT_255_2_778
10
18.3054938
20
125.7745395
11
18.3054938
21
118.2746395
0
LINE
8
DEFAULT_255_2_778
10
31.9804896
20
113.9746895
11
36.3804896
21
113.9746895
0
LINE
8
DEFAULT_255_2_778
10
36.3804896
20
113.9746895
11
36.3804896
21
105.6746895
0
LINE
8
DEFAULT_255_2_778
10
36.3804896
20
105.6746895
11
31.9804896
21
105.6746895
0
LINE
8
DEFAULT_255_2_778
10
31.9804896
20
105.6746895
11
31.9804896
21
113.9746895
0
LINE
8
DEFAULT_255_2_778
10
27.0803896
20
113.9746895
11
31.4803896
21
113.9746895
0
LINE
8
DEFAULT_255_2_778
10
31.4803896
20
113.9746895
11
31.4803896
21
105.6746895
0
LINE
8
DEFAULT_255_2_778
10
31.4803896
20
105.6746895
11
27.0803896
21
105.6746895
0
LINE
8
DEFAULT_255_2_778
10
27.0803896
20
105.6746895
11
27.0803896
21
113.9746895
0
LINE
8
DEFAULT_255_2_778
10
43.4306
20
112.2747854
11
43.4306
21
108.2747854
0
LINE
8
DEFAULT_255_2_778
10
40.1804011
20
111.0245614
11
42.2804011
21
111.0245614
0
LINE
8
DEFAULT_255_2_778
10
42.2804011
20
111.0245614
11
42.2804011
21
109.5246614
0
LINE
8
DEFAULT_255_2_778
10
42.2804011
20
109.5246614
11
40.1804011
21
109.5246614
0
LINE
8
DEFAULT_255_2_778
10
40.1804011
20
109.5246614
11
40.1804011
21
111.0245614
0
LINE
8
DEFAULT_255_2_778
10
43.4306
20
86.2746854
11
43.4306
21
82.2746854
0
LINE
8
DEFAULT_255_2_778
10
40.1804011
20
85.0247614
11
42.2804011
21
85.0247614
0
LINE
8
DEFAULT_255_2_778
10
42.2804011
20
85.0247614
11
42.2804011
21
83.5248614
0
LINE
8
DEFAULT_255_2_778
10
42.2804011
20
83.5248614
11
40.1804011
21
83.5248614
0
LINE
8
DEFAULT_255_2_778
10
40.1804011
20
83.5248614
11
40.1804011
21
85.0247614
0
LINE
8
DEFAULT_255_2_778
10
43.4306
20
60.2745854
11
43.4306
21
56.2745854
0
LINE
8
DEFAULT_255_2_778
10
40.1804011
20
59.0246614
11
42.2804011
21
59.0246614
0
LINE
8
DEFAULT_255_2_778
10
42.2804011
20
59.0246614
11
42.2804011
21
57.5247614
0
LINE
8
DEFAULT_255_2_778
10
42.2804011
20
57.5247614
11
40.1804011
21
57.5247614
0
LINE
8
DEFAULT_255_2_778
10
40.1804011
20
57.5247614
11
40.1804011
21
59.0246614
0
ARC
8
DEFAULT_255_2_778
10
40.4776465
20
45.2676533
40
1.9928139
50
245.6879682
51
270.0735817
0
ARC
8
DEFAULT_255_2_778
10
40.4828395
20
45.276677
40
2.0031756
50
189.8044729
51
245.65887
0
ARC
8
DEFAULT_255_2_778
10
40.493807
20
45.2744107
40
2.0136013
50
179.9877538
51
189.6877868
0
ARC
8
DEFAULT_255_2_778
10
40.4734024
20
45.2772234
40
1.993198
50
155.6873726
51
180.0684804
0
ARC
8
DEFAULT_255_2_778
10
40.4820682
20
45.2722406
40
2.0031469
50
99.8052981
51
155.6595418
0
ARC
8
DEFAULT_255_2_778
10
40.479774
20
45.2612917
40
2.0135495
50
89.9877133
51
99.6879127
0
ARC
8
DEFAULT_255_2_778
10
40.4778235
20
58.2680377
40
1.993198
50
245.6873726
51
270.0684804
0
ARC
8
DEFAULT_255_2_778
10
40.4828062
20
58.2767035
40
2.0031469
50
189.8052981
51
245.6595418
0
ARC
8
DEFAULT_255_2_778
10
40.4937552
20
58.2744093
40
2.0135495
50
179.9877133
51
189.6879127
0
ARC
8
DEFAULT_255_2_778
10
40.4734024
20
58.2772234
40
1.993198
50
155.6873726
51
180.0684804
0
ARC
8
DEFAULT_255_2_778
10
40.4820682
20
58.2722406
40
2.0031469
50
99.8052981
51
155.6595418
0
ARC
8
DEFAULT_255_2_778
10
40.479774
20
58.2612917
40
2.0135495
50
89.9877133
51
99.6879127
0
ARC
8
DEFAULT_255_2_778
10
40.4776398
20
71.2679029
40
1.9929635
50
245.6901216
51
270.0737704
0
ARC
8
DEFAULT_255_2_778
10
40.4826903
20
71.2766625
40
2.0030257
50
189.804704
51
245.6616138
0
ARC
8
DEFAULT_255_2_778
10
40.493751
20
71.2744091
40
2.0135452
50
179.9877083
51
189.6879249
0
ARC
8
DEFAULT_255_2_778
10
40.4735044
20
71.277217
40
1.9933
50
155.6880055
51
180.0682938
0
ARC
8
DEFAULT_255_2_778
10
40.4819897
20
71.2723741
40
2.0030269
50
99.803615
51
155.6616895
0
ARC
8
DEFAULT_255_2_778
10
40.4795894
20
71.2617314
40
2.0131097
50
89.9824561
51
99.6847188
0
ARC
8
DEFAULT_255_2_778
10
40.4776465
20
84.2677533
40
1.9928139
50
245.6879682
51
270.0735817
0
ARC
8
DEFAULT_255_2_778
10
40.4828395
20
84.276777
40
2.0031756
50
189.8044729
51
245.65887
0
ARC
8
DEFAULT_255_2_778
10
40.493807
20
84.2745107
40
2.0136013
50
179.9877538
51
189.6877868
0
ARC
8
DEFAULT_255_2_778
10
40.4734024
20
84.2773234
40
1.993198
50
155.6873726
51
180.0684804
0
ARC
8
DEFAULT_255_2_778
10
40.4820682
20
84.2723406
40
2.0031469
50
99.8052981
51
155.6595418
0
ARC
8
DEFAULT_255_2_778
10
40.479774
20
84.2613917
40
2.0135495
50
89.9877133
51
99.6879127
0
ARC
8
DEFAULT_255_2_778
10
40.4778235
20
97.2681377
40
1.993198
50
245.6873726
51
270.0684804
0
ARC
8
DEFAULT_255_2_778
10
40.4828062
20
97.2768035
40
2.0031469
50
189.8052981
51
245.6595418
0
ARC
8
DEFAULT_255_2_778
10
40.4937552
20
97.2745093
40
2.0135495
50
179.9877133
51
189.6879127
0
ARC
8
DEFAULT_255_2_778
10
40.4734024
20
97.2773234
40
1.993198
50
155.6873726
51
180.0684804
0
ARC
8
DEFAULT_255_2_778
10
40.4820682
20
97.2723406
40
2.0031469
50
99.8052981
51
155.6595418
0
ARC
8
DEFAULT_255_2_778
10
40.479774
20
97.2613917
40
2.0135495
50
89.9877133
51
99.6879127
0
ARC
8
DEFAULT_255_2_778
10
40.4776465
20
110.2675533
40
1.9928139
50
245.6879682
51
270.0735817
0
ARC
8
DEFAULT_255_2_778
10
40.4828395
20
110.276577
40
2.0031756
50
189.8044729
51
245.65887
0
ARC
8
DEFAULT_255_2_778
10
40.493807
20
110.2743107
40
2.0136013
50
179.9877538
51
189.6877868
0
ARC
8
DEFAULT_255_2_778
10
40.4734024
20
110.2771234
40
1.993198
50
155.6873726
51
180.0684804
0
ARC
8
DEFAULT_255_2_778
10
40.4820682
20
110.2721406
40
2.0031469
50
99.8052981
51
155.6595418
0
ARC
8
DEFAULT_255_2_778
10
40.479774
20
110.2611917
40
2.0135495
50
89.9877133
51
99.6879127
0
ARC
8
DEFAULT_255_2_778
10
43.1801964
20
114.3246317
40
0.3001094
50
0.0208901
51
89.9791099
0
ARC
8
DEFAULT_255_2_778
10
6.2805366
20
114.3246103
40
0.3001308
50
90.0058834
51
179.9750212
0
ARC
8
DEFAULT_255_2_778
10
8.9828817
20
110.2814425
40
1.9933
50
65.6880055
51
90.0682938
0
ARC
8
DEFAULT_255_2_778
10
8.9780388
20
110.2729571
40
2.0030269
50
9.803615
51
65.6616895
0
ARC
8
DEFAULT_255_2_778
10
8.9673961
20
110.2753575
40
2.0131097
50
359.9824561
51
9.6847188
0
ARC
8
DEFAULT_255_2_778
10
8.9875916
20
110.2721882
40
1.9929158
50
335.6886011
51
0.073395
0
ARC
8
DEFAULT_255_2_778
10
8.9787483
20
110.2772414
40
2.0030556
50
279.8027899
51
335.6610177
0
ARC
8
DEFAULT_255_2_778
10
8.9811208
20
110.2879026
40
2.0131615
50
269.9824967
51
279.6845929
0
ARC
8
DEFAULT_255_2_778
10
8.9830654
20
97.2815773
40
1.9930654
50
65.6907545
51
90.0735838
0
ARC
8
DEFAULT_255_2_778
10
8.9781547
20
97.2729981
40
2.0029057
50
9.8030209
51
65.6637615
0
ARC
8
DEFAULT_255_2_778
10
8.9674003
20
97.2753577
40
2.0131055
50
359.9824512
51
9.684731
0
ARC
8
DEFAULT_255_2_778
10
8.9875916
20
97.2721882
40
1.9929158
50
335.6886011
51
0.073395
0
ARC
8
DEFAULT_255_2_778
10
8.9787483
20
97.2772414
40
2.0030556
50
279.8027899
51
335.6610177
0
ARC
8
DEFAULT_255_2_778
10
8.9811208
20
97.2879026
40
2.0131615
50
269.9824967
51
279.6845929
0
ARC
8
DEFAULT_255_2_778
10
8.9828817
20
84.2813425
40
1.9933
50
65.6880055
51
90.0682938
0
ARC
8
DEFAULT_255_2_778
10
8.9780388
20
84.2728571
40
2.0030269
50
9.803615
51
65.6616895
0
ARC
8
DEFAULT_255_2_778
10
8.9673961
20
84.2752575
40
2.0131097
50
359.9824561
51
9.6847188
0
ARC
8
DEFAULT_255_2_778
10
8.9876935
20
84.2720818
40
1.9928139
50
335.6879682
51
0.0735817
0
ARC
8
DEFAULT_255_2_778
10
8.9786699
20
84.2772748
40
2.0031756
50
279.8044729
51
335.65887
0
ARC
8
DEFAULT_255_2_778
10
8.9809362
20
84.2882424
40
2.0136013
50
269.9877538
51
279.6877868
0
ARC
8
DEFAULT_255_2_778
10
8.9828817
20
71.2813425
40
1.9933
50
65.6880055
51
90.0682938
0
ARC
8
DEFAULT_255_2_778
10
8.9780388
20
71.2728571
40
2.0030269
50
9.803615
51
65.6616895
0
ARC
8
DEFAULT_255_2_778
10
8.9673961
20
71.2752575
40
2.0131097
50
359.9824561
51
9.6847188
0
ARC
8
DEFAULT_255_2_778
10
8.9876935
20
71.2720818
40
1.9928139
50
335.6879682
51
0.0735817
0
ARC
8
DEFAULT_255_2_778
10
8.9786699
20
71.2772748
40
2.0031756
50
279.8044729
51
335.65887
0
ARC
8
DEFAULT_255_2_778
10
8.9809362
20
71.2882424
40
2.0136013
50
269.9877538
51
279.6877868
0
ARC
8
DEFAULT_255_2_778
10
8.9830587
20
58.2816269
40
1.9929158
50
65.6886011
51
90.073395
0
ARC
8
DEFAULT_255_2_778
10
8.9780055
20
58.2727836
40
2.0030556
50
9.8027899
51
65.6610177
0
ARC
8
DEFAULT_255_2_778
10
8.9673443
20
58.2751561
40
2.0131615
50
359.9824967
51
9.6845929
0
ARC
8
DEFAULT_255_2_778
10
8.9877085
20
58.2719805
40
1.9927989
50
335.6878762
51
0.0736222
0
ARC
8
DEFAULT_255_2_778
10
8.9788343
20
58.2770844
40
2.0029878
50
279.8006284
51
335.6593353
0
ARC
8
DEFAULT_255_2_778
10
8.9811219
20
58.2879971
40
2.013356
50
269.982467
51
279.6836164
0
ARC
8
DEFAULT_255_2_778
10
8.9828817
20
45.2812425
40
1.9933
50
65.6880055
51
90.0682938
0
ARC
8
DEFAULT_255_2_778
10
8.9780388
20
45.2727571
40
2.0030269
50
9.803615
51
65.6616895
0
ARC
8
DEFAULT_255_2_778
10
8.9673961
20
45.2751575
40
2.0131097
50
359.9824561
51
9.6847188
0
ARC
8
DEFAULT_255_2_778
10
8.9876935
20
45.2719818
40
1.9928139
50
335.6879682
51
0.0735817
0
ARC
8
DEFAULT_255_2_778
10
8.9786699
20
45.2771748
40
2.0031756
50
279.8044729
51
335.65887
0
ARC
8
DEFAULT_255_2_778
10
8.9809362
20
45.2881424
40
2.0136013
50
269.9877538
51
279.6877868
0
ARC
8
DEFAULT_255_2_778
10
8.9828817
20
32.2812425
40
1.9933
50
65.6880055
51
90.0682938
0
ARC
8
DEFAULT_255_2_778
10
8.9780388
20
32.2727571
40
2.0030269
50
9.803615
51
65.6616895
0
ARC
8
DEFAULT_255_2_778
10
8.9673961
20
32.2751575
40
2.0131097
50
359.9824561
51
9.6847188
0
ARC
8
DEFAULT_255_2_778
10
8.9875916
20
32.2719882
40
1.9929158
50
335.6886011
51
0.073395
0
ARC
8
DEFAULT_255_2_778
10
8.9787483
20
32.2770414
40
2.0030556
50
279.8027899
51
335.6610177
0
ARC
8
DEFAULT_255_2_778
10
8.9811208
20
32.2877026
40
2.0131615
50
269.9824967
51
279.6845929
0
ARC
8
DEFAULT_255_2_778
10
43.1801964
20
13.9244505
40
0.3001094
50
270.0208901
51
359.9791099
0
ARC
8
DEFAULT_255_2_778
10
40.4776465
20
19.2670533
40
1.9928139
50
245.6879682
51
270.0735817
0
ARC
8
DEFAULT_255_2_778
10
40.4828395
20
19.276077
40
2.0031756
50
189.8044729
51
245.65887
0
ARC
8
DEFAULT_255_2_778
10
40.493807
20
19.2738107
40
2.0136013
50
179.9877538
51
189.6877868
0
ARC
8
DEFAULT_255_2_778
10
40.4734024
20
19.2766234
40
1.993198
50
155.6873726
51
180.0684804
0
ARC
8
DEFAULT_255_2_778
10
40.4820682
20
19.2716406
40
2.0031469
50
99.8052981
51
155.6595418
0
ARC
8
DEFAULT_255_2_778
10
40.479774
20
19.2606917
40
2.0135495
50
89.9877133
51
99.6879127
0
ARC
8
DEFAULT_255_2_778
10
40.4778235
20
32.2674377
40
1.993198
50
245.6873726
51
270.0684804
0
ARC
8
DEFAULT_255_2_778
10
40.4828062
20
32.2761035
40
2.0031469
50
189.8052981
51
245.6595418
0
ARC
8
DEFAULT_255_2_778
10
40.4937552
20
32.2738093
40
2.0135495
50
179.9877133
51
189.6879127
0
ARC
8
DEFAULT_255_2_778
10
40.4735044
20
32.276617
40
1.9933
50
155.6880055
51
180.0682938
0
ARC
8
DEFAULT_255_2_778
10
40.4819897
20
32.2717741
40
2.0030269
50
99.803615
51
155.6616895
0
ARC
8
DEFAULT_255_2_778
10
40.4795894
20
32.2611314
40
2.0131097
50
89.9824561
51
99.6847188
0
ARC
8
DEFAULT_255_2_778
10
6.0804522
20
114.4744455
40
0.5000956
50
90.0053149
51
135.0041129
0
ARC
8
DEFAULT_255_2_778
10
6.0802316
20
114.4746065
40
0.4998258
50
134.9992862
51
180.0189578
0
ARC
8
DEFAULT_255_2_778
10
6.0804603
20
13.7745957
40
0.5000546
50
180.0062506
51
269.9937494
0
ARC
8
DEFAULT_255_2_778
10
43.38033
20
13.7746168
40
0.5000757
50
269.9972237
51
359.991324
0
ARC
8
DEFAULT_255_2_778
10
43.3803088
20
125.9745442
40
0.5000969
50
359.9996485
51
90.0003515
0
ARC
8
DEFAULT_255_2_778
10
38.2302027
20
125.9745442
40
0.5000969
50
89.9996485
51
180.0003515
0
ARC
8
DEFAULT_255_2_778
10
37.2301155
20
115.4745313
40
0.4999903
50
269.9988868
51
0.0011189
0
LINE
8
DEFAULT_255_2_778
10
43.4803058
20
43.2748411
11
40.4802058
21
43.2748411
0
LINE
8
DEFAULT_255_2_778
10
40.4802058
20
47.2748411
11
43.4803058
21
47.2748411
0
LINE
8
DEFAULT_255_2_778
10
43.4803058
20
47.2748411
11
43.4803058
21
56.2748411
0
LINE
8
DEFAULT_255_2_778
10
43.4803058
20
56.2748411
11
40.4802058
21
56.2748411
0
LINE
8
DEFAULT_255_2_778
10
40.4802058
20
60.2748411
11
43.4803058
21
60.2748411
0
LINE
8
DEFAULT_255_2_778
10
43.4803058
20
60.2748411
11
43.4803058
21
69.2749411
0
LINE
8
DEFAULT_255_2_778
10
43.4803058
20
69.2749411
11
40.4802058
21
69.2749411
0
LINE
8
DEFAULT_255_2_778
10
40.4802058
20
73.2748411
11
43.4803058
21
73.2748411
0
LINE
8
DEFAULT_255_2_778
10
43.4803058
20
73.2748411
11
43.4803058
21
82.2749411
0
LINE
8
DEFAULT_255_2_778
10
43.4803058
20
82.2749411
11
40.4802058
21
82.2749411
0
LINE
8
DEFAULT_255_2_778
10
40.4802058
20
86.2749411
11
43.4803058
21
86.2749411
0
LINE
8
DEFAULT_255_2_778
10
43.4803058
20
86.2749411
11
43.4803058
21
95.2749411
0
LINE
8
DEFAULT_255_2_778
10
43.4803058
20
95.2749411
11
40.4802058
21
95.2749411
0
LINE
8
DEFAULT_255_2_778
10
40.4802058
20
99.2749411
11
43.4803058
21
99.2749411
0
LINE
8
DEFAULT_255_2_778
10
43.4803058
20
99.2749411
11
43.4803058
21
108.2747411
0
LINE
8
DEFAULT_255_2_778
10
43.4803058
20
108.2747411
11
40.4802058
21
108.2747411
0
LINE
8
DEFAULT_255_2_778
10
40.4802058
20
112.2747411
11
43.4803058
21
112.2747411
0
LINE
8
DEFAULT_255_2_778
10
43.4803058
20
112.2747411
11
43.4803058
21
114.3247411
0
LINE
8
DEFAULT_255_2_778
10
43.1803058
20
114.6247411
11
36.9803058
21
114.6247411
0
LINE
8
DEFAULT_255_2_778
10
36.9803058
20
114.6247411
11
36.9803058
21
105.1246411
0
LINE
8
DEFAULT_255_2_778
10
36.9803058
20
105.1246411
11
26.6804058
21
105.1246411
0
LINE
8
DEFAULT_255_2_778
10
26.6804058
20
105.1246411
11
26.6804058
21
114.6247411
0
LINE
8
DEFAULT_255_2_778
10
26.6804058
20
114.6247411
11
17.4305058
21
114.6247411
0
LINE
8
DEFAULT_255_2_778
10
17.4305058
20
114.6247411
11
17.4305058
21
105.1246411
0
LINE
8
DEFAULT_255_2_778
10
17.4305058
20
105.1246411
11
14.0306058
21
105.1246411
0
LINE
8
DEFAULT_255_2_778
10
14.0306058
20
105.1246411
11
14.0306058
21
114.6247411
0
LINE
8
DEFAULT_255_2_778
10
14.0306058
20
114.6247411
11
6.2805058
21
114.6247411
0
LINE
8
DEFAULT_255_2_778
10
5.9804058
20
114.3247411
11
5.9804058
21
112.2747411
0
LINE
8
DEFAULT_255_2_778
10
5.9804058
20
112.2747411
11
8.9805058
21
112.2747411
0
LINE
8
DEFAULT_255_2_778
10
8.9805058
20
108.2747411
11
5.9804058
21
108.2747411
0
LINE
8
DEFAULT_255_2_778
10
5.9804058
20
108.2747411
11
5.9804058
21
99.2746411
0
LINE
8
DEFAULT_255_2_778
10
5.9804058
20
99.2746411
11
8.9805058
21
99.2746411
0
LINE
8
DEFAULT_255_2_778
10
8.9805058
20
95.2747411
11
5.9804058
21
95.2747411
0
LINE
8
DEFAULT_255_2_778
10
5.9804058
20
95.2747411
11
5.9804058
21
86.2746411
0
LINE
8
DEFAULT_255_2_778
10
5.9804058
20
86.2746411
11
8.9805058
21
86.2746411
0
LINE
8
DEFAULT_255_2_778
10
8.9805058
20
82.2746411
11
5.9804058
21
82.2746411
0
LINE
8
DEFAULT_255_2_778
10
5.9804058
20
82.2746411
11
5.9804058
21
73.2746411
0
LINE
8
DEFAULT_255_2_778
10
5.9804058
20
73.2746411
11
8.9805058
21
73.2746411
0
LINE
8
DEFAULT_255_2_778
10
8.9805058
20
69.2746411
11
5.9804058
21
69.2746411
0
LINE
8
DEFAULT_255_2_778
10
5.9804058
20
69.2746411
11
5.9804058
21
60.2745411
0
LINE
8
DEFAULT_255_2_778
10
5.9804058
20
60.2745411
11
8.9805058
21
60.2745411
0
LINE
8
DEFAULT_255_2_778
10
8.9805058
20
56.2746411
11
5.9804058
21
56.2746411
0
LINE
8
DEFAULT_255_2_778
10
5.9804058
20
56.2746411
11
5.9804058
21
47.2745411
0
LINE
8
DEFAULT_255_2_778
10
5.9804058
20
47.2745411
11
8.9805058
21
47.2745411
0
LINE
8
DEFAULT_255_2_778
10
8.9805058
20
43.2745411
11
5.9804058
21
43.2745411
0
LINE
8
DEFAULT_255_2_778
10
5.9804058
20
43.2745411
11
5.9804058
21
34.2745411
0
LINE
8
DEFAULT_255_2_778
10
5.9804058
20
34.2745411
11
8.9805058
21
34.2745411
0
LINE
8
DEFAULT_255_2_778
10
8.9805058
20
30.2745411
11
5.9804058
21
30.2745411
0
LINE
8
DEFAULT_255_2_778
10
5.9804058
20
30.2745411
11
5.9804058
21
23.1244411
0
LINE
8
DEFAULT_255_2_778
10
5.9804058
20
23.1244411
11
18.4304058
21
23.1244411
0
LINE
8
DEFAULT_255_2_778
10
18.4304058
20
23.1244411
11
18.4304058
21
13.6243411
0
LINE
8
DEFAULT_255_2_778
10
18.4304058
20
13.6243411
11
34.0305058
21
13.6243411
0
LINE
8
DEFAULT_255_2_778
10
34.0305058
20
13.6243411
11
34.0305058
21
23.1244411
0
LINE
8
DEFAULT_255_2_778
10
34.0305058
20
23.1244411
11
37.4304058
21
23.1244411
0
LINE
8
DEFAULT_255_2_778
10
37.4304058
20
23.1244411
11
37.4304058
21
13.6243411
0
LINE
8
DEFAULT_255_2_778
10
37.4304058
20
13.6243411
11
43.1803058
21
13.6243411
0
LINE
8
DEFAULT_255_2_778
10
43.4803058
20
13.9243411
11
43.4803058
21
17.2742411
0
LINE
8
DEFAULT_255_2_778
10
43.4803058
20
17.2742411
11
40.4802058
21
17.2742411
0
LINE
8
DEFAULT_255_2_778
10
40.4802058
20
21.2742411
11
43.4803058
21
21.2742411
0
LINE
8
DEFAULT_255_2_778
10
43.4803058
20
21.2742411
11
43.4803058
21
30.2742411
0
LINE
8
DEFAULT_255_2_778
10
43.4803058
20
30.2742411
11
40.4802058
21
30.2742411
0
LINE
8
DEFAULT_255_2_778
10
40.4802058
20
34.2742411
11
43.4803058
21
34.2742411
0
LINE
8
DEFAULT_255_2_778
10
36.9306058
20
115.7749411
11
4.7305058
21
115.7749411
0
LINE
8
DEFAULT_255_2_778
10
4.7305058
20
115.7749411
11
3.2306058
21
117.2748411
0
LINE
8
DEFAULT_255_2_778
10
3.2306058
20
117.2748411
11
3.2306058
21
10.9747411
0
LINE
8
DEFAULT_255_2_778
10
3.2306058
20
10.9747411
11
4.7305058
21
12.4746411
0
LINE
8
DEFAULT_255_2_778
10
4.7305058
20
12.4746411
11
4.7305058
21
115.7749411
0
LINE
8
DEFAULT_255_2_778
10
38.0839058
20
114.9745411
11
6.0804058
21
114.9745411
0
LINE
8
DEFAULT_255_2_778
10
5.5804058
20
114.4744411
11
5.5804058
21
13.7745411
0
LINE
8
DEFAULT_255_2_778
10
6.0804058
20
13.2745411
11
43.3803058
21
13.2745411
0
LINE
8
DEFAULT_255_2_778
10
43.8804058
20
13.7745411
11
43.8804058
21
125.9745411
0
LINE
8
DEFAULT_255_2_778
10
43.3803058
20
126.4746411
11
38.2302058
21
126.4746411
0
LINE
8
DEFAULT_255_2_778
10
37.7301058
20
125.9745411
11
37.7301058
21
115.4745411
0
LINE
8
DEFAULT_255_2_778
10
4.7304912
20
12.4746525
11
44.7304912
21
12.4746525
0
LINE
8
DEFAULT_255_2_778
10
44.7304912
20
12.4746525
11
44.7304912
21
127.2747525
0
LINE
8
DEFAULT_255_2_778
10
44.7304912
20
127.2747525
11
46.2303912
21
128.7746525
0
LINE
8
DEFAULT_255_2_778
10
46.2303912
20
128.7746525
11
46.2303912
21
10.9747525
0
LINE
8
DEFAULT_255_2_778
10
46.2303912
20
10.9747525
11
3.2305912
21
10.9747525
0
LINE
8
DEFAULT_255_2_778
10
21.6553912
20
127.5747525
11
19.8053912
21
127.5747525
0
LINE
8
DEFAULT_255_2_778
10
18.3054912
20
122.0746525
11
23.1555912
21
122.0746525
0
ARC
8
DEFAULT_255_2_778
10
21.7456413
20
110.4782051
40
3.0152539
50
162.1238259
51
180.0698758
0
ARC
8
DEFAULT_255_2_778
10
21.7244001
20
110.4804759
40
2.9943443
50
105.6411039
51
162.0404171
0
ARC
8
DEFAULT_255_2_778
10
21.7274747
20
110.4528456
40
3.0217837
50
89.9428337
51
105.5559944
0
ARC
8
DEFAULT_255_2_778
10
21.734167
20
110.4593762
40
3.0152539
50
72.1238259
51
90.0698758
0
ARC
8
DEFAULT_255_2_778
10
21.7364378
20
110.4806174
40
2.9943443
50
15.6411039
51
72.0404171
0
ARC
8
DEFAULT_255_2_778
10
21.7088075
20
110.4775428
40
3.0217837
50
359.9428337
51
15.5559944
0
ARC
8
DEFAULT_255_2_778
10
21.7150643
20
110.4708457
40
3.0155276
50
342.1246433
51
0.0699612
0
ARC
8
DEFAULT_255_2_778
10
21.7365667
20
110.4684688
40
2.9943368
50
285.6413945
51
342.0416389
0
ARC
8
DEFAULT_255_2_778
10
21.7335039
20
110.4960995
40
3.0217733
50
269.9428473
51
285.5560638
0
ARC
8
DEFAULT_255_2_778
10
21.7268221
20
110.4890819
40
3.0147563
50
252.1205815
51
270.0697021
0
ARC
8
DEFAULT_255_2_778
10
21.7248811
20
110.4686396
40
2.9947087
50
195.6419101
51
252.0358476
0
ARC
8
DEFAULT_255_2_778
10
21.7518477
20
110.4715311
40
3.0214595
50
179.9431734
51
195.5568338
0
LINE
8
DEFAULT_255_2_778
10
19.8053897
20
128.5746278
11
19.8053897
21
124.0746278
0
LINE
8
DEFAULT_255_2_778
10
19.8053897
20
124.0746278
11
21.6553897
21
124.0746278
0
LINE
8
DEFAULT_255_2_778
10
21.6553897
20
124.0746278
11
21.6553897
21
128.5746278
0
LINE
8
DEFAULT_255_2_778
10
18.7303897
20
110.4745278
11
18.7303897
21
110.4745278
0
ARC
8
DEFAULT_255_2_778
10
21.7283087
20
110.4778908
40
1.4546078
50
150.8829018
51
180.1219096
0
ARC
8
DEFAULT_255_2_778
10
21.7269108
20
110.4781946
40
1.4532388
50
98.0924387
51
150.8665486
0
ARC
8
DEFAULT_255_2_778
10
21.7300076
20
110.4507125
40
1.4808834
50
89.9807845
51
98.0613801
0
ARC
8
DEFAULT_255_2_778
10
21.7335992
20
110.4769913
40
1.4546078
50
60.8829018
51
90.1219096
0
ARC
8
DEFAULT_255_2_778
10
21.7339031
20
110.4783892
40
1.4532388
50
8.0924387
51
60.8665486
0
ARC
8
DEFAULT_255_2_778
10
21.7064209
20
110.4752924
40
1.4808834
50
359.9807845
51
8.0613801
0
ARC
8
DEFAULT_255_2_778
10
21.7326997
20
110.4717008
40
1.4546078
50
330.8829018
51
0.1219096
0
ARC
8
DEFAULT_255_2_778
10
21.7340976
20
110.4713969
40
1.4532388
50
278.0924387
51
330.8665486
0
ARC
8
DEFAULT_255_2_778
10
21.7310009
20
110.4988791
40
1.4808834
50
269.9807845
51
278.0613801
0
ARC
8
DEFAULT_255_2_778
10
21.7274092
20
110.4726003
40
1.4546078
50
240.8829018
51
270.1219096
0
ARC
8
DEFAULT_255_2_778
10
21.7271054
20
110.4712024
40
1.4532388
50
188.0924387
51
240.8665486
0
ARC
8
DEFAULT_255_2_778
10
21.7545875
20
110.4742991
40
1.4808834
50
179.9807845
51
188.0613801
0
LINE
8
DEFAULT_255_2_778
10
20.2737042
20
110.4747958
11
20.2737042
21
110.4747958
0
ARC
8
DEFAULT_255_2_778
10
22.2896373
20
109.5059856
40
0.1992848
50
95.7947379
51
144.0959672
0
ARC
8
DEFAULT_255_2_778
10
22.6481907
20
109.9443517
40
0.199558
50
275.9036717
51
330.0594631
0
ARC
8
DEFAULT_255_2_778
10
22.6471348
20
109.944916
40
0.2007547
50
330.0702809
51
359.999955
0
ARC
8
DEFAULT_255_2_778
10
22.6481201
20
109.9449357
40
0.1997693
50
359.994315
51
0.5675467
0
ARC
8
DEFAULT_255_2_778
10
22.6480102
20
109.944972
40
0.1998788
50
0.5568319
51
23.9943643
0
ARC
8
DEFAULT_255_2_778
10
22.8481414
20
110.4744904
40
0.1984999
50
179.9966347
51
204.2217257
0
ARC
8
DEFAULT_255_2_778
10
22.8481414
20
110.4745137
40
0.1984999
50
155.7782743
51
180.0033653
0
ARC
8
DEFAULT_255_2_778
10
22.6497237
20
111.0038681
40
0.1982474
50
335.8475574
51
359.4859854
0
ARC
8
DEFAULT_255_2_778
10
22.6470668
20
111.00397
40
0.200905
50
359.4637352
51
359.9999944
0
ARC
8
DEFAULT_255_2_778
10
22.6469171
20
111.0038648
40
0.2010547
50
0.0299655
51
29.9539046
0
ARC
8
DEFAULT_255_2_778
10
22.6481912
20
111.0046532
40
0.1995572
50
29.9404283
51
84.0964543
0
ARC
8
DEFAULT_255_2_778
10
22.2896373
20
111.4430185
40
0.1992848
50
215.9040328
51
264.2052621
0
ARC
8
DEFAULT_255_2_778
10
21.7304678
20
111.5334483
40
0.2002037
50
36.0095214
51
89.9860791
0
ARC
8
DEFAULT_255_2_778
10
21.7305597
20
111.5332626
40
0.2003894
50
90.0123572
51
143.9634239
0
ARC
8
DEFAULT_255_2_778
10
21.1713957
20
111.4430185
40
0.1992848
50
275.7947379
51
324.0959672
0
ARC
8
DEFAULT_255_2_778
10
20.812842
20
111.0046529
40
0.1995575
50
95.9035946
51
150.0595296
0
ARC
8
DEFAULT_255_2_778
10
20.8138981
20
111.0040881
40
0.2007547
50
150.0702809
51
179.999955
0
ARC
8
DEFAULT_255_2_778
10
20.8129128
20
111.0040684
40
0.1997693
50
179.994315
51
180.5675467
0
ARC
8
DEFAULT_255_2_778
10
20.8130228
20
111.0040321
40
0.1998788
50
180.5568319
51
203.9943643
0
ARC
8
DEFAULT_255_2_778
10
20.6128916
20
110.4745137
40
0.1984999
50
359.9966347
51
24.2217257
0
ARC
8
DEFAULT_255_2_778
10
20.6128916
20
110.4744904
40
0.1984999
50
335.7782743
51
0.0033653
0
ARC
8
DEFAULT_255_2_778
10
20.8113093
20
109.945136
40
0.1982474
50
155.8475574
51
179.4859854
0
ARC
8
DEFAULT_255_2_778
10
20.8139662
20
109.9450341
40
0.200905
50
179.4637352
51
179.9999944
0
ARC
8
DEFAULT_255_2_778
10
20.8141158
20
109.9451393
40
0.2010547
50
180.0299655
51
209.9539046
0
ARC
8
DEFAULT_255_2_778
10
20.8128423
20
109.9443517
40
0.199558
50
209.9405369
51
264.0963283
0
ARC
8
DEFAULT_255_2_778
10
21.1713957
20
109.5059856
40
0.1992848
50
35.9040328
51
84.2052621
0
ARC
8
DEFAULT_255_2_778
10
21.7305597
20
109.4157415
40
0.2003894
50
216.0365761
51
269.9876428
0
ARC
8
DEFAULT_255_2_778
10
21.7304678
20
109.4155557
40
0.2002037
50
270.0139209
51
323.9904786
0
LINE
8
DEFAULT_255_2_778
10
22.2695165
20
109.704252
11
22.6687165
21
109.745852
0
LINE
8
DEFAULT_255_2_778
10
22.8306165
20
110.026252
11
22.6671165
21
110.393052
0
LINE
8
DEFAULT_255_2_778
10
22.6671165
20
110.555952
11
22.8306165
21
110.922752
0
LINE
8
DEFAULT_255_2_778
10
22.6687165
20
111.203152
11
22.2695165
21
111.244752
0
LINE
8
DEFAULT_255_2_778
10
22.1282165
20
111.326152
11
21.8924165
21
111.651152
0
LINE
8
DEFAULT_255_2_778
10
21.5685165
20
111.651152
11
21.3328165
21
111.326152
0
LINE
8
DEFAULT_255_2_778
10
21.1915165
20
111.244752
11
20.7923165
21
111.203152
0
LINE
8
DEFAULT_255_2_778
10
20.6304165
20
110.922752
11
20.7939165
21
110.555952
0
LINE
8
DEFAULT_255_2_778
10
20.7939165
20
110.393052
11
20.6304165
21
110.026252
0
LINE
8
DEFAULT_255_2_778
10
20.7923165
20
109.745852
11
21.1915165
21
109.704252
0
LINE
8
DEFAULT_255_2_778
10
21.3328165
20
109.622852
11
21.5685165
21
109.297852
0
LINE
8
DEFAULT_255_2_778
10
21.8924165
20
109.297852
11
22.1282165
21
109.622852
0
ARC
8
DEFAULT_255_2_778
10
29.7455413
20
17.7782876
40
3.0152539
50
162.1238259
51
180.0698758
0
ARC
8
DEFAULT_255_2_778
10
29.7243001
20
17.7805584
40
2.9943443
50
105.6411039
51
162.0404171
0
ARC
8
DEFAULT_255_2_778
10
29.7273747
20
17.7529281
40
3.0217837
50
89.9428337
51
105.5559944
0
ARC
8
DEFAULT_255_2_778
10
29.734067
20
17.7594587
40
3.0152539
50
72.1238259
51
90.0698758
0
ARC
8
DEFAULT_255_2_778
10
29.7363378
20
17.7806999
40
2.9943443
50
15.6411039
51
72.0404171
0
ARC
8
DEFAULT_255_2_778
10
29.7087075
20
17.7776253
40
3.0217837
50
359.9428337
51
15.5559944
0
ARC
8
DEFAULT_255_2_778
10
29.715238
20
17.770933
40
3.0152539
50
342.1238259
51
0.0698758
0
ARC
8
DEFAULT_255_2_778
10
29.7364792
20
17.7686622
40
2.9943443
50
285.6411039
51
342.0404171
0
ARC
8
DEFAULT_255_2_778
10
29.7334046
20
17.7962925
40
3.0217837
50
269.9428337
51
285.5559944
0
ARC
8
DEFAULT_255_2_778
10
29.7267124
20
17.789762
40
3.0152539
50
252.1238259
51
270.0698758
0
ARC
8
DEFAULT_255_2_778
10
29.7244416
20
17.7685208
40
2.9943443
50
195.6411039
51
252.0404171
0
ARC
8
DEFAULT_255_2_778
10
29.7520719
20
17.7715954
40
3.0217837
50
179.9428337
51
195.5559944
0
LINE
8
DEFAULT_255_2_778
10
26.7302897
20
17.7746103
11
26.7302897
21
17.7746103
0
ARC
8
DEFAULT_255_2_778
10
29.7282087
20
17.7776908
40
1.4546078
50
150.8829018
51
180.1219096
0
ARC
8
DEFAULT_255_2_778
10
29.7268108
20
17.7779946
40
1.4532388
50
98.0924387
51
150.8665486
0
ARC
8
DEFAULT_255_2_778
10
29.7299076
20
17.7505125
40
1.4808834
50
89.9807845
51
98.0613801
0
ARC
8
DEFAULT_255_2_778
10
29.7334992
20
17.7767913
40
1.4546078
50
60.8829018
51
90.1219096
0
ARC
8
DEFAULT_255_2_778
10
29.7338031
20
17.7781892
40
1.4532388
50
8.0924387
51
60.8665486
0
ARC
8
DEFAULT_255_2_778
10
29.7063209
20
17.7750924
40
1.4808834
50
359.9807845
51
8.0613801
0
ARC
8
DEFAULT_255_2_778
10
29.7325997
20
17.7715008
40
1.4546078
50
330.8829018
51
0.1219096
0
ARC
8
DEFAULT_255_2_778
10
29.7339976
20
17.7711969
40
1.4532388
50
278.0924387
51
330.8665486
0
ARC
8
DEFAULT_255_2_778
10
29.7309009
20
17.7986791
40
1.4808834
50
269.9807845
51
278.0613801
0
ARC
8
DEFAULT_255_2_778
10
29.7273092
20
17.7724003
40
1.4546078
50
240.8829018
51
270.1219096
0
ARC
8
DEFAULT_255_2_778
10
29.7270054
20
17.7710024
40
1.4532388
50
188.0924387
51
240.8665486
0
ARC
8
DEFAULT_255_2_778
10
29.7544875
20
17.7740991
40
1.4808834
50
179.9807845
51
188.0613801
0
LINE
8
DEFAULT_255_2_778
10
28.2736042
20
17.7745958
11
28.2736042
21
17.7745958
0
ARC
8
DEFAULT_255_2_778
10
30.2895361
20
16.8060856
40
0.1992848
50
95.7947379
51
144.0959672
0
ARC
8
DEFAULT_255_2_778
10
30.6480895
20
17.2444517
40
0.199558
50
275.9036717
51
330.0594631
0
ARC
8
DEFAULT_255_2_778
10
30.6470337
20
17.245016
40
0.2007547
50
330.0702809
51
359.999955
0
ARC
8
DEFAULT_255_2_778
10
30.648019
20
17.2450357
40
0.1997693
50
359.994315
51
0.5675467
0
ARC
8
DEFAULT_255_2_778
10
30.647909
20
17.245072
40
0.1998788
50
0.5568319
51
23.9943643
0
ARC
8
DEFAULT_255_2_778
10
30.8480402
20
17.7745904
40
0.1984999
50
179.9966347
51
204.2217257
0
ARC
8
DEFAULT_255_2_778
10
30.8480402
20
17.7746137
40
0.1984999
50
155.7782743
51
180.0033653
0
ARC
8
DEFAULT_255_2_778
10
30.6496225
20
18.3039681
40
0.1982474
50
335.8475574
51
359.4859854
0
ARC
8
DEFAULT_255_2_778
10
30.6469656
20
18.30407
40
0.200905
50
359.4637352
51
359.9999944
0
ARC
8
DEFAULT_255_2_778
10
30.646816
20
18.3039648
40
0.2010547
50
0.0299655
51
29.9539046
0
ARC
8
DEFAULT_255_2_778
10
30.64809
20
18.3047532
40
0.1995572
50
29.9404283
51
84.0964543
0
ARC
8
DEFAULT_255_2_778
10
30.2895361
20
18.7431185
40
0.1992848
50
215.9040328
51
264.2052621
0
ARC
8
DEFAULT_255_2_778
10
29.7303667
20
18.8335483
40
0.2002037
50
36.0095214
51
89.9860791
0
ARC
8
DEFAULT_255_2_778
10
29.7303931
20
18.8336873
40
0.2000647
50
89.9936283
51
144.0107326
0
ARC
8
DEFAULT_255_2_778
10
29.1712945
20
18.7431185
40
0.1992848
50
275.7947379
51
324.0959672
0
ARC
8
DEFAULT_255_2_778
10
28.8127408
20
18.3047529
40
0.1995575
50
95.9035946
51
150.0595296
0
ARC
8
DEFAULT_255_2_778
10
28.813797
20
18.3041881
40
0.2007547
50
150.0702809
51
179.999955
0
ARC
8
DEFAULT_255_2_778
10
28.8128117
20
18.3041684
40
0.1997693
50
179.994315
51
180.5675467
0
ARC
8
DEFAULT_255_2_778
10
28.8129216
20
18.3041321
40
0.1998788
50
180.5568319
51
203.9943643
0
ARC
8
DEFAULT_255_2_778
10
28.6127904
20
17.7746137
40
0.1984999
50
359.9966347
51
24.2217257
0
ARC
8
DEFAULT_255_2_778
10
28.6127904
20
17.7745904
40
0.1984999
50
335.7782743
51
0.0033653
0
ARC
8
DEFAULT_255_2_778
10
28.8112081
20
17.245236
40
0.1982474
50
155.8475574
51
179.4859854
0
ARC
8
DEFAULT_255_2_778
10
28.813865
20
17.2451341
40
0.200905
50
179.4637352
51
179.9999944
0
ARC
8
DEFAULT_255_2_778
10
28.8140147
20
17.2452393
40
0.2010547
50
180.0299655
51
209.9539046
0
ARC
8
DEFAULT_255_2_778
10
28.8127411
20
17.2444517
40
0.199558
50
209.9405369
51
264.0963283
0
ARC
8
DEFAULT_255_2_778
10
29.1712945
20
16.8060856
40
0.1992848
50
35.9040328
51
84.2052621
0
ARC
8
DEFAULT_255_2_778
10
29.7303929
20
16.7155162
40
0.2000641
50
215.9891511
51
270.0064267
0
ARC
8
DEFAULT_255_2_778
10
29.7303667
20
16.7156557
40
0.2002037
50
270.0139209
51
323.9904786
0
LINE
8
DEFAULT_255_2_778
10
30.2694153
20
17.004352
11
30.6686153
21
17.045952
0
LINE
8
DEFAULT_255_2_778
10
30.8305153
20
17.326352
11
30.6670153
21
17.693152
0
LINE
8
DEFAULT_255_2_778
10
30.6670153
20
17.856052
11
30.8305153
21
18.222852
0
LINE
8
DEFAULT_255_2_778
10
30.6686153
20
18.503252
11
30.2694153
21
18.544852
0
LINE
8
DEFAULT_255_2_778
10
30.1281153
20
18.626252
11
29.8923153
21
18.951252
0
LINE
8
DEFAULT_255_2_778
10
29.5685153
20
18.951252
11
29.3327153
21
18.626252
0
LINE
8
DEFAULT_255_2_778
10
29.1914153
20
18.544852
11
28.7922153
21
18.503252
0
LINE
8
DEFAULT_255_2_778
10
28.6303153
20
18.222852
11
28.7938153
21
17.856052
0
LINE
8
DEFAULT_255_2_778
10
28.7938153
20
17.693152
11
28.6303153
21
17.326352
0
LINE
8
DEFAULT_255_2_778
10
28.7922153
20
17.045952
11
29.1914153
21
17.004352
0
LINE
8
DEFAULT_255_2_778
10
29.3327153
20
16.922952
11
29.5685153
21
16.597952
0
LINE
8
DEFAULT_255_2_778
10
29.8923153
20
16.597952
11
30.1281153
21
16.922952
0
ARC
8
DEFAULT_255_2_778
10
16.2297847
20
113.9752153
40
0.2495164
50
89.8888436
51
180.1111449
0
ARC
8
DEFAULT_255_2_778
10
16.231022
20
113.9753848
40
0.2493475
50
359.8498126
51
90.173085
0
ARC
8
DEFAULT_255_2_778
10
16.2310007
20
113.9739993
40
0.2493691
50
269.8318271
51
0.1681843
0
ARC
8
DEFAULT_255_2_778
10
16.2296155
20
113.9739782
40
0.2493478
50
179.8269622
51
270.1501127
0
LINE
8
DEFAULT_255_2_778
10
15.9802688
20
113.9747312
11
15.9802688
21
113.9747312
0
ARC
8
DEFAULT_255_2_778
10
14.4302433
20
114.4745418
40
0.9996288
50
246.1006739
51
268.6553485
0
ARC
8
DEFAULT_255_2_778
10
14.4303298
20
114.475651
40
1.0007397
50
268.6518866
51
270.0003472
0
ARC
8
DEFAULT_255_2_778
10
14.4304877
20
114.4750754
40
1.0001642
50
269.991304
51
303.0373506
0
ARC
8
DEFAULT_255_2_778
10
14.4301368
20
114.4750403
40
1.0003261
50
303.055296
51
359.9817934
0
ARC
8
DEFAULT_255_2_778
10
18.0306838
20
114.4748579
40
1.000321
50
180.007761
51
232.5025869
0
LINE
8
DEFAULT_255_2_778
10
15.9802628
20
113.9000224
11
16.4803628
21
113.9000224
0
LINE
8
DEFAULT_255_2_778
10
15.4304628
20
114.4747224
11
17.0303628
21
114.4747224
0
LINE
8
DEFAULT_255_2_778
10
30.3653628
20
3.3365224
11
30.9329628
21
3.3365224
0
LINE
8
DEFAULT_255_2_778
10
30.9329628
20
3.3365224
11
30.9329628
21
3.1865224
0
LINE
8
DEFAULT_255_2_778
10
30.9329628
20
3.1865224
11
30.3653628
21
3.1865224
0
LINE
8
DEFAULT_255_2_778
10
30.3653628
20
3.1865224
11
30.3653628
21
3.3365224
0
LINE
8
DEFAULT_255_2_778
10
37.8829628
20
3.3365224
11
38.4505628
21
3.3365224
0
LINE
8
DEFAULT_255_2_778
10
38.4505628
20
3.3365224
11
38.4505628
21
3.1865224
0
LINE
8
DEFAULT_255_2_778
10
38.4505628
20
3.1865224
11
37.8829628
21
3.1865224
0
LINE
8
DEFAULT_255_2_778
10
37.8829628
20
3.1865224
11
37.8829628
21
3.3365224
0
LINE
8
DEFAULT_255_2_778
10
33.9179854
20
4.2747739
11
34.8201854
21
4.2747739
0
LINE
8
DEFAULT_255_2_778
10
34.8201854
20
4.2747739
11
34.8201854
21
4.1127739
0
LINE
8
DEFAULT_255_2_778
10
34.8201854
20
4.1127739
11
34.1147854
21
4.1127739
0
LINE
8
DEFAULT_255_2_778
10
34.1147854
20
4.1127739
11
34.1147854
21
3.5177739
0
LINE
8
DEFAULT_255_2_778
10
34.1147854
20
3.5177739
11
34.7855854
21
3.5177739
0
LINE
8
DEFAULT_255_2_778
10
34.7855854
20
3.5177739
11
34.7855854
21
3.3558739
0
LINE
8
DEFAULT_255_2_778
10
34.7855854
20
3.3558739
11
34.1147854
21
3.3558739
0
LINE
8
DEFAULT_255_2_778
10
34.1147854
20
3.3558739
11
34.1147854
21
2.5748739
0
LINE
8
DEFAULT_255_2_778
10
34.1147854
20
2.5748739
11
33.9179854
21
2.5748739
0
LINE
8
DEFAULT_255_2_778
10
33.9179854
20
2.5748739
11
33.9179854
21
4.2747739
0
LINE
8
DEFAULT_255_2_778
10
26.7292566
20
4.2747062
11
26.8996566
21
4.2747062
0
LINE
8
DEFAULT_255_2_778
10
26.8996566
20
4.2747062
11
26.8996566
21
2.5748062
0
LINE
8
DEFAULT_255_2_778
10
26.8996566
20
2.5748062
11
26.7101566
21
2.5748062
0
LINE
8
DEFAULT_255_2_778
10
26.7101566
20
2.5748062
11
26.7101566
21
4.0612062
0
LINE
8
DEFAULT_255_2_778
10
26.7101566
20
4.0612062
11
26.3635566
21
3.8406062
0
LINE
8
DEFAULT_255_2_778
10
26.3635566
20
3.8406062
11
26.2807566
21
3.9906062
0
LINE
8
DEFAULT_255_2_778
10
26.2807566
20
3.9906062
11
26.7294566
21
4.2750062
0
LINE
8
DEFAULT_255_2_778
10
27.6998552
20
3.2262739
11
28.2863552
21
3.2262739
0
LINE
8
DEFAULT_255_2_778
10
28.2863552
20
3.2262739
11
28.2863552
21
4.0564739
0
LINE
8
DEFAULT_255_2_778
10
28.2863552
20
4.0564739
11
27.6998552
21
3.2262739
0
LINE
8
DEFAULT_255_2_778
10
28.2517552
20
4.2747739
11
28.4737552
21
4.2747739
0
LINE
8
DEFAULT_255_2_778
10
28.4737552
20
4.2747739
11
28.4737552
21
3.2262739
0
LINE
8
DEFAULT_255_2_778
10
28.4737552
20
3.2262739
11
28.7364552
21
3.2262739
0
LINE
8
DEFAULT_255_2_778
10
28.7364552
20
3.2262739
11
28.7364552
21
3.0642739
0
LINE
8
DEFAULT_255_2_778
10
28.7364552
20
3.0642739
11
28.4737552
21
3.0642739
0
LINE
8
DEFAULT_255_2_778
10
28.4737552
20
3.0642739
11
28.4737552
21
2.5748739
0
LINE
8
DEFAULT_255_2_778
10
28.4737552
20
2.5748739
11
28.2866552
21
2.5748739
0
LINE
8
DEFAULT_255_2_778
10
28.2866552
20
2.5748739
11
28.2866552
21
3.0642739
0
LINE
8
DEFAULT_255_2_778
10
28.2866552
20
3.0642739
11
27.5201552
21
3.0642739
0
LINE
8
DEFAULT_255_2_778
10
27.5201552
20
3.0642739
11
27.5201552
21
3.2502739
0
LINE
8
DEFAULT_255_2_778
10
27.5201552
20
3.2502739
11
28.2517552
21
4.2747739
0
LINE
8
DEFAULT_255_2_778
10
29.1155552
20
3.2262739
11
29.7020552
21
3.2262739
0
LINE
8
DEFAULT_255_2_778
10
29.7020552
20
3.2262739
11
29.7020552
21
4.0564739
0
LINE
8
DEFAULT_255_2_778
10
29.7020552
20
4.0564739
11
29.1155552
21
3.2262739
0
LINE
8
DEFAULT_255_2_778
10
29.6674552
20
4.2747739
11
29.8894552
21
4.2747739
0
LINE
8
DEFAULT_255_2_778
10
29.8894552
20
4.2747739
11
29.8894552
21
3.2262739
0
LINE
8
DEFAULT_255_2_778
10
29.8894552
20
3.2262739
11
30.1521552
21
3.2262739
0
LINE
8
DEFAULT_255_2_778
10
30.1521552
20
3.2262739
11
30.1521552
21
3.0642739
0
LINE
8
DEFAULT_255_2_778
10
30.1521552
20
3.0642739
11
29.8894552
21
3.0642739
0
LINE
8
DEFAULT_255_2_778
10
29.8894552
20
3.0642739
11
29.8894552
21
2.5748739
0
LINE
8
DEFAULT_255_2_778
10
29.8894552
20
2.5748739
11
29.7023552
21
2.5748739
0
LINE
8
DEFAULT_255_2_778
10
29.7023552
20
2.5748739
11
29.7023552
21
3.0642739
0
LINE
8
DEFAULT_255_2_778
10
29.7023552
20
3.0642739
11
28.9358552
21
3.0642739
0
LINE
8
DEFAULT_255_2_778
10
28.9358552
20
3.0642739
11
28.9358552
21
3.2502739
0
LINE
8
DEFAULT_255_2_778
10
28.9358552
20
3.2502739
11
29.6674552
21
4.2747739
0
LINE
8
DEFAULT_255_2_778
10
31.2952552
20
3.2262739
11
31.8817552
21
3.2262739
0
LINE
8
DEFAULT_255_2_778
10
31.8817552
20
3.2262739
11
31.8817552
21
4.0564739
0
LINE
8
DEFAULT_255_2_778
10
31.8817552
20
4.0564739
11
31.2952552
21
3.2262739
0
LINE
8
DEFAULT_255_2_778
10
31.8471552
20
4.2747739
11
32.0691552
21
4.2747739
0
LINE
8
DEFAULT_255_2_778
10
32.0691552
20
4.2747739
11
32.0691552
21
3.2262739
0
LINE
8
DEFAULT_255_2_778
10
32.0691552
20
3.2262739
11
32.3318552
21
3.2262739
0
LINE
8
DEFAULT_255_2_778
10
32.3318552
20
3.2262739
11
32.3318552
21
3.0642739
0
LINE
8
DEFAULT_255_2_778
10
32.3318552
20
3.0642739
11
32.0691552
21
3.0642739
0
LINE
8
DEFAULT_255_2_778
10
32.0691552
20
3.0642739
11
32.0691552
21
2.5748739
0
LINE
8
DEFAULT_255_2_778
10
32.0691552
20
2.5748739
11
31.8820552
21
2.5748739
0
LINE
8
DEFAULT_255_2_778
10
31.8820552
20
2.5748739
11
31.8820552
21
3.0642739
0
LINE
8
DEFAULT_255_2_778
10
31.8820552
20
3.0642739
11
31.1155552
21
3.0642739
0
LINE
8
DEFAULT_255_2_778
10
31.1155552
20
3.0642739
11
31.1155552
21
3.2502739
0
LINE
8
DEFAULT_255_2_778
10
31.1155552
20
3.2502739
11
31.8471552
21
4.2747739
0
LINE
8
DEFAULT_255_2_778
10
32.6679031
20
4.2747094
11
33.1515031
21
4.2681094
0
LINE
8
DEFAULT_255_2_778
10
33.1515031
20
4.2681094
11
33.3738031
21
4.2194094
0
LINE
8
DEFAULT_255_2_778
10
33.3738031
20
4.2194094
11
33.4960031
21
4.1440094
0
LINE
8
DEFAULT_255_2_778
10
33.4960031
20
4.1440094
11
33.5595031
21
4.0710094
0
LINE
8
DEFAULT_255_2_778
10
33.5595031
20
4.0710094
11
33.5958031
21
4.0048094
0
LINE
8
DEFAULT_255_2_778
10
33.5958031
20
4.0048094
11
33.6164031
21
3.9482094
0
LINE
8
DEFAULT_255_2_778
10
33.6164031
20
3.9482094
11
33.6283031
21
3.8985094
0
LINE
8
DEFAULT_255_2_778
10
33.6283031
20
3.8985094
11
33.6336031
21
3.8648094
0
LINE
8
DEFAULT_255_2_778
10
33.6336031
20
3.8648094
11
33.6312031
21
3.6839094
0
LINE
8
DEFAULT_255_2_778
10
33.6312031
20
3.6839094
11
33.6212031
21
3.6355094
0
LINE
8
DEFAULT_255_2_778
10
33.6212031
20
3.6355094
11
33.6018031
21
3.5778094
0
LINE
8
DEFAULT_255_2_778
10
33.6018031
20
3.5778094
11
33.5680031
21
3.5122094
0
LINE
8
DEFAULT_255_2_778
10
33.5680031
20
3.5122094
11
33.5032031
21
3.4341094
0
LINE
8
DEFAULT_255_2_778
10
33.5032031
20
3.4341094
11
33.3783031
21
3.3542094
0
LINE
8
DEFAULT_255_2_778
10
33.3783031
20
3.3542094
11
33.1827031
21
3.3045094
0
LINE
8
DEFAULT_255_2_778
10
33.1827031
20
3.3045094
11
32.9737031
21
3.2928094
0
LINE
8
DEFAULT_255_2_778
10
32.9737031
20
3.2928094
11
32.8644031
21
3.2928094
0
LINE
8
DEFAULT_255_2_778
10
32.8644031
20
3.2928094
11
32.8644031
21
2.5753094
0
LINE
8
DEFAULT_255_2_778
10
32.8644031
20
2.5753094
11
32.6676031
21
2.5753094
0
LINE
8
DEFAULT_255_2_778
10
32.6676031
20
2.5753094
11
32.6679031
21
4.2747094
0
LINE
8
DEFAULT_255_2_778
10
32.9449031
20
3.4542094
11
33.2706031
21
3.4955094
0
LINE
8
DEFAULT_255_2_778
10
33.2706031
20
3.4955094
11
33.3619031
21
3.5595094
0
LINE
8
DEFAULT_255_2_778
10
33.3619031
20
3.5595094
11
33.4013031
21
3.6228094
0
LINE
8
DEFAULT_255_2_778
10
33.4013031
20
3.6228094
11
33.4174031
21
3.6699094
0
LINE
8
DEFAULT_255_2_778
10
33.4174031
20
3.6699094
11
33.4248031
21
3.7058094
0
LINE
8
DEFAULT_255_2_778
10
33.4248031
20
3.7058094
11
33.4240031
21
3.8485094
0
LINE
8
DEFAULT_255_2_778
10
33.4240031
20
3.8485094
11
33.4143031
21
3.8916094
0
LINE
8
DEFAULT_255_2_778
10
33.4143031
20
3.8916094
11
33.3899031
21
3.9522094
0
LINE
8
DEFAULT_255_2_778
10
33.3899031
20
3.9522094
11
33.3320031
21
4.0292094
0
LINE
8
DEFAULT_255_2_778
10
33.3320031
20
4.0292094
11
33.2277031
21
4.0863094
0
LINE
8
DEFAULT_255_2_778
10
33.2277031
20
4.0863094
11
32.9761031
21
4.1125094
0
LINE
8
DEFAULT_255_2_778
10
32.9761031
20
4.1125094
11
32.8644031
21
4.1125094
0
LINE
8
DEFAULT_255_2_778
10
32.8644031
20
4.1125094
11
32.8644031
21
3.4539094
0
LINE
8
DEFAULT_255_2_778
10
32.8644031
20
3.4539094
11
32.9449031
21
3.4542094
0
LINE
8
DEFAULT_255_2_778
10
36.1325
20
2.8200083
11
36.1653
21
2.8912083
0
LINE
8
DEFAULT_255_2_778
10
36.1653
20
2.8912083
11
36.1894
21
2.9608083
0
LINE
8
DEFAULT_255_2_778
10
36.1894
20
2.9608083
11
36.2045
21
3.0174083
0
LINE
8
DEFAULT_255_2_778
10
36.2045
20
3.0174083
11
36.2185
21
3.0838083
0
LINE
8
DEFAULT_255_2_778
10
36.2185
20
3.0838083
11
36.2241
21
3.1174083
0
LINE
8
DEFAULT_255_2_778
10
36.2241
20
3.1174083
11
36.2288
21
3.1510083
0
LINE
8
DEFAULT_255_2_778
10
36.2288
20
3.1510083
11
36.2328
21
3.1847083
0
LINE
8
DEFAULT_255_2_778
10
36.2328
20
3.1847083
11
36.2373
21
3.2325083
0
LINE
8
DEFAULT_255_2_778
10
36.2373
20
3.2325083
11
36.2354
21
3.6535083
0
LINE
8
DEFAULT_255_2_778
10
36.2354
20
3.6535083
11
36.2317
21
3.6860083
0
LINE
8
DEFAULT_255_2_778
10
36.2317
20
3.6860083
11
36.2272
21
3.7183083
0
LINE
8
DEFAULT_255_2_778
10
36.2272
20
3.7183083
11
36.2159
21
3.7829083
0
LINE
8
DEFAULT_255_2_778
10
36.2159
20
3.7829083
11
36.2005
21
3.8469083
0
LINE
8
DEFAULT_255_2_778
10
36.2005
20
3.8469083
11
36.1741
21
3.9302083
0
LINE
8
DEFAULT_255_2_778
10
36.1741
20
3.9302083
11
36.141
21
4.0080083
0
LINE
8
DEFAULT_255_2_778
10
36.141
20
4.0080083
11
36.0997
21
4.0810083
0
LINE
8
DEFAULT_255_2_778
10
36.0997
20
4.0810083
11
36.0494
21
4.1467083
0
LINE
8
DEFAULT_255_2_778
10
36.0494
20
4.1467083
11
35.9735
21
4.2128083
0
LINE
8
DEFAULT_255_2_778
10
35.9735
20
4.2128083
11
35.8674
21
4.2652083
0
LINE
8
DEFAULT_255_2_778
10
35.8674
20
4.2652083
11
35.6896
21
4.2980083
0
LINE
8
DEFAULT_255_2_778
10
35.6896
20
4.2980083
11
35.5317
21
4.2864083
0
LINE
8
DEFAULT_255_2_778
10
35.5317
20
4.2864083
11
35.4081
21
4.2448083
0
LINE
8
DEFAULT_255_2_778
10
35.4081
20
4.2448083
11
35.3203
21
4.1903083
0
LINE
8
DEFAULT_255_2_778
10
35.3203
20
4.1903083
11
35.2504
21
4.1218083
0
LINE
8
DEFAULT_255_2_778
10
35.2504
20
4.1218083
11
35.1954
21
4.0421083
0
LINE
8
DEFAULT_255_2_778
10
35.1954
20
4.0421083
11
35.1649
21
3.9810083
0
LINE
8
DEFAULT_255_2_778
10
35.1649
20
3.9810083
11
35.139
21
3.9125083
0
LINE
8
DEFAULT_255_2_778
10
35.139
20
3.9125083
11
35.125
21
3.8657083
0
LINE
8
DEFAULT_255_2_778
10
35.125
20
3.8657083
11
35.1091
21
3.7998083
0
LINE
8
DEFAULT_255_2_778
10
35.1091
20
3.7998083
11
35.0969
21
3.7331083
0
LINE
8
DEFAULT_255_2_778
10
35.0969
20
3.7331083
11
35.0943
21
3.1336083
0
LINE
8
DEFAULT_255_2_778
10
35.0943
20
3.1336083
11
35.1001
21
3.0965083
0
LINE
8
DEFAULT_255_2_778
10
35.1001
20
3.0965083
11
35.107
21
3.0598083
0
LINE
8
DEFAULT_255_2_778
10
35.107
20
3.0598083
11
35.1213
21
2.9976083
0
LINE
8
DEFAULT_255_2_778
10
35.1213
20
2.9976083
11
35.1358
21
2.9468083
0
LINE
8
DEFAULT_255_2_778
10
35.1358
20
2.9468083
11
35.1636
21
2.8722083
0
LINE
8
DEFAULT_255_2_778
10
35.1636
20
2.8722083
11
35.2028
21
2.7954083
0
LINE
8
DEFAULT_255_2_778
10
35.2028
20
2.7954083
11
35.2523
21
2.7253083
0
LINE
8
DEFAULT_255_2_778
10
35.2523
20
2.7253083
11
35.3261
21
2.6544083
0
LINE
8
DEFAULT_255_2_778
10
35.3261
20
2.6544083
11
35.4287
21
2.5941083
0
LINE
8
DEFAULT_255_2_778
10
35.4287
20
2.5941083
11
35.574
21
2.5560083
0
LINE
8
DEFAULT_255_2_778
10
35.574
20
2.5560083
11
35.7513
21
2.5563083
0
LINE
8
DEFAULT_255_2_778
10
35.7513
20
2.5563083
11
35.8793
21
2.5883083
0
LINE
8
DEFAULT_255_2_778
10
35.8793
20
2.5883083
11
35.9865
21
2.6470083
0
LINE
8
DEFAULT_255_2_778
10
35.9865
20
2.6470083
11
36.0624
21
2.7169083
0
LINE
8
DEFAULT_255_2_778
10
36.0624
20
2.7169083
11
36.1122
21
2.7841083
0
LINE
8
DEFAULT_255_2_778
10
36.1122
20
2.7841083
11
36.1325
21
2.8200083
0
LINE
8
DEFAULT_255_2_778
10
35.3576
20
2.9042083
11
35.334
21
2.9587083
0
LINE
8
DEFAULT_255_2_778
10
35.334
20
2.9587083
11
35.316
21
3.0153083
0
LINE
8
DEFAULT_255_2_778
10
35.316
20
3.0153083
11
35.3046
21
3.0629083
0
LINE
8
DEFAULT_255_2_778
10
35.3046
20
3.0629083
11
35.2941
21
3.1203083
0
LINE
8
DEFAULT_255_2_778
10
35.2941
20
3.1203083
11
35.2864
21
3.1783083
0
LINE
8
DEFAULT_255_2_778
10
35.2864
20
3.1783083
11
35.288
21
3.6754083
0
LINE
8
DEFAULT_255_2_778
10
35.288
20
3.6754083
11
35.2959
21
3.7329083
0
LINE
8
DEFAULT_255_2_778
10
35.2959
20
3.7329083
11
35.3081
21
3.7971083
0
LINE
8
DEFAULT_255_2_778
10
35.3081
20
3.7971083
11
35.325
21
3.8604083
0
LINE
8
DEFAULT_255_2_778
10
35.325
20
3.8604083
11
35.3541
21
3.9355083
0
LINE
8
DEFAULT_255_2_778
10
35.3541
20
3.9355083
11
35.3999
21
4.0125083
0
LINE
8
DEFAULT_255_2_778
10
35.3999
20
4.0125083
11
35.4708
21
4.0805083
0
LINE
8
DEFAULT_255_2_778
10
35.4708
20
4.0805083
11
35.5616
21
4.1236083
0
LINE
8
DEFAULT_255_2_778
10
35.5616
20
4.1236083
11
35.7126
21
4.1326083
0
LINE
8
DEFAULT_255_2_778
10
35.7126
20
4.1326083
11
35.8314
21
4.0916083
0
LINE
8
DEFAULT_255_2_778
10
35.8314
20
4.0916083
11
35.906
21
4.0300083
0
LINE
8
DEFAULT_255_2_778
10
35.906
20
4.0300083
11
35.9563
21
3.9575083
0
LINE
8
DEFAULT_255_2_778
10
35.9563
20
3.9575083
11
35.9865
21
3.8905083
0
LINE
8
DEFAULT_255_2_778
10
35.9865
20
3.8905083
11
36.0042
21
3.8345083
0
LINE
8
DEFAULT_255_2_778
10
36.0042
20
3.8345083
11
36.0156
21
3.7871083
0
LINE
8
DEFAULT_255_2_778
10
36.0156
20
3.7871083
11
36.0262
21
3.7297083
0
LINE
8
DEFAULT_255_2_778
10
36.0262
20
3.7297083
11
36.0338
21
3.6717083
0
LINE
8
DEFAULT_255_2_778
10
36.0338
20
3.6717083
11
36.0333
21
3.1717083
0
LINE
8
DEFAULT_255_2_778
10
36.0333
20
3.1717083
11
36.0259
21
3.1174083
0
LINE
8
DEFAULT_255_2_778
10
36.0259
20
3.1174083
11
36.0161
21
3.0637083
0
LINE
8
DEFAULT_255_2_778
10
36.0161
20
3.0637083
11
36.0002
21
3.0007083
0
LINE
8
DEFAULT_255_2_778
10
36.0002
20
3.0007083
11
35.9722
21
2.9240083
0
LINE
8
DEFAULT_255_2_778
10
35.9722
20
2.9240083
11
35.932
21
2.8521083
0
LINE
8
DEFAULT_255_2_778
10
35.932
20
2.8521083
11
35.8626
21
2.7777083
0
LINE
8
DEFAULT_255_2_778
10
35.8626
20
2.7777083
11
35.7812
21
2.7322083
0
LINE
8
DEFAULT_255_2_778
10
35.7812
20
2.7322083
11
35.6322
21
2.7134083
0
LINE
8
DEFAULT_255_2_778
10
35.6322
20
2.7134083
11
35.5108
21
2.7444083
0
LINE
8
DEFAULT_255_2_778
10
35.5108
20
2.7444083
11
35.434
21
2.7978083
0
LINE
8
DEFAULT_255_2_778
10
35.434
20
2.7978083
11
35.379
21
2.8658083
0
LINE
8
DEFAULT_255_2_778
10
35.379
20
2.8658083
11
35.3576
21
2.9042083
0
LINE
8
DEFAULT_255_2_778
10
37.5483
20
2.8200083
11
37.5811
21
2.8912083
0
LINE
8
DEFAULT_255_2_778
10
37.5811
20
2.8912083
11
37.6052
21
2.9608083
0
LINE
8
DEFAULT_255_2_778
10
37.6052
20
2.9608083
11
37.6203
21
3.0174083
0
LINE
8
DEFAULT_255_2_778
10
37.6203
20
3.0174083
11
37.6343
21
3.0838083
0
LINE
8
DEFAULT_255_2_778
10
37.6343
20
3.0838083
11
37.6399
21
3.1174083
0
LINE
8
DEFAULT_255_2_778
10
37.6399
20
3.1174083
11
37.6446
21
3.1510083
0
LINE
8
DEFAULT_255_2_778
10
37.6446
20
3.1510083
11
37.6486
21
3.1847083
0
LINE
8
DEFAULT_255_2_778
10
37.6486
20
3.1847083
11
37.6531
21
3.2325083
0
LINE
8
DEFAULT_255_2_778
10
37.6531
20
3.2325083
11
37.6512
21
3.6535083
0
LINE
8
DEFAULT_255_2_778
10
37.6512
20
3.6535083
11
37.6475
21
3.6860083
0
LINE
8
DEFAULT_255_2_778
10
37.6475
20
3.6860083
11
37.643
21
3.7183083
0
LINE
8
DEFAULT_255_2_778
10
37.643
20
3.7183083
11
37.6317
21
3.7829083
0
LINE
8
DEFAULT_255_2_778
10
37.6317
20
3.7829083
11
37.6163
21
3.8469083
0
LINE
8
DEFAULT_255_2_778
10
37.6163
20
3.8469083
11
37.5899
21
3.9302083
0
LINE
8
DEFAULT_255_2_778
10
37.5899
20
3.9302083
11
37.5568
21
4.0080083
0
LINE
8
DEFAULT_255_2_778
10
37.5568
20
4.0080083
11
37.5155
21
4.0810083
0
LINE
8
DEFAULT_255_2_778
10
37.5155
20
4.0810083
11
37.4652
21
4.1467083
0
LINE
8
DEFAULT_255_2_778
10
37.4652
20
4.1467083
11
37.3893
21
4.2128083
0
LINE
8
DEFAULT_255_2_778
10
37.3893
20
4.2128083
11
37.2832
21
4.2652083
0
LINE
8
DEFAULT_255_2_778
10
37.2832
20
4.2652083
11
37.1054
21
4.2980083
0
LINE
8
DEFAULT_255_2_778
10
37.1054
20
4.2980083
11
36.9475
21
4.2864083
0
LINE
8
DEFAULT_255_2_778
10
36.9475
20
4.2864083
11
36.8239
21
4.2448083
0
LINE
8
DEFAULT_255_2_778
10
36.8239
20
4.2448083
11
36.7361
21
4.1903083
0
LINE
8
DEFAULT_255_2_778
10
36.7361
20
4.1903083
11
36.6662
21
4.1218083
0
LINE
8
DEFAULT_255_2_778
10
36.6662
20
4.1218083
11
36.6112
21
4.0421083
0
LINE
8
DEFAULT_255_2_778
10
36.6112
20
4.0421083
11
36.5807
21
3.9810083
0
LINE
8
DEFAULT_255_2_778
10
36.5807
20
3.9810083
11
36.5548
21
3.9125083
0
LINE
8
DEFAULT_255_2_778
10
36.5548
20
3.9125083
11
36.5408
21
3.8657083
0
LINE
8
DEFAULT_255_2_778
10
36.5408
20
3.8657083
11
36.5249
21
3.7998083
0
LINE
8
DEFAULT_255_2_778
10
36.5249
20
3.7998083
11
36.5127
21
3.7331083
0
LINE
8
DEFAULT_255_2_778
10
36.5127
20
3.7331083
11
36.5101
21
3.1336083
0
LINE
8
DEFAULT_255_2_778
10
36.5101
20
3.1336083
11
36.5159
21
3.0965083
0
LINE
8
DEFAULT_255_2_778
10
36.5159
20
3.0965083
11
36.5228
21
3.0598083
0
LINE
8
DEFAULT_255_2_778
10
36.5228
20
3.0598083
11
36.5371
21
2.9976083
0
LINE
8
DEFAULT_255_2_778
10
36.5371
20
2.9976083
11
36.5516
21
2.9468083
0
LINE
8
DEFAULT_255_2_778
10
36.5516
20
2.9468083
11
36.5794
21
2.8722083
0
LINE
8
DEFAULT_255_2_778
10
36.5794
20
2.8722083
11
36.6186
21
2.7954083
0
LINE
8
DEFAULT_255_2_778
10
36.6186
20
2.7954083
11
36.6681
21
2.7253083
0
LINE
8
DEFAULT_255_2_778
10
36.6681
20
2.7253083
11
36.7419
21
2.6544083
0
LINE
8
DEFAULT_255_2_778
10
36.7419
20
2.6544083
11
36.8445
21
2.5941083
0
LINE
8
DEFAULT_255_2_778
10
36.8445
20
2.5941083
11
36.9898
21
2.5560083
0
LINE
8
DEFAULT_255_2_778
10
36.9898
20
2.5560083
11
37.1671
21
2.5563083
0
LINE
8
DEFAULT_255_2_778
10
37.1671
20
2.5563083
11
37.2951
21
2.5883083
0
LINE
8
DEFAULT_255_2_778
10
37.2951
20
2.5883083
11
37.4023
21
2.6470083
0
LINE
8
DEFAULT_255_2_778
10
37.4023
20
2.6470083
11
37.4782
21
2.7169083
0
LINE
8
DEFAULT_255_2_778
10
37.4782
20
2.7169083
11
37.528
21
2.7841083
0
LINE
8
DEFAULT_255_2_778
10
37.528
20
2.7841083
11
37.5483
21
2.8200083
0
LINE
8
DEFAULT_255_2_778
10
36.7734
20
2.9042083
11
36.7498
21
2.9587083
0
LINE
8
DEFAULT_255_2_778
10
36.7498
20
2.9587083
11
36.7318
21
3.0153083
0
LINE
8
DEFAULT_255_2_778
10
36.7318
20
3.0153083
11
36.7204
21
3.0629083
0
LINE
8
DEFAULT_255_2_778
10
36.7204
20
3.0629083
11
36.7099
21
3.1203083
0
LINE
8
DEFAULT_255_2_778
10
36.7099
20
3.1203083
11
36.7022
21
3.1783083
0
LINE
8
DEFAULT_255_2_778
10
36.7022
20
3.1783083
11
36.7038
21
3.6754083
0
LINE
8
DEFAULT_255_2_778
10
36.7038
20
3.6754083
11
36.7117
21
3.7329083
0
LINE
8
DEFAULT_255_2_778
10
36.7117
20
3.7329083
11
36.7239
21
3.7971083
0
LINE
8
DEFAULT_255_2_778
10
36.7239
20
3.7971083
11
36.7408
21
3.8604083
0
LINE
8
DEFAULT_255_2_778
10
36.7408
20
3.8604083
11
36.7699
21
3.9355083
0
LINE
8
DEFAULT_255_2_778
10
36.7699
20
3.9355083
11
36.8157
21
4.0125083
0
LINE
8
DEFAULT_255_2_778
10
36.8157
20
4.0125083
11
36.8866
21
4.0805083
0
LINE
8
DEFAULT_255_2_778
10
36.8866
20
4.0805083
11
36.9774
21
4.1236083
0
LINE
8
DEFAULT_255_2_778
10
36.9774
20
4.1236083
11
37.1284
21
4.1326083
0
LINE
8
DEFAULT_255_2_778
10
37.1284
20
4.1326083
11
37.2472
21
4.0916083
0
LINE
8
DEFAULT_255_2_778
10
37.2472
20
4.0916083
11
37.3218
21
4.0300083
0
LINE
8
DEFAULT_255_2_778
10
37.3218
20
4.0300083
11
37.3721
21
3.9575083
0
LINE
8
DEFAULT_255_2_778
10
37.3721
20
3.9575083
11
37.4023
21
3.8905083
0
LINE
8
DEFAULT_255_2_778
10
37.4023
20
3.8905083
11
37.42
21
3.8345083
0
LINE
8
DEFAULT_255_2_778
10
37.42
20
3.8345083
11
37.4314
21
3.7871083
0
LINE
8
DEFAULT_255_2_778
10
37.4314
20
3.7871083
11
37.442
21
3.7297083
0
LINE
8
DEFAULT_255_2_778
10
37.442
20
3.7297083
11
37.4496
21
3.6717083
0
LINE
8
DEFAULT_255_2_778
10
37.4496
20
3.6717083
11
37.4491
21
3.1717083
0
LINE
8
DEFAULT_255_2_778
10
37.4491
20
3.1717083
11
37.4417
21
3.1174083
0
LINE
8
DEFAULT_255_2_778
10
37.4417
20
3.1174083
11
37.4319
21
3.0637083
0
LINE
8
DEFAULT_255_2_778
10
37.4319
20
3.0637083
11
37.416
21
3.0007083
0
LINE
8
DEFAULT_255_2_778
10
37.416
20
3.0007083
11
37.388
21
2.9240083
0
LINE
8
DEFAULT_255_2_778
10
37.388
20
2.9240083
11
37.3478
21
2.8521083
0
LINE
8
DEFAULT_255_2_778
10
37.3478
20
2.8521083
11
37.2784
21
2.7777083
0
LINE
8
DEFAULT_255_2_778
10
37.2784
20
2.7777083
11
37.197
21
2.7322083
0
LINE
8
DEFAULT_255_2_778
10
37.197
20
2.7322083
11
37.048
21
2.7134083
0
LINE
8
DEFAULT_255_2_778
10
37.048
20
2.7134083
11
36.9266
21
2.7444083
0
LINE
8
DEFAULT_255_2_778
10
36.9266
20
2.7444083
11
36.8498
21
2.7978083
0
LINE
8
DEFAULT_255_2_778
10
36.8498
20
2.7978083
11
36.7948
21
2.8658083
0
LINE
8
DEFAULT_255_2_778
10
36.7948
20
2.8658083
11
36.7734
21
2.9042083
0
LINE
8
DEFAULT_255_2_778
10
39.7282
20
2.8200083
11
39.761
21
2.8912083
0
LINE
8
DEFAULT_255_2_778
10
39.761
20
2.8912083
11
39.7851
21
2.9608083
0
LINE
8
DEFAULT_255_2_778
10
39.7851
20
2.9608083
11
39.8002
21
3.0174083
0
LINE
8
DEFAULT_255_2_778
10
39.8002
20
3.0174083
11
39.8142
21
3.0838083
0
LINE
8
DEFAULT_255_2_778
10
39.8142
20
3.0838083
11
39.8198
21
3.1174083
0
LINE
8
DEFAULT_255_2_778
10
39.8198
20
3.1174083
11
39.8245
21
3.1510083
0
LINE
8
DEFAULT_255_2_778
10
39.8245
20
3.1510083
11
39.8285
21
3.1847083
0
LINE
8
DEFAULT_255_2_778
10
39.8285
20
3.1847083
11
39.833
21
3.2325083
0
LINE
8
DEFAULT_255_2_778
10
39.833
20
3.2325083
11
39.8311
21
3.6535083
0
LINE
8
DEFAULT_255_2_778
10
39.8311
20
3.6535083
11
39.8274
21
3.6860083
0
LINE
8
DEFAULT_255_2_778
10
39.8274
20
3.6860083
11
39.8229
21
3.7183083
0
LINE
8
DEFAULT_255_2_778
10
39.8229
20
3.7183083
11
39.8116
21
3.7829083
0
LINE
8
DEFAULT_255_2_778
10
39.8116
20
3.7829083
11
39.7962
21
3.8469083
0
LINE
8
DEFAULT_255_2_778
10
39.7962
20
3.8469083
11
39.7698
21
3.9302083
0
LINE
8
DEFAULT_255_2_778
10
39.7698
20
3.9302083
11
39.7367
21
4.0080083
0
LINE
8
DEFAULT_255_2_778
10
39.7367
20
4.0080083
11
39.6954
21
4.0810083
0
LINE
8
DEFAULT_255_2_778
10
39.6954
20
4.0810083
11
39.6451
21
4.1467083
0
LINE
8
DEFAULT_255_2_778
10
39.6451
20
4.1467083
11
39.5692
21
4.2128083
0
LINE
8
DEFAULT_255_2_778
10
39.5692
20
4.2128083
11
39.4631
21
4.2652083
0
LINE
8
DEFAULT_255_2_778
10
39.4631
20
4.2652083
11
39.2853
21
4.2980083
0
LINE
8
DEFAULT_255_2_778
10
39.2853
20
4.2980083
11
39.1274
21
4.2864083
0
LINE
8
DEFAULT_255_2_778
10
39.1274
20
4.2864083
11
39.0038
21
4.2448083
0
LINE
8
DEFAULT_255_2_778
10
39.0038
20
4.2448083
11
38.916
21
4.1903083
0
LINE
8
DEFAULT_255_2_778
10
38.916
20
4.1903083
11
38.8461
21
4.1218083
0
LINE
8
DEFAULT_255_2_778
10
38.8461
20
4.1218083
11
38.7911
21
4.0421083
0
LINE
8
DEFAULT_255_2_778
10
38.7911
20
4.0421083
11
38.7606
21
3.9810083
0
LINE
8
DEFAULT_255_2_778
10
38.7606
20
3.9810083
11
38.7347
21
3.9125083
0
LINE
8
DEFAULT_255_2_778
10
38.7347
20
3.9125083
11
38.7207
21
3.8657083
0
LINE
8
DEFAULT_255_2_778
10
38.7207
20
3.8657083
11
38.7048
21
3.7998083
0
LINE
8
DEFAULT_255_2_778
10
38.7048
20
3.7998083
11
38.6926
21
3.7331083
0
LINE
8
DEFAULT_255_2_778
10
38.6926
20
3.7331083
11
38.69
21
3.1336083
0
LINE
8
DEFAULT_255_2_778
10
38.69
20
3.1336083
11
38.6958
21
3.0965083
0
LINE
8
DEFAULT_255_2_778
10
38.6958
20
3.0965083
11
38.7027
21
3.0598083
0
LINE
8
DEFAULT_255_2_778
10
38.7027
20
3.0598083
11
38.717
21
2.9976083
0
LINE
8
DEFAULT_255_2_778
10
38.717
20
2.9976083
11
38.7315
21
2.9468083
0
LINE
8
DEFAULT_255_2_778
10
38.7315
20
2.9468083
11
38.7593
21
2.8722083
0
LINE
8
DEFAULT_255_2_778
10
38.7593
20
2.8722083
11
38.7985
21
2.7954083
0
LINE
8
DEFAULT_255_2_778
10
38.7985
20
2.7954083
11
38.848
21
2.7253083
0
LINE
8
DEFAULT_255_2_778
10
38.848
20
2.7253083
11
38.9218
21
2.6544083
0
LINE
8
DEFAULT_255_2_778
10
38.9218
20
2.6544083
11
39.0244
21
2.5941083
0
LINE
8
DEFAULT_255_2_778
10
39.0244
20
2.5941083
11
39.1697
21
2.5560083
0
LINE
8
DEFAULT_255_2_778
10
39.1697
20
2.5560083
11
39.347
21
2.5563083
0
LINE
8
DEFAULT_255_2_778
10
39.347
20
2.5563083
11
39.475
21
2.5883083
0
LINE
8
DEFAULT_255_2_778
10
39.475
20
2.5883083
11
39.5822
21
2.6470083
0
LINE
8
DEFAULT_255_2_778
10
39.5822
20
2.6470083
11
39.6581
21
2.7169083
0
LINE
8
DEFAULT_255_2_778
10
39.6581
20
2.7169083
11
39.7079
21
2.7841083
0
LINE
8
DEFAULT_255_2_778
10
39.7079
20
2.7841083
11
39.7282
21
2.8200083
0
LINE
8
DEFAULT_255_2_778
10
38.9533
20
2.9042083
11
38.9297
21
2.9587083
0
LINE
8
DEFAULT_255_2_778
10
38.9297
20
2.9587083
11
38.9117
21
3.0153083
0
LINE
8
DEFAULT_255_2_778
10
38.9117
20
3.0153083
11
38.9003
21
3.0629083
0
LINE
8
DEFAULT_255_2_778
10
38.9003
20
3.0629083
11
38.8898
21
3.1203083
0
LINE
8
DEFAULT_255_2_778
10
38.8898
20
3.1203083
11
38.8821
21
3.1783083
0
LINE
8
DEFAULT_255_2_778
10
38.8821
20
3.1783083
11
38.8837
21
3.6754083
0
LINE
8
DEFAULT_255_2_778
10
38.8837
20
3.6754083
11
38.8916
21
3.7329083
0
LINE
8
DEFAULT_255_2_778
10
38.8916
20
3.7329083
11
38.9038
21
3.7971083
0
LINE
8
DEFAULT_255_2_778
10
38.9038
20
3.7971083
11
38.9207
21
3.8604083
0
LINE
8
DEFAULT_255_2_778
10
38.9207
20
3.8604083
11
38.9498
21
3.9355083
0
LINE
8
DEFAULT_255_2_778
10
38.9498
20
3.9355083
11
38.9956
21
4.0125083
0
LINE
8
DEFAULT_255_2_778
10
38.9956
20
4.0125083
11
39.0665
21
4.0805083
0
LINE
8
DEFAULT_255_2_778
10
39.0665
20
4.0805083
11
39.1573
21
4.1236083
0
LINE
8
DEFAULT_255_2_778
10
39.1573
20
4.1236083
11
39.3083
21
4.1326083
0
LINE
8
DEFAULT_255_2_778
10
39.3083
20
4.1326083
11
39.4271
21
4.0916083
0
LINE
8
DEFAULT_255_2_778
10
39.4271
20
4.0916083
11
39.5018
21
4.0300083
0
LINE
8
DEFAULT_255_2_778
10
39.5018
20
4.0300083
11
39.552
21
3.9575083
0
LINE
8
DEFAULT_255_2_778
10
39.552
20
3.9575083
11
39.5822
21
3.8905083
0
LINE
8
DEFAULT_255_2_778
10
39.5822
20
3.8905083
11
39.5999
21
3.8345083
0
LINE
8
DEFAULT_255_2_778
10
39.5999
20
3.8345083
11
39.6113
21
3.7871083
0
LINE
8
DEFAULT_255_2_778
10
39.6113
20
3.7871083
11
39.6219
21
3.7297083
0
LINE
8
DEFAULT_255_2_778
10
39.6219
20
3.7297083
11
39.6295
21
3.6717083
0
LINE
8
DEFAULT_255_2_778
10
39.6295
20
3.6717083
11
39.629
21
3.1717083
0
LINE
8
DEFAULT_255_2_778
10
39.629
20
3.1717083
11
39.6216
21
3.1174083
0
LINE
8
DEFAULT_255_2_778
10
39.6216
20
3.1174083
11
39.6118
21
3.0637083
0
LINE
8
DEFAULT_255_2_778
10
39.6118
20
3.0637083
11
39.5959
21
3.0007083
0
LINE
8
DEFAULT_255_2_778
10
39.5959
20
3.0007083
11
39.5679
21
2.9240083
0
LINE
8
DEFAULT_255_2_778
10
39.5679
20
2.9240083
11
39.5277
21
2.8521083
0
LINE
8
DEFAULT_255_2_778
10
39.5277
20
2.8521083
11
39.4584
21
2.7777083
0
LINE
8
DEFAULT_255_2_778
10
39.4584
20
2.7777083
11
39.3769
21
2.7322083
0
LINE
8
DEFAULT_255_2_778
10
39.3769
20
2.7322083
11
39.2279
21
2.7134083
0
LINE
8
DEFAULT_255_2_778
10
39.2279
20
2.7134083
11
39.1065
21
2.7444083
0
LINE
8
DEFAULT_255_2_778
10
39.1065
20
2.7444083
11
39.0298
21
2.7978083
0
LINE
8
DEFAULT_255_2_778
10
39.0298
20
2.7978083
11
38.9747
21
2.8658083
0
LINE
8
DEFAULT_255_2_778
10
38.9747
20
2.8658083
11
38.9533
21
2.9042083
0
LINE
8
DEFAULT_255_2_778
10
40.9818917
20
3.3317739
11
40.4658917
21
3.3317739
0
LINE
8
DEFAULT_255_2_778
10
40.4658917
20
3.3317739
11
40.6629917
21
3.9053739
0
LINE
8
DEFAULT_255_2_778
10
40.6629917
20
3.9053739
11
40.7241917
21
4.0903739
0
LINE
8
DEFAULT_255_2_778
10
40.7241917
20
4.0903739
11
40.7262917
21
4.1067739
0
LINE
8
DEFAULT_255_2_778
10
40.7262917
20
4.1067739
11
40.7529917
21
4.0276739
0
LINE
8
DEFAULT_255_2_778
10
40.7529917
20
4.0276739
11
40.7791917
21
3.9315739
0
LINE
8
DEFAULT_255_2_778
10
40.7791917
20
3.9315739
11
40.9818917
21
3.3317739
0
LINE
8
DEFAULT_255_2_778
10
40.6039917
20
4.2747739
11
40.8524917
21
4.2747739
0
LINE
8
DEFAULT_255_2_778
10
40.8524917
20
4.2747739
11
41.4617917
21
2.5748739
0
LINE
8
DEFAULT_255_2_778
10
41.4617917
20
2.5748739
11
41.2493917
21
2.5748739
0
LINE
8
DEFAULT_255_2_778
10
41.2493917
20
2.5748739
11
41.0405917
21
3.1698739
0
LINE
8
DEFAULT_255_2_778
10
41.0405917
20
3.1698739
11
40.4071917
21
3.1698739
0
LINE
8
DEFAULT_255_2_778
10
40.4071917
20
3.1698739
11
40.1984917
21
2.5748739
0
LINE
8
DEFAULT_255_2_778
10
40.1984917
20
2.5748739
11
39.9991917
21
2.5748739
0
LINE
8
DEFAULT_255_2_778
10
39.9991917
20
2.5748739
11
40.6039917
21
4.2747739
0
LINE
8
DEFAULT_255_2_778
10
41.7160386
20
4.2747083
11
42.3431386
21
4.2499083
0
LINE
8
DEFAULT_255_2_778
10
42.3431386
20
4.2499083
11
42.4838386
21
4.1975083
0
LINE
8
DEFAULT_255_2_778
10
42.4838386
20
4.1975083
11
42.5746386
21
4.1226083
0
LINE
8
DEFAULT_255_2_778
10
42.5746386
20
4.1226083
11
42.6248386
21
4.0482083
0
LINE
8
DEFAULT_255_2_778
10
42.6248386
20
4.0482083
11
42.6463386
21
3.9945083
0
LINE
8
DEFAULT_255_2_778
10
42.6463386
20
3.9945083
11
42.6569386
21
3.9522083
0
LINE
8
DEFAULT_255_2_778
10
42.6569386
20
3.9522083
11
42.6616386
21
3.9234083
0
LINE
8
DEFAULT_255_2_778
10
42.6616386
20
3.9234083
11
42.6600386
21
3.7418083
0
LINE
8
DEFAULT_255_2_778
10
42.6600386
20
3.7418083
11
42.6505386
21
3.6979083
0
LINE
8
DEFAULT_255_2_778
10
42.6505386
20
3.6979083
11
42.6323386
21
3.6463083
0
LINE
8
DEFAULT_255_2_778
10
42.6323386
20
3.6463083
11
42.5942386
21
3.5810083
0
LINE
8
DEFAULT_255_2_778
10
42.5942386
20
3.5810083
11
42.5351386
21
3.5225083
0
LINE
8
DEFAULT_255_2_778
10
42.5351386
20
3.5225083
11
42.4134386
21
3.4632083
0
LINE
8
DEFAULT_255_2_778
10
42.4134386
20
3.4632083
11
42.3230386
21
3.4410083
0
LINE
8
DEFAULT_255_2_778
10
42.3230386
20
3.4410083
11
42.4796386
21
3.4074083
0
LINE
8
DEFAULT_255_2_778
10
42.4796386
20
3.4074083
11
42.6013386
21
3.3278083
0
LINE
8
DEFAULT_255_2_778
10
42.6013386
20
3.3278083
11
42.6579386
21
3.2592083
0
LINE
8
DEFAULT_255_2_778
10
42.6579386
20
3.2592083
11
42.6825386
21
3.2116083
0
LINE
8
DEFAULT_255_2_778
10
42.6825386
20
3.2116083
11
42.6963386
21
3.1711083
0
LINE
8
DEFAULT_255_2_778
10
42.6963386
20
3.1711083
11
42.7058386
21
3.1288083
0
LINE
8
DEFAULT_255_2_778
10
42.7058386
20
3.1288083
11
42.7050386
21
2.9190083
0
LINE
8
DEFAULT_255_2_778
10
42.7050386
20
2.9190083
11
42.6944386
21
2.8740083
0
LINE
8
DEFAULT_255_2_778
10
42.6944386
20
2.8740083
11
42.6696386
21
2.8089083
0
LINE
8
DEFAULT_255_2_778
10
42.6696386
20
2.8089083
11
42.6262386
21
2.7399083
0
LINE
8
DEFAULT_255_2_778
10
42.6262386
20
2.7399083
11
42.5447386
21
2.6655083
0
LINE
8
DEFAULT_255_2_778
10
42.5447386
20
2.6655083
11
42.4314386
21
2.6110083
0
LINE
8
DEFAULT_255_2_778
10
42.4314386
20
2.6110083
11
42.2774386
21
2.5801083
0
LINE
8
DEFAULT_255_2_778
10
42.2774386
20
2.5801083
11
42.0531386
21
2.5753083
0
LINE
8
DEFAULT_255_2_778
10
42.0531386
20
2.5753083
11
41.7160386
21
2.5753083
0
LINE
8
DEFAULT_255_2_778
10
41.7160386
20
2.5753083
11
41.7160386
21
4.2747083
0
LINE
8
DEFAULT_255_2_778
10
42.0015386
20
2.7343083
11
42.3457386
21
2.7682083
0
LINE
8
DEFAULT_255_2_778
10
42.3457386
20
2.7682083
11
42.4396386
21
2.8346083
0
LINE
8
DEFAULT_255_2_778
10
42.4396386
20
2.8346083
11
42.4788386
21
2.8973083
0
LINE
8
DEFAULT_255_2_778
10
42.4788386
20
2.8973083
11
42.4933386
21
2.9388083
0
LINE
8
DEFAULT_255_2_778
10
42.4933386
20
2.9388083
11
42.5002386
21
2.9711083
0
LINE
8
DEFAULT_255_2_778
10
42.5002386
20
2.9711083
11
42.4986386
21
3.1251083
0
LINE
8
DEFAULT_255_2_778
10
42.4986386
20
3.1251083
11
42.4873386
21
3.1674083
0
LINE
8
DEFAULT_255_2_778
10
42.4873386
20
3.1674083
11
42.4571386
21
3.2272083
0
LINE
8
DEFAULT_255_2_778
10
42.4571386
20
3.2272083
11
42.3865386
21
3.2944083
0
LINE
8
DEFAULT_255_2_778
10
42.3865386
20
3.2944083
11
42.2595386
21
3.3413083
0
LINE
8
DEFAULT_255_2_778
10
42.2595386
20
3.3413083
11
42.0015386
21
3.3606083
0
LINE
8
DEFAULT_255_2_778
10
42.0015386
20
3.3606083
11
41.9126386
21
3.3606083
0
LINE
8
DEFAULT_255_2_778
10
41.9126386
20
3.3606083
11
41.9126386
21
2.7343083
0
LINE
8
DEFAULT_255_2_778
10
41.9126386
20
2.7343083
11
42.0015386
21
2.7343083
0
LINE
8
DEFAULT_255_2_778
10
42.0015386
20
3.5130083
11
42.3050386
21
3.5506083
0
LINE
8
DEFAULT_255_2_778
10
42.3050386
20
3.5506083
11
42.4026386
21
3.6230083
0
LINE
8
DEFAULT_255_2_778
10
42.4026386
20
3.6230083
11
42.4386386
21
3.6881083
0
LINE
8
DEFAULT_255_2_778
10
42.4386386
20
3.6881083
11
42.4500386
21
3.7265083
0
LINE
8
DEFAULT_255_2_778
10
42.4500386
20
3.7265083
11
42.4552386
21
3.7583083
0
LINE
8
DEFAULT_255_2_778
10
42.4552386
20
3.7583083
11
42.4526386
21
3.8900083
0
LINE
8
DEFAULT_255_2_778
10
42.4526386
20
3.8900083
11
42.4399386
21
3.9408083
0
LINE
8
DEFAULT_255_2_778
10
42.4399386
20
3.9408083
11
42.4116386
21
3.9993083
0
LINE
8
DEFAULT_255_2_778
10
42.4116386
20
3.9993083
11
42.3409386
21
4.0636083
0
LINE
8
DEFAULT_255_2_778
10
42.3409386
20
4.0636083
11
42.1491386
21
4.1094083
0
LINE
8
DEFAULT_255_2_778
10
42.1491386
20
4.1094083
11
41.9128386
21
4.1152083
0
LINE
8
DEFAULT_255_2_778
10
41.9128386
20
4.1152083
11
41.9128386
21
3.5130083
0
LINE
8
DEFAULT_255_2_778
10
41.9128386
20
3.5130083
11
42.0015386
21
3.5130083
0
LINE
8
DEFAULT_255_2_778
10
44.0255386
20
2.8200083
11
44.0584386
21
2.8912083
0
LINE
8
DEFAULT_255_2_778
10
44.0584386
20
2.8912083
11
44.0824386
21
2.9608083
0
LINE
8
DEFAULT_255_2_778
10
44.0824386
20
2.9608083
11
44.0975386
21
3.0174083
0
LINE
8
DEFAULT_255_2_778
10
44.0975386
20
3.0174083
11
44.1115386
21
3.0838083
0
LINE
8
DEFAULT_255_2_778
10
44.1115386
20
3.0838083
11
44.1171386
21
3.1174083
0
LINE
8
DEFAULT_255_2_778
10
44.1171386
20
3.1174083
11
44.1219386
21
3.1510083
0
LINE
8
DEFAULT_255_2_778
10
44.1219386
20
3.1510083
11
44.1258386
21
3.1847083
0
LINE
8
DEFAULT_255_2_778
10
44.1258386
20
3.1847083
11
44.1303386
21
3.2325083
0
LINE
8
DEFAULT_255_2_778
10
44.1303386
20
3.2325083
11
44.1285386
21
3.6535083
0
LINE
8
DEFAULT_255_2_778
10
44.1285386
20
3.6535083
11
44.1248386
21
3.6860083
0
LINE
8
DEFAULT_255_2_778
10
44.1248386
20
3.6860083
11
44.1203386
21
3.7183083
0
LINE
8
DEFAULT_255_2_778
10
44.1203386
20
3.7183083
11
44.1089386
21
3.7829083
0
LINE
8
DEFAULT_255_2_778
10
44.1089386
20
3.7829083
11
44.0935386
21
3.8469083
0
LINE
8
DEFAULT_255_2_778
10
44.0935386
20
3.8469083
11
44.0671386
21
3.9302083
0
LINE
8
DEFAULT_255_2_778
10
44.0671386
20
3.9302083
11
44.0340386
21
4.0080083
0
LINE
8
DEFAULT_255_2_778
10
44.0340386
20
4.0080083
11
43.9927386
21
4.0810083
0
LINE
8
DEFAULT_255_2_778
10
43.9927386
20
4.0810083
11
43.9425386
21
4.1467083
0
LINE
8
DEFAULT_255_2_778
10
43.9425386
20
4.1467083
11
43.8666386
21
4.2128083
0
LINE
8
DEFAULT_255_2_778
10
43.8666386
20
4.2128083
11
43.7605386
21
4.2652083
0
LINE
8
DEFAULT_255_2_778
10
43.7605386
20
4.2652083
11
43.5826386
21
4.2980083
0
LINE
8
DEFAULT_255_2_778
10
43.5826386
20
4.2980083
11
43.4247386
21
4.2864083
0
LINE
8
DEFAULT_255_2_778
10
43.4247386
20
4.2864083
11
43.3011386
21
4.2448083
0
LINE
8
DEFAULT_255_2_778
10
43.3011386
20
4.2448083
11
43.2133386
21
4.1903083
0
LINE
8
DEFAULT_255_2_778
10
43.2133386
20
4.1903083
11
43.1434386
21
4.1218083
0
LINE
8
DEFAULT_255_2_778
10
43.1434386
20
4.1218083
11
43.0884386
21
4.0421083
0
LINE
8
DEFAULT_255_2_778
10
43.0884386
20
4.0421083
11
43.0580386
21
3.9810083
0
LINE
8
DEFAULT_255_2_778
10
43.0580386
20
3.9810083
11
43.0320386
21
3.9125083
0
LINE
8
DEFAULT_255_2_778
10
43.0320386
20
3.9125083
11
43.0180386
21
3.8657083
0
LINE
8
DEFAULT_255_2_778
10
43.0180386
20
3.8657083
11
43.0021386
21
3.7998083
0
LINE
8
DEFAULT_255_2_778
10
43.0021386
20
3.7998083
11
42.9900386
21
3.7331083
0
LINE
8
DEFAULT_255_2_778
10
42.9900386
20
3.7331083
11
42.9873386
21
3.1336083
0
LINE
8
DEFAULT_255_2_778
10
42.9873386
20
3.1336083
11
42.9931386
21
3.0965083
0
LINE
8
DEFAULT_255_2_778
10
42.9931386
20
3.0965083
11
43.0000386
21
3.0598083
0
LINE
8
DEFAULT_255_2_778
10
43.0000386
20
3.0598083
11
43.0143386
21
2.9976083
0
LINE
8
DEFAULT_255_2_778
10
43.0143386
20
2.9976083
11
43.0289386
21
2.9468083
0
LINE
8
DEFAULT_255_2_778
10
43.0289386
20
2.9468083
11
43.0566386
21
2.8722083
0
LINE
8
DEFAULT_255_2_778
10
43.0566386
20
2.8722083
11
43.0958386
21
2.7954083
0
LINE
8
DEFAULT_255_2_778
10
43.0958386
20
2.7954083
11
43.1453386
21
2.7253083
0
LINE
8
DEFAULT_255_2_778
10
43.1453386
20
2.7253083
11
43.2191386
21
2.6544083
0
LINE
8
DEFAULT_255_2_778
10
43.2191386
20
2.6544083
11
43.3218386
21
2.5941083
0
LINE
8
DEFAULT_255_2_778
10
43.3218386
20
2.5941083
11
43.4670386
21
2.5560083
0
LINE
8
DEFAULT_255_2_778
10
43.4670386
20
2.5560083
11
43.6443386
21
2.5563083
0
LINE
8
DEFAULT_255_2_778
10
43.6443386
20
2.5563083
11
43.7723386
21
2.5883083
0
LINE
8
DEFAULT_255_2_778
10
43.7723386
20
2.5883083
11
43.8795386
21
2.6470083
0
LINE
8
DEFAULT_255_2_778
10
43.8795386
20
2.6470083
11
43.9554386
21
2.7169083
0
LINE
8
DEFAULT_255_2_778
10
43.9554386
20
2.7169083
11
44.0052386
21
2.7841083
0
LINE
8
DEFAULT_255_2_778
10
44.0052386
20
2.7841083
11
44.0255386
21
2.8200083
0
LINE
8
DEFAULT_255_2_778
10
43.8562386
20
3.9448083
11
43.8795386
21
3.8908083
0
LINE
8
DEFAULT_255_2_778
10
43.8795386
20
3.8908083
11
43.8972386
21
3.8347083
0
LINE
8
DEFAULT_255_2_778
10
43.8972386
20
3.8347083
11
43.9086386
21
3.7874083
0
LINE
8
DEFAULT_255_2_778
10
43.9086386
20
3.7874083
11
43.9192386
21
3.7299083
0
LINE
8
DEFAULT_255_2_778
10
43.9192386
20
3.7299083
11
43.9269386
21
3.6720083
0
LINE
8
DEFAULT_255_2_778
10
43.9269386
20
3.6720083
11
43.9263386
21
3.1719083
0
LINE
8
DEFAULT_255_2_778
10
43.9263386
20
3.1719083
11
43.9189386
21
3.1177083
0
LINE
8
DEFAULT_255_2_778
10
43.9189386
20
3.1177083
11
43.9091386
21
3.0640083
0
LINE
8
DEFAULT_255_2_778
10
43.9091386
20
3.0640083
11
43.8933386
21
3.0010083
0
LINE
8
DEFAULT_255_2_778
10
43.8933386
20
3.0010083
11
43.8652386
21
2.9243083
0
LINE
8
DEFAULT_255_2_778
10
43.8652386
20
2.9243083
11
43.8250386
21
2.8523083
0
LINE
8
DEFAULT_255_2_778
10
43.8250386
20
2.8523083
11
43.7557386
21
2.7780083
0
LINE
8
DEFAULT_255_2_778
10
43.7557386
20
2.7780083
11
43.6742386
21
2.7325083
0
LINE
8
DEFAULT_255_2_778
10
43.6742386
20
2.7325083
11
43.5252386
21
2.7137083
0
LINE
8
DEFAULT_255_2_778
10
43.5252386
20
2.7137083
11
43.4038386
21
2.7446083
0
LINE
8
DEFAULT_255_2_778
10
43.4038386
20
2.7446083
11
43.3270386
21
2.7981083
0
LINE
8
DEFAULT_255_2_778
10
43.3270386
20
2.7981083
11
43.2720386
21
2.8661083
0
LINE
8
DEFAULT_255_2_778
10
43.2720386
20
2.8661083
11
43.2419386
21
2.9222083
0
LINE
8
DEFAULT_255_2_778
10
43.2419386
20
2.9222083
11
43.2204386
21
2.9775083
0
LINE
8
DEFAULT_255_2_778
10
43.2204386
20
2.9775083
11
43.2040386
21
3.0346083
0
LINE
8
DEFAULT_255_2_778
10
43.2040386
20
3.0346083
11
43.1918386
21
3.0918083
0
LINE
8
DEFAULT_255_2_778
10
43.1918386
20
3.0918083
11
43.1828386
21
3.1494083
0
LINE
8
DEFAULT_255_2_778
10
43.1828386
20
3.1494083
11
43.1765386
21
3.2077083
0
LINE
8
DEFAULT_255_2_778
10
43.1765386
20
3.2077083
11
43.1770386
21
3.6400083
0
LINE
8
DEFAULT_255_2_778
10
43.1770386
20
3.6400083
11
43.1810386
21
3.6757083
0
LINE
8
DEFAULT_255_2_778
10
43.1810386
20
3.6757083
11
43.1889386
21
3.7331083
0
LINE
8
DEFAULT_255_2_778
10
43.1889386
20
3.7331083
11
43.2011386
21
3.7974083
0
LINE
8
DEFAULT_255_2_778
10
43.2011386
20
3.7974083
11
43.2180386
21
3.8606083
0
LINE
8
DEFAULT_255_2_778
10
43.2180386
20
3.8606083
11
43.2471386
21
3.9358083
0
LINE
8
DEFAULT_255_2_778
10
43.2471386
20
3.9358083
11
43.2929386
21
4.0128083
0
LINE
8
DEFAULT_255_2_778
10
43.2929386
20
4.0128083
11
43.3638386
21
4.0808083
0
LINE
8
DEFAULT_255_2_778
10
43.3638386
20
4.0808083
11
43.4546386
21
4.1239083
0
LINE
8
DEFAULT_255_2_778
10
43.4546386
20
4.1239083
11
43.6057386
21
4.1329083
0
LINE
8
DEFAULT_255_2_778
10
43.6057386
20
4.1329083
11
43.7245386
21
4.0919083
0
LINE
8
DEFAULT_255_2_778
10
43.7245386
20
4.0919083
11
43.7991386
21
4.0302083
0
LINE
8
DEFAULT_255_2_778
10
43.7991386
20
4.0302083
11
43.8493386
21
3.9578083
0
LINE
8
DEFAULT_255_2_778
10
43.8493386
20
3.9578083
11
43.8562386
21
3.9448083
0
LINE
8
DEFAULT_255_2_778
10
36.1243854
20
7.4745739
11
37.0265854
21
7.4745739
0
LINE
8
DEFAULT_255_2_778
10
37.0265854
20
7.4745739
11
37.0265854
21
7.3126739
0
LINE
8
DEFAULT_255_2_778
10
37.0265854
20
7.3126739
11
36.3211854
21
7.3126739
0
LINE
8
DEFAULT_255_2_778
10
36.3211854
20
7.3126739
11
36.3211854
21
6.7175739
0
LINE
8
DEFAULT_255_2_778
10
36.3211854
20
6.7175739
11
36.9919854
21
6.7175739
0
LINE
8
DEFAULT_255_2_778
10
36.9919854
20
6.7175739
11
36.9919854
21
6.5556739
0
LINE
8
DEFAULT_255_2_778
10
36.9919854
20
6.5556739
11
36.3211854
21
6.5556739
0
LINE
8
DEFAULT_255_2_778
10
36.3211854
20
6.5556739
11
36.3211854
21
5.7746739
0
LINE
8
DEFAULT_255_2_778
10
36.3211854
20
5.7746739
11
36.1243854
21
5.7746739
0
LINE
8
DEFAULT_255_2_778
10
36.1243854
20
5.7746739
11
36.1243854
21
7.4745739
0
LINE
8
DEFAULT_255_2_778
10
35.4858595
20
7.4746302
11
35.6827595
21
7.4746302
0
LINE
8
DEFAULT_255_2_778
10
35.6827595
20
7.4746302
11
35.6827595
21
5.7746302
0
LINE
8
DEFAULT_255_2_778
10
35.6827595
20
5.7746302
11
35.4858595
21
5.7746302
0
LINE
8
DEFAULT_255_2_778
10
35.4858595
20
5.7746302
11
35.4858595
21
6.5641302
0
LINE
8
DEFAULT_255_2_778
10
35.4858595
20
6.5641302
11
34.6677595
21
6.5641302
0
LINE
8
DEFAULT_255_2_778
10
34.6677595
20
6.5641302
11
34.6677595
21
5.7746302
0
LINE
8
DEFAULT_255_2_778
10
34.6677595
20
5.7746302
11
34.4709595
21
5.7746302
0
LINE
8
DEFAULT_255_2_778
10
34.4709595
20
5.7746302
11
34.4709595
21
7.4746302
0
LINE
8
DEFAULT_255_2_778
10
34.4709595
20
7.4746302
11
34.6677595
21
7.4746302
0
LINE
8
DEFAULT_255_2_778
10
34.6677595
20
7.4746302
11
34.6677595
21
6.7260302
0
LINE
8
DEFAULT_255_2_778
10
34.6677595
20
6.7260302
11
35.4858595
21
6.7260302
0
LINE
8
DEFAULT_255_2_778
10
35.4858595
20
6.7260302
11
35.4858595
21
7.4746302
0
LINE
8
DEFAULT_255_2_778
10
32.7916595
20
5.8122302
11
32.6712595
21
5.8778302
0
LINE
8
DEFAULT_255_2_778
10
32.6712595
20
5.8778302
11
32.5741595
21
5.9582302
0
LINE
8
DEFAULT_255_2_778
10
32.5741595
20
5.9582302
11
32.5027595
21
6.0389302
0
LINE
8
DEFAULT_255_2_778
10
32.5027595
20
6.0389302
11
32.4421595
21
6.1305302
0
LINE
8
DEFAULT_255_2_778
10
32.4421595
20
6.1305302
11
32.4048595
21
6.2056302
0
LINE
8
DEFAULT_255_2_778
10
32.4048595
20
6.2056302
11
32.3749595
21
6.2850302
0
LINE
8
DEFAULT_255_2_778
10
32.3749595
20
6.2850302
11
32.3592595
21
6.3392302
0
LINE
8
DEFAULT_255_2_778
10
32.3592595
20
6.3392302
11
32.3465595
21
6.3969302
0
LINE
8
DEFAULT_255_2_778
10
32.3465595
20
6.3969302
11
32.3413595
21
6.4273302
0
LINE
8
DEFAULT_255_2_778
10
32.3413595
20
6.4273302
11
32.3394595
21
6.7866302
0
LINE
8
DEFAULT_255_2_778
10
32.3394595
20
6.7866302
11
32.3447595
21
6.8192302
0
LINE
8
DEFAULT_255_2_778
10
32.3447595
20
6.8192302
11
32.3579595
21
6.8837302
0
LINE
8
DEFAULT_255_2_778
10
32.3579595
20
6.8837302
11
32.3754595
21
6.9472302
0
LINE
8
DEFAULT_255_2_778
10
32.3754595
20
6.9472302
11
32.3963595
21
7.0073302
0
LINE
8
DEFAULT_255_2_778
10
32.3963595
20
7.0073302
11
32.4214595
21
7.0658302
0
LINE
8
DEFAULT_255_2_778
10
32.4214595
20
7.0658302
11
32.4624595
21
7.1428302
0
LINE
8
DEFAULT_255_2_778
10
32.4624595
20
7.1428302
11
32.5257595
21
7.2340302
0
LINE
8
DEFAULT_255_2_778
10
32.5257595
20
7.2340302
11
32.5968595
21
7.3108302
0
LINE
8
DEFAULT_255_2_778
10
32.5968595
20
7.3108302
11
32.6998595
21
7.3896302
0
LINE
8
DEFAULT_255_2_778
10
32.6998595
20
7.3896302
11
32.8202595
21
7.4489302
0
LINE
8
DEFAULT_255_2_778
10
32.8202595
20
7.4489302
11
32.9596595
21
7.4862302
0
LINE
8
DEFAULT_255_2_778
10
32.9596595
20
7.4862302
11
33.1408595
21
7.4981302
0
LINE
8
DEFAULT_255_2_778
10
33.1408595
20
7.4981302
11
33.3218595
21
7.4753302
0
LINE
8
DEFAULT_255_2_778
10
33.3218595
20
7.4753302
11
33.5067595
21
7.4187302
0
LINE
8
DEFAULT_255_2_778
10
33.5067595
20
7.4187302
11
33.5679595
21
7.3931302
0
LINE
8
DEFAULT_255_2_778
10
33.5679595
20
7.3931302
11
33.5044595
21
7.2359302
0
LINE
8
DEFAULT_255_2_778
10
33.5044595
20
7.2359302
11
33.1829595
21
7.3330302
0
LINE
8
DEFAULT_255_2_778
10
33.1829595
20
7.3330302
11
32.9202595
21
7.3060302
0
LINE
8
DEFAULT_255_2_778
10
32.9202595
20
7.3060302
11
32.8143595
21
7.2534302
0
LINE
8
DEFAULT_255_2_778
10
32.8143595
20
7.2534302
11
32.7373595
21
7.1880302
0
LINE
8
DEFAULT_255_2_778
10
32.7373595
20
7.1880302
11
32.6850595
21
7.1245302
0
LINE
8
DEFAULT_255_2_778
10
32.6850595
20
7.1245302
11
32.6334595
21
7.0401302
0
LINE
8
DEFAULT_255_2_778
10
32.6334595
20
7.0401302
11
32.6024595
21
6.9726302
0
LINE
8
DEFAULT_255_2_778
10
32.6024595
20
6.9726302
11
32.5770595
21
6.9004302
0
LINE
8
DEFAULT_255_2_778
10
32.5770595
20
6.9004302
11
32.5635595
21
6.8512302
0
LINE
8
DEFAULT_255_2_778
10
32.5635595
20
6.8512302
11
32.5530595
21
6.8014302
0
LINE
8
DEFAULT_255_2_778
10
32.5530595
20
6.8014302
11
32.5445595
21
6.7475302
0
LINE
8
DEFAULT_255_2_778
10
32.5445595
20
6.7475302
11
32.5413595
21
6.7202302
0
LINE
8
DEFAULT_255_2_778
10
32.5413595
20
6.7202302
11
32.5415595
21
6.5041302
0
LINE
8
DEFAULT_255_2_778
10
32.5415595
20
6.5041302
11
32.5447595
21
6.4776302
0
LINE
8
DEFAULT_255_2_778
10
32.5447595
20
6.4776302
11
32.5530595
21
6.4271302
0
LINE
8
DEFAULT_255_2_778
10
32.5530595
20
6.4271302
11
32.5638595
21
6.3770302
0
LINE
8
DEFAULT_255_2_778
10
32.5638595
20
6.3770302
11
32.5852595
21
6.3048302
0
LINE
8
DEFAULT_255_2_778
10
32.5852595
20
6.3048302
11
32.6130595
21
6.2355302
0
LINE
8
DEFAULT_255_2_778
10
32.6130595
20
6.2355302
11
32.6532595
21
6.1598302
0
LINE
8
DEFAULT_255_2_778
10
32.6532595
20
6.1598302
11
32.7156595
21
6.0776302
0
LINE
8
DEFAULT_255_2_778
10
32.7156595
20
6.0776302
11
32.7910595
21
6.0109302
0
LINE
8
DEFAULT_255_2_778
10
32.7910595
20
6.0109302
11
32.8988595
21
5.9519302
0
LINE
8
DEFAULT_255_2_778
10
32.8988595
20
5.9519302
11
33.0263595
21
5.9191302
0
LINE
8
DEFAULT_255_2_778
10
33.0263595
20
5.9191302
11
33.2022595
21
5.9164302
0
LINE
8
DEFAULT_255_2_778
10
33.2022595
20
5.9164302
11
33.3914595
21
5.9529302
0
LINE
8
DEFAULT_255_2_778
10
33.3914595
20
5.9529302
11
33.5282595
21
6.0029302
0
LINE
8
DEFAULT_255_2_778
10
33.5282595
20
6.0029302
11
33.5774595
21
5.8458302
0
LINE
8
DEFAULT_255_2_778
10
33.5774595
20
5.8458302
11
33.2660595
21
5.7616302
0
LINE
8
DEFAULT_255_2_778
10
33.2660595
20
5.7616302
11
32.9683595
21
5.7627302
0
LINE
8
DEFAULT_255_2_778
10
32.9683595
20
5.7627302
11
32.7918595
21
5.8127302
0
LINE
8
DEFAULT_255_2_778
10
31.0445595
20
7.4746302
11
32.2407595
21
7.4746302
0
LINE
8
DEFAULT_255_2_778
10
32.2407595
20
7.4746302
11
32.2407595
21
7.3126302
0
LINE
8
DEFAULT_255_2_778
10
32.2407595
20
7.3126302
11
31.7380595
21
7.3126302
0
LINE
8
DEFAULT_255_2_778
10
31.7380595
20
7.3126302
11
31.7380595
21
5.7746302
0
LINE
8
DEFAULT_255_2_778
10
31.7380595
20
5.7746302
11
31.5412595
21
5.7746302
0
LINE
8
DEFAULT_255_2_778
10
31.5412595
20
5.7746302
11
31.5412595
21
7.3126302
0
LINE
8
DEFAULT_255_2_778
10
31.5412595
20
7.3126302
11
31.0445595
21
7.3126302
0
LINE
8
DEFAULT_255_2_778
10
31.0445595
20
7.3126302
11
31.0445595
21
7.4746302
0
LINE
8
DEFAULT_255_2_778
10
29.9780595
20
7.4746302
11
30.1748595
21
7.4746302
0
LINE
8
DEFAULT_255_2_778
10
30.1748595
20
7.4746302
11
30.1748595
21
5.7746302
0
LINE
8
DEFAULT_255_2_778
10
30.1748595
20
5.7746302
11
29.9780595
21
5.7746302
0
LINE
8
DEFAULT_255_2_778
10
29.9780595
20
5.7746302
11
29.9780595
21
7.4746302
0
LINE
8
DEFAULT_255_2_778
10
26.4604552
20
6.4260739
11
27.0469552
21
6.4260739
0
LINE
8
DEFAULT_255_2_778
10
27.0469552
20
6.4260739
11
27.0469552
21
7.2562739
0
LINE
8
DEFAULT_255_2_778
10
27.0469552
20
7.2562739
11
26.4604552
21
6.4260739
0
LINE
8
DEFAULT_255_2_778
10
27.0123552
20
7.4745739
11
27.2343552
21
7.4745739
0
LINE
8
DEFAULT_255_2_778
10
27.2343552
20
7.4745739
11
27.2343552
21
6.4260739
0
LINE
8
DEFAULT_255_2_778
10
27.2343552
20
6.4260739
11
27.4970552
21
6.4260739
0
LINE
8
DEFAULT_255_2_778
10
27.4970552
20
6.4260739
11
27.4970552
21
6.2640739
0
LINE
8
DEFAULT_255_2_778
10
27.4970552
20
6.2640739
11
27.2343552
21
6.2640739
0
LINE
8
DEFAULT_255_2_778
10
27.2343552
20
6.2640739
11
27.2343552
21
5.7746739
0
LINE
8
DEFAULT_255_2_778
10
27.2343552
20
5.7746739
11
27.0472552
21
5.7746739
0
LINE
8
DEFAULT_255_2_778
10
27.0472552
20
5.7746739
11
27.0472552
21
6.2640739
0
LINE
8
DEFAULT_255_2_778
10
27.0472552
20
6.2640739
11
26.2807552
21
6.2640739
0
LINE
8
DEFAULT_255_2_778
10
26.2807552
20
6.2640739
11
26.2807552
21
6.4500739
0
LINE
8
DEFAULT_255_2_778
10
26.2807552
20
6.4500739
11
27.0123552
21
7.4745739
0
LINE
8
DEFAULT_255_2_778
10
29.2438917
20
6.5315739
11
28.7278917
21
6.5315739
0
LINE
8
DEFAULT_255_2_778
10
28.7278917
20
6.5315739
11
28.9249917
21
7.1051739
0
LINE
8
DEFAULT_255_2_778
10
28.9249917
20
7.1051739
11
28.9861917
21
7.2901739
0
LINE
8
DEFAULT_255_2_778
10
28.9861917
20
7.2901739
11
28.9882917
21
7.3065739
0
LINE
8
DEFAULT_255_2_778
10
28.9882917
20
7.3065739
11
29.0149917
21
7.2274739
0
LINE
8
DEFAULT_255_2_778
10
29.0149917
20
7.2274739
11
29.0411917
21
7.1313739
0
LINE
8
DEFAULT_255_2_778
10
29.0411917
20
7.1313739
11
29.2438917
21
6.5315739
0
LINE
8
DEFAULT_255_2_778
10
28.8659917
20
7.4745739
11
29.1144917
21
7.4745739
0
LINE
8
DEFAULT_255_2_778
10
29.1144917
20
7.4745739
11
29.7237917
21
5.7746739
0
LINE
8
DEFAULT_255_2_778
10
29.7237917
20
5.7746739
11
29.5113917
21
5.7746739
0
LINE
8
DEFAULT_255_2_778
10
29.5113917
20
5.7746739
11
29.3025917
21
6.3696739
0
LINE
8
DEFAULT_255_2_778
10
29.3025917
20
6.3696739
11
28.6691917
21
6.3696739
0
LINE
8
DEFAULT_255_2_778
10
28.6691917
20
6.3696739
11
28.4603917
21
5.7746739
0
LINE
8
DEFAULT_255_2_778
10
28.4603917
20
5.7746739
11
28.2611917
21
5.7746739
0
LINE
8
DEFAULT_255_2_778
10
28.2611917
20
5.7746739
11
28.8659917
21
7.4745739
0
ENDSEC
0
EOF