0
SECTION
2
HEADER
9
$MEASUREMENT
70
1
0
ENDSEC
0
SECTION
2
TABLES
0
TABLE
2
LTYPE
0
LTYPE
72
65
70
64
2
CONTINUOUS
3
______
73
0
40
0
0
ENDTAB
0
TABLE
2
LAYER
0
LAYER
2
DEFAULT_255_2_778
70
0
62
255
6
CONTINUOUS
0
ENDTAB
0
ENDSEC
0
SECTION
2
ENTITIES
0
LINE
8
DEFAULT_255_2_778
10
2.1802619
20
119.7751065
11
2.6803619
21
120.0751065
0
LINE
8
DEFAULT_255_2_778
10
2.6803619
20
120.0751065
11
4.7945619
21
120.0751065
0
LINE
8
DEFAULT_255_2_778
10
4.7945619
20
120.0751065
11
4.7945619
21
122.0608065
0
LINE
8
DEFAULT_255_2_778
10
4.7945619
20
122.0608065
11
5.0904619
21
122.0650065
0
LINE
8
DEFAULT_255_2_778
10
5.0904619
20
122.0650065
11
5.9905619
21
122.0650065
0
LINE
8
DEFAULT_255_2_778
10
5.9905619
20
122.0650065
11
5.9905619
21
126.4849065
0
LINE
8
DEFAULT_255_2_778
10
5.9905619
20
126.4849065
11
5.0904619
21
126.4849065
0
LINE
8
DEFAULT_255_2_778
10
5.0904619
20
126.4849065
11
4.7945619
21
126.4891065
0
LINE
8
DEFAULT_255_2_778
10
4.7945619
20
126.4891065
11
4.7945619
21
129.7750065
0
LINE
8
DEFAULT_255_2_778
10
16.4293619
20
121.3864065
11
13.6136619
21
118.5707065
0
LINE
8
DEFAULT_255_2_778
10
18.4301619
20
71.7553065
11
18.7302619
21
72.0554065
0
LINE
8
DEFAULT_255_2_778
10
18.7302619
20
72.0554065
11
18.7302619
21
103.5352065
0
LINE
8
DEFAULT_255_2_778
10
18.7302619
20
103.5352065
11
30.5300619
21
103.5352065
0
LINE
8
DEFAULT_255_2_778
10
30.5300619
20
103.5352065
11
30.5300619
21
72.0551065
0
LINE
8
DEFAULT_255_2_778
10
30.5300619
20
72.0551065
11
30.8301619
21
71.7551065
0
LINE
8
DEFAULT_255_2_778
10
5.4743619
20
9.5751065
11
5.4743619
21
8.1691065
0
LINE
8
DEFAULT_255_2_778
10
5.4743619
20
8.1691065
11
6.4149619
21
8.1691065
0
LINE
8
DEFAULT_255_2_778
10
18.4301619
20
13.7751065
11
6.0302619
21
13.7751065
0
LINE
8
DEFAULT_255_2_778
10
6.0302619
20
13.7751065
11
6.0302619
21
23.1252065
0
LINE
8
DEFAULT_255_2_778
10
6.0302619
20
30.2753065
11
6.0302619
21
34.2752065
0
LINE
8
DEFAULT_255_2_778
10
6.0302619
20
43.2753065
11
6.0302619
21
47.2753065
0
LINE
8
DEFAULT_255_2_778
10
6.0302619
20
56.2751065
11
6.0302619
21
60.2750065
0
LINE
8
DEFAULT_255_2_778
10
6.0302619
20
69.2751065
11
6.0302619
21
73.2751065
0
LINE
8
DEFAULT_255_2_778
10
6.0302619
20
82.2751065
11
6.0302619
21
86.2751065
0
LINE
8
DEFAULT_255_2_778
10
6.0302619
20
95.2752065
11
6.0302619
21
99.2752065
0
LINE
8
DEFAULT_255_2_778
10
6.0302619
20
108.2752065
11
6.0302619
21
112.2752065
0
LINE
8
DEFAULT_255_2_778
10
5.4743619
20
0.2191065
11
5.4743619
21
2.3810065
0
LINE
8
DEFAULT_255_2_778
10
5.4743619
20
2.3810065
11
4.7945619
21
3.0608065
0
LINE
8
DEFAULT_255_2_778
10
4.7945619
20
3.0608065
11
4.7945619
21
-0.1607935
0
LINE
8
DEFAULT_255_2_778
10
4.7945619
20
-0.1607935
11
5.1703619
21
0.2149065
0
LINE
8
DEFAULT_255_2_778
10
5.1703619
20
0.2149065
11
5.4745619
21
0.2191065
0
LINE
8
DEFAULT_255_2_778
10
5.4745619
20
0.2191065
11
6.3746619
21
0.2191065
0
LINE
8
DEFAULT_255_2_778
10
6.3746619
20
0.2191065
11
6.4125619
21
0.2570065
0
LINE
8
DEFAULT_255_2_778
10
6.4125619
20
0.2570065
11
6.4138619
21
0.2683065
0
LINE
8
DEFAULT_255_2_778
10
6.4138619
20
0.2683065
11
6.4151619
21
9.5751065
0
LINE
8
DEFAULT_255_2_778
10
2.1802619
20
119.3573065
11
5.1978619
21
119.3573065
0
LINE
8
DEFAULT_255_2_778
10
5.1978619
20
119.3573065
11
5.1978619
21
121.6573065
0
LINE
8
DEFAULT_255_2_778
10
5.1978619
20
121.6573065
11
6.3977619
21
121.6573065
0
LINE
8
DEFAULT_255_2_778
10
6.3977619
20
121.6573065
11
6.3977619
21
126.8926065
0
LINE
8
DEFAULT_255_2_778
10
6.3977619
20
126.8926065
11
5.1978619
21
126.8926065
0
LINE
8
DEFAULT_255_2_778
10
5.1978619
20
126.8926065
11
5.1978619
21
129.7750065
0
LINE
8
DEFAULT_255_2_778
10
23.5802442
20
128.5750961
11
17.7303442
21
128.5750961
0
LINE
8
DEFAULT_255_2_778
10
17.7303442
20
128.5750961
11
17.7303442
21
118.2750961
0
LINE
8
DEFAULT_255_2_778
10
17.7303442
20
118.2750961
11
23.5802442
21
118.2750961
0
LINE
8
DEFAULT_255_2_778
10
23.5802442
20
118.2750961
11
23.5802442
21
128.5750961
0
LINE
8
DEFAULT_255_2_778
10
18.2301442
20
130.9750961
11
23.0802442
21
130.9750961
0
LINE
8
DEFAULT_255_2_778
10
23.0802442
20
130.9750961
11
23.0802442
21
129.6283961
0
LINE
8
DEFAULT_255_2_778
10
23.0802442
20
129.6283961
11
18.2301442
21
129.6283961
0
LINE
8
DEFAULT_255_2_778
10
18.2301442
20
129.6283961
11
18.2301442
21
130.9750961
0
LINE
8
DEFAULT_255_2_778
10
24.5126442
20
-0.2249039
11
24.6801442
21
-0.0574039
0
LINE
8
DEFAULT_255_2_778
10
24.6801442
20
-0.0574039
11
24.6801442
21
9.5749961
0
LINE
8
DEFAULT_255_2_778
10
24.6801442
20
9.5749961
11
47.1800442
21
9.5749961
0
ARC
8
DEFAULT_255_2_778
10
37.2300829
20
115.4751317
40
1.0001975
50
300.8302478
51
359.9966196
0
LINE
8
DEFAULT_255_2_778
10
44.7302803
20
127.2752727
11
36.9303803
21
127.2752727
0
LINE
8
DEFAULT_255_2_778
10
36.9303803
20
127.2752727
11
35.4304803
21
128.7751727
0
LINE
8
DEFAULT_255_2_778
10
35.4304803
20
128.7751727
11
35.4304803
21
117.2750727
0
LINE
8
DEFAULT_255_2_778
10
35.4304803
20
117.2750727
11
36.9303803
21
115.7751727
0
LINE
8
DEFAULT_255_2_778
10
36.9303803
20
115.7751727
11
36.9303803
21
127.2752727
0
LINE
8
DEFAULT_255_2_778
10
43.4301803
20
114.4850727
11
43.4301803
21
124.9752727
0
LINE
8
DEFAULT_255_2_778
10
43.4301803
20
124.9752727
11
38.2302803
21
124.9752727
0
LINE
8
DEFAULT_255_2_778
10
38.2302803
20
124.9752727
11
38.2302803
21
115.4750727
0
LINE
8
DEFAULT_255_2_778
10
40.1803011
20
33.0250614
11
42.2803011
21
33.0250614
0
LINE
8
DEFAULT_255_2_778
10
42.2803011
20
33.0250614
11
42.2803011
21
31.5251614
0
LINE
8
DEFAULT_255_2_778
10
42.2803011
20
31.5251614
11
40.1803011
21
31.5251614
0
LINE
8
DEFAULT_255_2_778
10
40.1803011
20
31.5251614
11
40.1803011
21
33.0250614
0
LINE
8
DEFAULT_255_2_778
10
40.1803011
20
123.5252614
11
42.2803011
21
123.5252614
0
LINE
8
DEFAULT_255_2_778
10
42.2803011
20
123.5252614
11
42.2803011
21
122.0253614
0
LINE
8
DEFAULT_255_2_778
10
42.2803011
20
122.0253614
11
40.1803011
21
122.0253614
0
LINE
8
DEFAULT_255_2_778
10
40.1803011
20
122.0253614
11
40.1803011
21
123.5252614
0
ARC
8
DEFAULT_255_2_778
10
19.7420863
20
4.9771807
40
4.7941205
50
165.9430492
51
180.0233825
0
ARC
8
DEFAULT_255_2_778
10
19.7110409
20
4.981218
40
4.7630256
50
143.9580671
51
165.8994534
0
ARC
8
DEFAULT_255_2_778
10
19.7397899
20
4.9656765
40
4.7954179
50
109.1319531
51
144.010024
0
ARC
8
DEFAULT_255_2_778
10
19.7235365
20
4.993458
40
4.763848
50
93.5929474
51
109.0567785
0
ARC
8
DEFAULT_255_2_778
10
19.7315136
20
4.9008494
40
4.8567749
50
90.013535
51
93.6184033
0
ARC
8
DEFAULT_255_2_778
10
19.7323824
20
4.9642803
40
4.7933444
50
75.7649843
51
90.0240997
0
ARC
8
DEFAULT_255_2_778
10
19.7359973
20
4.9937279
40
4.7639134
50
53.5457436
51
75.7200365
0
ARC
8
DEFAULT_255_2_778
10
19.7211775
20
4.9661013
40
4.7949421
50
19.195427
51
53.5994567
0
ARC
8
DEFAULT_255_2_778
10
19.7489021
20
4.9822798
40
4.7634436
50
3.6033992
51
19.1212925
0
ARC
8
DEFAULT_255_2_778
10
19.6561374
20
4.9742625
40
4.8565291
50
0.0113465
51
3.6290145
0
ARC
8
DEFAULT_255_2_778
10
29.7233421
20
124.2716921
40
4.4895254
50
345.2416897
51
0.0438011
0
ARC
8
DEFAULT_255_2_778
10
29.7449683
20
124.270212
40
4.4682376
50
321.1649247
51
345.1894005
0
ARC
8
DEFAULT_255_2_778
10
29.7245728
20
124.2800372
40
4.4902888
50
288.5312678
51
321.2304624
0
ARC
8
DEFAULT_255_2_778
10
29.7373471
20
124.2598452
40
4.4670873
50
272.8791333
51
288.4582298
0
ARC
8
DEFAULT_255_2_778
10
29.7304728
20
124.3487665
40
4.5562423
50
269.9974025
51
272.909303
0
ARC
8
DEFAULT_255_2_778
10
29.7268356
20
124.2820952
40
4.4895723
50
255.2418274
51
270.0437814
0
ARC
8
DEFAULT_255_2_778
10
29.72538
20
124.2605652
40
4.4683837
50
231.1660059
51
255.1895511
0
ARC
8
DEFAULT_255_2_778
10
29.73502
20
124.2807719
40
4.4901719
50
198.533214
51
231.2318711
0
ARC
8
DEFAULT_255_2_778
10
29.7142261
20
124.2677693
40
4.4663271
50
182.8796052
51
198.45985
0
ARC
8
DEFAULT_255_2_778
10
29.8028485
20
124.274618
40
4.5551823
50
179.9974064
51
182.9096408
0
LINE
8
DEFAULT_255_2_778
10
43.4303663
20
99.2751242
11
43.4303663
21
95.2752242
0
LINE
8
DEFAULT_255_2_778
10
43.4303663
20
73.2750242
11
43.4303663
21
69.2751242
0
LINE
8
DEFAULT_255_2_778
10
43.4303663
20
47.2750242
11
43.4303663
21
30.2750242
0
LINE
8
DEFAULT_255_2_778
10
43.4303663
20
21.2752242
11
43.4303663
21
17.2752242
0
LINE
8
DEFAULT_255_2_778
10
2.1802663
20
9.7750242
11
2.6803663
21
9.4750242
0
LINE
8
DEFAULT_255_2_778
10
2.6803663
20
9.4750242
11
4.7945663
21
9.4750242
0
LINE
8
DEFAULT_255_2_778
10
4.7945663
20
3.0610242
11
5.0904663
21
3.0652242
0
LINE
8
DEFAULT_255_2_778
10
5.0904663
20
3.0652242
11
5.9905663
21
3.0652242
0
LINE
8
DEFAULT_255_2_778
10
5.9905663
20
3.0652242
11
5.9905663
21
7.4853242
0
LINE
8
DEFAULT_255_2_778
10
5.9905663
20
7.4853242
11
5.0904663
21
7.4853242
0
LINE
8
DEFAULT_255_2_778
10
5.0904663
20
7.4853242
11
4.7945663
21
7.4896242
0
LINE
8
DEFAULT_255_2_778
10
4.7945663
20
7.4896242
11
4.7945663
21
9.5753242
0
LINE
8
DEFAULT_255_2_778
10
4.7945663
20
9.5753242
11
14.7805663
21
9.5753242
0
LINE
8
DEFAULT_255_2_778
10
14.7805663
20
9.5753242
11
14.7805663
21
-0.0570758
0
LINE
8
DEFAULT_255_2_778
10
14.7805663
20
-0.0570758
11
14.9479663
21
-0.2245758
0
LINE
8
DEFAULT_255_2_778
10
14.9479663
20
-0.2245758
11
14.9479663
21
4.9752242
0
LINE
8
DEFAULT_255_2_778
10
24.5126663
20
4.9752242
11
24.5126663
21
-0.2623758
0
LINE
8
DEFAULT_255_2_778
10
24.5126663
20
-0.2623758
11
46.6802663
21
-0.2623758
0
LINE
8
DEFAULT_255_2_778
10
46.6802663
20
-0.2623758
11
46.8707663
21
-0.2248758
0
LINE
8
DEFAULT_255_2_778
10
46.8707663
20
-0.2248758
11
47.0332663
21
-0.1166758
0
LINE
8
DEFAULT_255_2_778
10
47.0332663
20
-0.1166758
11
47.1422663
21
0.0461242
0
LINE
8
DEFAULT_255_2_778
10
47.1422663
20
0.0461242
11
47.1803663
21
0.2376242
0
LINE
8
DEFAULT_255_2_778
10
47.1803663
20
0.2376242
11
47.1803663
21
129.3127242
0
LINE
8
DEFAULT_255_2_778
10
47.1803663
20
129.3127242
11
47.1422663
21
129.5040242
0
LINE
8
DEFAULT_255_2_778
10
47.1422663
20
129.5040242
11
47.0332663
21
129.6668242
0
LINE
8
DEFAULT_255_2_778
10
47.0332663
20
129.6668242
11
46.8707663
21
129.7750242
0
LINE
8
DEFAULT_255_2_778
10
46.8707663
20
129.7750242
11
46.6802663
21
129.8128242
0
LINE
8
DEFAULT_255_2_778
10
46.6802663
20
129.8128242
11
34.2128663
21
129.8128242
0
LINE
8
DEFAULT_255_2_778
10
34.2128663
20
129.8128242
11
34.2128663
21
124.2751242
0
LINE
8
DEFAULT_255_2_778
10
25.2476663
20
124.2748242
11
25.2476663
21
129.7750242
0
LINE
8
DEFAULT_255_2_778
10
25.2476663
20
129.7750242
11
23.0802663
21
129.7750242
0
ARC
8
DEFAULT_255_2_778
10
2.6803951
20
129.2749242
40
0.5000969
50
89.9996485
51
180.0003515
0
ARC
8
DEFAULT_255_2_778
10
4.0273711
20
124.2780147
40
3.8460661
50
118.7017265
51
142.2630483
0
ARC
8
DEFAULT_255_2_778
10
4.0293941
20
124.2753181
40
3.8493163
50
142.249736
51
175.7851248
0
ARC
8
DEFAULT_255_2_778
10
4.0393709
20
124.2752285
40
3.8592728
50
175.7946842
51
180.0015948
0
ARC
8
DEFAULT_255_2_778
10
4.0258943
20
124.2742042
40
3.8457963
50
179.9863404
51
203.5486004
0
ARC
8
DEFAULT_255_2_778
10
4.0292163
20
124.2746699
40
3.8490277
50
203.5351988
51
237.0727795
0
ARC
8
DEFAULT_255_2_778
10
4.034032
20
124.2832977
40
3.8588872
50
237.0823958
51
241.2897497
0
ARC
8
DEFAULT_255_2_778
10
4.0268794
20
5.2786268
40
3.8454684
50
118.6982498
51
142.2625856
0
ARC
8
DEFAULT_255_2_778
10
4.0293805
20
5.2756012
40
3.8492981
50
142.249755
51
175.7860624
0
ARC
8
DEFAULT_255_2_778
10
4.0398714
20
5.2754291
40
3.8597733
50
175.7949581
51
180.0016033
0
ARC
8
DEFAULT_255_2_778
10
4.0258943
20
5.2744042
40
3.8457963
50
179.9863404
51
203.5486004
0
ARC
8
DEFAULT_255_2_778
10
4.0292163
20
5.2748699
40
3.8490277
50
203.5351988
51
237.0727795
0
ARC
8
DEFAULT_255_2_778
10
4.034032
20
5.2834977
40
3.8588872
50
237.0823958
51
241.2897497
0
ARC
8
DEFAULT_255_2_778
10
2.6803098
20
0.2752327
40
0.5000116
50
180.0013268
51
270.0101312
0
LINE
8
DEFAULT_255_2_778
10
18.2304982
20
129.7750211
11
2.6803982
21
129.7750211
0
LINE
8
DEFAULT_255_2_778
10
2.1802982
20
129.2749211
11
2.1802982
21
127.6515211
0
LINE
8
DEFAULT_255_2_778
10
2.1802982
20
120.8988211
11
2.1802982
21
8.6517211
0
LINE
8
DEFAULT_255_2_778
10
2.1802982
20
1.8990211
11
2.1802982
21
0.2752211
0
LINE
8
DEFAULT_255_2_778
10
2.6803982
20
-0.2247789
11
14.9480982
21
-0.2247789
0
LINE
8
DEFAULT_255_2_778
10
2.1803256
20
1.1250357
11
4.7946256
21
1.1250357
0
LINE
8
DEFAULT_255_2_778
10
5.4744256
20
2.3810357
11
6.4150256
21
2.3810357
0
LINE
8
DEFAULT_255_2_778
10
37.4302256
20
13.7750357
11
34.0303256
21
13.7750357
0
LINE
8
DEFAULT_255_2_778
10
44.7303256
20
12.4751357
11
46.2302256
21
10.9752357
0
LINE
8
DEFAULT_255_2_778
10
30.5301256
20
72.0551357
11
18.7303256
21
72.0551357
0
LINE
8
DEFAULT_255_2_778
10
2.1803256
20
128.7251357
11
2.6804256
21
128.4251357
0
LINE
8
DEFAULT_255_2_778
10
2.6804256
20
128.4251357
11
4.7946256
21
128.4251357
0
LINE
8
DEFAULT_255_2_778
10
17.2248256
20
113.9005357
11
17.4304256
21
113.9005357
0
ARC
8
DEFAULT_255_2_778
10
4.0311032
20
5.2783971
40
1.8508317
50
155.4290347
51
180.1043142
0
ARC
8
DEFAULT_255_2_778
10
4.025944
20
5.2789819
40
1.8458971
50
99.7575159
51
155.3789557
0
ARC
8
DEFAULT_255_2_778
10
4.0294032
20
5.2486695
40
1.8763582
50
89.9733924
51
99.7047455
0
ARC
8
DEFAULT_255_2_778
10
4.0336413
20
5.2745885
40
1.850442
50
65.254563
51
90.1042458
0
ARC
8
DEFAULT_255_2_778
10
4.0341315
20
5.2793637
40
1.8459008
50
9.995183
51
65.2063367
0
ARC
8
DEFAULT_255_2_778
10
4.0042787
20
5.2759378
40
1.8758961
50
359.9721952
51
9.9399759
0
ARC
8
DEFAULT_255_2_778
10
4.0289441
20
5.2716364
40
1.8512336
50
335.4354476
51
0.104952
0
ARC
8
DEFAULT_255_2_778
10
4.0348123
20
5.2707092
40
1.8455116
50
279.7545475
51
335.3858919
0
ARC
8
DEFAULT_255_2_778
10
4.0311533
20
5.3018588
40
1.8768317
50
269.9731736
51
279.7035181
0
ARC
8
DEFAULT_255_2_778
10
4.0269133
20
5.275734
40
1.8507097
50
245.4270228
51
270.1040609
0
ARC
8
DEFAULT_255_2_778
10
4.0264275
20
5.2707932
40
1.846015
50
189.759124
51
245.376965
0
ARC
8
DEFAULT_255_2_778
10
4.0563713
20
5.2741591
40
1.876097
50
179.973482
51
189.7054194
0
ARC
8
DEFAULT_255_2_778
10
4.0343426
20
124.2786562
40
2.1446863
50
23.1473837
51
47.2808133
0
ARC
8
DEFAULT_255_2_778
10
4.0292201
20
124.2728093
40
2.1524572
50
47.2862219
51
89.9567693
0
ARC
8
DEFAULT_255_2_778
10
4.0310614
20
124.2747474
40
2.1505183
50
90.0057889
51
98.5960443
0
ARC
8
DEFAULT_255_2_778
10
4.033657
20
124.2557241
40
2.1697157
50
98.5887325
51
100.7921432
0
ARC
8
DEFAULT_255_2_778
10
4.0344144
20
124.2514898
40
2.1740169
50
100.7908557
51
101.5836716
0
ARC
8
DEFAULT_255_2_778
10
4.0268633
20
124.2809232
40
2.1436672
50
101.5439239
51
128.6260941
0
ARC
8
DEFAULT_255_2_778
10
4.0304023
20
124.2749351
40
2.1505547
50
128.6001658
51
173.3517178
0
ARC
8
DEFAULT_255_2_778
10
4.0411287
20
124.2754138
40
2.1611542
50
173.397248
51
180.0075929
0
ARC
8
DEFAULT_255_2_778
10
4.0243161
20
124.2734239
40
2.1443422
50
179.9544829
51
207.0272235
0
ARC
8
DEFAULT_255_2_778
10
4.0298233
20
124.2750302
40
2.1499781
50
206.9986632
51
251.7632196
0
ARC
8
DEFAULT_255_2_778
10
4.0314325
20
124.285595
40
2.1605165
50
251.8103656
51
258.423665
0
ARC
8
DEFAULT_255_2_778
10
4.0354444
20
124.3028729
40
2.1782479
50
258.4114854
51
259.2027762
0
ARC
8
DEFAULT_255_2_778
10
4.0319134
20
124.2824036
40
2.1574794
50
259.1930525
51
267.3082042
0
ARC
8
DEFAULT_255_2_778
10
4.0310225
20
124.2694572
40
2.1445054
50
267.3157383
51
269.9994697
0
ARC
8
DEFAULT_255_2_778
10
4.0296132
20
124.2759013
40
2.1509501
50
270.0370093
51
329.6513346
0
ARC
8
DEFAULT_255_2_778
10
4.019663
20
124.2792658
40
2.1612378
50
329.7076441
51
336.8162598
0
LINE
8
DEFAULT_255_2_778
10
35.4304746
20
117.2750274
11
3.2303746
21
117.2750274
0
LINE
8
DEFAULT_255_2_778
10
46.2302746
20
128.7751274
11
35.4301746
21
128.7751274
0
LINE
8
DEFAULT_255_2_778
10
2.1802746
20
5.2750274
11
2.1802746
21
5.2750274
0
LINE
8
DEFAULT_255_2_778
10
16.4304746
20
121.3869274
11
16.4304746
21
125.3633274
0
LINE
8
DEFAULT_255_2_778
10
16.4304746
20
125.3633274
11
13.6184746
21
128.1750274
0
LINE
8
DEFAULT_255_2_778
10
13.6184746
20
128.1750274
11
9.6420746
21
128.1750274
0
LINE
8
DEFAULT_255_2_778
10
9.6420746
20
128.1750274
11
6.8303746
21
125.3633274
0
LINE
8
DEFAULT_255_2_778
10
6.8303746
20
125.3633274
11
6.8303746
21
121.3869274
0
LINE
8
DEFAULT_255_2_778
10
6.8303746
20
121.3869274
11
9.6420746
21
118.5751274
0
LINE
8
DEFAULT_255_2_778
10
9.6420746
20
118.5751274
11
13.6184746
21
118.5751274
0
LINE
8
DEFAULT_255_2_778
10
13.3700746
20
127.5752274
11
9.8907746
21
127.5752274
0
LINE
8
DEFAULT_255_2_778
10
9.8907746
20
127.5752274
11
7.4303746
21
125.1149274
0
LINE
8
DEFAULT_255_2_778
10
7.4303746
20
125.1149274
11
7.4303746
21
121.6356274
0
LINE
8
DEFAULT_255_2_778
10
7.4303746
20
121.6356274
11
9.8907746
21
119.1752274
0
LINE
8
DEFAULT_255_2_778
10
9.8907746
20
119.1752274
11
13.3700746
21
119.1752274
0
LINE
8
DEFAULT_255_2_778
10
13.3700746
20
119.1752274
11
15.8303746
21
121.6356274
0
LINE
8
DEFAULT_255_2_778
10
15.8303746
20
121.6356274
11
15.8303746
21
125.1149274
0
LINE
8
DEFAULT_255_2_778
10
15.8303746
20
125.1149274
11
13.3700746
21
127.5752274
0
LINE
8
DEFAULT_255_2_778
10
21.6551746
20
125.7750274
11
23.1550746
21
125.7750274
0
LINE
8
DEFAULT_255_2_778
10
23.1550746
20
125.7750274
11
23.1550746
21
118.2748274
0
LINE
8
DEFAULT_255_2_778
10
19.8052746
20
125.7750274
11
18.3052746
21
125.7750274
0
LINE
8
DEFAULT_255_2_778
10
18.3052746
20
125.7750274
11
18.3052746
21
118.2751274
0
LINE
8
DEFAULT_255_2_778
10
43.4303746
20
112.2752274
11
43.4303746
21
108.2752274
0
LINE
8
DEFAULT_255_2_778
10
40.1803011
20
111.0250614
11
42.2803011
21
111.0250614
0
LINE
8
DEFAULT_255_2_778
10
42.2803011
20
111.0250614
11
42.2803011
21
109.5251614
0
LINE
8
DEFAULT_255_2_778
10
42.2803011
20
109.5251614
11
40.1803011
21
109.5251614
0
LINE
8
DEFAULT_255_2_778
10
40.1803011
20
109.5251614
11
40.1803011
21
111.0250614
0
LINE
8
DEFAULT_255_2_778
10
43.4304
20
86.2750854
11
43.4304
21
82.2750854
0
LINE
8
DEFAULT_255_2_778
10
40.1803011
20
85.0252614
11
42.2803011
21
85.0252614
0
LINE
8
DEFAULT_255_2_778
10
42.2803011
20
85.0252614
11
42.2803011
21
83.5253614
0
LINE
8
DEFAULT_255_2_778
10
42.2803011
20
83.5253614
11
40.1803011
21
83.5253614
0
LINE
8
DEFAULT_255_2_778
10
40.1803011
20
83.5253614
11
40.1803011
21
85.0252614
0
LINE
8
DEFAULT_255_2_778
10
43.4304
20
60.2749854
11
43.4304
21
56.2749854
0
LINE
8
DEFAULT_255_2_778
10
40.1803011
20
59.0251614
11
42.2803011
21
59.0251614
0
LINE
8
DEFAULT_255_2_778
10
42.2803011
20
59.0251614
11
42.2803011
21
57.5252614
0
LINE
8
DEFAULT_255_2_778
10
42.2803011
20
57.5252614
11
40.1803011
21
57.5252614
0
LINE
8
DEFAULT_255_2_778
10
40.1803011
20
57.5252614
11
40.1803011
21
59.0251614
0
LINE
8
DEFAULT_255_2_778
10
12.9802896
20
22.8751
11
17.3802896
21
22.8751
0
LINE
8
DEFAULT_255_2_778
10
17.380348
20
22.8750895
11
17.380348
21
14.5750895
0
LINE
8
DEFAULT_255_2_778
10
17.380348
20
14.5750895
11
12.980348
21
14.5750895
0
LINE
8
DEFAULT_255_2_778
10
12.980348
20
14.5750895
11
12.980348
21
22.8750895
0
LINE
8
DEFAULT_255_2_778
10
8.080248
20
22.8750895
11
12.480248
21
22.8750895
0
ARC
8
DEFAULT_255_2_778
10
40.4774715
20
45.2681399
40
1.9928139
50
245.6879682
51
270.0735817
0
ARC
8
DEFAULT_255_2_778
10
40.4826645
20
45.2771636
40
2.0031756
50
189.8044729
51
245.65887
0
ARC
8
DEFAULT_255_2_778
10
40.493632
20
45.2748973
40
2.0136013
50
179.9877538
51
189.6877868
0
ARC
8
DEFAULT_255_2_778
10
40.4732124
20
45.2777114
40
1.993183
50
155.6872806
51
180.068521
0
ARC
8
DEFAULT_255_2_778
10
40.4817287
20
45.2728176
40
2.0029591
50
99.8014535
51
155.6600071
0
ARC
8
DEFAULT_255_2_778
10
40.4794133
20
45.2619235
40
2.0133042
50
89.9824264
51
99.6837422
0
ARC
8
DEFAULT_255_2_778
10
40.4776485
20
58.2685243
40
1.993198
50
245.6873726
51
270.0684804
0
ARC
8
DEFAULT_255_2_778
10
40.4826312
20
58.2771901
40
2.0031469
50
189.8052981
51
245.6595418
0
ARC
8
DEFAULT_255_2_778
10
40.4935802
20
58.2748959
40
2.0135495
50
179.9877133
51
189.6879127
0
ARC
8
DEFAULT_255_2_778
10
40.4732274
20
58.27771
40
1.993198
50
155.6873726
51
180.0684804
0
ARC
8
DEFAULT_255_2_778
10
40.4818931
20
58.2727272
40
2.0031469
50
99.8052981
51
155.6595418
0
ARC
8
DEFAULT_255_2_778
10
40.479599
20
58.2617782
40
2.0135495
50
89.9877133
51
99.6879127
0
ARC
8
DEFAULT_255_2_778
10
40.4774648
20
71.2683895
40
1.9929635
50
245.6901216
51
270.0737704
0
ARC
8
DEFAULT_255_2_778
10
40.4825153
20
71.2771491
40
2.0030257
50
189.804704
51
245.6616138
0
ARC
8
DEFAULT_255_2_778
10
40.493576
20
71.2748957
40
2.0135452
50
179.9877083
51
189.6879249
0
ARC
8
DEFAULT_255_2_778
10
40.4733294
20
71.2777036
40
1.9933
50
155.6880055
51
180.0682938
0
ARC
8
DEFAULT_255_2_778
10
40.4818147
20
71.2728607
40
2.0030269
50
99.803615
51
155.6616895
0
ARC
8
DEFAULT_255_2_778
10
40.4794144
20
71.262218
40
2.0131097
50
89.9824561
51
99.6847188
0
ARC
8
DEFAULT_255_2_778
10
40.4774715
20
84.2682399
40
1.9928139
50
245.6879682
51
270.0735817
0
ARC
8
DEFAULT_255_2_778
10
40.4826645
20
84.2772636
40
2.0031756
50
189.8044729
51
245.65887
0
ARC
8
DEFAULT_255_2_778
10
40.493632
20
84.2749973
40
2.0136013
50
179.9877538
51
189.6877868
0
ARC
8
DEFAULT_255_2_778
10
40.4732274
20
84.27781
40
1.993198
50
155.6873726
51
180.0684804
0
ARC
8
DEFAULT_255_2_778
10
40.4818931
20
84.2728272
40
2.0031469
50
99.8052981
51
155.6595418
0
ARC
8
DEFAULT_255_2_778
10
40.479599
20
84.2618782
40
2.0135495
50
89.9877133
51
99.6879127
0
ARC
8
DEFAULT_255_2_778
10
40.4776485
20
97.2686243
40
1.993198
50
245.6873726
51
270.0684804
0
ARC
8
DEFAULT_255_2_778
10
40.4826312
20
97.2772901
40
2.0031469
50
189.8052981
51
245.6595418
0
ARC
8
DEFAULT_255_2_778
10
40.4935802
20
97.2749959
40
2.0135495
50
179.9877133
51
189.6879127
0
ARC
8
DEFAULT_255_2_778
10
40.4733294
20
97.2778036
40
1.9933
50
155.6880055
51
180.0682938
0
ARC
8
DEFAULT_255_2_778
10
40.4818147
20
97.2729607
40
2.0030269
50
99.803615
51
155.6616895
0
ARC
8
DEFAULT_255_2_778
10
40.4794144
20
97.262318
40
2.0131097
50
89.9824561
51
99.6847188
0
ARC
8
DEFAULT_255_2_778
10
40.4774715
20
110.2680399
40
1.9928139
50
245.6879682
51
270.0735817
0
ARC
8
DEFAULT_255_2_778
10
40.4826645
20
110.2770636
40
2.0031756
50
189.8044729
51
245.65887
0
ARC
8
DEFAULT_255_2_778
10
40.493632
20
110.2747973
40
2.0136013
50
179.9877538
51
189.6877868
0
ARC
8
DEFAULT_255_2_778
10
40.4732274
20
110.27761
40
1.993198
50
155.6873726
51
180.0684804
0
ARC
8
DEFAULT_255_2_778
10
40.4818931
20
110.2726272
40
2.0031469
50
99.8052981
51
155.6595418
0
ARC
8
DEFAULT_255_2_778
10
40.479599
20
110.2616782
40
2.0135495
50
89.9877133
51
99.6879127
0
ARC
8
DEFAULT_255_2_778
10
43.1800213
20
114.3251183
40
0.3001094
50
0.0208901
51
89.9791099
0
ARC
8
DEFAULT_255_2_778
10
6.2803616
20
114.3250968
40
0.3001308
50
90.0058834
51
179.9750212
0
ARC
8
DEFAULT_255_2_778
10
8.9827067
20
110.2819291
40
1.9933
50
65.6880055
51
90.0682938
0
ARC
8
DEFAULT_255_2_778
10
8.9778637
20
110.2734437
40
2.0030269
50
9.803615
51
65.6616895
0
ARC
8
DEFAULT_255_2_778
10
8.9672211
20
110.2758441
40
2.0131097
50
359.9824561
51
9.6847188
0
ARC
8
DEFAULT_255_2_778
10
8.9874166
20
110.2726748
40
1.9929158
50
335.6886011
51
0.073395
0
ARC
8
DEFAULT_255_2_778
10
8.9785733
20
110.277728
40
2.0030556
50
279.8027899
51
335.6610177
0
ARC
8
DEFAULT_255_2_778
10
8.9809458
20
110.2883892
40
2.0131615
50
269.9824967
51
279.6845929
0
ARC
8
DEFAULT_255_2_778
10
8.9828837
20
97.2822135
40
1.9929158
50
65.6886011
51
90.073395
0
ARC
8
DEFAULT_255_2_778
10
8.9778305
20
97.2733702
40
2.0030556
50
9.8027899
51
65.6610177
0
ARC
8
DEFAULT_255_2_778
10
8.9671693
20
97.2757427
40
2.0131615
50
359.9824967
51
9.6845929
0
ARC
8
DEFAULT_255_2_778
10
8.9875335
20
97.272567
40
1.9927989
50
335.6878762
51
0.0736222
0
ARC
8
DEFAULT_255_2_778
10
8.9786593
20
97.277671
40
2.0029878
50
279.8006284
51
335.6593353
0
ARC
8
DEFAULT_255_2_778
10
8.9809469
20
97.2885836
40
2.013356
50
269.982467
51
279.6836164
0
ARC
8
DEFAULT_255_2_778
10
8.9827067
20
84.2818291
40
1.9933
50
65.6880055
51
90.0682938
0
ARC
8
DEFAULT_255_2_778
10
8.9778637
20
84.2733437
40
2.0030269
50
9.803615
51
65.6616895
0
ARC
8
DEFAULT_255_2_778
10
8.9672211
20
84.2757441
40
2.0131097
50
359.9824561
51
9.6847188
0
ARC
8
DEFAULT_255_2_778
10
8.9875185
20
84.2725684
40
1.9928139
50
335.6879682
51
0.0735817
0
ARC
8
DEFAULT_255_2_778
10
8.9784949
20
84.2777614
40
2.0031756
50
279.8044729
51
335.65887
0
ARC
8
DEFAULT_255_2_778
10
8.9807611
20
84.288729
40
2.0136013
50
269.9877538
51
279.6877868
0
ARC
8
DEFAULT_255_2_778
10
8.9827067
20
71.2818291
40
1.9933
50
65.6880055
51
90.0682938
0
ARC
8
DEFAULT_255_2_778
10
8.9778637
20
71.2733437
40
2.0030269
50
9.803615
51
65.6616895
0
ARC
8
DEFAULT_255_2_778
10
8.9672211
20
71.2757441
40
2.0131097
50
359.9824561
51
9.6847188
0
ARC
8
DEFAULT_255_2_778
10
8.9874166
20
71.2725748
40
1.9929158
50
335.6886011
51
0.073395
0
ARC
8
DEFAULT_255_2_778
10
8.9785733
20
71.277628
40
2.0030556
50
279.8027899
51
335.6610177
0
ARC
8
DEFAULT_255_2_778
10
8.9809458
20
71.2882892
40
2.0131615
50
269.9824967
51
279.6845929
0
ARC
8
DEFAULT_255_2_778
10
8.9828837
20
58.2821135
40
1.9929158
50
65.6886011
51
90.073395
0
ARC
8
DEFAULT_255_2_778
10
8.9778305
20
58.2732702
40
2.0030556
50
9.8027899
51
65.6610177
0
ARC
8
DEFAULT_255_2_778
10
8.9671693
20
58.2756427
40
2.0131615
50
359.9824967
51
9.6845929
0
ARC
8
DEFAULT_255_2_778
10
8.9875185
20
58.2724684
40
1.9928139
50
335.6879682
51
0.0735817
0
ARC
8
DEFAULT_255_2_778
10
8.9784949
20
58.2776614
40
2.0031756
50
279.8044729
51
335.65887
0
ARC
8
DEFAULT_255_2_778
10
8.9807611
20
58.288629
40
2.0136013
50
269.9877538
51
279.6877868
0
ARC
8
DEFAULT_255_2_778
10
8.9827067
20
45.2817291
40
1.9933
50
65.6880055
51
90.0682938
0
ARC
8
DEFAULT_255_2_778
10
8.9778637
20
45.2732437
40
2.0030269
50
9.803615
51
65.6616895
0
ARC
8
DEFAULT_255_2_778
10
8.9672211
20
45.2756441
40
2.0131097
50
359.9824561
51
9.6847188
0
ARC
8
DEFAULT_255_2_778
10
8.9875185
20
45.2724684
40
1.9928139
50
335.6879682
51
0.0735817
0
ARC
8
DEFAULT_255_2_778
10
8.9784949
20
45.2776614
40
2.0031756
50
279.8044729
51
335.65887
0
ARC
8
DEFAULT_255_2_778
10
8.9807611
20
45.288629
40
2.0136013
50
269.9877538
51
279.6877868
0
ARC
8
DEFAULT_255_2_778
10
8.9828904
20
32.2818639
40
1.9930654
50
65.6907545
51
90.0735838
0
ARC
8
DEFAULT_255_2_778
10
8.9779797
20
32.2732847
40
2.0029057
50
9.8030209
51
65.6637615
0
ARC
8
DEFAULT_255_2_778
10
8.9672253
20
32.2756443
40
2.0131055
50
359.9824512
51
9.684731
0
ARC
8
DEFAULT_255_2_778
10
8.9874166
20
32.2724748
40
1.9929158
50
335.6886011
51
0.073395
0
ARC
8
DEFAULT_255_2_778
10
8.9785733
20
32.277528
40
2.0030556
50
279.8027899
51
335.6610177
0
ARC
8
DEFAULT_255_2_778
10
8.9809458
20
32.2881892
40
2.0131615
50
269.9824967
51
279.6845929
0
ARC
8
DEFAULT_255_2_778
10
43.1799359
20
13.9249225
40
0.3001949
50
270.0371877
51
359.9819077
0
ARC
8
DEFAULT_255_2_778
10
40.4774715
20
19.2675399
40
1.9928139
50
245.6879682
51
270.0735817
0
ARC
8
DEFAULT_255_2_778
10
40.4826645
20
19.2765636
40
2.0031756
50
189.8044729
51
245.65887
0
ARC
8
DEFAULT_255_2_778
10
40.493632
20
19.2742973
40
2.0136013
50
179.9877538
51
189.6877868
0
ARC
8
DEFAULT_255_2_778
10
40.4732124
20
19.2771114
40
1.993183
50
155.6872806
51
180.068521
0
ARC
8
DEFAULT_255_2_778
10
40.4817287
20
19.2722176
40
2.0029591
50
99.8014535
51
155.6600071
0
ARC
8
DEFAULT_255_2_778
10
40.4794133
20
19.2613235
40
2.0133042
50
89.9824264
51
99.6837422
0
ARC
8
DEFAULT_255_2_778
10
40.4774715
20
32.2675399
40
1.9928139
50
245.6879682
51
270.0735817
0
ARC
8
DEFAULT_255_2_778
10
40.4826645
20
32.2765636
40
2.0031756
50
189.8044729
51
245.65887
0
ARC
8
DEFAULT_255_2_778
10
40.493632
20
32.2742973
40
2.0136013
50
179.9877538
51
189.6877868
0
ARC
8
DEFAULT_255_2_778
10
40.4732274
20
32.27711
40
1.993198
50
155.6873726
51
180.0684804
0
ARC
8
DEFAULT_255_2_778
10
40.4818931
20
32.2721272
40
2.0031469
50
99.8052981
51
155.6595418
0
ARC
8
DEFAULT_255_2_778
10
40.479599
20
32.2611782
40
2.0135495
50
89.9877133
51
99.6879127
0
LINE
8
DEFAULT_255_2_778
10
12.4802308
20
22.8751277
11
12.4802308
21
14.5751277
0
LINE
8
DEFAULT_255_2_778
10
12.4802308
20
14.5751277
11
8.0802308
21
14.5751277
0
LINE
8
DEFAULT_255_2_778
10
8.0802308
20
14.5751277
11
8.0802308
21
22.8751277
0
LINE
8
DEFAULT_255_2_778
10
43.4801308
20
43.2753277
11
40.4800308
21
43.2753277
0
LINE
8
DEFAULT_255_2_778
10
40.4800308
20
47.2752277
11
43.4801308
21
47.2752277
0
LINE
8
DEFAULT_255_2_778
10
43.4801308
20
47.2752277
11
43.4801308
21
56.2753277
0
LINE
8
DEFAULT_255_2_778
10
43.4801308
20
56.2753277
11
40.4800308
21
56.2753277
0
LINE
8
DEFAULT_255_2_778
10
40.4800308
20
60.2753277
11
43.4801308
21
60.2753277
0
LINE
8
DEFAULT_255_2_778
10
43.4801308
20
60.2753277
11
43.4801308
21
69.2754277
0
LINE
8
DEFAULT_255_2_778
10
43.4801308
20
69.2754277
11
40.4800308
21
69.2754277
0
LINE
8
DEFAULT_255_2_778
10
40.4800308
20
73.2753277
11
43.4801308
21
73.2753277
0
LINE
8
DEFAULT_255_2_778
10
43.4801308
20
73.2753277
11
43.4801308
21
82.2754277
0
LINE
8
DEFAULT_255_2_778
10
43.4801308
20
82.2754277
11
40.4800308
21
82.2754277
0
LINE
8
DEFAULT_255_2_778
10
40.4800308
20
86.2754277
11
43.4801308
21
86.2754277
0
LINE
8
DEFAULT_255_2_778
10
43.4801308
20
86.2754277
11
43.4801308
21
95.2754277
0
LINE
8
DEFAULT_255_2_778
10
43.4801308
20
95.2754277
11
40.4800308
21
95.2754277
0
LINE
8
DEFAULT_255_2_778
10
40.4800308
20
99.2754277
11
43.4801308
21
99.2754277
0
LINE
8
DEFAULT_255_2_778
10
43.4801308
20
99.2754277
11
43.4801308
21
108.2752277
0
LINE
8
DEFAULT_255_2_778
10
43.4801308
20
108.2752277
11
40.4800308
21
108.2752277
0
LINE
8
DEFAULT_255_2_778
10
40.4800308
20
112.2752277
11
43.4801308
21
112.2752277
0
LINE
8
DEFAULT_255_2_778
10
43.4801308
20
112.2752277
11
43.4801308
21
114.3252277
0
LINE
8
DEFAULT_255_2_778
10
43.1801308
20
114.6252277
11
36.9801308
21
114.6252277
0
LINE
8
DEFAULT_255_2_778
10
36.9801308
20
114.6252277
11
36.9801308
21
105.1251277
0
LINE
8
DEFAULT_255_2_778
10
36.9801308
20
105.1251277
11
26.6802308
21
105.1251277
0
LINE
8
DEFAULT_255_2_778
10
26.6802308
20
105.1251277
11
26.6802308
21
114.6252277
0
LINE
8
DEFAULT_255_2_778
10
26.6802308
20
114.6252277
11
17.4303308
21
114.6252277
0
LINE
8
DEFAULT_255_2_778
10
17.4303308
20
114.6252277
11
17.4303308
21
105.1251277
0
LINE
8
DEFAULT_255_2_778
10
17.4303308
20
105.1251277
11
14.0304308
21
105.1251277
0
LINE
8
DEFAULT_255_2_778
10
14.0304308
20
105.1251277
11
14.0304308
21
114.6252277
0
LINE
8
DEFAULT_255_2_778
10
14.0304308
20
114.6252277
11
6.2803308
21
114.6252277
0
LINE
8
DEFAULT_255_2_778
10
5.9802308
20
114.3252277
11
5.9802308
21
112.2752277
0
LINE
8
DEFAULT_255_2_778
10
5.9802308
20
112.2752277
11
8.9803308
21
112.2752277
0
LINE
8
DEFAULT_255_2_778
10
8.9803308
20
108.2752277
11
5.9802308
21
108.2752277
0
LINE
8
DEFAULT_255_2_778
10
5.9802308
20
108.2752277
11
5.9802308
21
99.2751277
0
LINE
8
DEFAULT_255_2_778
10
5.9802308
20
99.2751277
11
8.9803308
21
99.2751277
0
LINE
8
DEFAULT_255_2_778
10
8.9803308
20
95.2752277
11
5.9802308
21
95.2752277
0
LINE
8
DEFAULT_255_2_778
10
5.9802308
20
95.2752277
11
5.9802308
21
86.2751277
0
LINE
8
DEFAULT_255_2_778
10
5.9802308
20
86.2751277
11
8.9803308
21
86.2751277
0
LINE
8
DEFAULT_255_2_778
10
8.9803308
20
82.2751277
11
5.9802308
21
82.2751277
0
LINE
8
DEFAULT_255_2_778
10
5.9802308
20
82.2751277
11
5.9802308
21
73.2751277
0
LINE
8
DEFAULT_255_2_778
10
5.9802308
20
73.2751277
11
8.9803308
21
73.2751277
0
LINE
8
DEFAULT_255_2_778
10
8.9803308
20
69.2751277
11
5.9802308
21
69.2751277
0
LINE
8
DEFAULT_255_2_778
10
5.9802308
20
69.2751277
11
5.9802308
21
60.2750277
0
LINE
8
DEFAULT_255_2_778
10
5.9802308
20
60.2750277
11
8.9803308
21
60.2750277
0
LINE
8
DEFAULT_255_2_778
10
8.9803308
20
56.2750277
11
5.9802308
21
56.2750277
0
LINE
8
DEFAULT_255_2_778
10
5.9802308
20
56.2750277
11
5.9802308
21
47.2750277
0
LINE
8
DEFAULT_255_2_778
10
5.9802308
20
47.2750277
11
8.9803308
21
47.2750277
0
LINE
8
DEFAULT_255_2_778
10
8.9803308
20
43.2750277
11
5.9802308
21
43.2750277
0
LINE
8
DEFAULT_255_2_778
10
5.9802308
20
43.2750277
11
5.9802308
21
34.2749277
0
LINE
8
DEFAULT_255_2_778
10
5.9802308
20
34.2749277
11
8.9803308
21
34.2749277
0
LINE
8
DEFAULT_255_2_778
10
8.9803308
20
30.2750277
11
5.9802308
21
30.2750277
0
LINE
8
DEFAULT_255_2_778
10
5.9802308
20
30.2750277
11
5.9802308
21
23.1249277
0
LINE
8
DEFAULT_255_2_778
10
5.9802308
20
23.1249277
11
18.4302308
21
23.1249277
0
LINE
8
DEFAULT_255_2_778
10
18.4302308
20
23.1249277
11
18.4302308
21
13.6247277
0
LINE
8
DEFAULT_255_2_778
10
18.4302308
20
13.6247277
11
34.0303308
21
13.6247277
0
LINE
8
DEFAULT_255_2_778
10
34.0303308
20
13.6247277
11
34.0303308
21
23.1249277
0
LINE
8
DEFAULT_255_2_778
10
34.0303308
20
23.1249277
11
37.4302308
21
23.1249277
0
LINE
8
DEFAULT_255_2_778
10
37.4302308
20
23.1249277
11
37.4302308
21
13.6247277
0
LINE
8
DEFAULT_255_2_778
10
37.4302308
20
13.6247277
11
43.1801308
21
13.6247277
0
LINE
8
DEFAULT_255_2_778
10
43.4801308
20
13.9248277
11
43.4801308
21
17.2747277
0
LINE
8
DEFAULT_255_2_778
10
43.4801308
20
17.2747277
11
40.4800308
21
17.2747277
0
LINE
8
DEFAULT_255_2_778
10
40.4800308
20
21.2746277
11
43.4801308
21
21.2746277
0
LINE
8
DEFAULT_255_2_778
10
43.4801308
20
21.2746277
11
43.4801308
21
30.2747277
0
LINE
8
DEFAULT_255_2_778
10
43.4801308
20
30.2747277
11
40.4800308
21
30.2747277
0
LINE
8
DEFAULT_255_2_778
10
40.4800308
20
34.2747277
11
43.4801308
21
34.2747277
0
LINE
8
DEFAULT_255_2_778
10
36.9304308
20
115.7751277
11
4.7303308
21
115.7751277
0
LINE
8
DEFAULT_255_2_778
10
4.7303308
20
115.7751277
11
3.2304308
21
117.2750277
0
LINE
8
DEFAULT_255_2_778
10
3.2304308
20
117.2750277
11
3.2304308
21
10.9749277
0
LINE
8
DEFAULT_255_2_778
10
3.2304308
20
10.9749277
11
4.7303308
21
12.4749277
0
LINE
8
DEFAULT_255_2_778
10
4.7303308
20
12.4749277
11
4.7303308
21
115.7751277
0
LINE
8
DEFAULT_255_2_778
10
31.4802308
20
105.6751277
11
27.0802308
21
105.6751277
0
LINE
8
DEFAULT_255_2_778
10
27.080248
20
105.6750895
11
27.080248
21
113.9750895
0
LINE
8
DEFAULT_255_2_778
10
27.080248
20
113.9750895
11
31.480248
21
113.9750895
0
LINE
8
DEFAULT_255_2_778
10
31.480248
20
113.9750895
11
31.480248
21
105.6750895
0
LINE
8
DEFAULT_255_2_778
10
36.380348
20
105.6750895
11
31.980348
21
105.6750895
0
LINE
8
DEFAULT_255_2_778
10
31.9803029
20
105.6750895
11
31.9803029
21
113.9750895
0
LINE
8
DEFAULT_255_2_778
10
31.9803029
20
113.9750895
11
36.3803029
21
113.9750895
0
LINE
8
DEFAULT_255_2_778
10
36.3803029
20
113.9750895
11
36.3803029
21
105.6750895
0
ARC
8
DEFAULT_255_2_778
10
6.0802376
20
114.4749569
40
0.5000956
50
90.0053149
51
135.0041129
0
ARC
8
DEFAULT_255_2_778
10
6.0801906
20
114.475046
40
0.4999994
50
135.0075237
51
180.0107106
0
ARC
8
DEFAULT_255_2_778
10
6.0802669
20
13.7748283
40
0.5000757
50
179.9972237
51
269.991324
0
ARC
8
DEFAULT_255_2_778
10
43.3800943
20
13.7748495
40
0.5000969
50
269.9996485
51
0.0003515
0
ARC
8
DEFAULT_255_2_778
10
43.3800943
20
125.9750556
40
0.5000969
50
359.9996485
51
90.0003515
0
ARC
8
DEFAULT_255_2_778
10
38.2302882
20
125.9750556
40
0.5000969
50
89.9996485
51
180.0003515
0
ARC
8
DEFAULT_255_2_778
10
37.230137
20
115.4751066
40
0.5000542
50
270.0062091
51
359.9938024
0
LINE
8
DEFAULT_255_2_778
10
38.0836912
20
114.9750525
11
6.0801912
21
114.9750525
0
LINE
8
DEFAULT_255_2_778
10
5.5801912
20
114.4749525
11
5.5801912
21
13.7748525
0
LINE
8
DEFAULT_255_2_778
10
6.0801912
20
13.2747525
11
43.3800912
21
13.2747525
0
LINE
8
DEFAULT_255_2_778
10
43.8801912
20
13.7748525
11
43.8801912
21
125.9750525
0
LINE
8
DEFAULT_255_2_778
10
43.3800912
20
126.4751525
11
38.2302912
21
126.4751525
0
LINE
8
DEFAULT_255_2_778
10
37.7301912
20
125.9750525
11
37.7301912
21
115.4750525
0
LINE
8
DEFAULT_255_2_778
10
4.7302912
20
12.4751525
11
44.7302912
21
12.4751525
0
LINE
8
DEFAULT_255_2_778
10
44.7302912
20
12.4751525
11
44.7302912
21
127.2752525
0
LINE
8
DEFAULT_255_2_778
10
44.7302912
20
127.2752525
11
46.2301912
21
128.7751525
0
LINE
8
DEFAULT_255_2_778
10
46.2301912
20
128.7751525
11
46.2301912
21
10.9752525
0
LINE
8
DEFAULT_255_2_778
10
46.2301912
20
10.9752525
11
3.2303912
21
10.9752525
0
LINE
8
DEFAULT_255_2_778
10
21.6551912
20
127.5750525
11
19.8051912
21
127.5750525
0
LINE
8
DEFAULT_255_2_778
10
18.3052912
20
122.0751525
11
23.1553912
21
122.0751525
0
ARC
8
DEFAULT_255_2_778
10
21.7455413
20
110.4787051
40
3.0152539
50
162.1238259
51
180.0698758
0
ARC
8
DEFAULT_255_2_778
10
21.7243001
20
110.4809759
40
2.9943443
50
105.6411039
51
162.0404171
0
ARC
8
DEFAULT_255_2_778
10
21.7273747
20
110.4533456
40
3.0217837
50
89.9428337
51
105.5559944
0
ARC
8
DEFAULT_255_2_778
10
21.734067
20
110.4598762
40
3.0152539
50
72.1238259
51
90.0698758
0
ARC
8
DEFAULT_255_2_778
10
21.7363378
20
110.4811174
40
2.9943443
50
15.6411039
51
72.0404171
0
ARC
8
DEFAULT_255_2_778
10
21.7087075
20
110.4780428
40
3.0217837
50
359.9428337
51
15.5559944
0
ARC
8
DEFAULT_255_2_778
10
21.7149643
20
110.4713457
40
3.0155276
50
342.1246433
51
0.0699612
0
ARC
8
DEFAULT_255_2_778
10
21.7364667
20
110.4689688
40
2.9943368
50
285.6413945
51
342.0416389
0
ARC
8
DEFAULT_255_2_778
10
21.7334039
20
110.4965995
40
3.0217733
50
269.9428473
51
285.5560638
0
ARC
8
DEFAULT_255_2_778
10
21.7267221
20
110.4895819
40
3.0147563
50
252.1205815
51
270.0697021
0
ARC
8
DEFAULT_255_2_778
10
21.7247811
20
110.4691396
40
2.9947087
50
195.6419101
51
252.0358476
0
ARC
8
DEFAULT_255_2_778
10
21.7517477
20
110.4720311
40
3.0214595
50
179.9431734
51
195.5568338
0
LINE
8
DEFAULT_255_2_778
10
19.8052897
20
128.5751278
11
19.8052897
21
124.0751278
0
LINE
8
DEFAULT_255_2_778
10
19.8052897
20
124.0751278
11
21.6552897
21
124.0751278
0
LINE
8
DEFAULT_255_2_778
10
21.6552897
20
124.0751278
11
21.6552897
21
128.5751278
0
LINE
8
DEFAULT_255_2_778
10
18.7302897
20
110.4750278
11
18.7302897
21
110.4750278
0
ARC
8
DEFAULT_255_2_778
10
21.7282087
20
110.4780908
40
1.4546078
50
150.8829018
51
180.1219096
0
ARC
8
DEFAULT_255_2_778
10
21.7268108
20
110.4783946
40
1.4532388
50
98.0924387
51
150.8665486
0
ARC
8
DEFAULT_255_2_778
10
21.7299076
20
110.4509125
40
1.4808834
50
89.9807845
51
98.0613801
0
ARC
8
DEFAULT_255_2_778
10
21.7334992
20
110.4771913
40
1.4546078
50
60.8829018
51
90.1219096
0
ARC
8
DEFAULT_255_2_778
10
21.7338031
20
110.4785892
40
1.4532388
50
8.0924387
51
60.8665486
0
ARC
8
DEFAULT_255_2_778
10
21.7063209
20
110.4754924
40
1.4808834
50
359.9807845
51
8.0613801
0
ARC
8
DEFAULT_255_2_778
10
21.7325997
20
110.4719008
40
1.4546078
50
330.8829018
51
0.1219096
0
ARC
8
DEFAULT_255_2_778
10
21.7339976
20
110.4715969
40
1.4532388
50
278.0924387
51
330.8665486
0
ARC
8
DEFAULT_255_2_778
10
21.7309009
20
110.4990791
40
1.4808834
50
269.9807845
51
278.0613801
0
ARC
8
DEFAULT_255_2_778
10
21.7273092
20
110.4728003
40
1.4546078
50
240.8829018
51
270.1219096
0
ARC
8
DEFAULT_255_2_778
10
21.7270054
20
110.4714024
40
1.4532388
50
188.0924387
51
240.8665486
0
ARC
8
DEFAULT_255_2_778
10
21.7544875
20
110.4744991
40
1.4808834
50
179.9807845
51
188.0613801
0
LINE
8
DEFAULT_255_2_778
10
20.2736042
20
110.4749958
11
20.2736042
21
110.4749958
0
ARC
8
DEFAULT_255_2_778
10
22.2895373
20
109.5064856
40
0.1992848
50
95.7947379
51
144.0959672
0
ARC
8
DEFAULT_255_2_778
10
22.6480907
20
109.9448517
40
0.199558
50
275.9036717
51
330.0594631
0
ARC
8
DEFAULT_255_2_778
10
22.6470348
20
109.945416
40
0.2007547
50
330.0702809
51
359.999955
0
ARC
8
DEFAULT_255_2_778
10
22.6480201
20
109.9454357
40
0.1997693
50
359.994315
51
0.5675467
0
ARC
8
DEFAULT_255_2_778
10
22.6479102
20
109.945472
40
0.1998788
50
0.5568319
51
23.9943643
0
ARC
8
DEFAULT_255_2_778
10
22.8504651
20
110.4749559
40
0.2006988
50
179.9868221
51
203.9288629
0
ARC
8
DEFAULT_255_2_778
10
22.8504647
20
110.4750483
40
0.2006982
50
156.0710967
51
180.0131915
0
ARC
8
DEFAULT_255_2_778
10
22.6496237
20
111.0043681
40
0.1982474
50
335.8475574
51
359.4859854
0
ARC
8
DEFAULT_255_2_778
10
22.6469668
20
111.00447
40
0.200905
50
359.4637352
51
359.9999944
0
ARC
8
DEFAULT_255_2_778
10
22.6468171
20
111.0043648
40
0.2010547
50
0.0299655
51
29.9539046
0
ARC
8
DEFAULT_255_2_778
10
22.6480912
20
111.0051532
40
0.1995572
50
29.9404283
51
84.0964543
0
ARC
8
DEFAULT_255_2_778
10
22.2895373
20
111.4435185
40
0.1992848
50
215.9040328
51
264.2052621
0
ARC
8
DEFAULT_255_2_778
10
21.7303678
20
111.5339483
40
0.2002037
50
36.0095214
51
89.9860791
0
ARC
8
DEFAULT_255_2_778
10
21.7304597
20
111.5337626
40
0.2003894
50
90.0123572
51
143.9634239
0
ARC
8
DEFAULT_255_2_778
10
21.1712957
20
111.4435185
40
0.1992848
50
275.7947379
51
324.0959672
0
ARC
8
DEFAULT_255_2_778
10
20.812742
20
111.0051529
40
0.1995575
50
95.9035946
51
150.0595296
0
ARC
8
DEFAULT_255_2_778
10
20.8137981
20
111.0045881
40
0.2007547
50
150.0702809
51
179.999955
0
ARC
8
DEFAULT_255_2_778
10
20.8128128
20
111.0045684
40
0.1997693
50
179.994315
51
180.5675467
0
ARC
8
DEFAULT_255_2_778
10
20.8129228
20
111.0045321
40
0.1998788
50
180.5568319
51
203.9943643
0
ARC
8
DEFAULT_255_2_778
10
20.6127916
20
110.4750137
40
0.1984999
50
359.9966347
51
24.2217257
0
ARC
8
DEFAULT_255_2_778
10
20.6127916
20
110.4749904
40
0.1984999
50
335.7782743
51
0.0033653
0
ARC
8
DEFAULT_255_2_778
10
20.8112093
20
109.945636
40
0.1982474
50
155.8475574
51
179.4859854
0
ARC
8
DEFAULT_255_2_778
10
20.8138662
20
109.9455341
40
0.200905
50
179.4637352
51
179.9999944
0
ARC
8
DEFAULT_255_2_778
10
20.8140158
20
109.9456393
40
0.2010547
50
180.0299655
51
209.9539046
0
ARC
8
DEFAULT_255_2_778
10
20.8127423
20
109.9448517
40
0.199558
50
209.9405369
51
264.0963283
0
ARC
8
DEFAULT_255_2_778
10
21.1712957
20
109.5064856
40
0.1992848
50
35.9040328
51
84.2052621
0
ARC
8
DEFAULT_255_2_778
10
21.7304597
20
109.4162415
40
0.2003894
50
216.0365761
51
269.9876428
0
ARC
8
DEFAULT_255_2_778
10
21.7303678
20
109.4160557
40
0.2002037
50
270.0139209
51
323.9904786
0
LINE
8
DEFAULT_255_2_778
10
22.2694165
20
109.704752
11
22.6686165
21
109.746352
0
LINE
8
DEFAULT_255_2_778
10
22.8305165
20
110.026752
11
22.6670165
21
110.393552
0
LINE
8
DEFAULT_255_2_778
10
22.6670165
20
110.556452
11
22.8305165
21
110.923252
0
LINE
8
DEFAULT_255_2_778
10
22.6686165
20
111.203652
11
22.2694165
21
111.245252
0
LINE
8
DEFAULT_255_2_778
10
22.1281165
20
111.326652
11
21.8923165
21
111.651652
0
LINE
8
DEFAULT_255_2_778
10
21.5684165
20
111.651652
11
21.3327165
21
111.326652
0
LINE
8
DEFAULT_255_2_778
10
21.1914165
20
111.245252
11
20.7922165
21
111.203652
0
LINE
8
DEFAULT_255_2_778
10
20.6303165
20
110.923252
11
20.7938165
21
110.556452
0
LINE
8
DEFAULT_255_2_778
10
20.7938165
20
110.393552
11
20.6303165
21
110.026752
0
LINE
8
DEFAULT_255_2_778
10
20.7922165
20
109.746352
11
21.1914165
21
109.704752
0
LINE
8
DEFAULT_255_2_778
10
21.3327165
20
109.623352
11
21.5684165
21
109.298352
0
LINE
8
DEFAULT_255_2_778
10
21.8923165
20
109.298352
11
22.1281165
21
109.623352
0
ARC
8
DEFAULT_255_2_778
10
29.7457413
20
17.7786876
40
3.0152539
50
162.1238259
51
180.0698758
0
ARC
8
DEFAULT_255_2_778
10
29.7245001
20
17.7809584
40
2.9943443
50
105.6411039
51
162.0404171
0
ARC
8
DEFAULT_255_2_778
10
29.7275747
20
17.7533281
40
3.0217837
50
89.9428337
51
105.5559944
0
ARC
8
DEFAULT_255_2_778
10
29.734267
20
17.7598587
40
3.0152539
50
72.1238259
51
90.0698758
0
ARC
8
DEFAULT_255_2_778
10
29.7365378
20
17.7810999
40
2.9943443
50
15.6411039
51
72.0404171
0
ARC
8
DEFAULT_255_2_778
10
29.7089075
20
17.7780253
40
3.0217837
50
359.9428337
51
15.5559944
0
ARC
8
DEFAULT_255_2_778
10
29.715438
20
17.771333
40
3.0152539
50
342.1238259
51
0.0698758
0
ARC
8
DEFAULT_255_2_778
10
29.7366792
20
17.7690622
40
2.9943443
50
285.6411039
51
342.0404171
0
ARC
8
DEFAULT_255_2_778
10
29.7336046
20
17.7966925
40
3.0217837
50
269.9428337
51
285.5559944
0
ARC
8
DEFAULT_255_2_778
10
29.7269124
20
17.790162
40
3.0152539
50
252.1238259
51
270.0698758
0
ARC
8
DEFAULT_255_2_778
10
29.7246416
20
17.7689208
40
2.9943443
50
195.6411039
51
252.0404171
0
ARC
8
DEFAULT_255_2_778
10
29.7522719
20
17.7719954
40
3.0217837
50
179.9428337
51
195.5559944
0
LINE
8
DEFAULT_255_2_778
10
26.7304897
20
17.7750103
11
26.7304897
21
17.7750103
0
ARC
8
DEFAULT_255_2_778
10
29.7281087
20
17.7780908
40
1.4546078
50
150.8829018
51
180.1219096
0
ARC
8
DEFAULT_255_2_778
10
29.7267108
20
17.7783946
40
1.4532388
50
98.0924387
51
150.8665486
0
ARC
8
DEFAULT_255_2_778
10
29.7298076
20
17.7509125
40
1.4808834
50
89.9807845
51
98.0613801
0
ARC
8
DEFAULT_255_2_778
10
29.7333992
20
17.7771913
40
1.4546078
50
60.8829018
51
90.1219096
0
ARC
8
DEFAULT_255_2_778
10
29.7337031
20
17.7785892
40
1.4532388
50
8.0924387
51
60.8665486
0
ARC
8
DEFAULT_255_2_778
10
29.7062209
20
17.7754924
40
1.4808834
50
359.9807845
51
8.0613801
0
ARC
8
DEFAULT_255_2_778
10
29.7324997
20
17.7719008
40
1.4546078
50
330.8829018
51
0.1219096
0
ARC
8
DEFAULT_255_2_778
10
29.7338976
20
17.7715969
40
1.4532388
50
278.0924387
51
330.8665486
0
ARC
8
DEFAULT_255_2_778
10
29.7308009
20
17.7990791
40
1.4808834
50
269.9807845
51
278.0613801
0
ARC
8
DEFAULT_255_2_778
10
29.7272092
20
17.7728003
40
1.4546078
50
240.8829018
51
270.1219096
0
ARC
8
DEFAULT_255_2_778
10
29.7269054
20
17.7714024
40
1.4532388
50
188.0924387
51
240.8665486
0
ARC
8
DEFAULT_255_2_778
10
29.7543875
20
17.7744991
40
1.4808834
50
179.9807845
51
188.0613801
0
LINE
8
DEFAULT_255_2_778
10
28.2735042
20
17.7749958
11
28.2735042
21
17.7749958
0
ARC
8
DEFAULT_255_2_778
10
30.2894361
20
16.8064856
40
0.1992848
50
95.7947379
51
144.0959672
0
ARC
8
DEFAULT_255_2_778
10
30.6479895
20
17.2448517
40
0.199558
50
275.9036717
51
330.0594631
0
ARC
8
DEFAULT_255_2_778
10
30.6469337
20
17.245416
40
0.2007547
50
330.0702809
51
359.999955
0
ARC
8
DEFAULT_255_2_778
10
30.647919
20
17.2454357
40
0.1997693
50
359.994315
51
0.5675467
0
ARC
8
DEFAULT_255_2_778
10
30.647809
20
17.245472
40
0.1998788
50
0.5568319
51
23.9943643
0
ARC
8
DEFAULT_255_2_778
10
30.850364
20
17.7749559
40
0.2006988
50
179.9868221
51
203.9288629
0
ARC
8
DEFAULT_255_2_778
10
30.8503635
20
17.7750483
40
0.2006982
50
156.0710967
51
180.0131915
0
ARC
8
DEFAULT_255_2_778
10
30.6495225
20
18.3043681
40
0.1982474
50
335.8475574
51
359.4859854
0
ARC
8
DEFAULT_255_2_778
10
30.6468656
20
18.30447
40
0.200905
50
359.4637352
51
359.9999944
0
ARC
8
DEFAULT_255_2_778
10
30.646716
20
18.3043648
40
0.2010547
50
0.0299655
51
29.9539046
0
ARC
8
DEFAULT_255_2_778
10
30.64799
20
18.3051532
40
0.1995572
50
29.9404283
51
84.0964543
0
ARC
8
DEFAULT_255_2_778
10
30.2894361
20
18.7435185
40
0.1992848
50
215.9040328
51
264.2052621
0
ARC
8
DEFAULT_255_2_778
10
29.7302667
20
18.8339483
40
0.2002037
50
36.0095214
51
89.9860791
0
ARC
8
DEFAULT_255_2_778
10
29.7302931
20
18.8340873
40
0.2000647
50
89.9936283
51
144.0107326
0
ARC
8
DEFAULT_255_2_778
10
29.1711945
20
18.7435185
40
0.1992848
50
275.7947379
51
324.0959672
0
ARC
8
DEFAULT_255_2_778
10
28.8126408
20
18.3051529
40
0.1995575
50
95.9035946
51
150.0595296
0
ARC
8
DEFAULT_255_2_778
10
28.813697
20
18.3045881
40
0.2007547
50
150.0702809
51
179.999955
0
ARC
8
DEFAULT_255_2_778
10
28.8127117
20
18.3045684
40
0.1997693
50
179.994315
51
180.5675467
0
ARC
8
DEFAULT_255_2_778
10
28.8128216
20
18.3045321
40
0.1998788
50
180.5568319
51
203.9943643
0
ARC
8
DEFAULT_255_2_778
10
28.6126904
20
17.7750137
40
0.1984999
50
359.9966347
51
24.2217257
0
ARC
8
DEFAULT_255_2_778
10
28.6126904
20
17.7749904
40
0.1984999
50
335.7782743
51
0.0033653
0
ARC
8
DEFAULT_255_2_778
10
28.8111081
20
17.245636
40
0.1982474
50
155.8475574
51
179.4859854
0
ARC
8
DEFAULT_255_2_778
10
28.813765
20
17.2455341
40
0.200905
50
179.4637352
51
179.9999944
0
ARC
8
DEFAULT_255_2_778
10
28.8139147
20
17.2456393
40
0.2010547
50
180.0299655
51
209.9539046
0
ARC
8
DEFAULT_255_2_778
10
28.8126411
20
17.2448517
40
0.199558
50
209.9405369
51
264.0963283
0
ARC
8
DEFAULT_255_2_778
10
29.1711945
20
16.8064856
40
0.1992848
50
35.9040328
51
84.2052621
0
ARC
8
DEFAULT_255_2_778
10
29.7302929
20
16.7159162
40
0.2000641
50
215.9891511
51
270.0064267
0
ARC
8
DEFAULT_255_2_778
10
29.7302667
20
16.7160557
40
0.2002037
50
270.0139209
51
323.9904786
0
LINE
8
DEFAULT_255_2_778
10
30.2693153
20
17.004752
11
30.6685153
21
17.046352
0
LINE
8
DEFAULT_255_2_778
10
30.8304153
20
17.326752
11
30.6669153
21
17.693552
0
LINE
8
DEFAULT_255_2_778
10
30.6669153
20
17.856452
11
30.8304153
21
18.223252
0
LINE
8
DEFAULT_255_2_778
10
30.6685153
20
18.503652
11
30.2693153
21
18.545252
0
LINE
8
DEFAULT_255_2_778
10
30.1280153
20
18.626652
11
29.8922153
21
18.951652
0
LINE
8
DEFAULT_255_2_778
10
29.5684153
20
18.951652
11
29.3326153
21
18.626652
0
LINE
8
DEFAULT_255_2_778
10
29.1913153
20
18.545252
11
28.7921153
21
18.503652
0
LINE
8
DEFAULT_255_2_778
10
28.6302153
20
18.223252
11
28.7937153
21
17.856452
0
LINE
8
DEFAULT_255_2_778
10
28.7937153
20
17.693552
11
28.6302153
21
17.326752
0
LINE
8
DEFAULT_255_2_778
10
28.7921153
20
17.046352
11
29.1913153
21
17.004752
0
LINE
8
DEFAULT_255_2_778
10
29.3326153
20
16.923352
11
29.5684153
21
16.598352
0
LINE
8
DEFAULT_255_2_778
10
29.8922153
20
16.598352
11
30.1280153
21
16.923352
0
ARC
8
DEFAULT_255_2_778
10
16.2297939
20
113.9758061
40
0.2493261
50
89.8449176
51
180.1550824
0
ARC
8
DEFAULT_255_2_778
10
16.231222
20
113.9757848
40
0.2493475
50
359.8498126
51
90.173085
0
ARC
8
DEFAULT_255_2_778
10
16.2310096
20
113.9745903
40
0.2495597
50
269.8758177
51
0.1241938
0
ARC
8
DEFAULT_255_2_778
10
16.2300062
20
113.974569
40
0.2495382
50
179.8709018
51
270.1062074
0
LINE
8
DEFAULT_255_2_778
10
15.9804688
20
113.9751312
11
15.9804688
21
113.9751312
0
ARC
8
DEFAULT_255_2_778
10
14.4300996
20
114.4750511
40
0.9996288
50
246.1006739
51
268.6553485
0
ARC
8
DEFAULT_255_2_778
10
14.4301861
20
114.4761603
40
1.0007397
50
268.6518866
51
270.0003472
0
ARC
8
DEFAULT_255_2_778
10
14.4303439
20
114.4755848
40
1.0001642
50
269.991304
51
303.0373506
0
ARC
8
DEFAULT_255_2_778
10
14.4299931
20
114.4755496
40
1.0003261
50
303.055296
51
359.9817934
0
ARC
8
DEFAULT_255_2_778
10
18.0305401
20
114.4753673
40
1.000321
50
180.007761
51
232.5025869
0
LINE
8
DEFAULT_255_2_778
10
15.9804191
20
113.9005318
11
16.4804191
21
113.9005318
0
LINE
8
DEFAULT_255_2_778
10
15.4303191
20
114.4752318
11
17.0302191
21
114.4752318
0
LINE
8
DEFAULT_255_2_778
10
31.0944191
20
2.7800318
11
31.6620191
21
2.7800318
0
LINE
8
DEFAULT_255_2_778
10
31.6620191
20
2.7800318
11
31.6620191
21
2.6300318
0
LINE
8
DEFAULT_255_2_778
10
31.6620191
20
2.6300318
11
31.0944191
21
2.6300318
0
LINE
8
DEFAULT_255_2_778
10
31.0944191
20
2.6300318
11
31.0944191
21
2.7800318
0
LINE
8
DEFAULT_255_2_778
10
39.0147191
20
2.7800318
11
39.5823191
21
2.7800318
0
LINE
8
DEFAULT_255_2_778
10
39.5823191
20
2.7800318
11
39.5823191
21
2.6300318
0
LINE
8
DEFAULT_255_2_778
10
39.5823191
20
2.6300318
11
39.0147191
21
2.6300318
0
LINE
8
DEFAULT_255_2_778
10
39.0147191
20
2.6300318
11
39.0147191
21
2.7800318
0
LINE
8
DEFAULT_255_2_778
10
30.5010191
20
3.0615318
11
30.2118191
21
3.0967318
0
LINE
8
DEFAULT_255_2_778
10
30.2118191
20
3.0967318
11
30.0014191
21
3.0592318
0
LINE
8
DEFAULT_255_2_778
10
30.0014191
20
3.0592318
11
30.0218191
21
3.5558318
0
LINE
8
DEFAULT_255_2_778
10
30.0218191
20
3.5558318
11
30.7465191
21
3.5558318
0
LINE
8
DEFAULT_255_2_778
10
30.7465191
20
3.5558318
11
30.7465191
21
3.7177318
0
LINE
8
DEFAULT_255_2_778
10
30.7465191
20
3.7177318
11
29.8287191
21
3.7177318
0
LINE
8
DEFAULT_255_2_778
10
29.8287191
20
3.7177318
11
29.8035191
21
2.8504318
0
LINE
8
DEFAULT_255_2_778
10
29.8035191
20
2.8504318
11
30.0787191
21
2.9277318
0
LINE
8
DEFAULT_255_2_778
10
30.0787191
20
2.9277318
11
30.3049191
21
2.9377318
0
LINE
8
DEFAULT_255_2_778
10
30.3049191
20
2.9377318
11
30.4502191
21
2.8925318
0
LINE
8
DEFAULT_255_2_778
10
30.4502191
20
2.8925318
11
30.5367191
21
2.8218318
0
LINE
8
DEFAULT_255_2_778
10
30.5367191
20
2.8218318
11
30.5795191
21
2.7599318
0
LINE
8
DEFAULT_255_2_778
10
30.5795191
20
2.7599318
11
30.6039191
21
2.7004318
0
LINE
8
DEFAULT_255_2_778
10
30.6039191
20
2.7004318
11
30.6137191
21
2.6594318
0
LINE
8
DEFAULT_255_2_778
10
30.6137191
20
2.6594318
11
30.6182191
21
2.6271318
0
LINE
8
DEFAULT_255_2_778
10
30.6182191
20
2.6271318
11
30.6169191
21
2.5125318
0
LINE
8
DEFAULT_255_2_778
10
30.6169191
20
2.5125318
11
30.6118191
21
2.4803318
0
LINE
8
DEFAULT_255_2_778
10
30.6118191
20
2.4803318
11
30.6005191
21
2.4347318
0
LINE
8
DEFAULT_255_2_778
10
30.6005191
20
2.4347318
11
30.5785191
21
2.3776318
0
LINE
8
DEFAULT_255_2_778
10
30.5785191
20
2.3776318
11
30.5280191
21
2.2972318
0
LINE
8
DEFAULT_255_2_778
10
30.5280191
20
2.2972318
11
30.4470191
21
2.2220318
0
LINE
8
DEFAULT_255_2_778
10
30.4470191
20
2.2220318
11
30.2642191
21
2.1548318
0
LINE
8
DEFAULT_255_2_778
10
30.2642191
20
2.1548318
11
29.9924191
21
2.1868318
0
LINE
8
DEFAULT_255_2_778
10
29.9924191
20
2.1868318
11
29.8289191
21
2.2614318
0
LINE
8
DEFAULT_255_2_778
10
29.8289191
20
2.2614318
11
29.7570191
21
2.1019318
0
LINE
8
DEFAULT_255_2_778
10
29.7570191
20
2.1019318
11
29.9538191
21
2.0276318
0
LINE
8
DEFAULT_255_2_778
10
29.9538191
20
2.0276318
11
30.1522191
21
1.9955318
0
LINE
8
DEFAULT_255_2_778
10
30.1522191
20
1.9955318
11
30.3388191
21
2.0053318
0
LINE
8
DEFAULT_255_2_778
10
30.3388191
20
2.0053318
11
30.4819191
21
2.0469318
0
LINE
8
DEFAULT_255_2_778
10
30.4819191
20
2.0469318
11
30.6060191
21
2.1194318
0
LINE
8
DEFAULT_255_2_778
10
30.6060191
20
2.1194318
11
30.6997191
21
2.2098318
0
LINE
8
DEFAULT_255_2_778
10
30.6997191
20
2.2098318
11
30.7505191
21
2.2847318
0
LINE
8
DEFAULT_255_2_778
10
30.7505191
20
2.2847318
11
30.7809191
21
2.3493318
0
LINE
8
DEFAULT_255_2_778
10
30.7809191
20
2.3493318
11
30.7978191
21
2.3998318
0
LINE
8
DEFAULT_255_2_778
10
30.7978191
20
2.3998318
11
30.8076191
21
2.4414318
0
LINE
8
DEFAULT_255_2_778
10
30.8076191
20
2.4414318
11
30.8145191
21
2.4834318
0
LINE
8
DEFAULT_255_2_778
10
30.8145191
20
2.4834318
11
30.8145191
21
2.6575318
0
LINE
8
DEFAULT_255_2_778
10
30.8145191
20
2.6575318
11
30.8074191
21
2.7014318
0
LINE
8
DEFAULT_255_2_778
10
30.8074191
20
2.7014318
11
30.7928191
21
2.7573318
0
LINE
8
DEFAULT_255_2_778
10
30.7928191
20
2.7573318
11
30.7666191
21
2.8232318
0
LINE
8
DEFAULT_255_2_778
10
30.7666191
20
2.8232318
11
30.7211191
21
2.8983318
0
LINE
8
DEFAULT_255_2_778
10
30.7211191
20
2.8983318
11
30.6486191
21
2.9758318
0
LINE
8
DEFAULT_255_2_778
10
30.6486191
20
2.9758318
11
30.5012191
21
3.0615318
0
LINE
8
DEFAULT_255_2_778
10
35.0497854
20
3.7179739
11
35.9519854
21
3.7179739
0
LINE
8
DEFAULT_255_2_778
10
35.9519854
20
3.7179739
11
35.9519854
21
3.5560739
0
LINE
8
DEFAULT_255_2_778
10
35.9519854
20
3.5560739
11
35.2465854
21
3.5560739
0
LINE
8
DEFAULT_255_2_778
10
35.2465854
20
3.5560739
11
35.2465854
21
2.9609739
0
LINE
8
DEFAULT_255_2_778
10
35.2465854
20
2.9609739
11
35.9173854
21
2.9609739
0
LINE
8
DEFAULT_255_2_778
10
35.9173854
20
2.9609739
11
35.9173854
21
2.7990739
0
LINE
8
DEFAULT_255_2_778
10
35.9173854
20
2.7990739
11
35.2465854
21
2.7990739
0
LINE
8
DEFAULT_255_2_778
10
35.2465854
20
2.7990739
11
35.2465854
21
2.0180739
0
LINE
8
DEFAULT_255_2_778
10
35.2465854
20
2.0180739
11
35.0497854
21
2.0180739
0
LINE
8
DEFAULT_255_2_778
10
35.0497854
20
2.0180739
11
35.0497854
21
3.7179739
0
LINE
8
DEFAULT_255_2_778
10
34.5383136
20
3.472976
11
34.5545136
21
3.464776
0
LINE
8
DEFAULT_255_2_778
10
34.5545136
20
3.464776
11
34.6121136
21
3.621976
0
LINE
8
DEFAULT_255_2_778
10
34.6121136
20
3.621976
11
34.4089136
21
3.698376
0
LINE
8
DEFAULT_255_2_778
10
34.4089136
20
3.698376
11
34.2116136
21
3.736776
0
LINE
8
DEFAULT_255_2_778
10
34.2116136
20
3.736776
11
34.0057136
21
3.735676
0
LINE
8
DEFAULT_255_2_778
10
34.0057136
20
3.735676
11
33.8499136
21
3.702076
0
LINE
8
DEFAULT_255_2_778
10
33.8499136
20
3.702076
11
33.7107136
21
3.640176
0
LINE
8
DEFAULT_255_2_778
10
33.7107136
20
3.640176
11
33.6065136
21
3.566076
0
LINE
8
DEFAULT_255_2_778
10
33.6065136
20
3.566076
11
33.5308136
21
3.492576
0
LINE
8
DEFAULT_255_2_778
10
33.5308136
20
3.492576
11
33.4604136
21
3.402076
0
LINE
8
DEFAULT_255_2_778
10
33.4604136
20
3.402076
11
33.4165136
21
3.328276
0
LINE
8
DEFAULT_255_2_778
10
33.4165136
20
3.328276
11
33.3794136
21
3.247276
0
LINE
8
DEFAULT_255_2_778
10
33.3794136
20
3.247276
11
33.3593136
21
3.191476
0
LINE
8
DEFAULT_255_2_778
10
33.3593136
20
3.191476
11
33.3429136
21
3.134276
0
LINE
8
DEFAULT_255_2_778
10
33.3429136
20
3.134276
11
33.3294136
21
3.073476
0
LINE
8
DEFAULT_255_2_778
10
33.3294136
20
3.073476
11
33.3239136
21
3.041176
0
LINE
8
DEFAULT_255_2_778
10
33.3239136
20
3.041176
11
33.3191136
21
3.008676
0
LINE
8
DEFAULT_255_2_778
10
33.3191136
20
3.008676
11
33.3154136
21
2.976076
0
LINE
8
DEFAULT_255_2_778
10
33.3154136
20
2.976076
11
33.3157136
21
2.719676
0
LINE
8
DEFAULT_255_2_778
10
33.3157136
20
2.719676
11
33.3194136
21
2.688476
0
LINE
8
DEFAULT_255_2_778
10
33.3194136
20
2.688476
11
33.3239136
21
2.657576
0
LINE
8
DEFAULT_255_2_778
10
33.3239136
20
2.657576
11
33.3294136
21
2.626576
0
LINE
8
DEFAULT_255_2_778
10
33.3294136
20
2.626576
11
33.3429136
21
2.568376
0
LINE
8
DEFAULT_255_2_778
10
33.3429136
20
2.568376
11
33.3593136
21
2.513876
0
LINE
8
DEFAULT_255_2_778
10
33.3593136
20
2.513876
11
33.3792136
21
2.460476
0
LINE
8
DEFAULT_255_2_778
10
33.3792136
20
2.460476
11
33.4160136
21
2.383476
0
LINE
8
DEFAULT_255_2_778
10
33.4160136
20
2.383476
11
33.4599136
21
2.312776
0
LINE
8
DEFAULT_255_2_778
10
33.4599136
20
2.312776
11
33.5300136
21
2.226776
0
LINE
8
DEFAULT_255_2_778
10
33.5300136
20
2.226776
11
33.6242136
21
2.142176
0
LINE
8
DEFAULT_255_2_778
10
33.6242136
20
2.142176
11
33.7070136
21
2.088176
0
LINE
8
DEFAULT_255_2_778
10
33.7070136
20
2.088176
11
33.8930136
21
2.016976
0
LINE
8
DEFAULT_255_2_778
10
33.8930136
20
2.016976
11
34.1698136
21
1.994976
0
LINE
8
DEFAULT_255_2_778
10
34.1698136
20
1.994976
11
34.4899136
21
2.047376
0
LINE
8
DEFAULT_255_2_778
10
34.4899136
20
2.047376
11
34.6246136
21
2.090576
0
LINE
8
DEFAULT_255_2_778
10
34.6246136
20
2.090576
11
34.6246136
21
2.894376
0
LINE
8
DEFAULT_255_2_778
10
34.6246136
20
2.894376
11
34.0930136
21
2.894376
0
LINE
8
DEFAULT_255_2_778
10
34.0930136
20
2.894376
11
34.0930136
21
2.732376
0
LINE
8
DEFAULT_255_2_778
10
34.0930136
20
2.732376
11
34.4277136
21
2.732376
0
LINE
8
DEFAULT_255_2_778
10
34.4277136
20
2.732376
11
34.4277136
21
2.209376
0
LINE
8
DEFAULT_255_2_778
10
34.4277136
20
2.209376
11
34.2256136
21
2.161476
0
LINE
8
DEFAULT_255_2_778
10
34.2256136
20
2.161476
11
34.0369136
21
2.160676
0
LINE
8
DEFAULT_255_2_778
10
34.0369136
20
2.160676
11
33.8914136
21
2.196376
0
LINE
8
DEFAULT_255_2_778
10
33.8914136
20
2.196376
11
33.7829136
21
2.254076
0
LINE
8
DEFAULT_255_2_778
10
33.7829136
20
2.254076
11
33.6911136
21
2.334776
0
LINE
8
DEFAULT_255_2_778
10
33.6911136
20
2.334776
11
33.6287136
21
2.416276
0
LINE
8
DEFAULT_255_2_778
10
33.6287136
20
2.416276
11
33.5885136
21
2.490076
0
LINE
8
DEFAULT_255_2_778
10
33.5885136
20
2.490076
11
33.5644136
21
2.549876
0
LINE
8
DEFAULT_255_2_778
10
33.5644136
20
2.549876
11
33.5456136
21
2.611476
0
LINE
8
DEFAULT_255_2_778
10
33.5456136
20
2.611476
11
33.5350136
21
2.658876
0
LINE
8
DEFAULT_255_2_778
10
33.5350136
20
2.658876
11
33.5303136
21
2.685576
0
LINE
8
DEFAULT_255_2_778
10
33.5303136
20
2.685576
11
33.5263136
21
2.712276
0
LINE
8
DEFAULT_255_2_778
10
33.5263136
20
2.712276
11
33.5231136
21
2.739276
0
LINE
8
DEFAULT_255_2_778
10
33.5231136
20
2.739276
11
33.5231136
21
2.958376
0
LINE
8
DEFAULT_255_2_778
10
33.5231136
20
2.958376
11
33.5260136
21
2.985876
0
LINE
8
DEFAULT_255_2_778
10
33.5260136
20
2.985876
11
33.5342136
21
3.040676
0
LINE
8
DEFAULT_255_2_778
10
33.5342136
20
3.040676
11
33.5448136
21
3.090676
0
LINE
8
DEFAULT_255_2_778
10
33.5448136
20
3.090676
11
33.5580136
21
3.139876
0
LINE
8
DEFAULT_255_2_778
10
33.5580136
20
3.139876
11
33.5834136
21
3.212076
0
LINE
8
DEFAULT_255_2_778
10
33.5834136
20
3.212076
11
33.6141136
21
3.278776
0
LINE
8
DEFAULT_255_2_778
10
33.6141136
20
3.278776
11
33.6766136
21
3.377176
0
LINE
8
DEFAULT_255_2_778
10
33.6766136
20
3.377176
11
33.7538136
21
3.459476
0
LINE
8
DEFAULT_255_2_778
10
33.7538136
20
3.459476
11
33.8478136
21
3.522176
0
LINE
8
DEFAULT_255_2_778
10
33.8478136
20
3.522176
11
34.0668136
21
3.578276
0
LINE
8
DEFAULT_255_2_778
10
34.0668136
20
3.578276
11
34.3563136
21
3.543676
0
LINE
8
DEFAULT_255_2_778
10
34.3563136
20
3.543676
11
34.5383136
21
3.472476
0
LINE
8
DEFAULT_255_2_778
10
27.4581136
20
3.717976
11
27.6285136
21
3.717976
0
LINE
8
DEFAULT_255_2_778
10
27.6285136
20
3.717976
11
27.6285136
21
2.018076
0
LINE
8
DEFAULT_255_2_778
10
27.6285136
20
2.018076
11
27.4390136
21
2.018076
0
LINE
8
DEFAULT_255_2_778
10
27.4390136
20
2.018076
11
27.4390136
21
3.504476
0
LINE
8
DEFAULT_255_2_778
10
27.4390136
20
3.504476
11
27.0924136
21
3.283776
0
LINE
8
DEFAULT_255_2_778
10
27.0924136
20
3.283776
11
27.0096136
21
3.433876
0
LINE
8
DEFAULT_255_2_778
10
27.0096136
20
3.433876
11
27.4583136
21
3.718276
0
LINE
8
DEFAULT_255_2_778
10
28.4285552
20
2.6694739
11
29.0150552
21
2.6694739
0
LINE
8
DEFAULT_255_2_778
10
29.0150552
20
2.6694739
11
29.0150552
21
3.4996739
0
LINE
8
DEFAULT_255_2_778
10
29.0150552
20
3.4996739
11
28.4285552
21
2.6694739
0
LINE
8
DEFAULT_255_2_778
10
28.9804552
20
3.7179739
11
29.2024552
21
3.7179739
0
LINE
8
DEFAULT_255_2_778
10
29.2024552
20
3.7179739
11
29.2024552
21
2.6694739
0
LINE
8
DEFAULT_255_2_778
10
29.2024552
20
2.6694739
11
29.4651552
21
2.6694739
0
LINE
8
DEFAULT_255_2_778
10
29.4651552
20
2.6694739
11
29.4651552
21
2.5074739
0
LINE
8
DEFAULT_255_2_778
10
29.4651552
20
2.5074739
11
29.2024552
21
2.5074739
0
LINE
8
DEFAULT_255_2_778
10
29.2024552
20
2.5074739
11
29.2024552
21
2.0180739
0
LINE
8
DEFAULT_255_2_778
10
29.2024552
20
2.0180739
11
29.0153552
21
2.0180739
0
LINE
8
DEFAULT_255_2_778
10
29.0153552
20
2.0180739
11
29.0153552
21
2.5074739
0
LINE
8
DEFAULT_255_2_778
10
29.0153552
20
2.5074739
11
28.2488552
21
2.5074739
0
LINE
8
DEFAULT_255_2_778
10
28.2488552
20
2.5074739
11
28.2488552
21
2.6934739
0
LINE
8
DEFAULT_255_2_778
10
28.2488552
20
2.6934739
11
28.9804552
21
3.7179739
0
LINE
8
DEFAULT_255_2_778
10
32.0240552
20
2.6694739
11
32.6105552
21
2.6694739
0
LINE
8
DEFAULT_255_2_778
10
32.6105552
20
2.6694739
11
32.6105552
21
3.4996739
0
LINE
8
DEFAULT_255_2_778
10
32.6105552
20
3.4996739
11
32.0240552
21
2.6694739
0
LINE
8
DEFAULT_255_2_778
10
32.5759552
20
3.7179739
11
32.7979552
21
3.7179739
0
LINE
8
DEFAULT_255_2_778
10
32.7979552
20
3.7179739
11
32.7979552
21
2.6694739
0
LINE
8
DEFAULT_255_2_778
10
32.7979552
20
2.6694739
11
33.0606552
21
2.6694739
0
LINE
8
DEFAULT_255_2_778
10
33.0606552
20
2.6694739
11
33.0606552
21
2.5074739
0
LINE
8
DEFAULT_255_2_778
10
33.0606552
20
2.5074739
11
32.7979552
21
2.5074739
0
LINE
8
DEFAULT_255_2_778
10
32.7979552
20
2.5074739
11
32.7979552
21
2.0180739
0
LINE
8
DEFAULT_255_2_778
10
32.7979552
20
2.0180739
11
32.6108552
21
2.0180739
0
LINE
8
DEFAULT_255_2_778
10
32.6108552
20
2.0180739
11
32.6108552
21
2.5074739
0
LINE
8
DEFAULT_255_2_778
10
32.6108552
20
2.5074739
11
31.8443552
21
2.5074739
0
LINE
8
DEFAULT_255_2_778
10
31.8443552
20
2.5074739
11
31.8443552
21
2.6934739
0
LINE
8
DEFAULT_255_2_778
10
31.8443552
20
2.6934739
11
32.5759552
21
3.7179739
0
LINE
8
DEFAULT_255_2_778
10
37.1053139
20
3.6563083
11
36.9992139
21
3.7087083
0
LINE
8
DEFAULT_255_2_778
10
36.9992139
20
3.7087083
11
36.8214139
21
3.7415083
0
LINE
8
DEFAULT_255_2_778
10
36.8214139
20
3.7415083
11
36.6635139
21
3.7299083
0
LINE
8
DEFAULT_255_2_778
10
36.6635139
20
3.7299083
11
36.5399139
21
3.6883083
0
LINE
8
DEFAULT_255_2_778
10
36.5399139
20
3.6883083
11
36.4521139
21
3.6338083
0
LINE
8
DEFAULT_255_2_778
10
36.4521139
20
3.6338083
11
36.3822139
21
3.5653083
0
LINE
8
DEFAULT_255_2_778
10
36.3822139
20
3.5653083
11
36.3272139
21
3.4856083
0
LINE
8
DEFAULT_255_2_778
10
36.3272139
20
3.4856083
11
36.2967139
21
3.4245083
0
LINE
8
DEFAULT_255_2_778
10
36.2967139
20
3.4245083
11
36.2708139
21
3.3560083
0
LINE
8
DEFAULT_255_2_778
10
36.2708139
20
3.3560083
11
36.2568139
21
3.3092083
0
LINE
8
DEFAULT_255_2_778
10
36.2568139
20
3.3092083
11
36.2409139
21
3.2433083
0
LINE
8
DEFAULT_255_2_778
10
36.2409139
20
3.2433083
11
36.2287139
21
3.1766083
0
LINE
8
DEFAULT_255_2_778
10
36.2287139
20
3.1766083
11
36.2261139
21
2.5771083
0
LINE
8
DEFAULT_255_2_778
10
36.2261139
20
2.5771083
11
36.2319139
21
2.5400083
0
LINE
8
DEFAULT_255_2_778
10
36.2319139
20
2.5400083
11
36.2388139
21
2.5033083
0
LINE
8
DEFAULT_255_2_778
10
36.2388139
20
2.5033083
11
36.2531139
21
2.4411083
0
LINE
8
DEFAULT_255_2_778
10
36.2531139
20
2.4411083
11
36.2676139
21
2.3903083
0
LINE
8
DEFAULT_255_2_778
10
36.2676139
20
2.3903083
11
36.2954139
21
2.3157083
0
LINE
8
DEFAULT_255_2_778
10
36.2954139
20
2.3157083
11
36.3346139
21
2.2389083
0
LINE
8
DEFAULT_255_2_778
10
36.3346139
20
2.2389083
11
36.3841139
21
2.1688083
0
LINE
8
DEFAULT_255_2_778
10
36.3841139
20
2.1688083
11
36.4579139
21
2.0979083
0
LINE
8
DEFAULT_255_2_778
10
36.4579139
20
2.0979083
11
36.5605139
21
2.0376083
0
LINE
8
DEFAULT_255_2_778
10
36.5605139
20
2.0376083
11
36.7058139
21
1.9995083
0
LINE
8
DEFAULT_255_2_778
10
36.7058139
20
1.9995083
11
36.8831139
21
1.9997083
0
LINE
8
DEFAULT_255_2_778
10
36.8831139
20
1.9997083
11
37.0111139
21
2.0318083
0
LINE
8
DEFAULT_255_2_778
10
37.0111139
20
2.0318083
11
37.1183139
21
2.0905083
0
LINE
8
DEFAULT_255_2_778
10
37.1183139
20
2.0905083
11
37.1942139
21
2.1604083
0
LINE
8
DEFAULT_255_2_778
10
37.1942139
20
2.1604083
11
37.2440139
21
2.2276083
0
LINE
8
DEFAULT_255_2_778
10
37.2440139
20
2.2276083
11
37.2784139
21
2.2900083
0
LINE
8
DEFAULT_255_2_778
10
37.2784139
20
2.2900083
11
37.3067139
21
2.3580083
0
LINE
8
DEFAULT_255_2_778
10
37.3067139
20
2.3580083
11
37.3286139
21
2.4281083
0
LINE
8
DEFAULT_255_2_778
10
37.3286139
20
2.4281083
11
37.3445139
21
2.4943083
0
LINE
8
DEFAULT_255_2_778
10
37.3445139
20
2.4943083
11
37.3567139
21
2.5612083
0
LINE
8
DEFAULT_255_2_778
10
37.3567139
20
2.5612083
11
37.3614139
21
2.5948083
0
LINE
8
DEFAULT_255_2_778
10
37.3614139
20
2.5948083
11
37.3654139
21
2.6284083
0
LINE
8
DEFAULT_255_2_778
10
37.3654139
20
2.6284083
11
37.3699139
21
2.6763083
0
LINE
8
DEFAULT_255_2_778
10
37.3699139
20
2.6763083
11
37.3680139
21
3.0972083
0
LINE
8
DEFAULT_255_2_778
10
37.3680139
20
3.0972083
11
37.3643139
21
3.1298083
0
LINE
8
DEFAULT_255_2_778
10
37.3643139
20
3.1298083
11
37.3598139
21
3.1621083
0
LINE
8
DEFAULT_255_2_778
10
37.3598139
20
3.1621083
11
37.3485139
21
3.2266083
0
LINE
8
DEFAULT_255_2_778
10
37.3485139
20
3.2266083
11
37.3331139
21
3.2907083
0
LINE
8
DEFAULT_255_2_778
10
37.3331139
20
3.2907083
11
37.3067139
21
3.3740083
0
LINE
8
DEFAULT_255_2_778
10
37.3067139
20
3.3740083
11
37.2736139
21
3.4518083
0
LINE
8
DEFAULT_255_2_778
10
37.2736139
20
3.4518083
11
37.2323139
21
3.5248083
0
LINE
8
DEFAULT_255_2_778
10
37.2323139
20
3.5248083
11
37.1820139
21
3.5904083
0
LINE
8
DEFAULT_255_2_778
10
37.1820139
20
3.5904083
11
37.1053139
21
3.6563083
0
LINE
8
DEFAULT_255_2_778
10
36.9638139
20
3.5354083
11
37.0384139
21
3.4737083
0
LINE
8
DEFAULT_255_2_778
10
37.0384139
20
3.4737083
11
37.0886139
21
3.4012083
0
LINE
8
DEFAULT_255_2_778
10
37.0886139
20
3.4012083
11
37.1188139
21
3.3343083
0
LINE
8
DEFAULT_255_2_778
10
37.1188139
20
3.3343083
11
37.1365139
21
3.2782083
0
LINE
8
DEFAULT_255_2_778
10
37.1365139
20
3.2782083
11
37.1479139
21
3.2309083
0
LINE
8
DEFAULT_255_2_778
10
37.1479139
20
3.2309083
11
37.1585139
21
3.1734083
0
LINE
8
DEFAULT_255_2_778
10
37.1585139
20
3.1734083
11
37.1662139
21
3.1155083
0
LINE
8
DEFAULT_255_2_778
10
37.1662139
20
3.1155083
11
37.1656139
21
2.6154083
0
LINE
8
DEFAULT_255_2_778
10
37.1656139
20
2.6154083
11
37.1583139
21
2.5612083
0
LINE
8
DEFAULT_255_2_778
10
37.1583139
20
2.5612083
11
37.1484139
21
2.5075083
0
LINE
8
DEFAULT_255_2_778
10
37.1484139
20
2.5075083
11
37.1326139
21
2.4445083
0
LINE
8
DEFAULT_255_2_778
10
37.1326139
20
2.4445083
11
37.1045139
21
2.3678083
0
LINE
8
DEFAULT_255_2_778
10
37.1045139
20
2.3678083
11
37.0643139
21
2.2958083
0
LINE
8
DEFAULT_255_2_778
10
37.0643139
20
2.2958083
11
36.9950139
21
2.2215083
0
LINE
8
DEFAULT_255_2_778
10
36.9950139
20
2.2215083
11
36.9135139
21
2.1760083
0
LINE
8
DEFAULT_255_2_778
10
36.9135139
20
2.1760083
11
36.7645139
21
2.1572083
0
LINE
8
DEFAULT_255_2_778
10
36.7645139
20
2.1572083
11
36.6431139
21
2.1881083
0
LINE
8
DEFAULT_255_2_778
10
36.6431139
20
2.1881083
11
36.5664139
21
2.2416083
0
LINE
8
DEFAULT_255_2_778
10
36.5664139
20
2.2416083
11
36.5113139
21
2.3096083
0
LINE
8
DEFAULT_255_2_778
10
36.5113139
20
2.3096083
11
36.4812139
21
2.3657083
0
LINE
8
DEFAULT_255_2_778
10
36.4812139
20
2.3657083
11
36.4598139
21
2.4210083
0
LINE
8
DEFAULT_255_2_778
10
36.4598139
20
2.4210083
11
36.4433139
21
2.4781083
0
LINE
8
DEFAULT_255_2_778
10
36.4433139
20
2.4781083
11
36.4312139
21
2.5353083
0
LINE
8
DEFAULT_255_2_778
10
36.4312139
20
2.5353083
11
36.4222139
21
2.5929083
0
LINE
8
DEFAULT_255_2_778
10
36.4222139
20
2.5929083
11
36.4158139
21
2.6512083
0
LINE
8
DEFAULT_255_2_778
10
36.4158139
20
2.6512083
11
36.4164139
21
3.0835083
0
LINE
8
DEFAULT_255_2_778
10
36.4164139
20
3.0835083
11
36.4203139
21
3.1192083
0
LINE
8
DEFAULT_255_2_778
10
36.4203139
20
3.1192083
11
36.4282139
21
3.1766083
0
LINE
8
DEFAULT_255_2_778
10
36.4282139
20
3.1766083
11
36.4404139
21
3.2409083
0
LINE
8
DEFAULT_255_2_778
10
36.4404139
20
3.2409083
11
36.4573139
21
3.3041083
0
LINE
8
DEFAULT_255_2_778
10
36.4573139
20
3.3041083
11
36.4864139
21
3.3793083
0
LINE
8
DEFAULT_255_2_778
10
36.4864139
20
3.3793083
11
36.5322139
21
3.4563083
0
LINE
8
DEFAULT_255_2_778
10
36.5322139
20
3.4563083
11
36.6031139
21
3.5243083
0
LINE
8
DEFAULT_255_2_778
10
36.6031139
20
3.5243083
11
36.6939139
21
3.5674083
0
LINE
8
DEFAULT_255_2_778
10
36.6939139
20
3.5674083
11
36.8450139
21
3.5764083
0
LINE
8
DEFAULT_255_2_778
10
36.8450139
20
3.5764083
11
36.9638139
21
3.5354083
0
LINE
8
DEFAULT_255_2_778
10
38.5531139
20
3.6325083
11
38.4523139
21
3.6941083
0
LINE
8
DEFAULT_255_2_778
10
38.4523139
20
3.6941083
11
38.2978139
21
3.7362083
0
LINE
8
DEFAULT_255_2_778
10
38.2978139
20
3.7362083
11
38.1247139
21
3.7373083
0
LINE
8
DEFAULT_255_2_778
10
38.1247139
20
3.7373083
11
37.9938139
21
3.7047083
0
LINE
8
DEFAULT_255_2_778
10
37.9938139
20
3.7047083
11
37.8845139
21
3.6463083
0
LINE
8
DEFAULT_255_2_778
10
37.8845139
20
3.6463083
11
37.8107139
21
3.5801083
0
LINE
8
DEFAULT_255_2_778
10
37.8107139
20
3.5801083
11
37.7530139
21
3.5023083
0
LINE
8
DEFAULT_255_2_778
10
37.7530139
20
3.5023083
11
37.7125139
21
3.4245083
0
LINE
8
DEFAULT_255_2_778
10
37.7125139
20
3.4245083
11
37.6866139
21
3.3560083
0
LINE
8
DEFAULT_255_2_778
10
37.6866139
20
3.3560083
11
37.6726139
21
3.3092083
0
LINE
8
DEFAULT_255_2_778
10
37.6726139
20
3.3092083
11
37.6567139
21
3.2433083
0
LINE
8
DEFAULT_255_2_778
10
37.6567139
20
3.2433083
11
37.6445139
21
3.1766083
0
LINE
8
DEFAULT_255_2_778
10
37.6445139
20
3.1766083
11
37.6419139
21
2.5771083
0
LINE
8
DEFAULT_255_2_778
10
37.6419139
20
2.5771083
11
37.6477139
21
2.5400083
0
LINE
8
DEFAULT_255_2_778
10
37.6477139
20
2.5400083
11
37.6546139
21
2.5033083
0
LINE
8
DEFAULT_255_2_778
10
37.6546139
20
2.5033083
11
37.6689139
21
2.4411083
0
LINE
8
DEFAULT_255_2_778
10
37.6689139
20
2.4411083
11
37.6835139
21
2.3903083
0
LINE
8
DEFAULT_255_2_778
10
37.6835139
20
2.3903083
11
37.7112139
21
2.3157083
0
LINE
8
DEFAULT_255_2_778
10
37.7112139
20
2.3157083
11
37.7504139
21
2.2389083
0
LINE
8
DEFAULT_255_2_778
10
37.7504139
20
2.2389083
11
37.7999139
21
2.1688083
0
LINE
8
DEFAULT_255_2_778
10
37.7999139
20
2.1688083
11
37.8737139
21
2.0979083
0
LINE
8
DEFAULT_255_2_778
10
37.8737139
20
2.0979083
11
37.9763139
21
2.0376083
0
LINE
8
DEFAULT_255_2_778
10
37.9763139
20
2.0376083
11
38.1216139
21
1.9995083
0
LINE
8
DEFAULT_255_2_778
10
38.1216139
20
1.9995083
11
38.2988139
21
1.9997083
0
LINE
8
DEFAULT_255_2_778
10
38.2988139
20
1.9997083
11
38.4269139
21
2.0318083
0
LINE
8
DEFAULT_255_2_778
10
38.4269139
20
2.0318083
11
38.5341139
21
2.0905083
0
LINE
8
DEFAULT_255_2_778
10
38.5341139
20
2.0905083
11
38.6100139
21
2.1604083
0
LINE
8
DEFAULT_255_2_778
10
38.6100139
20
2.1604083
11
38.6598139
21
2.2276083
0
LINE
8
DEFAULT_255_2_778
10
38.6598139
20
2.2276083
11
38.6941139
21
2.2900083
0
LINE
8
DEFAULT_255_2_778
10
38.6941139
20
2.2900083
11
38.7225139
21
2.3580083
0
LINE
8
DEFAULT_255_2_778
10
38.7225139
20
2.3580083
11
38.7444139
21
2.4281083
0
LINE
8
DEFAULT_255_2_778
10
38.7444139
20
2.4281083
11
38.7603139
21
2.4943083
0
LINE
8
DEFAULT_255_2_778
10
38.7603139
20
2.4943083
11
38.7724139
21
2.5612083
0
LINE
8
DEFAULT_255_2_778
10
38.7724139
20
2.5612083
11
38.7772139
21
2.5948083
0
LINE
8
DEFAULT_255_2_778
10
38.7772139
20
2.5948083
11
38.7812139
21
2.6284083
0
LINE
8
DEFAULT_255_2_778
10
38.7812139
20
2.6284083
11
38.7857139
21
2.6763083
0
LINE
8
DEFAULT_255_2_778
10
38.7857139
20
2.6763083
11
38.7839139
21
3.0972083
0
LINE
8
DEFAULT_255_2_778
10
38.7839139
20
3.0972083
11
38.7801139
21
3.1298083
0
LINE
8
DEFAULT_255_2_778
10
38.7801139
20
3.1298083
11
38.7756139
21
3.1621083
0
LINE
8
DEFAULT_255_2_778
10
38.7756139
20
3.1621083
11
38.7642139
21
3.2266083
0
LINE
8
DEFAULT_255_2_778
10
38.7642139
20
3.2266083
11
38.7489139
21
3.2907083
0
LINE
8
DEFAULT_255_2_778
10
38.7489139
20
3.2907083
11
38.7225139
21
3.3740083
0
LINE
8
DEFAULT_255_2_778
10
38.7225139
20
3.3740083
11
38.6894139
21
3.4518083
0
LINE
8
DEFAULT_255_2_778
10
38.6894139
20
3.4518083
11
38.6481139
21
3.5248083
0
LINE
8
DEFAULT_255_2_778
10
38.6481139
20
3.5248083
11
38.5979139
21
3.5904083
0
LINE
8
DEFAULT_255_2_778
10
38.5979139
20
3.5904083
11
38.5531139
21
3.6325083
0
LINE
8
DEFAULT_255_2_778
10
38.4023139
20
3.5206083
11
38.4637139
21
3.4626083
0
LINE
8
DEFAULT_255_2_778
10
38.4637139
20
3.4626083
11
38.5110139
21
3.3883083
0
LINE
8
DEFAULT_255_2_778
10
38.5110139
20
3.3883083
11
38.5344139
21
3.3343083
0
LINE
8
DEFAULT_255_2_778
10
38.5344139
20
3.3343083
11
38.5521139
21
3.2782083
0
LINE
8
DEFAULT_255_2_778
10
38.5521139
20
3.2782083
11
38.5634139
21
3.2309083
0
LINE
8
DEFAULT_255_2_778
10
38.5634139
20
3.2309083
11
38.5740139
21
3.1734083
0
LINE
8
DEFAULT_255_2_778
10
38.5740139
20
3.1734083
11
38.5817139
21
3.1155083
0
LINE
8
DEFAULT_255_2_778
10
38.5817139
20
3.1155083
11
38.5812139
21
2.6154083
0
LINE
8
DEFAULT_255_2_778
10
38.5812139
20
2.6154083
11
38.5737139
21
2.5612083
0
LINE
8
DEFAULT_255_2_778
10
38.5737139
20
2.5612083
11
38.5640139
21
2.5075083
0
LINE
8
DEFAULT_255_2_778
10
38.5640139
20
2.5075083
11
38.5481139
21
2.4445083
0
LINE
8
DEFAULT_255_2_778
10
38.5481139
20
2.4445083
11
38.5200139
21
2.3678083
0
LINE
8
DEFAULT_255_2_778
10
38.5200139
20
2.3678083
11
38.4798139
21
2.2958083
0
LINE
8
DEFAULT_255_2_778
10
38.4798139
20
2.2958083
11
38.4105139
21
2.2215083
0
LINE
8
DEFAULT_255_2_778
10
38.4105139
20
2.2215083
11
38.3290139
21
2.1760083
0
LINE
8
DEFAULT_255_2_778
10
38.3290139
20
2.1760083
11
38.1800139
21
2.1572083
0
LINE
8
DEFAULT_255_2_778
10
38.1800139
20
2.1572083
11
38.0586139
21
2.1881083
0
LINE
8
DEFAULT_255_2_778
10
38.0586139
20
2.1881083
11
37.9819139
21
2.2416083
0
LINE
8
DEFAULT_255_2_778
10
37.9819139
20
2.2416083
11
37.9268139
21
2.3096083
0
LINE
8
DEFAULT_255_2_778
10
37.9268139
20
2.3096083
11
37.8967139
21
2.3657083
0
LINE
8
DEFAULT_255_2_778
10
37.8967139
20
2.3657083
11
37.8752139
21
2.4210083
0
LINE
8
DEFAULT_255_2_778
10
37.8752139
20
2.4210083
11
37.8588139
21
2.4781083
0
LINE
8
DEFAULT_255_2_778
10
37.8588139
20
2.4781083
11
37.8467139
21
2.5353083
0
LINE
8
DEFAULT_255_2_778
10
37.8467139
20
2.5353083
11
37.8377139
21
2.5929083
0
LINE
8
DEFAULT_255_2_778
10
37.8377139
20
2.5929083
11
37.8313139
21
2.6512083
0
LINE
8
DEFAULT_255_2_778
10
37.8313139
20
2.6512083
11
37.8319139
21
3.0835083
0
LINE
8
DEFAULT_255_2_778
10
37.8319139
20
3.0835083
11
37.8358139
21
3.1192083
0
LINE
8
DEFAULT_255_2_778
10
37.8358139
20
3.1192083
11
37.8438139
21
3.1766083
0
LINE
8
DEFAULT_255_2_778
10
37.8438139
20
3.1766083
11
37.8559139
21
3.2409083
0
LINE
8
DEFAULT_255_2_778
10
37.8559139
20
3.2409083
11
37.8729139
21
3.3041083
0
LINE
8
DEFAULT_255_2_778
10
37.8729139
20
3.3041083
11
37.9020139
21
3.3793083
0
LINE
8
DEFAULT_255_2_778
10
37.9020139
20
3.3793083
11
37.9477139
21
3.4563083
0
LINE
8
DEFAULT_255_2_778
10
37.9477139
20
3.4563083
11
38.0187139
21
3.5243083
0
LINE
8
DEFAULT_255_2_778
10
38.0187139
20
3.5243083
11
38.1094139
21
3.5674083
0
LINE
8
DEFAULT_255_2_778
10
38.1094139
20
3.5674083
11
38.2605139
21
3.5764083
0
LINE
8
DEFAULT_255_2_778
10
38.2605139
20
3.5764083
11
38.3793139
21
3.5354083
0
LINE
8
DEFAULT_255_2_778
10
38.3793139
20
3.5354083
11
38.4023139
21
3.5206083
0
LINE
8
DEFAULT_255_2_778
10
40.7772139
20
3.5902083
11
40.7013139
21
3.6563083
0
LINE
8
DEFAULT_255_2_778
10
40.7013139
20
3.6563083
11
40.5952139
21
3.7087083
0
LINE
8
DEFAULT_255_2_778
10
40.5952139
20
3.7087083
11
40.4174139
21
3.7415083
0
LINE
8
DEFAULT_255_2_778
10
40.4174139
20
3.7415083
11
40.2594139
21
3.7299083
0
LINE
8
DEFAULT_255_2_778
10
40.2594139
20
3.7299083
11
40.1358139
21
3.6883083
0
LINE
8
DEFAULT_255_2_778
10
40.1358139
20
3.6883083
11
40.0480139
21
3.6338083
0
LINE
8
DEFAULT_255_2_778
10
40.0480139
20
3.6338083
11
39.9782139
21
3.5653083
0
LINE
8
DEFAULT_255_2_778
10
39.9782139
20
3.5653083
11
39.9231139
21
3.4856083
0
LINE
8
DEFAULT_255_2_778
10
39.9231139
20
3.4856083
11
39.8927139
21
3.4245083
0
LINE
8
DEFAULT_255_2_778
10
39.8927139
20
3.4245083
11
39.8668139
21
3.3560083
0
LINE
8
DEFAULT_255_2_778
10
39.8668139
20
3.3560083
11
39.8527139
21
3.3092083
0
LINE
8
DEFAULT_255_2_778
10
39.8527139
20
3.3092083
11
39.8369139
21
3.2433083
0
LINE
8
DEFAULT_255_2_778
10
39.8369139
20
3.2433083
11
39.8247139
21
3.1766083
0
LINE
8
DEFAULT_255_2_778
10
39.8247139
20
3.1766083
11
39.8221139
21
2.5771083
0
LINE
8
DEFAULT_255_2_778
10
39.8221139
20
2.5771083
11
39.8279139
21
2.5400083
0
LINE
8
DEFAULT_255_2_778
10
39.8279139
20
2.5400083
11
39.8348139
21
2.5033083
0
LINE
8
DEFAULT_255_2_778
10
39.8348139
20
2.5033083
11
39.8491139
21
2.4411083
0
LINE
8
DEFAULT_255_2_778
10
39.8491139
20
2.4411083
11
39.8636139
21
2.3903083
0
LINE
8
DEFAULT_255_2_778
10
39.8636139
20
2.3903083
11
39.8914139
21
2.3157083
0
LINE
8
DEFAULT_255_2_778
10
39.8914139
20
2.3157083
11
39.9305139
21
2.2389083
0
LINE
8
DEFAULT_255_2_778
10
39.9305139
20
2.2389083
11
39.9800139
21
2.1688083
0
LINE
8
DEFAULT_255_2_778
10
39.9800139
20
2.1688083
11
40.0538139
21
2.0979083
0
LINE
8
DEFAULT_255_2_778
10
40.0538139
20
2.0979083
11
40.1565139
21
2.0376083
0
LINE
8
DEFAULT_255_2_778
10
40.1565139
20
2.0376083
11
40.3018139
21
1.9995083
0
LINE
8
DEFAULT_255_2_778
10
40.3018139
20
1.9995083
11
40.4790139
21
1.9997083
0
LINE
8
DEFAULT_255_2_778
10
40.4790139
20
1.9997083
11
40.6071139
21
2.0318083
0
LINE
8
DEFAULT_255_2_778
10
40.6071139
20
2.0318083
11
40.7142139
21
2.0905083
0
LINE
8
DEFAULT_255_2_778
10
40.7142139
20
2.0905083
11
40.7902139
21
2.1604083
0
LINE
8
DEFAULT_255_2_778
10
40.7902139
20
2.1604083
11
40.8399139
21
2.2276083
0
LINE
8
DEFAULT_255_2_778
10
40.8399139
20
2.2276083
11
40.8743139
21
2.2900083
0
LINE
8
DEFAULT_255_2_778
10
40.8743139
20
2.2900083
11
40.9026139
21
2.3580083
0
LINE
8
DEFAULT_255_2_778
10
40.9026139
20
2.3580083
11
40.9246139
21
2.4281083
0
LINE
8
DEFAULT_255_2_778
10
40.9246139
20
2.4281083
11
40.9405139
21
2.4943083
0
LINE
8
DEFAULT_255_2_778
10
40.9405139
20
2.4943083
11
40.9526139
21
2.5612083
0
LINE
8
DEFAULT_255_2_778
10
40.9526139
20
2.5612083
11
40.9574139
21
2.5948083
0
LINE
8
DEFAULT_255_2_778
10
40.9574139
20
2.5948083
11
40.9613139
21
2.6284083
0
LINE
8
DEFAULT_255_2_778
10
40.9613139
20
2.6284083
11
40.9659139
21
2.6763083
0
LINE
8
DEFAULT_255_2_778
10
40.9659139
20
2.6763083
11
40.9640139
21
3.0972083
0
LINE
8
DEFAULT_255_2_778
10
40.9640139
20
3.0972083
11
40.9603139
21
3.1298083
0
LINE
8
DEFAULT_255_2_778
10
40.9603139
20
3.1298083
11
40.9558139
21
3.1621083
0
LINE
8
DEFAULT_255_2_778
10
40.9558139
20
3.1621083
11
40.9444139
21
3.2266083
0
LINE
8
DEFAULT_255_2_778
10
40.9444139
20
3.2266083
11
40.9291139
21
3.2907083
0
LINE
8
DEFAULT_255_2_778
10
40.9291139
20
3.2907083
11
40.9026139
21
3.3740083
0
LINE
8
DEFAULT_255_2_778
10
40.9026139
20
3.3740083
11
40.8695139
21
3.4518083
0
LINE
8
DEFAULT_255_2_778
10
40.8695139
20
3.4518083
11
40.8283139
21
3.5248083
0
LINE
8
DEFAULT_255_2_778
10
40.8283139
20
3.5248083
11
40.7772139
21
3.5902083
0
LINE
8
DEFAULT_255_2_778
10
40.6137139
20
3.4949083
11
40.6695139
21
3.4266083
0
LINE
8
DEFAULT_255_2_778
10
40.6695139
20
3.4266083
11
40.6997139
21
3.3706083
0
LINE
8
DEFAULT_255_2_778
10
40.6997139
20
3.3706083
11
40.7211139
21
3.3158083
0
LINE
8
DEFAULT_255_2_778
10
40.7211139
20
3.3158083
11
40.7372139
21
3.2592083
0
LINE
8
DEFAULT_255_2_778
10
40.7372139
20
3.2592083
11
40.7494139
21
3.2020083
0
LINE
8
DEFAULT_255_2_778
10
40.7494139
20
3.2020083
11
40.7584139
21
3.1443083
0
LINE
8
DEFAULT_255_2_778
10
40.7584139
20
3.1443083
11
40.7648139
21
3.0864083
0
LINE
8
DEFAULT_255_2_778
10
40.7648139
20
3.0864083
11
40.7640139
21
2.6424083
0
LINE
8
DEFAULT_255_2_778
10
40.7640139
20
2.6424083
11
40.7579139
21
2.5882083
0
LINE
8
DEFAULT_255_2_778
10
40.7579139
20
2.5882083
11
40.7494139
21
2.5342083
0
LINE
8
DEFAULT_255_2_778
10
40.7494139
20
2.5342083
11
40.7394139
21
2.4863083
0
LINE
8
DEFAULT_255_2_778
10
40.7394139
20
2.4863083
11
40.7219139
21
2.4236083
0
LINE
8
DEFAULT_255_2_778
10
40.7219139
20
2.4236083
11
40.6933139
21
2.3527083
0
LINE
8
DEFAULT_255_2_778
10
40.6933139
20
2.3527083
11
40.6505139
21
2.2823083
0
LINE
8
DEFAULT_255_2_778
10
40.6505139
20
2.2823083
11
40.5803139
21
2.2135083
0
LINE
8
DEFAULT_255_2_778
10
40.5803139
20
2.2135083
11
40.4949139
21
2.1709083
0
LINE
8
DEFAULT_255_2_778
10
40.4949139
20
2.1709083
11
40.3462139
21
2.1582083
0
LINE
8
DEFAULT_255_2_778
10
40.3462139
20
2.1582083
11
40.2272139
21
2.1942083
0
LINE
8
DEFAULT_255_2_778
10
40.2272139
20
2.1942083
11
40.1520139
21
2.2516083
0
LINE
8
DEFAULT_255_2_778
10
40.1520139
20
2.2516083
11
40.0996139
21
2.3217083
0
LINE
8
DEFAULT_255_2_778
10
40.0996139
20
2.3217083
11
40.0694139
21
2.3837083
0
LINE
8
DEFAULT_255_2_778
10
40.0694139
20
2.3837083
11
40.0499139
21
2.4398083
0
LINE
8
DEFAULT_255_2_778
10
40.0499139
20
2.4398083
11
40.0395139
21
2.4779083
0
LINE
8
DEFAULT_255_2_778
10
40.0395139
20
2.4779083
11
40.0274139
21
2.5350083
0
LINE
8
DEFAULT_255_2_778
10
40.0274139
20
2.5350083
11
40.0184139
21
2.5927083
0
LINE
8
DEFAULT_255_2_778
10
40.0184139
20
2.5927083
11
40.0120139
21
2.6509083
0
LINE
8
DEFAULT_255_2_778
10
40.0120139
20
2.6509083
11
40.0126139
21
3.0832083
0
LINE
8
DEFAULT_255_2_778
10
40.0126139
20
3.0832083
11
40.0165139
21
3.1189083
0
LINE
8
DEFAULT_255_2_778
10
40.0165139
20
3.1189083
11
40.0245139
21
3.1764083
0
LINE
8
DEFAULT_255_2_778
10
40.0245139
20
3.1764083
11
40.0366139
21
3.2406083
0
LINE
8
DEFAULT_255_2_778
10
40.0366139
20
3.2406083
11
40.0536139
21
3.3039083
0
LINE
8
DEFAULT_255_2_778
10
40.0536139
20
3.3039083
11
40.0827139
21
3.3790083
0
LINE
8
DEFAULT_255_2_778
10
40.0827139
20
3.3790083
11
40.1284139
21
3.4560083
0
LINE
8
DEFAULT_255_2_778
10
40.1284139
20
3.4560083
11
40.1993139
21
3.5240083
0
LINE
8
DEFAULT_255_2_778
10
40.1993139
20
3.5240083
11
40.2901139
21
3.5671083
0
LINE
8
DEFAULT_255_2_778
10
40.2901139
20
3.5671083
11
40.4412139
21
3.5761083
0
LINE
8
DEFAULT_255_2_778
10
40.4412139
20
3.5761083
11
40.5600139
21
3.5351083
0
LINE
8
DEFAULT_255_2_778
10
40.5600139
20
3.5351083
11
40.6137139
21
3.4949083
0
LINE
8
DEFAULT_255_2_778
10
41.7356917
20
3.7179739
11
41.9841917
21
3.7179739
0
LINE
8
DEFAULT_255_2_778
10
41.9841917
20
3.7179739
11
42.5934917
21
2.0180739
0
LINE
8
DEFAULT_255_2_778
10
42.5934917
20
2.0180739
11
42.3810917
21
2.0180739
0
LINE
8
DEFAULT_255_2_778
10
42.3810917
20
2.0180739
11
42.1722917
21
2.6130739
0
LINE
8
DEFAULT_255_2_778
10
42.1722917
20
2.6130739
11
41.5388917
21
2.6130739
0
LINE
8
DEFAULT_255_2_778
10
41.5388917
20
2.6130739
11
41.3300917
21
2.0180739
0
LINE
8
DEFAULT_255_2_778
10
41.3300917
20
2.0180739
11
41.1308917
21
2.0180739
0
LINE
8
DEFAULT_255_2_778
10
41.1308917
20
2.0180739
11
41.7356917
21
3.7179739
0
LINE
8
DEFAULT_255_2_778
10
42.1135917
20
2.7749739
11
41.5975917
21
2.7749739
0
LINE
8
DEFAULT_255_2_778
10
41.5975917
20
2.7749739
11
41.7946917
21
3.3485739
0
LINE
8
DEFAULT_255_2_778
10
41.7946917
20
3.3485739
11
41.8558917
21
3.5335739
0
LINE
8
DEFAULT_255_2_778
10
41.8558917
20
3.5335739
11
41.8579917
21
3.5499739
0
LINE
8
DEFAULT_255_2_778
10
41.8579917
20
3.5499739
11
41.8846917
21
3.4708739
0
LINE
8
DEFAULT_255_2_778
10
41.8846917
20
3.4708739
11
41.9108917
21
3.3747739
0
LINE
8
DEFAULT_255_2_778
10
41.9108917
20
3.3747739
11
42.1135917
21
2.7749739
0
LINE
8
DEFAULT_255_2_778
10
43.756874
20
3.4915052
11
43.706674
21
3.5659052
0
LINE
8
DEFAULT_255_2_778
10
43.706674
20
3.5659052
11
43.628874
21
3.6331052
0
LINE
8
DEFAULT_255_2_778
10
43.628874
20
3.6331052
11
43.445474
21
3.6992052
0
LINE
8
DEFAULT_255_2_778
10
43.445474
20
3.6992052
11
43.234374
21
3.7167052
0
LINE
8
DEFAULT_255_2_778
10
43.234374
20
3.7167052
11
42.848074
21
3.7182052
0
LINE
8
DEFAULT_255_2_778
10
42.848074
20
3.7182052
11
42.848074
21
2.0183052
0
LINE
8
DEFAULT_255_2_778
10
42.848074
20
2.0183052
11
43.450274
21
2.0278052
0
LINE
8
DEFAULT_255_2_778
10
43.450274
20
2.0278052
11
43.613274
21
2.0731052
0
LINE
8
DEFAULT_255_2_778
10
43.613274
20
2.0731052
11
43.720974
21
2.1426052
0
LINE
8
DEFAULT_255_2_778
10
43.720974
20
2.1426052
11
43.782274
21
2.2162052
0
LINE
8
DEFAULT_255_2_778
10
43.782274
20
2.2162052
11
43.812974
21
2.2768052
0
LINE
8
DEFAULT_255_2_778
10
43.812974
20
2.2768052
11
43.830974
21
2.3318052
0
LINE
8
DEFAULT_255_2_778
10
43.830974
20
2.3318052
11
43.839974
21
2.3771052
0
LINE
8
DEFAULT_255_2_778
10
43.839974
20
2.3771052
11
43.838374
21
2.5718052
0
LINE
8
DEFAULT_255_2_778
10
43.838374
20
2.5718052
11
43.828874
21
2.6141052
0
LINE
8
DEFAULT_255_2_778
10
43.828874
20
2.6141052
11
43.809274
21
2.6678052
0
LINE
8
DEFAULT_255_2_778
10
43.809274
20
2.6678052
11
43.768574
21
2.7335052
0
LINE
8
DEFAULT_255_2_778
10
43.768574
20
2.7335052
11
43.672774
21
2.8187052
0
LINE
8
DEFAULT_255_2_778
10
43.672774
20
2.8187052
11
43.521474
21
2.8782052
0
LINE
8
DEFAULT_255_2_778
10
43.521474
20
2.8782052
11
43.455574
21
2.8843052
0
LINE
8
DEFAULT_255_2_778
10
43.455574
20
2.8843052
11
43.632574
21
2.9430052
0
LINE
8
DEFAULT_255_2_778
10
43.632574
20
2.9430052
11
43.719374
21
3.0150052
0
LINE
8
DEFAULT_255_2_778
10
43.719374
20
3.0150052
11
43.759074
21
3.0769052
0
LINE
8
DEFAULT_255_2_778
10
43.759074
20
3.0769052
11
43.779174
21
3.1279052
0
LINE
8
DEFAULT_255_2_778
10
43.779174
20
3.1279052
11
43.789774
21
3.1698052
0
LINE
8
DEFAULT_255_2_778
10
43.789774
20
3.1698052
11
43.794774
21
3.2007052
0
LINE
8
DEFAULT_255_2_778
10
43.794774
20
3.2007052
11
43.793974
21
3.3666052
0
LINE
8
DEFAULT_255_2_778
10
43.793974
20
3.3666052
11
43.785974
21
3.4097052
0
LINE
8
DEFAULT_255_2_778
10
43.785974
20
3.4097052
11
43.773874
21
3.4516052
0
LINE
8
DEFAULT_255_2_778
10
43.773874
20
3.4516052
11
43.756874
21
3.4915052
0
LINE
8
DEFAULT_255_2_778
10
43.553674
20
3.4267052
11
43.577774
21
3.3661052
0
LINE
8
DEFAULT_255_2_778
10
43.577774
20
3.3661052
11
43.586774
21
3.3221052
0
LINE
8
DEFAULT_255_2_778
10
43.586774
20
3.3221052
11
43.584374
21
3.1801052
0
LINE
8
DEFAULT_255_2_778
10
43.584374
20
3.1801052
11
43.570874
21
3.1311052
0
LINE
8
DEFAULT_255_2_778
10
43.570874
20
3.1311052
11
43.529574
21
3.0594052
0
LINE
8
DEFAULT_255_2_778
10
43.529574
20
3.0594052
11
43.446774
21
2.9975052
0
LINE
8
DEFAULT_255_2_778
10
43.446774
20
2.9975052
11
43.278574
21
2.9618052
0
LINE
8
DEFAULT_255_2_778
10
43.278574
20
2.9618052
11
43.045174
21
2.9562052
0
LINE
8
DEFAULT_255_2_778
10
43.045174
20
2.9562052
11
43.045174
21
3.5584052
0
LINE
8
DEFAULT_255_2_778
10
43.045174
20
3.5584052
11
43.435174
21
3.5238052
0
LINE
8
DEFAULT_255_2_778
10
43.435174
20
3.5238052
11
43.533874
21
3.4563052
0
LINE
8
DEFAULT_255_2_778
10
43.533874
20
3.4563052
11
43.553674
21
3.4267052
0
LINE
8
DEFAULT_255_2_778
10
43.594474
20
2.6626052
11
43.619374
21
2.6107052
0
LINE
8
DEFAULT_255_2_778
10
43.619374
20
2.6107052
11
43.630674
21
2.5683052
0
LINE
8
DEFAULT_255_2_778
10
43.630674
20
2.5683052
11
43.635474
21
2.5358052
0
LINE
8
DEFAULT_255_2_778
10
43.635474
20
2.5358052
11
43.633874
21
2.4252052
0
LINE
8
DEFAULT_255_2_778
10
43.633874
20
2.4252052
11
43.628074
21
2.3927052
0
LINE
8
DEFAULT_255_2_778
10
43.628074
20
2.3927052
11
43.615374
21
2.3506052
0
LINE
8
DEFAULT_255_2_778
10
43.615374
20
2.3506052
11
43.577774
21
2.2847052
0
LINE
8
DEFAULT_255_2_778
10
43.577774
20
2.2847052
11
43.505574
21
2.2239052
0
LINE
8
DEFAULT_255_2_778
10
43.505574
20
2.2239052
11
43.381474
21
2.1879052
0
LINE
8
DEFAULT_255_2_778
10
43.381474
20
2.1879052
11
43.133574
21
2.1770052
0
LINE
8
DEFAULT_255_2_778
10
43.133574
20
2.1770052
11
43.044674
21
2.1770052
0
LINE
8
DEFAULT_255_2_778
10
43.044674
20
2.1770052
11
43.044674
21
2.8033052
0
LINE
8
DEFAULT_255_2_778
10
43.044674
20
2.8033052
11
43.439374
21
2.7723052
0
LINE
8
DEFAULT_255_2_778
10
43.439374
20
2.7723052
11
43.557974
21
2.7068052
0
LINE
8
DEFAULT_255_2_778
10
43.557974
20
2.7068052
11
43.594474
21
2.6626052
0
LINE
8
DEFAULT_255_2_778
10
45.216374
20
3.3221052
11
45.183574
21
3.4129052
0
LINE
8
DEFAULT_255_2_778
10
45.183574
20
3.4129052
11
45.146474
21
3.4886052
0
LINE
8
DEFAULT_255_2_778
10
45.146474
20
3.4886052
11
45.100774
21
3.5582052
0
LINE
8
DEFAULT_255_2_778
10
45.100774
20
3.5582052
11
45.045674
21
3.6188052
0
LINE
8
DEFAULT_255_2_778
10
45.045674
20
3.6188052
11
44.964974
21
3.6764052
0
LINE
8
DEFAULT_255_2_778
10
44.964974
20
3.6764052
11
44.834574
21
3.7251052
0
LINE
8
DEFAULT_255_2_778
10
44.834574
20
3.7251052
11
44.671074
21
3.7418052
0
LINE
8
DEFAULT_255_2_778
10
44.671074
20
3.7418052
11
44.534274
21
3.7243052
0
LINE
8
DEFAULT_255_2_778
10
44.534274
20
3.7243052
11
44.414374
21
3.6783052
0
LINE
8
DEFAULT_255_2_778
10
44.414374
20
3.6783052
11
44.329174
21
3.6201052
0
LINE
8
DEFAULT_255_2_778
10
44.329174
20
3.6201052
11
44.263074
21
3.5497052
0
LINE
8
DEFAULT_255_2_778
10
44.263074
20
3.5497052
11
44.210874
21
3.4682052
0
LINE
8
DEFAULT_255_2_778
10
44.210874
20
3.4682052
11
44.180274
21
3.4015052
0
LINE
8
DEFAULT_255_2_778
10
44.180274
20
3.4015052
11
44.156174
21
3.3322052
0
LINE
8
DEFAULT_255_2_778
10
44.156174
20
3.3322052
11
44.141074
21
3.2759052
0
LINE
8
DEFAULT_255_2_778
10
44.141074
20
3.2759052
11
44.127374
21
3.2097052
0
LINE
8
DEFAULT_255_2_778
10
44.127374
20
3.2097052
11
44.116974
21
3.1428052
0
LINE
8
DEFAULT_255_2_778
10
44.116974
20
3.1428052
11
44.119174
21
2.5765052
0
LINE
8
DEFAULT_255_2_778
10
44.119174
20
2.5765052
11
44.124974
21
2.5395052
0
LINE
8
DEFAULT_255_2_778
10
44.124974
20
2.5395052
11
44.131774
21
2.5028052
0
LINE
8
DEFAULT_255_2_778
10
44.131774
20
2.5028052
11
44.146074
21
2.4406052
0
LINE
8
DEFAULT_255_2_778
10
44.146074
20
2.4406052
11
44.160674
21
2.3898052
0
LINE
8
DEFAULT_255_2_778
10
44.160674
20
2.3898052
11
44.188474
21
2.3152052
0
LINE
8
DEFAULT_255_2_778
10
44.188474
20
2.3152052
11
44.227574
21
2.2384052
0
LINE
8
DEFAULT_255_2_778
10
44.227574
20
2.2384052
11
44.277074
21
2.1683052
0
LINE
8
DEFAULT_255_2_778
10
44.277074
20
2.1683052
11
44.350874
21
2.0974052
0
LINE
8
DEFAULT_255_2_778
10
44.350874
20
2.0974052
11
44.453574
21
2.0371052
0
LINE
8
DEFAULT_255_2_778
10
44.453574
20
2.0371052
11
44.598774
21
1.9990052
0
LINE
8
DEFAULT_255_2_778
10
44.598774
20
1.9990052
11
44.776074
21
1.9992052
0
LINE
8
DEFAULT_255_2_778
10
44.776074
20
1.9992052
11
44.904174
21
2.0313052
0
LINE
8
DEFAULT_255_2_778
10
44.904174
20
2.0313052
11
45.011274
21
2.0900052
0
LINE
8
DEFAULT_255_2_778
10
45.011274
20
2.0900052
11
45.087274
21
2.1599052
0
LINE
8
DEFAULT_255_2_778
10
45.087274
20
2.1599052
11
45.136974
21
2.2271052
0
LINE
8
DEFAULT_255_2_778
10
45.136974
20
2.2271052
11
45.171374
21
2.2895052
0
LINE
8
DEFAULT_255_2_778
10
45.171374
20
2.2895052
11
45.199674
21
2.3575052
0
LINE
8
DEFAULT_255_2_778
10
45.199674
20
2.3575052
11
45.221674
21
2.4276052
0
LINE
8
DEFAULT_255_2_778
10
45.221674
20
2.4276052
11
45.237474
21
2.4938052
0
LINE
8
DEFAULT_255_2_778
10
45.237474
20
2.4938052
11
45.249674
21
2.5607052
0
LINE
8
DEFAULT_255_2_778
10
45.249674
20
2.5607052
11
45.254474
21
2.5943052
0
LINE
8
DEFAULT_255_2_778
10
45.254474
20
2.5943052
11
45.258474
21
2.6279052
0
LINE
8
DEFAULT_255_2_778
10
45.258474
20
2.6279052
11
45.262974
21
2.6758052
0
LINE
8
DEFAULT_255_2_778
10
45.262974
20
2.6758052
11
45.261074
21
3.0967052
0
LINE
8
DEFAULT_255_2_778
10
45.261074
20
3.0967052
11
45.257374
21
3.1293052
0
LINE
8
DEFAULT_255_2_778
10
45.257374
20
3.1293052
11
45.252874
21
3.1615052
0
LINE
8
DEFAULT_255_2_778
10
45.252874
20
3.1615052
11
45.241474
21
3.2261052
0
LINE
8
DEFAULT_255_2_778
10
45.241474
20
3.2261052
11
45.226174
21
3.2902052
0
LINE
8
DEFAULT_255_2_778
10
45.226174
20
3.2902052
11
45.216374
21
3.3221052
0
LINE
8
DEFAULT_255_2_778
10
45.011274
20
3.3341052
11
45.029074
21
3.2780052
0
LINE
8
DEFAULT_255_2_778
10
45.029074
20
3.2780052
11
45.040374
21
3.2306052
0
LINE
8
DEFAULT_255_2_778
10
45.040374
20
3.2306052
11
45.050974
21
3.1732052
0
LINE
8
DEFAULT_255_2_778
10
45.050974
20
3.1732052
11
45.058674
21
3.1153052
0
LINE
8
DEFAULT_255_2_778
10
45.058674
20
3.1153052
11
45.058174
21
2.6152052
0
LINE
8
DEFAULT_255_2_778
10
45.058174
20
2.6152052
11
45.050774
21
2.5610052
0
LINE
8
DEFAULT_255_2_778
10
45.050774
20
2.5610052
11
45.040974
21
2.5073052
0
LINE
8
DEFAULT_255_2_778
10
45.040974
20
2.5073052
11
45.025074
21
2.4443052
0
LINE
8
DEFAULT_255_2_778
10
45.025074
20
2.4443052
11
44.996974
21
2.3676052
0
LINE
8
DEFAULT_255_2_778
10
44.996974
20
2.3676052
11
44.956774
21
2.2956052
0
LINE
8
DEFAULT_255_2_778
10
44.956774
20
2.2956052
11
44.887474
21
2.2212052
0
LINE
8
DEFAULT_255_2_778
10
44.887474
20
2.2212052
11
44.805974
21
2.1757052
0
LINE
8
DEFAULT_255_2_778
10
44.805974
20
2.1757052
11
44.657074
21
2.1569052
0
LINE
8
DEFAULT_255_2_778
10
44.657074
20
2.1569052
11
44.535574
21
2.1879052
0
LINE
8
DEFAULT_255_2_778
10
44.535574
20
2.1879052
11
44.458874
21
2.2413052
0
LINE
8
DEFAULT_255_2_778
10
44.458874
20
2.2413052
11
44.403774
21
2.3093052
0
LINE
8
DEFAULT_255_2_778
10
44.403774
20
2.3093052
11
44.373674
21
2.3654052
0
LINE
8
DEFAULT_255_2_778
10
44.373674
20
2.3654052
11
44.352174
21
2.4207052
0
LINE
8
DEFAULT_255_2_778
10
44.352174
20
2.4207052
11
44.335774
21
2.4779052
0
LINE
8
DEFAULT_255_2_778
10
44.335774
20
2.4779052
11
44.323674
21
2.5350052
0
LINE
8
DEFAULT_255_2_778
10
44.323674
20
2.5350052
11
44.314674
21
2.5927052
0
LINE
8
DEFAULT_255_2_778
10
44.314674
20
2.5927052
11
44.308274
21
2.6509052
0
LINE
8
DEFAULT_255_2_778
10
44.308274
20
2.6509052
11
44.308874
21
3.0833052
0
LINE
8
DEFAULT_255_2_778
10
44.308874
20
3.0833052
11
44.312774
21
3.1190052
0
LINE
8
DEFAULT_255_2_778
10
44.312774
20
3.1190052
11
44.320774
21
3.1764052
0
LINE
8
DEFAULT_255_2_778
10
44.320774
20
3.1764052
11
44.332874
21
3.2407052
0
LINE
8
DEFAULT_255_2_778
10
44.332874
20
3.2407052
11
44.349874
21
3.3039052
0
LINE
8
DEFAULT_255_2_778
10
44.349874
20
3.3039052
11
44.378974
21
3.3791052
0
LINE
8
DEFAULT_255_2_778
10
44.378974
20
3.3791052
11
44.424774
21
3.4560052
0
LINE
8
DEFAULT_255_2_778
10
44.424774
20
3.4560052
11
44.495574
21
3.5240052
0
LINE
8
DEFAULT_255_2_778
10
44.495574
20
3.5240052
11
44.586374
21
3.5672052
0
LINE
8
DEFAULT_255_2_778
10
44.586374
20
3.5672052
11
44.737474
21
3.5762052
0
LINE
8
DEFAULT_255_2_778
10
44.737474
20
3.5762052
11
44.856274
21
3.5352052
0
LINE
8
DEFAULT_255_2_778
10
44.856274
20
3.5352052
11
44.930874
21
3.4735052
0
LINE
8
DEFAULT_255_2_778
10
44.930874
20
3.4735052
11
44.981174
21
3.4010052
0
LINE
8
DEFAULT_255_2_778
10
44.981174
20
3.4010052
11
45.011274
21
3.3341052
0
LINE
8
DEFAULT_255_2_778
10
35.9376854
20
6.9180739
11
36.8398854
21
6.9180739
0
LINE
8
DEFAULT_255_2_778
10
36.8398854
20
6.9180739
11
36.8398854
21
6.7561739
0
LINE
8
DEFAULT_255_2_778
10
36.8398854
20
6.7561739
11
36.1344854
21
6.7561739
0
LINE
8
DEFAULT_255_2_778
10
36.1344854
20
6.7561739
11
36.1344854
21
6.1610739
0
LINE
8
DEFAULT_255_2_778
10
36.1344854
20
6.1610739
11
36.8052854
21
6.1610739
0
LINE
8
DEFAULT_255_2_778
10
36.8052854
20
6.1610739
11
36.8052854
21
5.9991739
0
LINE
8
DEFAULT_255_2_778
10
36.8052854
20
5.9991739
11
36.1344854
21
5.9991739
0
LINE
8
DEFAULT_255_2_778
10
36.1344854
20
5.9991739
11
36.1344854
21
5.2181739
0
LINE
8
DEFAULT_255_2_778
10
36.1344854
20
5.2181739
11
35.9376854
21
5.2181739
0
LINE
8
DEFAULT_255_2_778
10
35.9376854
20
5.2181739
11
35.9376854
21
6.9180739
0
LINE
8
DEFAULT_255_2_778
10
35.2992677
20
6.9180739
11
35.4961677
21
6.9180739
0
LINE
8
DEFAULT_255_2_778
10
35.4961677
20
6.9180739
11
35.4961677
21
5.2181739
0
LINE
8
DEFAULT_255_2_778
10
35.4961677
20
5.2181739
11
35.2992677
21
5.2181739
0
LINE
8
DEFAULT_255_2_778
10
35.2992677
20
5.2181739
11
35.2992677
21
6.0076739
0
LINE
8
DEFAULT_255_2_778
10
35.2992677
20
6.0076739
11
34.4811677
21
6.0076739
0
LINE
8
DEFAULT_255_2_778
10
34.4811677
20
6.0076739
11
34.4811677
21
5.2181739
0
LINE
8
DEFAULT_255_2_778
10
34.4811677
20
5.2181739
11
34.2843677
21
5.2181739
0
LINE
8
DEFAULT_255_2_778
10
34.2843677
20
5.2181739
11
34.2843677
21
6.9180739
0
LINE
8
DEFAULT_255_2_778
10
34.2843677
20
6.9180739
11
34.4811677
21
6.9180739
0
LINE
8
DEFAULT_255_2_778
10
34.4811677
20
6.9180739
11
34.4811677
21
6.1695739
0
LINE
8
DEFAULT_255_2_778
10
34.4811677
20
6.1695739
11
35.2992677
21
6.1695739
0
LINE
8
DEFAULT_255_2_778
10
35.2992677
20
6.1695739
11
35.2992677
21
6.9180739
0
LINE
8
DEFAULT_255_2_778
10
33.0320677
20
6.9180739
11
33.2288677
21
6.9180739
0
LINE
8
DEFAULT_255_2_778
10
33.2288677
20
6.9180739
11
33.2288677
21
5.2181739
0
LINE
8
DEFAULT_255_2_778
10
33.2288677
20
5.2181739
11
33.0320677
21
5.2181739
0
LINE
8
DEFAULT_255_2_778
10
33.0320677
20
5.2181739
11
33.0320677
21
6.9180739
0
LINE
8
DEFAULT_255_2_778
10
29.5944917
20
6.9180739
11
29.8429917
21
6.9180739
0
LINE
8
DEFAULT_255_2_778
10
29.8429917
20
6.9180739
11
30.4522917
21
5.2181739
0
LINE
8
DEFAULT_255_2_778
10
30.4522917
20
5.2181739
11
30.2398917
21
5.2181739
0
LINE
8
DEFAULT_255_2_778
10
30.2398917
20
5.2181739
11
30.0310917
21
5.8131739
0
LINE
8
DEFAULT_255_2_778
10
30.0310917
20
5.8131739
11
29.3976917
21
5.8131739
0
LINE
8
DEFAULT_255_2_778
10
29.3976917
20
5.8131739
11
29.1888917
21
5.2181739
0
LINE
8
DEFAULT_255_2_778
10
29.1888917
20
5.2181739
11
28.9896917
21
5.2181739
0
LINE
8
DEFAULT_255_2_778
10
28.9896917
20
5.2181739
11
29.5944917
21
6.9180739
0
LINE
8
DEFAULT_255_2_778
10
29.9723917
20
5.9750739
11
29.4563917
21
5.9750739
0
LINE
8
DEFAULT_255_2_778
10
29.4563917
20
5.9750739
11
29.6534917
21
6.5486739
0
LINE
8
DEFAULT_255_2_778
10
29.6534917
20
6.5486739
11
29.7146917
21
6.7336739
0
LINE
8
DEFAULT_255_2_778
10
29.7146917
20
6.7336739
11
29.7167917
21
6.7500739
0
LINE
8
DEFAULT_255_2_778
10
29.7167917
20
6.7500739
11
29.7434917
21
6.6709739
0
LINE
8
DEFAULT_255_2_778
10
29.7434917
20
6.6709739
11
29.7696917
21
6.5748739
0
LINE
8
DEFAULT_255_2_778
10
29.7696917
20
6.5748739
11
29.9723917
21
5.9750739
0
LINE
8
DEFAULT_255_2_778
10
27.1892552
20
5.8695739
11
27.7757552
21
5.8695739
0
LINE
8
DEFAULT_255_2_778
10
27.7757552
20
5.8695739
11
27.7757552
21
6.6997739
0
LINE
8
DEFAULT_255_2_778
10
27.7757552
20
6.6997739
11
27.1892552
21
5.8695739
0
LINE
8
DEFAULT_255_2_778
10
27.7411552
20
6.9180739
11
27.9631552
21
6.9180739
0
LINE
8
DEFAULT_255_2_778
10
27.9631552
20
6.9180739
11
27.9631552
21
5.8695739
0
LINE
8
DEFAULT_255_2_778
10
27.9631552
20
5.8695739
11
28.2258552
21
5.8695739
0
LINE
8
DEFAULT_255_2_778
10
28.2258552
20
5.8695739
11
28.2258552
21
5.7075739
0
LINE
8
DEFAULT_255_2_778
10
28.2258552
20
5.7075739
11
27.9631552
21
5.7075739
0
LINE
8
DEFAULT_255_2_778
10
27.9631552
20
5.7075739
11
27.9631552
21
5.2181739
0
LINE
8
DEFAULT_255_2_778
10
27.9631552
20
5.2181739
11
27.7760552
21
5.2181739
0
LINE
8
DEFAULT_255_2_778
10
27.7760552
20
5.2181739
11
27.7760552
21
5.7075739
0
LINE
8
DEFAULT_255_2_778
10
27.7760552
20
5.7075739
11
27.0095552
21
5.7075739
0
LINE
8
DEFAULT_255_2_778
10
27.0095552
20
5.7075739
11
27.0095552
21
5.8935739
0
LINE
8
DEFAULT_255_2_778
10
27.0095552
20
5.8935739
11
27.7411552
21
6.9180739
0
LINE
8
DEFAULT_255_2_778
10
31.7032688
20
6.8389989
11
31.5818688
21
6.8989989
0
LINE
8
DEFAULT_255_2_778
10
31.5818688
20
6.8989989
11
31.4313688
21
6.9349989
0
LINE
8
DEFAULT_255_2_778
10
31.4313688
20
6.9349989
11
31.2413688
21
6.9386989
0
LINE
8
DEFAULT_255_2_778
10
31.2413688
20
6.9386989
11
31.0849688
21
6.9100989
0
LINE
8
DEFAULT_255_2_778
10
31.0849688
20
6.9100989
11
30.9537688
21
6.8547989
0
LINE
8
DEFAULT_255_2_778
10
30.9537688
20
6.8547989
11
30.8436688
21
6.7772989
0
LINE
8
DEFAULT_255_2_778
10
30.8436688
20
6.7772989
11
30.7748688
21
6.7074989
0
LINE
8
DEFAULT_255_2_778
10
30.7748688
20
6.7074989
11
30.7119688
21
6.6211989
0
LINE
8
DEFAULT_255_2_778
10
30.7119688
20
6.6211989
11
30.6605688
21
6.5272989
0
LINE
8
DEFAULT_255_2_778
10
30.6605688
20
6.5272989
11
30.6272688
21
6.4489989
0
LINE
8
DEFAULT_255_2_778
10
30.6272688
20
6.4489989
11
30.6081688
21
6.3938989
0
LINE
8
DEFAULT_255_2_778
10
30.6081688
20
6.3938989
11
30.5923688
21
6.3375989
0
LINE
8
DEFAULT_255_2_778
10
30.5923688
20
6.3375989
11
30.5796688
21
6.2798989
0
LINE
8
DEFAULT_255_2_778
10
30.5796688
20
6.2798989
11
30.5703688
21
6.2213989
0
LINE
8
DEFAULT_255_2_778
10
30.5703688
20
6.2213989
11
30.5666688
21
6.1909989
0
LINE
8
DEFAULT_255_2_778
10
30.5666688
20
6.1909989
11
30.5671688
21
5.9377989
0
LINE
8
DEFAULT_255_2_778
10
30.5671688
20
5.9377989
11
30.5711688
21
5.9052989
0
LINE
8
DEFAULT_255_2_778
10
30.5711688
20
5.9052989
11
30.5761688
21
5.8726989
0
LINE
8
DEFAULT_255_2_778
10
30.5761688
20
5.8726989
11
30.5886688
21
5.8104989
0
LINE
8
DEFAULT_255_2_778
10
30.5886688
20
5.8104989
11
30.6042688
21
5.7509989
0
LINE
8
DEFAULT_255_2_778
10
30.6042688
20
5.7509989
11
30.6235688
21
5.6927989
0
LINE
8
DEFAULT_255_2_778
10
30.6235688
20
5.6927989
11
30.6574688
21
5.6117989
0
LINE
8
DEFAULT_255_2_778
10
30.6574688
20
5.6117989
11
30.7082688
21
5.5194989
0
LINE
8
DEFAULT_255_2_778
10
30.7082688
20
5.5194989
11
30.7830688
21
5.4186989
0
LINE
8
DEFAULT_255_2_778
10
30.7830688
20
5.4186989
11
30.8664688
21
5.3376989
0
LINE
8
DEFAULT_255_2_778
10
30.8664688
20
5.3376989
11
30.9828688
21
5.2638989
0
LINE
8
DEFAULT_255_2_778
10
30.9828688
20
5.2638989
11
31.1140688
21
5.2167989
0
LINE
8
DEFAULT_255_2_778
10
31.1140688
20
5.2167989
11
31.3125688
21
5.1942989
0
LINE
8
DEFAULT_255_2_778
10
31.3125688
20
5.1942989
11
31.4940688
21
5.2130989
0
LINE
8
DEFAULT_255_2_778
10
31.4940688
20
5.2130989
11
31.6342688
21
5.2609989
0
LINE
8
DEFAULT_255_2_778
10
31.6342688
20
5.2609989
11
31.7477688
21
5.3307989
0
LINE
8
DEFAULT_255_2_778
10
31.7477688
20
5.3307989
11
31.8326688
21
5.4091989
0
LINE
8
DEFAULT_255_2_778
10
31.8326688
20
5.4091989
11
31.8980688
21
5.4932989
0
LINE
8
DEFAULT_255_2_778
10
31.8980688
20
5.4932989
11
31.9517688
21
5.5853989
0
LINE
8
DEFAULT_255_2_778
10
31.9517688
20
5.5853989
11
31.9861688
21
5.6601989
0
LINE
8
DEFAULT_255_2_778
10
31.9861688
20
5.6601989
11
32.0157688
21
5.7422989
0
LINE
8
DEFAULT_255_2_778
10
32.0157688
20
5.7422989
11
32.0316688
21
5.7985989
0
LINE
8
DEFAULT_255_2_778
10
32.0316688
20
5.7985989
11
32.0443688
21
5.8565989
0
LINE
8
DEFAULT_255_2_778
10
32.0443688
20
5.8565989
11
32.0536688
21
5.9149989
0
LINE
8
DEFAULT_255_2_778
10
32.0536688
20
5.9149989
11
32.0573688
21
5.9456989
0
LINE
8
DEFAULT_255_2_778
10
32.0573688
20
5.9456989
11
32.0567688
21
6.1991989
0
LINE
8
DEFAULT_255_2_778
10
32.0567688
20
6.1991989
11
32.0528688
21
6.2314989
0
LINE
8
DEFAULT_255_2_778
10
32.0528688
20
6.2314989
11
32.0477688
21
6.2636989
0
LINE
8
DEFAULT_255_2_778
10
32.0477688
20
6.2636989
11
32.0353688
21
6.3258989
0
LINE
8
DEFAULT_255_2_778
10
32.0353688
20
6.3258989
11
32.0197688
21
6.3851989
0
LINE
8
DEFAULT_255_2_778
10
32.0197688
20
6.3851989
11
32.0004688
21
6.4433989
0
LINE
8
DEFAULT_255_2_778
10
32.0004688
20
6.4433989
11
31.9665688
21
6.5243989
0
LINE
8
DEFAULT_255_2_778
10
31.9665688
20
6.5243989
11
31.9157688
21
6.6169989
0
LINE
8
DEFAULT_255_2_778
10
31.9157688
20
6.6169989
11
31.8411688
21
6.7179989
0
LINE
8
DEFAULT_255_2_778
10
31.8411688
20
6.7179989
11
31.7585688
21
6.7989989
0
LINE
8
DEFAULT_255_2_778
10
31.7585688
20
6.7989989
11
31.7032688
21
6.8389989
0
LINE
8
DEFAULT_255_2_778
10
31.5739688
20
6.7108989
11
31.6604688
21
6.6433989
0
LINE
8
DEFAULT_255_2_778
10
31.6604688
20
6.6433989
11
31.7234688
21
6.5687989
0
LINE
8
DEFAULT_255_2_778
10
31.7234688
20
6.5687989
11
31.7670688
21
6.4962989
0
LINE
8
DEFAULT_255_2_778
10
31.7670688
20
6.4962989
11
31.7940688
21
6.4364989
0
LINE
8
DEFAULT_255_2_778
10
31.7940688
20
6.4364989
11
31.8165688
21
6.3705989
0
LINE
8
DEFAULT_255_2_778
10
31.8165688
20
6.3705989
11
31.8332688
21
6.3028989
0
LINE
8
DEFAULT_255_2_778
10
31.8332688
20
6.3028989
11
31.8424688
21
6.2502989
0
LINE
8
DEFAULT_255_2_778
10
31.8424688
20
6.2502989
11
31.8400688
21
5.8739989
0
LINE
8
DEFAULT_255_2_778
10
31.8400688
20
5.8739989
11
31.8308688
21
5.8253989
0
LINE
8
DEFAULT_255_2_778
10
31.8308688
20
5.8253989
11
31.8189688
21
5.7771989
0
LINE
8
DEFAULT_255_2_778
10
31.8189688
20
5.7771989
11
31.7956688
21
5.7067989
0
LINE
8
DEFAULT_255_2_778
10
31.7956688
20
5.7067989
11
31.7681688
21
5.6448989
0
LINE
8
DEFAULT_255_2_778
10
31.7681688
20
5.6448989
11
31.7112688
21
5.5527989
0
LINE
8
DEFAULT_255_2_778
10
31.7112688
20
5.5527989
11
31.6384688
21
5.4728989
0
LINE
8
DEFAULT_255_2_778
10
31.6384688
20
5.4728989
11
31.5379688
21
5.4051989
0
LINE
8
DEFAULT_255_2_778
10
31.5379688
20
5.4051989
11
31.4035688
21
5.3630989
0
LINE
8
DEFAULT_255_2_778
10
31.4035688
20
5.3630989
11
31.2371688
21
5.3609989
0
LINE
8
DEFAULT_255_2_778
10
31.2371688
20
5.3609989
11
31.0963688
21
5.4006989
0
LINE
8
DEFAULT_255_2_778
10
31.0963688
20
5.4006989
11
30.9902688
21
5.4683989
0
LINE
8
DEFAULT_255_2_778
10
30.9902688
20
5.4683989
11
30.9259688
21
5.5339989
0
LINE
8
DEFAULT_255_2_778
10
30.9259688
20
5.5339989
11
30.8772688
21
5.6032989
0
LINE
8
DEFAULT_255_2_778
10
30.8772688
20
5.6032989
11
30.8386688
21
5.6787989
0
LINE
8
DEFAULT_255_2_778
10
30.8386688
20
5.6787989
11
30.8140688
21
5.7440989
0
LINE
8
DEFAULT_255_2_778
10
30.8140688
20
5.7440989
11
30.7955688
21
5.8112989
0
LINE
8
DEFAULT_255_2_778
10
30.7955688
20
5.8112989
11
30.7862688
21
5.8567989
0
LINE
8
DEFAULT_255_2_778
10
30.7862688
20
5.8567989
11
30.7812688
21
5.8866989
0
LINE
8
DEFAULT_255_2_778
10
30.7812688
20
5.8866989
11
30.7833688
21
6.2618989
0
LINE
8
DEFAULT_255_2_778
10
30.7833688
20
6.2618989
11
30.7926688
21
6.3105989
0
LINE
8
DEFAULT_255_2_778
10
30.7926688
20
6.3105989
11
30.8042688
21
6.3586989
0
LINE
8
DEFAULT_255_2_778
10
30.8042688
20
6.3586989
11
30.8272688
21
6.4290989
0
LINE
8
DEFAULT_255_2_778
10
30.8272688
20
6.4290989
11
30.8545688
21
6.4912989
0
LINE
8
DEFAULT_255_2_778
10
30.8545688
20
6.4912989
11
30.9111688
21
6.5838989
0
LINE
8
DEFAULT_255_2_778
10
30.9111688
20
6.5838989
11
30.9833688
21
6.6637989
0
LINE
8
DEFAULT_255_2_778
10
30.9833688
20
6.6637989
11
31.0831688
21
6.7314989
0
LINE
8
DEFAULT_255_2_778
10
31.0831688
20
6.7314989
11
31.2045688
21
6.7716989
0
LINE
8
DEFAULT_255_2_778
10
31.2045688
20
6.7716989
11
31.3820688
21
6.7759989
0
LINE
8
DEFAULT_255_2_778
10
31.3820688
20
6.7759989
11
31.5254688
21
6.7362989
0
LINE
8
DEFAULT_255_2_778
10
31.5254688
20
6.7362989
11
31.5739688
21
6.7108989
0
ENDSEC
0
EOF