0
SECTION
2
HEADER
9
$MEASUREMENT
70
1
0
ENDSEC
0
SECTION
2
TABLES
0
TABLE
2
LTYPE
0
LTYPE
72
65
70
64
2
CONTINUOUS
3
______
73
0
40
0
0
ENDTAB
0
TABLE
2
LAYER
0
LAYER
2
DEFAULT_255_2_778
70
0
62
255
6
CONTINUOUS
0
ENDTAB
0
ENDSEC
0
SECTION
2
ENTITIES
0
ARC
8
DEFAULT_255_2_778
10
15.0186176
20
119.0006957
40
0.2000282
50
89.992281
51
119.9864181
0
ARC
8
DEFAULT_255_2_778
10
15.0186715
20
119.0006957
40
0.2000282
50
60.0135819
51
90.007719
0
ARC
8
DEFAULT_255_2_778
10
15.0186213
20
119.0007304
40
0.2000233
50
359.9766793
51
59.9961767
0
ARC
8
DEFAULT_255_2_778
10
36.6183351
20
14.0008584
40
0.3001094
50
270.0208901
51
359.9791099
0
ARC
8
DEFAULT_255_2_778
10
36.6183137
20
114.4005182
40
0.3001308
50
0.0058767
51
89.975024
0
ARC
8
DEFAULT_255_2_778
10
-252.9542915
20
46.9506138
40
271.773111
50
0.0000074
51
4.9796307
0
ARC
8
DEFAULT_255_2_778
10
-252.9542915
20
46.9506841
40
271.773111
50
355.0203693
51
359.9999926
0
ARC
8
DEFAULT_255_2_778
10
11.0017853
20
23.948807
40
6.8167063
50
342.873258
51
355.0477282
0
ARC
8
DEFAULT_255_2_778
10
11.0504096
20
23.9366805
40
6.7666677
50
325.6983878
51
342.8501389
0
ARC
8
DEFAULT_255_2_778
10
11.0073776
20
23.9639926
40
6.8176075
50
289.0028641
51
325.7125783
0
ARC
8
DEFAULT_255_2_778
10
11.0292089
20
23.9207889
40
6.7696527
50
275.066092
51
288.9472271
0
ARC
8
DEFAULT_255_2_778
10
11.0193887
20
24.0180827
40
6.8674337
50
269.9937911
51
275.0760226
0
ARC
8
DEFAULT_255_2_778
10
7.5150422
20
22.4653333
40
5.3146856
50
256.6689713
51
270.0377575
0
ARC
8
DEFAULT_255_2_778
10
7.5081942
20
22.4222314
40
5.271167
50
236.8114538
51
256.6333745
0
ARC
8
DEFAULT_255_2_778
10
7.5302131
20
22.4615133
40
5.3160949
50
200.1288526
51
236.8446032
0
ARC
8
DEFAULT_255_2_778
10
7.4902792
20
22.4397966
40
5.2711308
50
185.0416089
51
200.0565938
0
ARC
8
DEFAULT_255_2_778
10
7.586568
20
22.4497684
40
5.3679236
50
179.9927357
51
185.0573146
0
ARC
8
DEFAULT_255_2_778
10
7.533538
20
71.4542577
40
5.3148946
50
166.6692248
51
180.0378252
0
ARC
8
DEFAULT_255_2_778
10
7.4901403
20
71.4611779
40
5.2710716
50
146.8112234
51
166.6336524
0
ARC
8
DEFAULT_255_2_778
10
7.5294089
20
71.4391396
40
5.3159988
50
110.1275358
51
146.8441217
0
ARC
8
DEFAULT_255_2_778
10
7.5078687
20
71.4786569
40
5.2714868
50
95.0411803
51
110.0555135
0
ARC
8
DEFAULT_255_2_778
10
7.5178637
20
71.3821737
40
5.3684753
50
89.9927345
51
95.0569575
0
ARC
8
DEFAULT_255_2_778
10
11.0216802
20
69.93345
40
6.8171997
50
77.8528164
51
90.0271945
0
ARC
8
DEFAULT_255_2_778
10
11.0296315
20
69.9833613
40
6.7667333
50
60.6776228
51
77.8297071
0
ARC
8
DEFAULT_255_2_778
10
11.0062395
20
69.938242
40
6.8175277
50
23.8733977
51
60.691918
0
ARC
8
DEFAULT_255_2_778
10
11.047057
20
69.963547
40
6.7699642
50
10.0170944
51
23.8173682
0
ARC
8
DEFAULT_255_2_778
10
10.9511653
20
69.9453991
40
6.8675509
50
4.9749038
51
10.0270357
0
ARC
8
DEFAULT_255_2_778
10
4.7180589
20
17.7493045
40
4.4990794
50
213.7438887
51
241.7356077
0
ARC
8
DEFAULT_255_2_778
10
4.7184653
20
17.748564
40
4.4986197
50
241.7265831
51
265.0020428
0
LINE
8
DEFAULT_255_2_778
10
4.3199445
20
116.4651489
11
13.5793445
21
118.4008489
0
LINE
8
DEFAULT_255_2_778
10
13.5793445
20
118.4008489
11
14.9186445
21
119.1739489
0
LINE
8
DEFAULT_255_2_778
10
15.2186445
20
119.0006489
11
15.2186445
21
117.4007489
0
LINE
8
DEFAULT_255_2_778
10
55.3186445
20
9.6505489
11
55.3186445
21
8.2445489
0
LINE
8
DEFAULT_255_2_778
10
55.3186445
20
8.2445489
11
55.0186445
21
7.9402489
0
LINE
8
DEFAULT_255_2_778
10
55.0186445
20
7.9402489
11
27.8186445
21
7.5605489
0
LINE
8
DEFAULT_255_2_778
10
35.5185445
20
10.2682489
11
23.5186445
21
10.1008489
0
LINE
8
DEFAULT_255_2_778
10
27.6154445
20
1.1967489
11
22.3155445
21
1.1967489
0
LINE
8
DEFAULT_255_2_778
10
20.5185445
20
1.9744489
11
22.0184445
21
1.9744489
0
LINE
8
DEFAULT_255_2_778
10
22.0184445
20
1.9744489
11
22.2214445
21
2.1810489
0
LINE
8
DEFAULT_255_2_778
10
22.2214445
20
2.1810489
11
22.3185445
21
2.2847489
0
LINE
8
DEFAULT_255_2_778
10
20.5185445
20
8.7270489
11
22.0184445
21
8.7270489
0
LINE
8
DEFAULT_255_2_778
10
22.0184445
20
8.7270489
11
22.2224445
21
8.3334489
0
LINE
8
DEFAULT_255_2_778
10
22.2224445
20
8.3334489
11
22.3182445
21
8.1434489
0
LINE
8
DEFAULT_255_2_778
10
23.5186445
20
9.6505489
11
27.8186445
21
9.6505489
0
LINE
8
DEFAULT_255_2_778
10
27.8186445
20
9.6505489
11
27.8186445
21
-0.0893511
0
LINE
8
DEFAULT_255_2_778
10
35.5185445
20
13.7007489
11
36.6184445
21
13.7007489
0
LINE
8
DEFAULT_255_2_778
10
36.9184445
20
14.0007489
11
36.9184445
21
114.4005489
0
LINE
8
DEFAULT_255_2_778
10
36.6184445
20
114.7006489
11
35.5185445
21
114.7006489
0
LINE
8
DEFAULT_255_2_778
10
11.0186445
20
17.1506489
11
7.5185445
21
17.1506489
0
LINE
8
DEFAULT_255_2_778
10
2.2186445
20
22.4504489
11
2.2186445
21
71.4507489
0
LINE
8
DEFAULT_255_2_778
10
7.5185445
20
76.7506489
11
11.0184445
21
76.7506489
0
LINE
8
DEFAULT_255_2_778
10
55.3186445
20
0.2945489
11
55.3186445
21
2.4564489
0
LINE
8
DEFAULT_255_2_778
10
55.3186445
20
2.4564489
11
55.0186445
21
2.7607489
0
LINE
8
DEFAULT_255_2_778
10
55.0186445
20
2.7607489
11
27.8186445
21
3.1404489
0
LINE
8
DEFAULT_255_2_778
10
4.3265445
20
13.2670489
11
20.5188445
21
11.8504489
0
ARC
8
DEFAULT_255_2_778
10
15.0186749
20
10.7005671
40
0.2000282
50
240.0135819
51
270.007719
0
ARC
8
DEFAULT_255_2_778
10
15.0187288
20
10.7005671
40
0.2000282
50
269.992281
51
299.9864181
0
ARC
8
DEFAULT_255_2_778
10
15.0184367
20
10.7006721
40
0.2002653
50
300.0437962
51
359.9833387
0
ARC
8
DEFAULT_255_2_778
10
4.719028
20
111.9511047
40
4.5000525
50
95.0028207
51
122.9877162
0
ARC
8
DEFAULT_255_2_778
10
4.7177998
20
111.9518273
40
4.4987779
50
122.9796066
51
146.2546042
0
LINE
8
DEFAULT_255_2_778
10
27.6187018
20
1.2008138
11
27.6187018
21
-0.1490862
0
LINE
8
DEFAULT_255_2_778
10
27.6187018
20
-0.1490862
11
20.5186018
21
-0.1490862
0
LINE
8
DEFAULT_255_2_778
10
20.5186018
20
-0.1490862
11
20.5186018
21
13.5436138
0
LINE
8
DEFAULT_255_2_778
10
20.5186018
20
13.5436138
11
0.9754018
21
15.2533138
0
LINE
8
DEFAULT_255_2_778
10
4.3200018
20
13.2361138
11
13.5794018
21
11.3005138
0
LINE
8
DEFAULT_255_2_778
10
13.5794018
20
11.3005138
11
14.9187018
21
10.5273138
0
LINE
8
DEFAULT_255_2_778
10
15.2187018
20
10.7006138
11
15.2187018
21
12.3006138
0
LINE
8
DEFAULT_255_2_778
10
20.5186018
20
120.9739138
11
22.0185018
21
120.9739138
0
LINE
8
DEFAULT_255_2_778
10
22.0185018
20
120.9739138
11
22.2225018
21
121.3676138
0
LINE
8
DEFAULT_255_2_778
10
22.2225018
20
121.3676138
11
22.3183018
21
121.5576138
0
LINE
8
DEFAULT_255_2_778
10
20.5188018
20
117.8505138
11
4.3266018
21
116.4340138
0
LINE
8
DEFAULT_255_2_778
10
36.9188018
20
103.2355138
11
38.5187018
21
103.2355138
0
LINE
8
DEFAULT_255_2_778
10
38.5187018
20
103.2355138
11
38.5187018
21
72.5055138
0
LINE
8
DEFAULT_255_2_778
10
38.5187018
20
72.5055138
11
36.9188018
21
72.5055138
0
LINE
8
DEFAULT_255_2_778
10
58.2188018
20
9.6505138
11
35.5189018
21
9.6505138
0
LINE
8
DEFAULT_255_2_778
10
35.5189018
20
9.6505138
11
35.5189018
21
122.4506138
0
LINE
8
DEFAULT_255_2_778
10
35.5189018
20
122.4506138
11
32.9551018
21
122.4506138
0
LINE
8
DEFAULT_255_2_778
10
32.9551018
20
122.4506138
11
32.2190018
21
122.8755138
0
LINE
8
DEFAULT_255_2_778
10
32.2190018
20
122.8755138
11
30.7191018
21
122.8755138
0
LINE
8
DEFAULT_255_2_778
10
30.7191018
20
122.8755138
11
30.7191018
21
124.0254138
0
LINE
8
DEFAULT_255_2_778
10
30.7191018
20
124.0254138
11
32.2190018
21
124.0254138
0
LINE
8
DEFAULT_255_2_778
10
32.2190018
20
124.0254138
11
32.9551018
21
124.4503138
0
LINE
8
DEFAULT_255_2_778
10
32.9551018
20
124.4503138
11
35.5189018
21
124.4503138
0
LINE
8
DEFAULT_255_2_778
10
35.5189018
20
124.4503138
11
35.5189018
21
129.6830138
0
LINE
8
DEFAULT_255_2_778
10
35.5189018
20
129.6830138
11
27.6181018
21
129.7933138
0
ARC
8
DEFAULT_255_2_778
10
36.018575
20
127.7504994
40
0.500054
50
0.0061878
51
89.9938145
0
ARC
8
DEFAULT_255_2_778
10
4.7202646
20
17.750739
40
4.5016357
50
180.0061803
51
213.6981351
0
ARC
8
DEFAULT_255_2_778
10
4.7208303
20
111.9505964
40
4.5022014
50
146.3040449
51
179.992912
0
LINE
8
DEFAULT_255_2_778
10
58.5187289
20
0.8322534
11
58.518729
21
0.8320667
0
ARC
8
DEFAULT_255_2_778
10
58.01864
20
0.8321906
40
0.500089
50
270.82367
51
359.9858051
0
LINE
8
DEFAULT_255_2_778
10
30.7187289
20
123.9505534
11
31.7188289
21
123.9505534
0
LINE
8
DEFAULT_255_2_778
10
31.7188289
20
123.9505534
11
31.7188289
21
122.9504534
0
LINE
8
DEFAULT_255_2_778
10
31.7188289
20
122.9504534
11
30.7187289
21
122.9504534
0
LINE
8
DEFAULT_255_2_778
10
20.5185289
20
127.7269534
11
22.0184289
21
127.7269534
0
LINE
8
DEFAULT_255_2_778
10
22.0184289
20
127.7269534
11
22.2213289
21
127.5203534
0
LINE
8
DEFAULT_255_2_778
10
22.2213289
20
127.5203534
11
22.3185289
21
127.4165534
0
LINE
8
DEFAULT_255_2_778
10
36.0186289
20
128.2505534
11
35.5185289
21
128.2505534
0
LINE
8
DEFAULT_255_2_778
10
0.9753289
20
114.4480534
11
20.5185289
21
116.1577534
0
LINE
8
DEFAULT_255_2_778
10
20.5185289
20
116.1577534
11
20.5185289
21
129.8507534
0
LINE
8
DEFAULT_255_2_778
10
20.5185289
20
129.8507534
11
27.6186289
21
129.8507534
0
LINE
8
DEFAULT_255_2_778
10
27.6186289
20
129.8507534
11
27.6186289
21
128.5008534
0
LINE
8
DEFAULT_255_2_778
10
27.6186289
20
128.5008534
11
22.3185289
21
128.5008534
0
LINE
8
DEFAULT_255_2_778
10
22.3185289
20
128.5008534
11
22.3185289
21
119.8508534
0
LINE
8
DEFAULT_255_2_778
10
22.3185289
20
119.8508534
11
23.5183289
21
119.8508534
0
LINE
8
DEFAULT_255_2_778
10
33.0185289
20
129.7179534
11
33.0185289
21
131.0506534
0
LINE
8
DEFAULT_255_2_778
10
33.0185289
20
131.0506534
11
25.5186289
21
131.0506534
0
LINE
8
DEFAULT_255_2_778
10
25.5186289
20
131.0506534
11
25.5186289
21
129.8507534
0
LINE
8
DEFAULT_255_2_778
10
35.5185289
20
119.4330534
11
23.5186289
21
119.6005534
0
LINE
8
DEFAULT_255_2_778
10
0.2186289
20
17.7502534
11
0.2186289
21
111.9511534
0
LINE
8
DEFAULT_255_2_778
10
58.2187289
20
9.6505534
11
58.5187289
21
9.3505534
0
LINE
8
DEFAULT_255_2_778
10
58.5187289
20
9.3505534
11
58.5187289
21
0.8322534
0
LINE
8
DEFAULT_255_2_778
10
58.0258289
20
0.3321534
11
27.6181289
21
-0.0924466
0
LINE
8
DEFAULT_255_2_778
10
23.5186289
20
1.2005534
11
23.5186289
21
128.5005534
0
LINE
8
DEFAULT_255_2_778
10
27.8186289
20
129.7907534
11
27.8186289
21
119.5407534
0
ARC
8
DEFAULT_255_2_778
10
42.1855455
20
123.5814631
40
1.4316902
50
0.0199244
51
59.9073247
0
ARC
8
DEFAULT_255_2_778
10
42.1881536
20
123.5820405
40
1.4290818
50
351.3276535
51
359.9968116
0
ARC
8
DEFAULT_255_2_778
10
42.1781356
20
123.5834852
40
1.4392031
50
347.642645
51
351.3309348
0
ARC
8
DEFAULT_255_2_778
10
42.1858051
20
123.5817018
40
1.4313297
50
276.836475
51
347.6466753
0
ARC
8
DEFAULT_255_2_778
10
42.1849845
20
123.5920672
40
1.4417192
50
275.3733718
51
276.8198231
0
LINE
8
DEFAULT_255_2_778
10
42.3186951
20
125.1577837
11
42.9033951
21
124.8201837
0
LINE
8
DEFAULT_255_2_778
10
23.5186951
20
9.8505837
11
22.3187951
21
9.8505837
0
LINE
8
DEFAULT_255_2_778
10
22.3187951
20
9.8505837
11
22.3187951
21
1.2004837
0
LINE
8
DEFAULT_255_2_778
10
23.5186951
20
9.5504837
11
22.3187951
21
9.5504837
0
LINE
8
DEFAULT_255_2_778
10
35.5185951
20
121.7330837
11
35.2185951
21
122.0372837
0
LINE
8
DEFAULT_255_2_778
10
35.2185951
20
122.0372837
11
27.8184951
21
122.1407837
0
LINE
8
DEFAULT_255_2_778
10
35.5185951
20
126.9680837
11
35.2185951
21
126.6637837
0
LINE
8
DEFAULT_255_2_778
10
35.2185951
20
126.6637837
11
27.8184951
21
126.5603837
0
LINE
8
DEFAULT_255_2_778
10
20.0187951
20
3.6510837
11
20.0187951
21
7.0498837
0
LINE
8
DEFAULT_255_2_778
10
20.5188951
20
3.4004837
11
20.0187951
21
3.6505837
0
LINE
8
DEFAULT_255_2_778
10
20.5188688
20
7.3004629
11
20.0187688
21
7.0504629
0
LINE
8
DEFAULT_255_2_778
10
20.0187688
20
122.6511629
11
20.0187688
21
126.0499629
0
ARC
8
DEFAULT_255_2_778
10
36.0186502
20
119.15065
40
0.5000116
50
270.0013268
51
0.0101312
0
ARC
8
DEFAULT_255_2_778
10
37.0187587
20
119.1507353
40
0.5000969
50
179.9996485
51
270.0003515
0
ARC
8
DEFAULT_255_2_778
10
37.0187587
20
127.7504415
40
0.5000969
50
89.9996485
51
180.0003515
0
LINE
8
DEFAULT_255_2_778
10
20.5188618
20
122.4006384
11
20.0187618
21
122.6506384
0
LINE
8
DEFAULT_255_2_778
10
20.5188618
20
126.3005384
11
20.0187618
21
126.0505384
0
LINE
8
DEFAULT_255_2_778
10
35.5185618
20
118.6506384
11
36.0186618
21
118.6506384
0
LINE
8
DEFAULT_255_2_778
10
37.0187618
20
118.6506384
11
42.3186618
21
118.6506384
0
LINE
8
DEFAULT_255_2_778
10
42.3186618
20
118.6506384
11
42.3186618
21
128.2505384
0
LINE
8
DEFAULT_255_2_778
10
42.3186618
20
128.2505384
11
37.0187618
21
128.2505384
0
LINE
8
DEFAULT_255_2_778
10
36.5186618
20
127.7504384
11
36.5186618
21
119.1504384
0
LINE
8
DEFAULT_255_2_778
10
42.318672
20
125.4388114
11
37.018772
21
125.4388114
0
LINE
8
DEFAULT_255_2_778
10
37.018772
20
125.4388114
11
36.912172
21
125.4340114
0
LINE
8
DEFAULT_255_2_778
10
36.912172
20
125.4340114
11
36.809472
21
125.4198114
0
LINE
8
DEFAULT_255_2_778
10
36.809472
20
125.4198114
11
36.715272
21
125.3962114
0
LINE
8
DEFAULT_255_2_778
10
36.715272
20
125.3962114
11
36.634572
21
125.3642114
0
LINE
8
DEFAULT_255_2_778
10
36.634572
20
125.3642114
11
36.571872
21
125.3245114
0
LINE
8
DEFAULT_255_2_778
10
36.571872
20
125.3245114
11
36.532472
21
125.2795114
0
LINE
8
DEFAULT_255_2_778
10
36.532472
20
125.2795114
11
36.518672
21
125.2314114
0
LINE
8
DEFAULT_255_2_778
10
36.518672
20
125.2314114
11
36.504972
21
125.2795114
0
LINE
8
DEFAULT_255_2_778
10
36.504972
20
125.2795114
11
36.465472
21
125.3245114
0
LINE
8
DEFAULT_255_2_778
10
36.465472
20
125.3245114
11
36.402772
21
125.3642114
0
LINE
8
DEFAULT_255_2_778
10
36.402772
20
125.3642114
11
36.322072
21
125.3962114
0
LINE
8
DEFAULT_255_2_778
10
36.322072
20
125.3962114
11
36.227872
21
125.4198114
0
LINE
8
DEFAULT_255_2_778
10
36.227872
20
125.4198114
11
36.125272
21
125.4340114
0
LINE
8
DEFAULT_255_2_778
10
36.125272
20
125.4340114
11
36.018672
21
125.4388114
0
LINE
8
DEFAULT_255_2_778
10
36.018672
20
125.4388114
11
35.518572
21
125.4388114
0
LINE
8
DEFAULT_255_2_778
10
35.518572
20
121.4624114
11
36.018672
21
121.4624114
0
LINE
8
DEFAULT_255_2_778
10
36.018672
20
121.4624114
11
36.125272
21
121.4671114
0
LINE
8
DEFAULT_255_2_778
10
36.125272
20
121.4671114
11
36.227872
21
121.4814114
0
LINE
8
DEFAULT_255_2_778
10
36.227872
20
121.4814114
11
36.322072
21
121.5050114
0
LINE
8
DEFAULT_255_2_778
10
36.322072
20
121.5050114
11
36.402772
21
121.5370114
0
LINE
8
DEFAULT_255_2_778
10
36.402772
20
121.5370114
11
36.465472
21
121.5767114
0
LINE
8
DEFAULT_255_2_778
10
36.465472
20
121.5767114
11
36.504972
21
121.6217114
0
LINE
8
DEFAULT_255_2_778
10
36.504972
20
121.6217114
11
36.518672
21
121.6698114
0
LINE
8
DEFAULT_255_2_778
10
36.518672
20
121.6698114
11
36.532472
21
121.6217114
0
LINE
8
DEFAULT_255_2_778
10
36.532472
20
121.6217114
11
36.571872
21
121.5767114
0
LINE
8
DEFAULT_255_2_778
10
36.571872
20
121.5767114
11
36.634572
21
121.5370114
0
LINE
8
DEFAULT_255_2_778
10
36.634572
20
121.5370114
11
36.715272
21
121.5050114
0
LINE
8
DEFAULT_255_2_778
10
36.715272
20
121.5050114
11
36.809472
21
121.4814114
0
LINE
8
DEFAULT_255_2_778
10
36.809472
20
121.4814114
11
36.912172
21
121.4671114
0
LINE
8
DEFAULT_255_2_778
10
36.912172
20
121.4671114
11
37.018772
21
121.4624114
0
LINE
8
DEFAULT_255_2_778
10
37.018772
20
121.4624114
11
42.318672
21
121.4624114
0
ENDSEC
0
EOF