0
SECTION
2
HEADER
9
$MEASUREMENT
70
1
0
ENDSEC
0
SECTION
2
TABLES
0
TABLE
2
LTYPE
0
LTYPE
72
65
70
64
2
CONTINUOUS
3
______
73
0
40
0
0
ENDTAB
0
TABLE
2
LAYER
0
LAYER
2
DEFAULT_255_2_778
70
0
62
255
6
CONTINUOUS
0
ENDTAB
0
ENDSEC
0
SECTION
2
ENTITIES
0
ARC
8
DEFAULT_255_2_778
10
15.0186227
20
119.0007207
40
0.2000282
50
89.992281
51
119.9864181
0
ARC
8
DEFAULT_255_2_778
10
15.0186766
20
119.0007207
40
0.2000282
50
60.0135819
51
90.007719
0
ARC
8
DEFAULT_255_2_778
10
15.0186271
20
119.0007558
40
0.2000226
50
359.976562
51
59.9962783
0
LINE
8
DEFAULT_255_2_778
10
4.3199497
20
116.465174
11
13.5793497
21
118.400874
0
LINE
8
DEFAULT_255_2_778
10
13.5793497
20
118.400874
11
14.9186497
21
119.173974
0
LINE
8
DEFAULT_255_2_778
10
15.2186497
20
119.000674
11
15.2186497
21
117.400774
0
LINE
8
DEFAULT_255_2_778
10
55.3186497
20
9.650574
11
55.3186497
21
8.244574
0
LINE
8
DEFAULT_255_2_778
10
55.3186497
20
8.244574
11
55.0186497
21
7.940274
0
LINE
8
DEFAULT_255_2_778
10
55.0186497
20
7.940274
11
27.8186497
21
7.560574
0
LINE
8
DEFAULT_255_2_778
10
35.5185497
20
10.268274
11
23.5186497
21
10.100874
0
LINE
8
DEFAULT_255_2_778
10
20.5185497
20
1.974474
11
22.0184497
21
1.974474
0
LINE
8
DEFAULT_255_2_778
10
22.0184497
20
1.974474
11
22.2213497
21
2.181074
0
LINE
8
DEFAULT_255_2_778
10
22.2213497
20
2.181074
11
22.3184497
21
2.284774
0
LINE
8
DEFAULT_255_2_778
10
20.5185407
20
8.7271207
11
22.0184407
21
8.7271207
0
LINE
8
DEFAULT_255_2_778
10
22.0184407
20
8.7271207
11
22.2224407
21
8.3334207
0
LINE
8
DEFAULT_255_2_778
10
22.2224407
20
8.3334207
11
22.3182407
21
8.1434207
0
LINE
8
DEFAULT_255_2_778
10
23.5186407
20
9.6505207
11
27.8186407
21
9.6505207
0
LINE
8
DEFAULT_255_2_778
10
27.8186407
20
9.6505207
11
27.8186407
21
-0.0892793
0
ARC
8
DEFAULT_255_2_778
10
-252.9720388
20
46.950673
40
271.7907895
50
359.9999985
51
4.9792865
0
ARC
8
DEFAULT_255_2_778
10
-252.9720421
20
46.950659
40
271.7907929
50
355.0207136
51
0.0000015
0
ARC
8
DEFAULT_255_2_778
10
11.0014973
20
23.94888
40
6.817
50
342.8736466
51
355.0478916
0
ARC
8
DEFAULT_255_2_778
10
11.0502838
20
23.936701
40
6.7667909
50
325.6988431
51
342.8505505
0
ARC
8
DEFAULT_255_2_778
10
11.0073872
20
23.9639156
40
6.8175639
50
289.0029611
51
325.7130665
0
ARC
8
DEFAULT_255_2_778
10
11.0292193
20
23.9207176
40
6.7696141
50
275.0660856
51
288.947302
0
ARC
8
DEFAULT_255_2_778
10
11.019395
20
24.0180497
40
6.8674337
50
269.9937911
51
275.0760226
0
ARC
8
DEFAULT_255_2_778
10
7.5149502
20
22.4649876
40
5.3143728
50
256.6685664
51
270.0377402
0
ARC
8
DEFAULT_255_2_778
10
7.5081372
20
22.42202
40
5.270993
50
236.8107057
51
256.632932
0
ARC
8
DEFAULT_255_2_778
10
7.5302903
20
22.4614853
40
5.3161478
50
200.1281533
51
236.8437335
0
ARC
8
DEFAULT_255_2_778
10
7.490551
20
22.4398541
40
5.2713958
50
185.0414204
51
200.0560366
0
ARC
8
DEFAULT_255_2_778
10
7.5869204
20
22.4498351
40
5.3682698
50
179.9927338
51
185.0571513
0
ARC
8
DEFAULT_255_2_778
10
7.5333352
20
71.4543183
40
5.3146856
50
166.6689713
51
180.0377575
0
ARC
8
DEFAULT_255_2_778
10
7.4902332
20
71.4611662
40
5.271167
50
146.8114538
51
166.6333745
0
ARC
8
DEFAULT_255_2_778
10
7.5295151
20
71.4391473
40
5.3160949
50
110.1288526
51
146.8446032
0
ARC
8
DEFAULT_255_2_778
10
7.5077984
20
71.4790812
40
5.2711308
50
95.0416089
51
110.0565938
0
ARC
8
DEFAULT_255_2_778
10
7.5177702
20
71.3827925
40
5.3679236
50
89.9927357
51
95.0573146
0
ARC
8
DEFAULT_255_2_778
10
11.0216826
20
69.9337841
40
6.8169326
50
77.8525694
51
90.0271638
0
ARC
8
DEFAULT_255_2_778
10
11.0295895
20
69.9834938
40
6.7666725
50
60.677336
51
77.8294496
0
ARC
8
DEFAULT_255_2_778
10
11.0061181
20
69.9382678
40
6.817599
50
23.9819319
51
60.6914908
0
ARC
8
DEFAULT_255_2_778
10
11.0473856
20
69.9638168
40
6.7695127
50
10.0453765
51
23.9263216
0
ARC
8
DEFAULT_255_2_778
10
10.9515017
20
69.9456268
40
6.8670996
50
4.9730484
51
10.0552751
0
ARC
8
DEFAULT_255_2_778
10
4.7185166
20
17.7500639
40
4.499895
50
213.7490847
51
241.7103225
0
ARC
8
DEFAULT_255_2_778
10
4.7184686
20
17.7485547
40
4.4985434
50
241.7017511
51
265.0019949
0
ARC
8
DEFAULT_255_2_778
10
15.0186238
20
10.7005692
40
0.2000282
50
240.0135819
51
270.007719
0
ARC
8
DEFAULT_255_2_778
10
15.0186777
20
10.7005692
40
0.2000282
50
269.992281
51
299.9864181
0
ARC
8
DEFAULT_255_2_778
10
15.0183856
20
10.7006742
40
0.2002653
50
300.0437962
51
359.9833387
0
ARC
8
DEFAULT_255_2_778
10
4.7189769
20
111.9511068
40
4.5000525
50
95.0028207
51
122.9877162
0
ARC
8
DEFAULT_255_2_778
10
4.7177487
20
111.9518295
40
4.4987779
50
122.9796066
51
146.2546042
0
LINE
8
DEFAULT_255_2_778
10
23.5186508
20
9.8508159
11
22.3187508
21
9.8508159
0
LINE
8
DEFAULT_255_2_778
10
22.3187508
20
9.8508159
11
22.3187508
21
1.2008159
0
LINE
8
DEFAULT_255_2_778
10
22.3187508
20
1.2008159
11
27.6186508
21
1.2008159
0
LINE
8
DEFAULT_255_2_778
10
27.6186508
20
1.2008159
11
27.6186508
21
-0.1490841
0
LINE
8
DEFAULT_255_2_778
10
27.6186508
20
-0.1490841
11
20.5185508
21
-0.1490841
0
LINE
8
DEFAULT_255_2_778
10
20.5185508
20
-0.1490841
11
20.5185508
21
13.5436159
0
LINE
8
DEFAULT_255_2_778
10
20.5185508
20
13.5436159
11
0.9753508
21
15.2533159
0
LINE
8
DEFAULT_255_2_778
10
11.0186508
20
17.1506159
11
7.5184508
21
17.1506159
0
LINE
8
DEFAULT_255_2_778
10
2.2186508
20
22.4505159
11
2.2186508
21
71.4508159
0
LINE
8
DEFAULT_255_2_778
10
7.5184508
20
76.7507159
11
11.0184508
21
76.7507159
0
LINE
8
DEFAULT_255_2_778
10
55.3186508
20
0.2946159
11
55.3186508
21
2.4565159
0
LINE
8
DEFAULT_255_2_778
10
55.3186508
20
2.4565159
11
55.0186508
21
2.7608159
0
LINE
8
DEFAULT_255_2_778
10
55.0186508
20
2.7608159
11
27.8186508
21
3.1404159
0
LINE
8
DEFAULT_255_2_778
10
4.3265508
20
13.2671159
11
20.5187508
21
11.8505159
0
LINE
8
DEFAULT_255_2_778
10
4.3199508
20
13.2361159
11
13.5793508
21
11.3004159
0
LINE
8
DEFAULT_255_2_778
10
13.5793508
20
11.3004159
11
14.9186508
21
10.5273159
0
LINE
8
DEFAULT_255_2_778
10
15.2186508
20
10.7006159
11
15.2186508
21
12.3006159
0
LINE
8
DEFAULT_255_2_778
10
20.5185508
20
120.9739159
11
22.0184508
21
120.9739159
0
LINE
8
DEFAULT_255_2_778
10
22.0184508
20
120.9739159
11
22.2224508
21
121.3676159
0
LINE
8
DEFAULT_255_2_778
10
22.2224508
20
121.3676159
11
22.3182508
21
121.5576159
0
LINE
8
DEFAULT_255_2_778
10
20.5187508
20
117.8505159
11
4.3265508
21
116.4340159
0
LINE
8
DEFAULT_255_2_778
10
35.5188508
20
122.4506159
11
32.9550508
21
122.4506159
0
LINE
8
DEFAULT_255_2_778
10
32.9550508
20
122.4506159
11
32.2189508
21
122.8755159
0
LINE
8
DEFAULT_255_2_778
10
32.2189508
20
122.8755159
11
30.7190508
21
122.8755159
0
LINE
8
DEFAULT_255_2_778
10
30.7190508
20
122.8755159
11
30.7190508
21
124.0254159
0
LINE
8
DEFAULT_255_2_778
10
30.7190508
20
124.0254159
11
32.2189508
21
124.0254159
0
LINE
8
DEFAULT_255_2_778
10
32.2189508
20
124.0254159
11
32.9550508
21
124.4503159
0
LINE
8
DEFAULT_255_2_778
10
32.9550508
20
124.4503159
11
35.5188508
21
124.4503159
0
LINE
8
DEFAULT_255_2_778
10
20.5185508
20
127.7269159
11
22.0184508
21
127.7269159
0
LINE
8
DEFAULT_255_2_778
10
22.0184508
20
127.7269159
11
22.2213508
21
127.5203159
0
LINE
8
DEFAULT_255_2_778
10
22.2213508
20
127.5203159
11
22.3184508
21
127.4165159
0
LINE
8
DEFAULT_255_2_778
10
0.9753974
20
114.4480019
11
20.5185974
21
116.1577019
0
LINE
8
DEFAULT_255_2_778
10
20.5185974
20
116.1577019
11
20.5185974
21
129.8507019
0
LINE
8
DEFAULT_255_2_778
10
20.5185974
20
129.8507019
11
27.6186974
21
129.8507019
0
LINE
8
DEFAULT_255_2_778
10
27.6186974
20
129.8507019
11
27.6186974
21
128.5008019
0
LINE
8
DEFAULT_255_2_778
10
27.6186974
20
128.5008019
11
22.3184974
21
128.5008019
0
LINE
8
DEFAULT_255_2_778
10
22.3184974
20
128.5008019
11
22.3184974
21
119.8508019
0
LINE
8
DEFAULT_255_2_778
10
22.3184974
20
119.8508019
11
23.5183974
21
119.8508019
0
LINE
8
DEFAULT_255_2_778
10
33.0185974
20
129.7179019
11
33.0185974
21
131.0506019
0
LINE
8
DEFAULT_255_2_778
10
33.0185974
20
131.0506019
11
25.5186974
21
131.0506019
0
LINE
8
DEFAULT_255_2_778
10
25.5186974
20
131.0506019
11
25.5186974
21
129.8507019
0
LINE
8
DEFAULT_255_2_778
10
35.5185974
20
119.4330019
11
23.5186974
21
119.6005019
0
ARC
8
DEFAULT_255_2_778
10
4.7202834
20
17.7506735
40
4.5016357
50
180.0061803
51
213.6981351
0
ARC
8
DEFAULT_255_2_778
10
4.7206065
20
111.9506045
40
4.5019589
50
146.3031106
51
179.9938472
0
LINE
8
DEFAULT_255_2_778
10
58.2187477
20
9.6504879
11
35.5188477
21
9.6504879
0
LINE
8
DEFAULT_255_2_778
10
35.5188477
20
9.6504879
11
35.5188477
21
129.6829879
0
LINE
8
DEFAULT_255_2_778
10
35.5188477
20
129.6829879
11
27.6181477
21
129.7932879
0
LINE
8
DEFAULT_255_2_778
10
22.3187477
20
129.8673879
11
20.8185477
21
129.8882879
0
LINE
8
DEFAULT_255_2_778
10
20.8185477
20
129.8882879
11
20.8185477
21
129.8506879
0
LINE
8
DEFAULT_255_2_778
10
0.2186477
20
17.7501879
11
0.2186477
21
111.9510879
0
LINE
8
DEFAULT_255_2_778
10
58.5187755
20
0.8322805
11
58.5187756
21
0.8320937
0
ARC
8
DEFAULT_255_2_778
10
58.0188169
20
0.8320892
40
0.4999587
50
270.8089526
51
0.0005174
0
LINE
8
DEFAULT_255_2_778
10
58.2187755
20
9.6505805
11
58.5187755
21
9.3504805
0
LINE
8
DEFAULT_255_2_778
10
58.5187755
20
9.3504805
11
58.5187755
21
0.8322805
0
LINE
8
DEFAULT_255_2_778
10
58.0258755
20
0.3321805
11
27.6181755
21
-0.0925195
0
LINE
8
DEFAULT_255_2_778
10
20.0187755
20
122.6511805
11
20.0187755
21
126.0499805
0
LINE
8
DEFAULT_255_2_778
10
23.5186755
20
1.2005805
11
23.5186755
21
128.5005805
0
LINE
8
DEFAULT_255_2_778
10
27.8186755
20
129.7906805
11
27.8186755
21
119.5406805
0
LINE
8
DEFAULT_255_2_778
10
35.5185898
20
121.7330041
11
35.2185898
21
122.0373041
0
LINE
8
DEFAULT_255_2_778
10
35.2185898
20
122.0373041
11
27.8184898
21
122.1407041
0
LINE
8
DEFAULT_255_2_778
10
35.5185898
20
126.6680041
11
27.8186898
21
126.5606041
0
LINE
8
DEFAULT_255_2_778
10
20.5188898
20
122.4005041
11
20.0187898
21
122.6506041
0
LINE
8
DEFAULT_255_2_778
10
20.5188688
20
126.3005156
11
20.0187688
21
126.0505156
0
ENDSEC
0
EOF