0
SECTION
2
HEADER
9
$MEASUREMENT
70
1
0
ENDSEC
0
SECTION
2
TABLES
0
TABLE
2
LTYPE
0
LTYPE
72
65
70
64
2
CONTINUOUS
3
______
73
0
40
0
0
ENDTAB
0
TABLE
2
LAYER
0
LAYER
2
DEFAULT_255_2_778
70
0
62
255
6
CONTINUOUS
0
LAYER
2
DEFAULT_255_1_388
70
0
62
255
6
CONTINUOUS
0
ENDTAB
0
ENDSEC
0
SECTION
2
ENTITIES
0
ARC
8
DEFAULT_255_2_778
10
3.5695693
20
83.7426529
40
0.7914215
50
129.1312896
51
180.1450914
0
ARC
8
DEFAULT_255_2_778
10
3.5698345
20
83.74314
40
0.7912112
50
89.854026
51
129.1684493
0
ARC
8
DEFAULT_255_2_778
10
25.7988937
20
83.7428266
40
0.7915249
50
39.4792447
51
90.147911
0
ARC
8
DEFAULT_255_2_778
10
25.7994935
20
83.7426732
40
0.7911595
50
359.8533901
51
39.5154338
0
ARC
8
DEFAULT_255_2_778
10
25.7991693
20
-1.9863993
40
0.7914836
50
309.4761667
51
0.1482649
0
ARC
8
DEFAULT_255_2_778
10
25.798898
20
-1.9868304
40
0.7913235
50
269.8517415
51
309.511178
0
ARC
8
DEFAULT_255_2_778
10
3.569842
20
-1.9867723
40
0.7913815
50
219.1282118
51
270.1454017
0
ARC
8
DEFAULT_255_2_778
10
3.5695247
20
-1.9863898
40
0.7913769
50
179.8524075
51
219.1641908
0
LINE
8
DEFAULT_255_2_778
10
3.5718503
20
84.5343488
11
25.7968503
21
84.5343488
0
LINE
8
DEFAULT_255_2_778
10
26.5906503
20
83.7406488
11
26.5906503
21
-1.9843512
0
LINE
8
DEFAULT_255_2_778
10
25.7968503
20
-2.7781512
11
3.5718503
21
-2.7781512
0
LINE
8
DEFAULT_255_2_778
10
2.7781503
20
-1.9843512
11
2.7781503
21
83.7406488
0
LINE
8
DEFAULT_255_1_388
10
5.8008015
20
0.6766934
11
5.8306191
21
0.6766934
0
LINE
8
DEFAULT_255_1_388
10
5.8306191
20
0.6766934
11
5.8306191
21
0.5348338
0
LINE
8
DEFAULT_255_1_388
10
5.8306191
20
0.5348338
11
5.7998979
21
0.5348338
0
LINE
8
DEFAULT_255_1_388
10
5.1845705
20
-0.1392253
11
5.1845705
21
-0.0750722
0
LINE
8
DEFAULT_255_1_388
10
5.3526335
20
-0.0967578
11
5.3526335
21
-0.1582001
0
ARC
8
DEFAULT_255_1_388
10
5.8057871
20
-0.0274174
40
0.562282
50
90.6001079
51
104.5146616
0
ARC
8
DEFAULT_255_1_388
10
5.762083
20
0.13511
40
0.3939917
50
104.2855758
51
133.8630124
0
ARC
8
DEFAULT_255_1_388
10
5.7805083
20
0.1229243
40
0.4155734
50
134.5304124
51
161.6210222
0
ARC
8
DEFAULT_255_1_388
10
5.9665015
20
0.0573421
40
0.6127682
50
161.2850533
51
174.2074364
0
ARC
8
DEFAULT_255_1_388
10
6.1254582
20
0.0354437
40
0.7731446
50
173.7817938
51
174.9251711
0
ARC
8
DEFAULT_255_1_388
10
5.6128775
20
-0.120073
40
0.3412588
50
95.8332067
51
138.995412
0
ARC
8
DEFAULT_255_1_388
10
5.6380056
20
-0.2639305
40
0.4870358
50
89.8755506
51
97.0540979
0
ARC
8
DEFAULT_255_1_388
10
5.6433445
20
-0.1699159
40
0.3930432
50
71.6407016
51
90.6240821
0
ARC
8
DEFAULT_255_1_388
10
5.6602838
20
-0.1075567
40
0.3285421
50
39.6368051
51
71.0190743
0
ARC
8
DEFAULT_255_1_388
10
5.5886746
20
-0.1694414
40
0.4231706
50
10.6588054
51
39.9044509
0
ARC
8
DEFAULT_255_1_388
10
5.4145291
20
-0.2072777
40
0.60133
50
359.6827842
51
11.1326896
0
ARC
8
DEFAULT_255_1_388
10
5.4100627
20
-0.2152285
40
0.6058047
50
347.2485908
51
0.4371098
0
ARC
8
DEFAULT_255_1_388
10
5.5976413
20
-0.2603621
40
0.4128987
50
318.1408565
51
347.6118497
0
ARC
8
DEFAULT_255_1_388
10
5.6342009
20
-0.2904097
40
0.3656244
50
275.6342406
51
317.824739
0
ARC
8
DEFAULT_255_1_388
10
5.609353
20
-0.1442173
40
0.513655
50
269.8872513
51
276.7916069
0
ARC
8
DEFAULT_255_1_388
10
5.6031723
20
-0.2595819
40
0.398323
50
246.9139443
51
270.7436787
0
ARC
8
DEFAULT_255_1_388
10
5.6038919
20
-0.2755956
40
0.3839368
50
218.1665534
51
245.8780431
0
ARC
8
DEFAULT_255_1_388
10
5.7028291
20
-0.1928097
40
0.5128958
50
191.4115343
51
218.6077624
0
ARC
8
DEFAULT_255_1_388
10
5.9208607
20
-0.1439223
40
0.7363054
50
179.6344971
51
191.7836758
0
ARC
8
DEFAULT_255_1_388
10
6.5488482
20
-0.0675505
40
1.3642984
50
171.4523743
51
180.3158856
0
ARC
8
DEFAULT_255_1_388
10
6.0544209
20
0.0093895
40
0.8639311
50
157.9802296
51
171.6246761
0
ARC
8
DEFAULT_255_1_388
10
5.8053559
20
0.1087038
40
0.5958004
50
141.4299236
51
157.8541251
0
ARC
8
DEFAULT_255_1_388
10
5.7331643
20
0.1597746
40
0.5075416
50
102.871586
51
140.8564533
0
ARC
8
DEFAULT_255_1_388
10
5.8060195
20
-0.1147057
40
0.7914163
50
90.377773
51
103.5868422
0
ARC
8
DEFAULT_255_1_388
10
5.6104717
20
-0.1827457
40
0.2667015
50
89.8751238
51
126.2072139
0
ARC
8
DEFAULT_255_1_388
10
5.6156188
20
-0.2001153
40
0.2838229
50
124.9742447
51
144.8960197
0
ARC
8
DEFAULT_255_1_388
10
5.5958433
20
-0.1840019
40
0.2583845
50
145.2974778
51
160.2660922
0
ARC
8
DEFAULT_255_1_388
10
5.9414921
20
-0.1617849
40
0.5888695
50
179.6512124
51
190.285571
0
ARC
8
DEFAULT_255_1_388
10
5.7509401
20
-0.1977032
40
0.3949683
50
190.0944895
51
207.5099647
0
ARC
8
DEFAULT_255_1_388
10
5.6872982
20
-0.2279823
40
0.3245464
50
207.9585471
51
216.325377
0
ARC
8
DEFAULT_255_1_388
10
5.6490619
20
-0.2594288
40
0.2751259
50
215.7661336
51
232.5457193
0
ARC
8
DEFAULT_255_1_388
10
5.6059735
20
-0.3141727
40
0.2054668
50
232.8005815
51
270.6605497
0
ARC
8
DEFAULT_255_1_388
10
5.611116
20
-0.2732147
40
0.2464268
50
269.3550767
51
288.474612
0
ARC
8
DEFAULT_255_1_388
10
5.6215667
20
-0.3125279
40
0.2058436
50
289.1831976
51
322.9685307
0
ARC
8
DEFAULT_255_1_388
10
5.5527768
20
-0.2582721
40
0.2934408
50
322.6007085
51
346.5183319
0
ARC
8
DEFAULT_255_1_388
10
5.4225524
20
-0.2250566
40
0.4278249
50
346.2584622
51
358.7739592
0
ARC
8
DEFAULT_255_1_388
10
5.30741
20
-0.2188171
40
0.5430876
50
358.3757628
51
0.0082477
0
ARC
8
DEFAULT_255_1_388
10
5.3930918
20
-0.2157144
40
0.4574157
50
359.6211417
51
11.28403
0
ARC
8
DEFAULT_255_1_388
10
5.5367524
20
-0.1857465
40
0.3106708
50
11.0483152
51
31.8145585
0
ARC
8
DEFAULT_255_1_388
10
5.5715229
20
-0.1668955
40
0.2711963
50
32.3028554
51
38.0820598
0
ARC
8
DEFAULT_255_1_388
10
5.6188462
20
-0.1240283
40
0.2075566
50
36.8249851
51
85.741667
0
ARC
8
DEFAULT_255_1_388
10
5.6112875
20
-0.1803935
40
0.2643487
50
85.0150021
51
90.050843
0
LINE
8
DEFAULT_255_1_388
10
6.621238
20
-0.6398
11
6.2571015
21
-0.6398
0
LINE
8
DEFAULT_255_1_388
10
6.2571015
20
-0.6398
11
6.2571015
21
0.6757898
0
LINE
8
DEFAULT_255_1_388
10
6.2571015
20
0.6757898
11
6.6284665
21
0.6757898
0
LINE
8
DEFAULT_255_1_388
10
7.2085549
20
0.0622696
11
7.2085549
21
-0.0217619
0
LINE
8
DEFAULT_255_1_388
10
6.6329843
20
0.5330267
11
6.4305859
21
0.5330267
0
LINE
8
DEFAULT_255_1_388
10
6.4305859
20
0.5330267
11
6.4305859
21
-0.4979404
0
LINE
8
DEFAULT_255_1_388
10
6.4305859
20
-0.4979404
11
6.6131059
21
-0.4979404
0
LINE
8
DEFAULT_255_1_388
10
7.0368776
20
-0.0181477
11
7.0368776
21
0.0586553
0
ARC
8
DEFAULT_255_1_388
10
6.632846
20
0.0159436
40
0.6598608
50
75.4100343
51
90.3802731
0
ARC
8
DEFAULT_255_1_388
10
6.6586705
20
0.1235691
40
0.5492049
50
60.1455157
51
75.1889627
0
ARC
8
DEFAULT_255_1_388
10
6.6765297
20
0.1546914
40
0.5133226
50
26.525419
51
60.1451222
0
ARC
8
DEFAULT_255_1_388
10
6.5505083
20
0.0878642
40
0.6559324
50
7.4029944
51
26.832209
0
ARC
8
DEFAULT_255_1_388
10
6.371148
20
0.0599229
40
0.8374103
50
0.1605597
51
7.7176135
0
ARC
8
DEFAULT_255_1_388
10
6.389588
20
-0.0260679
40
0.8189782
50
348.7289744
51
0.30125
0
ARC
8
DEFAULT_255_1_388
10
6.5759344
20
-0.0630844
40
0.628991
50
333.0706936
51
348.7181455
0
ARC
8
DEFAULT_255_1_388
10
6.6846973
20
-0.1221551
40
0.5052808
50
299.2531435
51
333.4571133
0
ARC
8
DEFAULT_255_1_388
10
6.6441003
20
-0.0450371
40
0.5924066
50
278.1072193
51
299.0340218
0
ARC
8
DEFAULT_255_1_388
10
6.6153052
20
0.1245979
40
0.7644209
50
270.4446841
51
278.4508355
0
ARC
8
DEFAULT_255_1_388
10
6.6176536
20
0.02003
40
0.5179903
50
269.4969684
51
284.0204874
0
ARC
8
DEFAULT_255_1_388
10
6.6576254
20
-0.1335585
40
0.3592968
50
283.7699076
51
318.1557121
0
ARC
8
DEFAULT_255_1_388
10
6.6196799
20
-0.1051601
40
0.4065308
50
318.7417595
51
343.687252
0
ARC
8
DEFAULT_255_1_388
10
6.4167378
20
-0.0417725
40
0.6191194
50
343.3324891
51
355.8548594
0
ARC
8
DEFAULT_255_1_388
10
6.1806416
20
-0.0193281
40
0.856237
50
355.4988754
51
0.0789913
0
ARC
8
DEFAULT_255_1_388
10
6.2687215
20
0.063408
40
0.7681709
50
359.6455047
51
9.8607559
0
ARC
8
DEFAULT_255_1_388
10
6.5342938
20
0.1113664
40
0.498312
50
9.6573037
51
26.1931522
0
ARC
8
DEFAULT_255_1_388
10
6.6387013
20
0.1598587
40
0.3832303
50
26.5777895
51
40.1533752
0
ARC
8
DEFAULT_255_1_388
10
6.6674678
20
0.182302
40
0.3467742
50
40.3839958
51
80.1430923
0
ARC
8
DEFAULT_255_1_388
10
6.6306934
20
0.0192486
40
0.5137832
50
79.2153636
51
89.7445174
0
LINE
8
DEFAULT_255_1_388
10
7.6449765
20
0.6757898
11
7.6449765
21
-0.4979404
0
LINE
8
DEFAULT_255_1_388
10
7.6449765
20
-0.4979404
11
8.268436
21
-0.4979404
0
LINE
8
DEFAULT_255_1_388
10
8.268436
20
-0.4979404
11
8.268436
21
-0.6398
0
LINE
8
DEFAULT_255_1_388
10
8.268436
20
-0.6398
11
7.4705886
21
-0.6398
0
LINE
8
DEFAULT_255_1_388
10
7.4705886
20
-0.6398
11
7.4705886
21
0.6757898
0
LINE
8
DEFAULT_255_1_388
10
7.4705886
20
0.6757898
11
7.6449765
21
0.6757898
0
LINE
8
DEFAULT_255_1_388
10
8.9723127
20
0.6821148
11
8.9723127
21
-0.6398
0
LINE
8
DEFAULT_255_1_388
10
8.9723127
20
-0.6398
11
8.8042497
21
-0.6398
0
LINE
8
DEFAULT_255_1_388
10
8.8042497
20
-0.6398
11
8.8042497
21
0.474295
0
LINE
8
DEFAULT_255_1_388
10
8.8042497
20
0.474295
11
8.4672202
21
0.3505066
0
LINE
8
DEFAULT_255_1_388
10
8.4672202
20
0.3505066
11
8.4672202
21
0.5023055
0
LINE
8
DEFAULT_255_1_388
10
8.4672202
20
0.5023055
11
8.9461093
21
0.6821148
0
LINE
8
DEFAULT_255_1_388
10
8.9461093
20
0.6821148
11
8.9723127
21
0.6821148
0
LINE
8
DEFAULT_255_1_388
10
10.0114118
20
0.6821148
11
10.0114118
21
-0.6398
0
LINE
8
DEFAULT_255_1_388
10
10.0114118
20
-0.6398
11
9.8433488
21
-0.6398
0
LINE
8
DEFAULT_255_1_388
10
9.8433488
20
-0.6398
11
9.8433488
21
0.474295
0
LINE
8
DEFAULT_255_1_388
10
9.8433488
20
0.474295
11
9.5063193
21
0.3505066
0
LINE
8
DEFAULT_255_1_388
10
9.5063193
20
0.3505066
11
9.5063193
21
0.5023055
0
LINE
8
DEFAULT_255_1_388
10
9.5063193
20
0.5023055
11
9.9852084
21
0.6821148
0
LINE
8
DEFAULT_255_1_388
10
9.9852084
20
0.6821148
11
10.0114118
21
0.6821148
0
LINE
8
DEFAULT_255_1_388
10
10.7442026
20
-0.0371225
11
10.7442026
21
0.0993157
0
LINE
8
DEFAULT_255_1_388
10
10.7442026
20
0.0993157
11
10.869798
21
0.0993157
0
LINE
8
DEFAULT_255_1_388
10
10.6556533
20
0.3306282
11
10.4884938
21
0.3306282
0
LINE
8
DEFAULT_255_1_388
10
10.4767475
20
-0.2928312
11
10.6448105
21
-0.2928312
0
LINE
8
DEFAULT_255_1_388
10
10.869798
20
-0.0371225
11
10.7442026
21
-0.0371225
0
ARC
8
DEFAULT_255_1_388
10
10.8665207
20
0.4809922
40
0.3816905
50
270.491971
51
281.8953028
0
ARC
8
DEFAULT_255_1_388
10
10.8936634
20
0.3570199
40
0.2547877
50
281.6690378
51
301.2943765
0
ARC
8
DEFAULT_255_1_388
10
10.9128085
20
0.3219926
40
0.2149197
50
301.7834992
51
311.754567
0
ARC
8
DEFAULT_255_1_388
10
10.9231127
20
0.310565
40
0.1995326
50
311.7325027
51
354.2803031
0
ARC
8
DEFAULT_255_1_388
10
10.8413543
20
0.324628
40
0.2823461
50
353.0941646
51
0.1174696
0
ARC
8
DEFAULT_255_1_388
10
10.78951
20
0.3299874
40
0.3342238
50
359.1804452
51
15.0452323
0
ARC
8
DEFAULT_255_1_388
10
10.9409159
20
0.3741546
40
0.1765747
50
13.957816
51
77.6713812
0
ARC
8
DEFAULT_255_1_388
10
10.8974395
20
0.2183464
40
0.3381982
50
76.111571
51
90.7028736
0
ARC
8
DEFAULT_255_1_388
10
10.8907807
20
0.249125
40
0.3074046
50
89.5321574
51
103.5319393
0
ARC
8
DEFAULT_255_1_388
10
10.868219
20
0.3390443
40
0.2147041
50
103.2930114
51
133.5619756
0
ARC
8
DEFAULT_255_1_388
10
10.8632132
20
0.3457351
40
0.2064084
50
133.8349761
51
173.5343225
0
ARC
8
DEFAULT_255_1_388
10
10.9445789
20
0.3313144
40
0.2889266
50
172.5097183
51
180.1360699
0
ARC
8
DEFAULT_255_1_388
10
10.8375553
20
0.335188
40
0.3490913
50
155.3483706
51
180.7484035
0
ARC
8
DEFAULT_255_1_388
10
10.8320529
20
0.3319519
40
0.3454798
50
131.5745177
51
154.4799474
0
ARC
8
DEFAULT_255_1_388
10
10.8672811
20
0.2963422
40
0.3955058
50
96.9874487
51
131.9690874
0
ARC
8
DEFAULT_255_1_388
10
10.8919704
20
0.1562407
40
0.537622
50
89.8592909
51
97.7827481
0
ARC
8
DEFAULT_255_1_388
10
10.8973813
20
0.126736
40
0.5671399
50
78.3654493
51
90.4132586
0
ARC
8
DEFAULT_255_1_388
10
10.9376454
20
0.3133918
40
0.3762034
50
56.6229818
51
78.6387103
0
ARC
8
DEFAULT_255_1_388
10
10.9618284
20
0.3556846
40
0.3275964
50
47.0254604
51
56.085558
0
ARC
8
DEFAULT_255_1_388
10
10.9640535
20
0.3601189
40
0.3228382
50
10.9207523
51
46.777927
0
ARC
8
DEFAULT_255_1_388
10
10.8106128
20
0.3246401
40
0.4802559
50
359.6364235
51
11.6087615
0
ARC
8
DEFAULT_255_1_388
10
11.0170294
20
0.3229404
40
0.273833
50
332.3549969
51
359.7179765
0
ARC
8
DEFAULT_255_1_388
10
10.9438695
20
0.3576285
40
0.3547505
50
325.2332381
51
332.8746682
0
ARC
8
DEFAULT_255_1_388
10
10.9610278
20
0.3456763
40
0.3338396
50
292.9803892
51
325.2391113
0
ARC
8
DEFAULT_255_1_388
10
10.9299473
20
0.4061679
40
0.4016959
50
292.542178
51
293.6931461
0
ARC
8
DEFAULT_255_1_388
10
10.9743045
20
-0.3203964
40
0.372079
50
57.643292
51
72.8626085
0
ARC
8
DEFAULT_255_1_388
10
11.014188
20
-0.2557727
40
0.2961455
50
36.7246661
51
57.4701329
0
ARC
8
DEFAULT_255_1_388
10
11.0129037
20
-0.254353
40
0.2963321
50
8.054535
51
36.3561529
0
ARC
8
DEFAULT_255_1_388
10
10.9158709
20
-0.2717927
40
0.3948682
50
359.8316595
51
8.5873361
0
ARC
8
DEFAULT_255_1_388
10
10.8736184
20
-0.277203
40
0.4371398
50
343.9831631
51
0.557075
0
ARC
8
DEFAULT_255_1_388
10
10.9733233
20
-0.3045037
40
0.3337749
50
311.6358204
51
343.7652116
0
ARC
8
DEFAULT_255_1_388
10
10.9307487
20
-0.2565045
40
0.3979351
50
279.7829743
51
311.625622
0
ARC
8
DEFAULT_255_1_388
10
10.8968622
20
-0.0948358
40
0.5630417
50
269.7285092
51
280.3857694
0
ARC
8
DEFAULT_255_1_388
10
10.8898935
20
-0.0994759
40
0.5584119
50
256.6827433
51
270.4412869
0
ARC
8
DEFAULT_255_1_388
10
10.8517922
20
-0.2552302
40
0.3980715
50
229.4223821
51
256.8554507
0
ARC
8
DEFAULT_255_1_388
10
10.8051475
20
-0.3077317
40
0.3278564
50
181.8183354
51
229.6455015
0
ARC
8
DEFAULT_255_1_388
10
10.9221084
20
-0.2930175
40
0.4453611
50
179.9760419
51
183.2330638
0
ARC
8
DEFAULT_255_1_388
10
10.9027637
20
-0.2953219
40
0.2579652
50
179.4467996
51
196.2871626
0
ARC
8
DEFAULT_255_1_388
10
10.847909
20
-0.3103291
40
0.2011057
50
196.5661293
51
227.7059371
0
ARC
8
DEFAULT_255_1_388
10
10.8663698
20
-0.2896845
40
0.2287994
50
227.7653015
51
257.8763321
0
ARC
8
DEFAULT_255_1_388
10
10.8916781
20
-0.1836039
40
0.3378385
50
257.4583525
51
270.4267406
0
ARC
8
DEFAULT_255_1_388
10
10.896803
20
-0.150977
40
0.3704652
50
269.5965319
51
280.8788143
0
ARC
8
DEFAULT_255_1_388
10
10.9226258
20
-0.2799471
40
0.2389415
50
280.6347277
51
299.8594068
0
ARC
8
DEFAULT_255_1_388
10
10.9441028
20
-0.3207264
40
0.19289
50
300.3575552
51
314.5515667
0
ARC
8
DEFAULT_255_1_388
10
10.9347704
20
-0.3138975
40
0.204312
50
315.0730962
51
345.0429362
0
ARC
8
DEFAULT_255_1_388
10
10.8309211
20
-0.2836461
40
0.31246
50
344.598526
51
357.9270698
0
ARC
8
DEFAULT_255_1_388
10
10.7299516
20
-0.2767295
40
0.4136265
50
357.4755098
51
0.0224936
0
ARC
8
DEFAULT_255_1_388
10
10.8452394
20
-0.2739901
40
0.2983498
50
359.5051035
51
13.4236939
0
ARC
8
DEFAULT_255_1_388
10
10.9427483
20
-0.2490363
40
0.1977186
50
12.9497905
51
48.7550905
0
ARC
8
DEFAULT_255_1_388
10
10.9222405
20
-0.2770627
40
0.2323321
50
49.509109
51
72.1832965
0
ARC
8
DEFAULT_255_1_388
10
10.8819874
20
-0.3965368
40
0.358397
50
71.9008458
51
84.3555134
0
ARC
8
DEFAULT_255_1_388
10
10.8638268
20
-0.5497288
40
0.512641
50
84.019632
51
89.3326067
0
LINE
8
DEFAULT_255_1_388
10
12.0896101
20
0.6821148
11
12.0896101
21
-0.6398
0
LINE
8
DEFAULT_255_1_388
10
12.0896101
20
-0.6398
11
11.9215471
21
-0.6398
0
LINE
8
DEFAULT_255_1_388
10
11.9215471
20
-0.6398
11
11.9215471
21
0.474295
0
LINE
8
DEFAULT_255_1_388
10
11.9215471
20
0.474295
11
11.5845175
21
0.3505066
0
LINE
8
DEFAULT_255_1_388
10
11.5845175
20
0.3505066
11
11.5845175
21
0.5023055
0
LINE
8
DEFAULT_255_1_388
10
11.5845175
20
0.5023055
11
12.0634067
21
0.6821148
0
LINE
8
DEFAULT_255_1_388
10
12.0634067
20
0.6821148
11
12.0896101
21
0.6821148
0
LINE
8
DEFAULT_255_1_388
10
12.944382
20
-0.0127263
11
12.944382
21
-0.1491645
0
LINE
8
DEFAULT_255_1_388
10
12.944382
20
-0.1491645
11
12.5034426
21
-0.1491645
0
LINE
8
DEFAULT_255_1_388
10
12.5034426
20
-0.1491645
11
12.5034426
21
-0.0127263
0
LINE
8
DEFAULT_255_1_388
10
12.5034426
20
-0.0127263
11
12.944382
21
-0.0127263
0
LINE
8
DEFAULT_255_1_388
10
13.7160261
20
0.6766934
11
13.7458437
21
0.6766934
0
LINE
8
DEFAULT_255_1_388
10
13.7458437
20
0.6766934
11
13.7458437
21
0.5348338
0
LINE
8
DEFAULT_255_1_388
10
13.7458437
20
0.5348338
11
13.7151225
21
0.5348338
0
LINE
8
DEFAULT_255_1_388
10
13.0997951
20
-0.1392253
11
13.0997951
21
-0.0750722
0
LINE
8
DEFAULT_255_1_388
10
13.2678581
20
-0.0967578
11
13.2678581
21
-0.1582001
0
ARC
8
DEFAULT_255_1_388
10
13.7210117
20
-0.0274174
40
0.562282
50
90.6001079
51
104.5146616
0
ARC
8
DEFAULT_255_1_388
10
13.6773076
20
0.13511
40
0.3939917
50
104.2855758
51
133.8630124
0
ARC
8
DEFAULT_255_1_388
10
13.6957329
20
0.1229243
40
0.4155734
50
134.5304124
51
161.6210222
0
ARC
8
DEFAULT_255_1_388
10
13.8817261
20
0.0573421
40
0.6127682
50
161.2850533
51
174.2074364
0
ARC
8
DEFAULT_255_1_388
10
14.0406828
20
0.0354437
40
0.7731446
50
173.7817938
51
174.9251711
0
ARC
8
DEFAULT_255_1_388
10
13.5281021
20
-0.120073
40
0.3412588
50
95.8332067
51
138.995412
0
ARC
8
DEFAULT_255_1_388
10
13.5532302
20
-0.2639305
40
0.4870358
50
89.8755506
51
97.0540979
0
ARC
8
DEFAULT_255_1_388
10
13.5585691
20
-0.1699159
40
0.3930432
50
71.6407016
51
90.6240821
0
ARC
8
DEFAULT_255_1_388
10
13.5755084
20
-0.1075567
40
0.3285421
50
39.6368051
51
71.0190743
0
ARC
8
DEFAULT_255_1_388
10
13.5038992
20
-0.1694414
40
0.4231706
50
10.6588054
51
39.9044509
0
ARC
8
DEFAULT_255_1_388
10
13.3297537
20
-0.2072777
40
0.60133
50
359.6827842
51
11.1326896
0
ARC
8
DEFAULT_255_1_388
10
13.3252873
20
-0.2152285
40
0.6058047
50
347.2485908
51
0.4371098
0
ARC
8
DEFAULT_255_1_388
10
13.5128659
20
-0.2603621
40
0.4128987
50
318.1408565
51
347.6118497
0
ARC
8
DEFAULT_255_1_388
10
13.5494255
20
-0.2904097
40
0.3656244
50
275.6342406
51
317.824739
0
ARC
8
DEFAULT_255_1_388
10
13.5245776
20
-0.1442173
40
0.513655
50
269.8872513
51
276.7916069
0
ARC
8
DEFAULT_255_1_388
10
13.5183969
20
-0.2595819
40
0.398323
50
246.9139443
51
270.7436787
0
ARC
8
DEFAULT_255_1_388
10
13.5191165
20
-0.2755956
40
0.3839368
50
218.1665534
51
245.8780431
0
ARC
8
DEFAULT_255_1_388
10
13.6180537
20
-0.1928097
40
0.5128958
50
191.4115343
51
218.6077624
0
ARC
8
DEFAULT_255_1_388
10
13.8360853
20
-0.1439223
40
0.7363054
50
179.6344971
51
191.7836758
0
ARC
8
DEFAULT_255_1_388
10
14.4640728
20
-0.0675505
40
1.3642984
50
171.4523743
51
180.3158856
0
ARC
8
DEFAULT_255_1_388
10
13.9696455
20
0.0093895
40
0.8639311
50
157.9802296
51
171.6246761
0
ARC
8
DEFAULT_255_1_388
10
13.7205805
20
0.1087038
40
0.5958004
50
141.4299236
51
157.8541251
0
ARC
8
DEFAULT_255_1_388
10
13.6483889
20
0.1597746
40
0.5075416
50
102.871586
51
140.8564533
0
ARC
8
DEFAULT_255_1_388
10
13.7212441
20
-0.1147057
40
0.7914163
50
90.377773
51
103.5868422
0
ARC
8
DEFAULT_255_1_388
10
13.5256963
20
-0.1827457
40
0.2667015
50
89.8751238
51
126.2072139
0
ARC
8
DEFAULT_255_1_388
10
13.5308434
20
-0.2001153
40
0.2838229
50
124.9742447
51
144.8960197
0
ARC
8
DEFAULT_255_1_388
10
13.5110679
20
-0.1840019
40
0.2583845
50
145.2974778
51
160.2660922
0
ARC
8
DEFAULT_255_1_388
10
13.8567167
20
-0.1617849
40
0.5888695
50
179.6512124
51
190.285571
0
ARC
8
DEFAULT_255_1_388
10
13.6661647
20
-0.1977032
40
0.3949683
50
190.0944895
51
207.5099647
0
ARC
8
DEFAULT_255_1_388
10
13.6025228
20
-0.2279823
40
0.3245464
50
207.9585471
51
216.325377
0
ARC
8
DEFAULT_255_1_388
10
13.5642866
20
-0.2594288
40
0.2751259
50
215.7661336
51
232.5457193
0
ARC
8
DEFAULT_255_1_388
10
13.5211981
20
-0.3141727
40
0.2054668
50
232.8005815
51
270.6605497
0
ARC
8
DEFAULT_255_1_388
10
13.5263406
20
-0.2732147
40
0.2464268
50
269.3550767
51
288.474612
0
ARC
8
DEFAULT_255_1_388
10
13.5367913
20
-0.3125279
40
0.2058436
50
289.1831976
51
322.9685307
0
ARC
8
DEFAULT_255_1_388
10
13.4680014
20
-0.2582721
40
0.2934408
50
322.6007085
51
346.5183319
0
ARC
8
DEFAULT_255_1_388
10
13.337777
20
-0.2250566
40
0.4278249
50
346.2584622
51
358.7739592
0
ARC
8
DEFAULT_255_1_388
10
13.2226346
20
-0.2188171
40
0.5430876
50
358.3757628
51
0.0082477
0
ARC
8
DEFAULT_255_1_388
10
13.3083164
20
-0.2157144
40
0.4574157
50
359.6211417
51
11.28403
0
ARC
8
DEFAULT_255_1_388
10
13.451977
20
-0.1857465
40
0.3106708
50
11.0483152
51
31.8145585
0
ARC
8
DEFAULT_255_1_388
10
13.4867476
20
-0.1668955
40
0.2711963
50
32.3028554
51
38.0820598
0
ARC
8
DEFAULT_255_1_388
10
13.5340709
20
-0.1240283
40
0.2075566
50
36.8249851
51
85.741667
0
ARC
8
DEFAULT_255_1_388
10
13.5265121
20
-0.1803935
40
0.2643487
50
85.0150021
51
90.050843
0
LINE
8
DEFAULT_255_1_388
10
14.5364626
20
-0.6398
11
14.1723261
21
-0.6398
0
LINE
8
DEFAULT_255_1_388
10
14.1723261
20
-0.6398
11
14.1723261
21
0.6757898
0
LINE
8
DEFAULT_255_1_388
10
14.1723261
20
0.6757898
11
14.5436911
21
0.6757898
0
LINE
8
DEFAULT_255_1_388
10
15.1237795
20
0.0622696
11
15.1237795
21
-0.0217619
0
LINE
8
DEFAULT_255_1_388
10
14.5482089
20
0.5330267
11
14.3458105
21
0.5330267
0
LINE
8
DEFAULT_255_1_388
10
14.3458105
20
0.5330267
11
14.3458105
21
-0.4979404
0
LINE
8
DEFAULT_255_1_388
10
14.3458105
20
-0.4979404
11
14.5283305
21
-0.4979404
0
LINE
8
DEFAULT_255_1_388
10
14.9521022
20
-0.0181477
11
14.9521022
21
0.0586553
0
ARC
8
DEFAULT_255_1_388
10
14.5480706
20
0.0159436
40
0.6598608
50
75.4100343
51
90.3802731
0
ARC
8
DEFAULT_255_1_388
10
14.5738951
20
0.1235691
40
0.5492049
50
60.1455157
51
75.1889627
0
ARC
8
DEFAULT_255_1_388
10
14.5917543
20
0.1546914
40
0.5133226
50
26.525419
51
60.1451222
0
ARC
8
DEFAULT_255_1_388
10
14.4657329
20
0.0878642
40
0.6559324
50
7.4029944
51
26.832209
0
ARC
8
DEFAULT_255_1_388
10
14.2863726
20
0.0599229
40
0.8374103
50
0.1605597
51
7.7176135
0
ARC
8
DEFAULT_255_1_388
10
14.3048127
20
-0.0260679
40
0.8189782
50
348.7289744
51
0.30125
0
ARC
8
DEFAULT_255_1_388
10
14.491159
20
-0.0630844
40
0.628991
50
333.0706936
51
348.7181455
0
ARC
8
DEFAULT_255_1_388
10
14.5999219
20
-0.1221551
40
0.5052808
50
299.2531435
51
333.4571133
0
ARC
8
DEFAULT_255_1_388
10
14.5593249
20
-0.0450371
40
0.5924066
50
278.1072193
51
299.0340218
0
ARC
8
DEFAULT_255_1_388
10
14.5305298
20
0.1245979
40
0.7644209
50
270.4446841
51
278.4508355
0
ARC
8
DEFAULT_255_1_388
10
14.5328782
20
0.02003
40
0.5179903
50
269.4969684
51
284.0204874
0
ARC
8
DEFAULT_255_1_388
10
14.57285
20
-0.1335585
40
0.3592968
50
283.7699076
51
318.1557121
0
ARC
8
DEFAULT_255_1_388
10
14.5349046
20
-0.1051601
40
0.4065308
50
318.7417595
51
343.687252
0
ARC
8
DEFAULT_255_1_388
10
14.3319624
20
-0.0417725
40
0.6191194
50
343.3324891
51
355.8548594
0
ARC
8
DEFAULT_255_1_388
10
14.0958662
20
-0.0193281
40
0.856237
50
355.4988754
51
0.0789913
0
ARC
8
DEFAULT_255_1_388
10
14.1839461
20
0.063408
40
0.7681709
50
359.6455047
51
9.8607559
0
ARC
8
DEFAULT_255_1_388
10
14.4495184
20
0.1113664
40
0.498312
50
9.6573037
51
26.1931522
0
ARC
8
DEFAULT_255_1_388
10
14.5539259
20
0.1598587
40
0.3832303
50
26.5777895
51
40.1533752
0
ARC
8
DEFAULT_255_1_388
10
14.5826924
20
0.182302
40
0.3467742
50
40.3839958
51
80.1430923
0
ARC
8
DEFAULT_255_1_388
10
14.545918
20
0.0192486
40
0.5137832
50
79.2153636
51
89.7445174
0
LINE
8
DEFAULT_255_1_388
10
16.1113754
20
0.0830516
11
16.1113754
21
-0.0588081
0
LINE
8
DEFAULT_255_1_388
10
16.1113754
20
-0.0588081
11
15.5592976
21
-0.0588081
0
LINE
8
DEFAULT_255_1_388
10
15.5592976
20
-0.0588081
11
15.5592976
21
-0.6398
0
LINE
8
DEFAULT_255_1_388
10
15.5592976
20
-0.6398
11
15.3858132
21
-0.6398
0
LINE
8
DEFAULT_255_1_388
10
15.3858132
20
-0.6398
11
15.3858132
21
0.6757898
0
LINE
8
DEFAULT_255_1_388
10
15.3858132
20
0.6757898
11
16.2008283
21
0.6757898
0
LINE
8
DEFAULT_255_1_388
10
16.2008283
20
0.6757898
11
16.2008283
21
0.5330267
0
LINE
8
DEFAULT_255_1_388
10
16.2008283
20
0.5330267
11
15.5592976
21
0.5330267
0
LINE
8
DEFAULT_255_1_388
10
15.5592976
20
0.5330267
11
15.5592976
21
0.0830516
0
LINE
8
DEFAULT_255_1_388
10
15.5592976
20
0.0830516
11
16.1113754
21
0.0830516
0
LINE
8
DEFAULT_255_1_388
10
17.1902314
20
0.138169
11
17.1902314
21
-0.0786865
0
LINE
8
DEFAULT_255_1_388
10
16.3598557
20
-0.1012756
11
16.3598557
21
0.1219048
0
LINE
8
DEFAULT_255_1_388
10
17.023072
20
-0.1238647
11
17.023072
21
0.1499153
0
LINE
8
DEFAULT_255_1_388
10
16.5270151
20
0.1625652
11
16.5270151
21
-0.1048898
0
ARC
8
DEFAULT_255_1_388
10
15.8124648
20
-0.0841882
40
1.3777776
50
353.8440855
51
0.2287917
0
ARC
8
DEFAULT_255_1_388
10
16.3343665
20
-0.1424586
40
0.852639
50
344.4934746
51
353.9763743
0
ARC
8
DEFAULT_255_1_388
10
16.6710473
20
-0.2381809
40
0.5026273
50
329.2803599
51
344.7473406
0
ARC
8
DEFAULT_255_1_388
10
16.7825968
20
-0.2993962
40
0.3754848
50
324.9361395
51
328.6153007
0
ARC
8
DEFAULT_255_1_388
10
16.8251618
20
-0.3291414
40
0.3235566
50
280.5801797
51
324.9173226
0
ARC
8
DEFAULT_255_1_388
10
16.7800247
20
-0.1411764
40
0.5167077
50
269.5979457
51
281.6732777
0
ARC
8
DEFAULT_255_1_388
10
16.771915
20
-0.1546887
40
0.5032026
50
256.6228565
51
270.5105488
0
ARC
8
DEFAULT_255_1_388
10
16.7266893
20
-0.3288655
40
0.3233092
50
215.8618351
51
257.2787793
0
ARC
8
DEFAULT_255_1_388
10
16.84156
20
-0.2517894
40
0.4615831
50
197.9695203
51
215.2622745
0
ARC
8
DEFAULT_255_1_388
10
17.1211276
20
-0.1574359
40
0.7566307
50
187.8816486
51
198.2346584
0
ARC
8
DEFAULT_255_1_388
10
17.5664514
20
-0.0931547
40
1.2065653
50
180.8977266
51
188.0054894
0
ARC
8
DEFAULT_255_1_388
10
17.8714728
20
-0.08166
40
1.5117443
50
180.7434591
51
181.152202
0
ARC
8
DEFAULT_255_1_388
10
17.7039723
20
0.1273371
40
1.3441277
50
173.7674302
51
180.2315596
0
ARC
8
DEFAULT_255_1_388
10
17.1957592
20
0.1847779
40
0.8326847
50
164.3058537
51
173.9000553
0
ARC
8
DEFAULT_255_1_388
10
16.8681592
20
0.2791652
40
0.4917711
50
148.7922028
51
164.5682288
0
ARC
8
DEFAULT_255_1_388
10
16.761233
20
0.3388457
40
0.3694204
50
144.5883979
51
148.1161588
0
ARC
8
DEFAULT_255_1_388
10
16.7225075
20
0.3658667
40
0.322202
50
101.6440149
51
144.5142619
0
ARC
8
DEFAULT_255_1_388
10
16.7703267
20
0.1758337
40
0.5180451
50
89.528284
51
102.5820197
0
ARC
8
DEFAULT_255_1_388
10
16.7792259
20
0.1714376
40
0.5224441
50
77.0437914
51
90.508231
0
ARC
8
DEFAULT_255_1_388
10
16.8244513
20
0.3562272
40
0.3322297
50
48.2777708
51
77.4996087
0
ARC
8
DEFAULT_255_1_388
10
16.8326253
20
0.3707557
40
0.315966
50
36.3141586
51
47.6307332
0
ARC
8
DEFAULT_255_1_388
10
16.7348975
20
0.3049159
40
0.4337313
50
18.2931065
51
35.6770203
0
ARC
8
DEFAULT_255_1_388
10
16.4487816
20
0.2067107
40
0.7362203
50
8.0246996
51
18.5605636
0
ARC
8
DEFAULT_255_1_388
10
15.9804171
20
0.1375432
40
1.2096583
50
1.127539
51
8.1718423
0
ARC
8
DEFAULT_255_1_388
10
15.6155305
20
0.1232374
40
1.5747719
50
0.5432713
51
1.38669
0
ARC
8
DEFAULT_255_1_388
10
15.8212684
20
0.1539163
40
1.2018103
50
359.8092569
51
4.9408001
0
ARC
8
DEFAULT_255_1_388
10
16.2949265
20
0.19619
40
0.7262727
50
4.8364937
51
12.2906017
0
ARC
8
DEFAULT_255_1_388
10
16.604873
20
0.2652485
40
0.4087324
50
12.0806994
51
23.8171225
0
ARC
8
DEFAULT_255_1_388
10
16.7369126
20
0.3211508
40
0.2653719
50
24.2874621
51
31.3934353
0
ARC
8
DEFAULT_255_1_388
10
16.7959561
20
0.3597822
40
0.1948607
50
30.7407708
51
82.4658033
0
ARC
8
DEFAULT_255_1_388
10
16.7757222
20
0.2604017
40
0.2961198
50
81.1057101
51
90.2187368
0
ARC
8
DEFAULT_255_1_388
10
16.7717034
20
0.2894421
40
0.2670929
50
89.380395
51
105.6763916
0
ARC
8
DEFAULT_255_1_388
10
16.7510756
20
0.364432
40
0.1893189
50
105.7980655
51
149.7387869
0
ARC
8
DEFAULT_255_1_388
10
16.8707896
20
0.2924719
40
0.3289892
50
149.4208441
51
163.628295
0
ARC
8
DEFAULT_255_1_388
10
17.1060126
20
0.2207345
40
0.5749004
50
163.3764549
51
172.141138
0
ARC
8
DEFAULT_255_1_388
10
17.4772847
20
0.1675582
40
0.9499585
50
172.0258462
51
178.0705453
0
ARC
8
DEFAULT_255_1_388
10
17.81944
20
0.1513682
40
1.2924734
50
177.8639301
51
179.5036263
0
ARC
8
DEFAULT_255_1_388
10
17.6975419
20
-0.1089849
40
1.170534
50
179.7995545
51
185.246089
0
ARC
8
DEFAULT_255_1_388
10
17.2427012
20
-0.1520596
40
0.7136613
50
185.1411911
51
193.0082205
0
ARC
8
DEFAULT_255_1_388
10
16.9453273
20
-0.2223559
40
0.4080987
50
192.7897338
51
205.2507384
0
ARC
8
DEFAULT_255_1_388
10
16.8275483
20
-0.2749462
40
0.2791522
50
205.8001921
51
211.2545876
0
ARC
8
DEFAULT_255_1_388
10
16.7687022
20
-0.3143868
40
0.2084074
50
210.3789935
51
238.4007996
0
ARC
8
DEFAULT_255_1_388
10
16.7665108
20
-0.3091214
40
0.2117943
50
239.6521916
51
265.9793852
0
ARC
8
DEFAULT_255_1_388
10
16.7760957
20
-0.2334642
40
0.2879689
50
265.1324455
51
270.0603288
0
ARC
8
DEFAULT_255_1_388
10
16.7793334
20
-0.2699582
40
0.2514919
50
269.3314378
51
287.2180039
0
ARC
8
DEFAULT_255_1_388
10
16.7948416
20
-0.3265709
40
0.1928357
50
287.7957942
51
329.0808983
0
ARC
8
DEFAULT_255_1_388
10
16.6871173
20
-0.2593349
40
0.319808
50
328.6635261
51
343.3325043
0
ARC
8
DEFAULT_255_1_388
10
16.4426632
20
-0.1831805
40
0.5758408
50
343.0498092
51
351.9392499
0
ARC
8
DEFAULT_255_1_388
10
16.0525953
20
-0.1256795
40
0.9701202
50
351.8071632
51
357.7957897
0
ARC
8
DEFAULT_255_1_388
10
15.689143
20
-0.1068276
40
1.3340376
50
357.5870923
51
359.2682493
0
LINE
8
DEFAULT_255_1_388
10
18.2293305
20
0.138169
11
18.2293305
21
-0.0786865
0
LINE
8
DEFAULT_255_1_388
10
17.3989548
20
-0.1012756
11
17.3989548
21
0.1219048
0
LINE
8
DEFAULT_255_1_388
10
18.0621711
20
-0.1238647
11
18.0621711
21
0.1499153
0
LINE
8
DEFAULT_255_1_388
10
17.5661142
20
0.1625652
11
17.5661142
21
-0.1048898
0
ARC
8
DEFAULT_255_1_388
10
16.8515639
20
-0.0841882
40
1.3777776
50
353.8440855
51
0.2287917
0
ARC
8
DEFAULT_255_1_388
10
17.3734657
20
-0.1424586
40
0.852639
50
344.4934746
51
353.9763743
0
ARC
8
DEFAULT_255_1_388
10
17.7101464
20
-0.2381809
40
0.5026273
50
329.2803599
51
344.7473406
0
ARC
8
DEFAULT_255_1_388
10
17.8216959
20
-0.2993962
40
0.3754848
50
324.9361395
51
328.6153007
0
ARC
8
DEFAULT_255_1_388
10
17.8642609
20
-0.3291414
40
0.3235566
50
280.5801797
51
324.9173226
0
ARC
8
DEFAULT_255_1_388
10
17.8191238
20
-0.1411764
40
0.5167077
50
269.5979457
51
281.6732777
0
ARC
8
DEFAULT_255_1_388
10
17.8110141
20
-0.1546887
40
0.5032026
50
256.6228565
51
270.5105488
0
ARC
8
DEFAULT_255_1_388
10
17.7657884
20
-0.3288655
40
0.3233092
50
215.8618351
51
257.2787793
0
ARC
8
DEFAULT_255_1_388
10
17.8806591
20
-0.2517894
40
0.4615831
50
197.9695203
51
215.2622745
0
ARC
8
DEFAULT_255_1_388
10
18.1602267
20
-0.1574359
40
0.7566307
50
187.8816486
51
198.2346584
0
ARC
8
DEFAULT_255_1_388
10
18.6055505
20
-0.0931547
40
1.2065653
50
180.8977266
51
188.0054894
0
ARC
8
DEFAULT_255_1_388
10
18.9105719
20
-0.08166
40
1.5117443
50
180.7434591
51
181.152202
0
ARC
8
DEFAULT_255_1_388
10
18.7430715
20
0.1273371
40
1.3441277
50
173.7674302
51
180.2315596
0
ARC
8
DEFAULT_255_1_388
10
18.2348584
20
0.1847779
40
0.8326847
50
164.3058537
51
173.9000553
0
ARC
8
DEFAULT_255_1_388
10
17.9072584
20
0.2791652
40
0.4917711
50
148.7922028
51
164.5682288
0
ARC
8
DEFAULT_255_1_388
10
17.8003321
20
0.3388457
40
0.3694204
50
144.5883979
51
148.1161588
0
ARC
8
DEFAULT_255_1_388
10
17.7616066
20
0.3658667
40
0.322202
50
101.6440149
51
144.5142619
0
ARC
8
DEFAULT_255_1_388
10
17.8094259
20
0.1758337
40
0.5180451
50
89.528284
51
102.5820197
0
ARC
8
DEFAULT_255_1_388
10
17.818325
20
0.1714376
40
0.5224441
50
77.0437914
51
90.508231
0
ARC
8
DEFAULT_255_1_388
10
17.8635504
20
0.3562272
40
0.3322297
50
48.2777708
51
77.4996087
0
ARC
8
DEFAULT_255_1_388
10
17.8717244
20
0.3707557
40
0.315966
50
36.3141586
51
47.6307332
0
ARC
8
DEFAULT_255_1_388
10
17.7739966
20
0.3049159
40
0.4337313
50
18.2931065
51
35.6770203
0
ARC
8
DEFAULT_255_1_388
10
17.4878807
20
0.2067107
40
0.7362203
50
8.0246996
51
18.5605636
0
ARC
8
DEFAULT_255_1_388
10
17.0195163
20
0.1375432
40
1.2096583
50
1.127539
51
8.1718423
0
ARC
8
DEFAULT_255_1_388
10
16.6546296
20
0.1232374
40
1.5747719
50
0.5432713
51
1.38669
0
ARC
8
DEFAULT_255_1_388
10
16.8603675
20
0.1539163
40
1.2018103
50
359.8092569
51
4.9408001
0
ARC
8
DEFAULT_255_1_388
10
17.3340256
20
0.19619
40
0.7262727
50
4.8364937
51
12.2906017
0
ARC
8
DEFAULT_255_1_388
10
17.6439721
20
0.2652485
40
0.4087324
50
12.0806994
51
23.8171225
0
ARC
8
DEFAULT_255_1_388
10
17.7760117
20
0.3211508
40
0.2653719
50
24.2874621
51
31.3934353
0
ARC
8
DEFAULT_255_1_388
10
17.8350553
20
0.3597822
40
0.1948607
50
30.7407708
51
82.4658033
0
ARC
8
DEFAULT_255_1_388
10
17.8148214
20
0.2604017
40
0.2961198
50
81.1057101
51
90.2187368
0
ARC
8
DEFAULT_255_1_388
10
17.8108025
20
0.2894421
40
0.2670929
50
89.380395
51
105.6763916
0
ARC
8
DEFAULT_255_1_388
10
17.7901747
20
0.364432
40
0.1893189
50
105.7980655
51
149.7387869
0
ARC
8
DEFAULT_255_1_388
10
17.9098887
20
0.2924719
40
0.3289892
50
149.4208441
51
163.628295
0
ARC
8
DEFAULT_255_1_388
10
18.1451117
20
0.2207345
40
0.5749004
50
163.3764549
51
172.141138
0
ARC
8
DEFAULT_255_1_388
10
18.5163839
20
0.1675582
40
0.9499585
50
172.0258462
51
178.0705453
0
ARC
8
DEFAULT_255_1_388
10
18.8585391
20
0.1513682
40
1.2924734
50
177.8639301
51
179.5036263
0
ARC
8
DEFAULT_255_1_388
10
18.736641
20
-0.1089849
40
1.170534
50
179.7995545
51
185.246089
0
ARC
8
DEFAULT_255_1_388
10
18.2818003
20
-0.1520596
40
0.7136613
50
185.1411911
51
193.0082205
0
ARC
8
DEFAULT_255_1_388
10
17.9844264
20
-0.2223559
40
0.4080987
50
192.7897338
51
205.2507384
0
ARC
8
DEFAULT_255_1_388
10
17.8666474
20
-0.2749462
40
0.2791522
50
205.8001921
51
211.2545876
0
ARC
8
DEFAULT_255_1_388
10
17.8078013
20
-0.3143868
40
0.2084074
50
210.3789935
51
238.4007996
0
ARC
8
DEFAULT_255_1_388
10
17.8056099
20
-0.3091214
40
0.2117943
50
239.6521916
51
265.9793852
0
ARC
8
DEFAULT_255_1_388
10
17.8151948
20
-0.2334642
40
0.2879689
50
265.1324455
51
270.0603288
0
ARC
8
DEFAULT_255_1_388
10
17.8184325
20
-0.2699582
40
0.2514919
50
269.3314378
51
287.2180039
0
ARC
8
DEFAULT_255_1_388
10
17.8339407
20
-0.3265709
40
0.1928357
50
287.7957942
51
329.0808983
0
ARC
8
DEFAULT_255_1_388
10
17.7262164
20
-0.2593349
40
0.319808
50
328.6635261
51
343.3325043
0
ARC
8
DEFAULT_255_1_388
10
17.4817623
20
-0.1831805
40
0.5758408
50
343.0498092
51
351.9392499
0
ARC
8
DEFAULT_255_1_388
10
17.0916944
20
-0.1256795
40
0.9701202
50
351.8071632
51
357.7957897
0
ARC
8
DEFAULT_255_1_388
10
16.7282421
20
-0.1068276
40
1.3340376
50
357.5870923
51
359.2682493
0
LINE
8
DEFAULT_255_1_388
10
18.8085153
20
-0.0127263
11
18.8085153
21
-0.1491645
0
LINE
8
DEFAULT_255_1_388
10
18.8085153
20
-0.1491645
11
18.3675759
21
-0.1491645
0
LINE
8
DEFAULT_255_1_388
10
18.3675759
20
-0.1491645
11
18.3675759
21
-0.0127263
0
LINE
8
DEFAULT_255_1_388
10
18.3675759
20
-0.0127263
11
18.8085153
21
-0.0127263
0
LINE
8
DEFAULT_255_1_388
10
19.7789436
20
0.138169
11
19.7789436
21
-0.0786865
0
LINE
8
DEFAULT_255_1_388
10
18.9485678
20
-0.1012756
11
18.9485678
21
0.1219048
0
LINE
8
DEFAULT_255_1_388
10
19.6117841
20
-0.1238647
11
19.6117841
21
0.1499153
0
LINE
8
DEFAULT_255_1_388
10
19.1157272
20
0.1625652
11
19.1157272
21
-0.1048898
0
ARC
8
DEFAULT_255_1_388
10
18.401177
20
-0.0841882
40
1.3777776
50
353.8440855
51
0.2287917
0
ARC
8
DEFAULT_255_1_388
10
18.9230787
20
-0.1424586
40
0.852639
50
344.4934746
51
353.9763743
0
ARC
8
DEFAULT_255_1_388
10
19.2597594
20
-0.2381809
40
0.5026273
50
329.2803599
51
344.7473406
0
ARC
8
DEFAULT_255_1_388
10
19.371309
20
-0.2993962
40
0.3754848
50
324.9361395
51
328.6153007
0
ARC
8
DEFAULT_255_1_388
10
19.413874
20
-0.3291414
40
0.3235566
50
280.5801797
51
324.9173226
0
ARC
8
DEFAULT_255_1_388
10
19.3687368
20
-0.1411764
40
0.5167077
50
269.5979457
51
281.6732777
0
ARC
8
DEFAULT_255_1_388
10
19.3606272
20
-0.1546887
40
0.5032026
50
256.6228565
51
270.5105488
0
ARC
8
DEFAULT_255_1_388
10
19.3154015
20
-0.3288655
40
0.3233092
50
215.8618351
51
257.2787793
0
ARC
8
DEFAULT_255_1_388
10
19.4302722
20
-0.2517894
40
0.4615831
50
197.9695203
51
215.2622745
0
ARC
8
DEFAULT_255_1_388
10
19.7098397
20
-0.1574359
40
0.7566307
50
187.8816486
51
198.2346584
0
ARC
8
DEFAULT_255_1_388
10
20.1551635
20
-0.0931547
40
1.2065653
50
180.8977266
51
188.0054894
0
ARC
8
DEFAULT_255_1_388
10
20.4601849
20
-0.08166
40
1.5117443
50
180.7434591
51
181.152202
0
ARC
8
DEFAULT_255_1_388
10
20.2926845
20
0.1273371
40
1.3441277
50
173.7674302
51
180.2315596
0
ARC
8
DEFAULT_255_1_388
10
19.7844714
20
0.1847779
40
0.8326847
50
164.3058537
51
173.9000553
0
ARC
8
DEFAULT_255_1_388
10
19.4568714
20
0.2791652
40
0.4917711
50
148.7922028
51
164.5682288
0
ARC
8
DEFAULT_255_1_388
10
19.3499451
20
0.3388457
40
0.3694204
50
144.5883979
51
148.1161588
0
ARC
8
DEFAULT_255_1_388
10
19.3112197
20
0.3658667
40
0.322202
50
101.6440149
51
144.5142619
0
ARC
8
DEFAULT_255_1_388
10
19.3590389
20
0.1758337
40
0.5180451
50
89.528284
51
102.5820197
0
ARC
8
DEFAULT_255_1_388
10
19.3679381
20
0.1714376
40
0.5224441
50
77.0437914
51
90.508231
0
ARC
8
DEFAULT_255_1_388
10
19.4131635
20
0.3562272
40
0.3322297
50
48.2777708
51
77.4996087
0
ARC
8
DEFAULT_255_1_388
10
19.4213375
20
0.3707557
40
0.315966
50
36.3141586
51
47.6307332
0
ARC
8
DEFAULT_255_1_388
10
19.3236097
20
0.3049159
40
0.4337313
50
18.2931065
51
35.6770203
0
ARC
8
DEFAULT_255_1_388
10
19.0374938
20
0.2067107
40
0.7362203
50
8.0246996
51
18.5605636
0
ARC
8
DEFAULT_255_1_388
10
18.5691293
20
0.1375432
40
1.2096583
50
1.127539
51
8.1718423
0
ARC
8
DEFAULT_255_1_388
10
18.2042426
20
0.1232374
40
1.5747719
50
0.5432713
51
1.38669
0
ARC
8
DEFAULT_255_1_388
10
18.4099805
20
0.1539163
40
1.2018103
50
359.8092569
51
4.9408001
0
ARC
8
DEFAULT_255_1_388
10
18.8836386
20
0.19619
40
0.7262727
50
4.8364937
51
12.2906017
0
ARC
8
DEFAULT_255_1_388
10
19.1935851
20
0.2652485
40
0.4087324
50
12.0806994
51
23.8171225
0
ARC
8
DEFAULT_255_1_388
10
19.3256247
20
0.3211508
40
0.2653719
50
24.2874621
51
31.3934353
0
ARC
8
DEFAULT_255_1_388
10
19.3846683
20
0.3597822
40
0.1948607
50
30.7407708
51
82.4658033
0
ARC
8
DEFAULT_255_1_388
10
19.3644344
20
0.2604017
40
0.2961198
50
81.1057101
51
90.2187368
0
ARC
8
DEFAULT_255_1_388
10
19.3604156
20
0.2894421
40
0.2670929
50
89.380395
51
105.6763916
0
ARC
8
DEFAULT_255_1_388
10
19.3397878
20
0.364432
40
0.1893189
50
105.7980655
51
149.7387869
0
ARC
8
DEFAULT_255_1_388
10
19.4595018
20
0.2924719
40
0.3289892
50
149.4208441
51
163.628295
0
ARC
8
DEFAULT_255_1_388
10
19.6947248
20
0.2207345
40
0.5749004
50
163.3764549
51
172.141138
0
ARC
8
DEFAULT_255_1_388
10
20.0659969
20
0.1675582
40
0.9499585
50
172.0258462
51
178.0705453
0
ARC
8
DEFAULT_255_1_388
10
20.4081522
20
0.1513682
40
1.2924734
50
177.8639301
51
179.5036263
0
ARC
8
DEFAULT_255_1_388
10
20.286254
20
-0.1089849
40
1.170534
50
179.7995545
51
185.246089
0
ARC
8
DEFAULT_255_1_388
10
19.8314134
20
-0.1520596
40
0.7136613
50
185.1411911
51
193.0082205
0
ARC
8
DEFAULT_255_1_388
10
19.5340394
20
-0.2223559
40
0.4080987
50
192.7897338
51
205.2507384
0
ARC
8
DEFAULT_255_1_388
10
19.4162604
20
-0.2749462
40
0.2791522
50
205.8001921
51
211.2545876
0
ARC
8
DEFAULT_255_1_388
10
19.3574143
20
-0.3143868
40
0.2084074
50
210.3789935
51
238.4007996
0
ARC
8
DEFAULT_255_1_388
10
19.3552229
20
-0.3091214
40
0.2117943
50
239.6521916
51
265.9793852
0
ARC
8
DEFAULT_255_1_388
10
19.3648078
20
-0.2334642
40
0.2879689
50
265.1324455
51
270.0603288
0
ARC
8
DEFAULT_255_1_388
10
19.3680455
20
-0.2699582
40
0.2514919
50
269.3314378
51
287.2180039
0
ARC
8
DEFAULT_255_1_388
10
19.3835537
20
-0.3265709
40
0.1928357
50
287.7957942
51
329.0808983
0
ARC
8
DEFAULT_255_1_388
10
19.2758295
20
-0.2593349
40
0.319808
50
328.6635261
51
343.3325043
0
ARC
8
DEFAULT_255_1_388
10
19.0313753
20
-0.1831805
40
0.5758408
50
343.0498092
51
351.9392499
0
ARC
8
DEFAULT_255_1_388
10
18.6413075
20
-0.1256795
40
0.9701202
50
351.8071632
51
357.7957897
0
ARC
8
DEFAULT_255_1_388
10
18.2778552
20
-0.1068276
40
1.3340376
50
357.5870923
51
359.2682493
0
LINE
8
DEFAULT_255_1_388
10
20.5198664
20
-0.1247683
11
20.2099438
21
-0.1247683
0
LINE
8
DEFAULT_255_1_388
10
20.2099438
20
-0.1247683
11
20.2099438
21
-0.6398
0
LINE
8
DEFAULT_255_1_388
10
20.2099438
20
-0.6398
11
20.0364594
21
-0.6398
0
LINE
8
DEFAULT_255_1_388
10
20.0364594
20
-0.6398
11
20.0364594
21
0.6757898
0
LINE
8
DEFAULT_255_1_388
10
20.0364594
20
0.6757898
11
20.5216735
21
0.6757898
0
LINE
8
DEFAULT_255_1_388
10
20.2099438
20
0.5330267
11
20.2099438
21
0.0170914
0
LINE
8
DEFAULT_255_1_388
10
20.2099438
20
0.0170914
11
20.5216735
21
0.0170914
0
LINE
8
DEFAULT_255_1_388
10
20.5316127
20
0.5330267
11
20.2099438
21
0.5330267
0
ARC
8
DEFAULT_255_1_388
10
20.5264109
20
-0.0058666
40
0.6816729
50
78.8380084
51
90.398184
0
ARC
8
DEFAULT_255_1_388
10
20.5732139
20
0.2214796
40
0.449571
50
58.9633273
51
79.0810717
0
ARC
8
DEFAULT_255_1_388
10
20.6071524
20
0.2844823
40
0.3781049
50
48.0194715
51
58.4475592
0
ARC
8
DEFAULT_255_1_388
10
20.6171344
20
0.2940818
40
0.3642936
50
3.3374546
51
48.1766642
0
ARC
8
DEFAULT_255_1_388
10
20.478615
20
0.2741581
40
0.5038766
50
359.9483251
51
4.6822857
0
ARC
8
DEFAULT_255_1_388
10
20.4926074
20
0.2693779
40
0.4899031
50
346.1879032
51
0.5059221
0
ARC
8
DEFAULT_255_1_388
10
20.6454865
20
0.2296763
40
0.3319729
50
310.8832219
51
346.5426612
0
ARC
8
DEFAULT_255_1_388
10
20.6107713
20
0.2765853
40
0.3901853
50
286.6925305
51
310.228778
0
ARC
8
DEFAULT_255_1_388
10
20.5467443
20
0.4779585
40
0.6014737
50
274.6848219
51
287.0247342
0
ARC
8
DEFAULT_255_1_388
10
20.5213992
20
0.7264088
40
0.8511785
50
269.8968222
51
275.0192639
0
ARC
8
DEFAULT_255_1_388
10
20.5244985
20
0.4926144
40
0.4755314
50
269.6596206
51
279.4150542
0
ARC
8
DEFAULT_255_1_388
10
20.5534443
20
0.3248945
40
0.3053379
50
279.2050006
51
294.9901776
0
ARC
8
DEFAULT_255_1_388
10
20.5861078
20
0.2520353
40
0.2255036
50
295.2886769
51
311.2912669
0
ARC
8
DEFAULT_255_1_388
10
20.5940819
20
0.2401938
40
0.2113522
50
311.7853512
51
347.2860549
0
ARC
8
DEFAULT_255_1_388
10
20.4833981
20
0.268643
40
0.3256011
50
346.6891629
51
0.1057086
0
ARC
8
DEFAULT_255_1_388
10
20.391144
20
0.2719247
40
0.417863
50
359.63239
51
359.9961329
0
ARC
8
DEFAULT_255_1_388
10
20.5076046
20
0.2746987
40
0.3014155
50
359.4673371
51
15.5931159
0
ARC
8
DEFAULT_255_1_388
10
20.5779108
20
0.2936937
40
0.2285918
50
15.7441779
51
46.620186
0
ARC
8
DEFAULT_255_1_388
10
20.5612868
20
0.2745361
40
0.2539359
50
46.8628482
51
75.6676625
0
ARC
8
DEFAULT_255_1_388
10
20.5281925
20
0.1554243
40
0.3775415
50
75.2763152
51
88.2916439
0
ARC
8
DEFAULT_255_1_388
10
20.5215924
20
0.0552097
40
0.4779221
50
87.8589087
51
88.7986197
0
LINE
8
DEFAULT_255_1_388
10
22.0044228
20
-0.6398
11
21.5381835
21
-0.0280869
0
LINE
8
DEFAULT_255_1_388
10
21.5381835
20
-0.0280869
11
21.3773491
21
-0.1952463
0
LINE
8
DEFAULT_255_1_388
10
21.3773491
20
-0.1952463
11
21.3773491
21
-0.6398
0
LINE
8
DEFAULT_255_1_388
10
21.3773491
20
-0.6398
11
21.2038647
21
-0.6398
0
LINE
8
DEFAULT_255_1_388
10
21.2038647
20
-0.6398
11
21.2038647
21
0.6757898
0
LINE
8
DEFAULT_255_1_388
10
21.2038647
20
0.6757898
11
21.3773491
21
0.6757898
0
LINE
8
DEFAULT_255_1_388
10
21.3773491
20
0.6757898
11
21.3773491
21
0.0252234
0
LINE
8
DEFAULT_255_1_388
10
21.3773491
20
0.0252234
11
21.9619553
21
0.6757898
0
LINE
8
DEFAULT_255_1_388
10
21.9619553
20
0.6757898
11
22.1715822
21
0.6757898
0
LINE
8
DEFAULT_255_1_388
10
22.1715822
20
0.6757898
11
21.6538398
21
0.0947979
0
LINE
8
DEFAULT_255_1_388
10
21.6538398
20
0.0947979
11
22.2122426
21
-0.6398
0
LINE
8
DEFAULT_255_1_388
10
22.2122426
20
-0.6398
11
22.0044228
21
-0.6398
0
LINE
8
DEFAULT_255_1_388
10
23.1456247
20
0.138169
11
23.1456247
21
-0.0786865
0
LINE
8
DEFAULT_255_1_388
10
22.315249
20
-0.1012756
11
22.315249
21
0.1219048
0
LINE
8
DEFAULT_255_1_388
10
22.9784653
20
-0.1238647
11
22.9784653
21
0.1499153
0
LINE
8
DEFAULT_255_1_388
10
22.4824084
20
0.1625652
11
22.4824084
21
-0.1048898
0
ARC
8
DEFAULT_255_1_388
10
21.7678581
20
-0.0841882
40
1.3777776
50
353.8440855
51
0.2287917
0
ARC
8
DEFAULT_255_1_388
10
22.2897598
20
-0.1424586
40
0.852639
50
344.4934746
51
353.9763743
0
ARC
8
DEFAULT_255_1_388
10
22.6264406
20
-0.2381809
40
0.5026273
50
329.2803599
51
344.7473406
0
ARC
8
DEFAULT_255_1_388
10
22.7379901
20
-0.2993962
40
0.3754848
50
324.9361395
51
328.6153007
0
ARC
8
DEFAULT_255_1_388
10
22.7805551
20
-0.3291414
40
0.3235566
50
280.5801797
51
324.9173226
0
ARC
8
DEFAULT_255_1_388
10
22.735418
20
-0.1411764
40
0.5167077
50
269.5979457
51
281.6732777
0
ARC
8
DEFAULT_255_1_388
10
22.7273083
20
-0.1546887
40
0.5032026
50
256.6228565
51
270.5105488
0
ARC
8
DEFAULT_255_1_388
10
22.6820826
20
-0.3288655
40
0.3233092
50
215.8618351
51
257.2787793
0
ARC
8
DEFAULT_255_1_388
10
22.7969533
20
-0.2517894
40
0.4615831
50
197.9695203
51
215.2622745
0
ARC
8
DEFAULT_255_1_388
10
23.0765209
20
-0.1574359
40
0.7566307
50
187.8816486
51
198.2346584
0
ARC
8
DEFAULT_255_1_388
10
23.5218447
20
-0.0931547
40
1.2065653
50
180.8977266
51
188.0054894
0
ARC
8
DEFAULT_255_1_388
10
23.8268661
20
-0.08166
40
1.5117443
50
180.7434591
51
181.152202
0
ARC
8
DEFAULT_255_1_388
10
23.6593657
20
0.1273371
40
1.3441277
50
173.7674302
51
180.2315596
0
ARC
8
DEFAULT_255_1_388
10
23.1511525
20
0.1847779
40
0.8326847
50
164.3058537
51
173.9000553
0
ARC
8
DEFAULT_255_1_388
10
22.8235526
20
0.2791652
40
0.4917711
50
148.7922028
51
164.5682288
0
ARC
8
DEFAULT_255_1_388
10
22.7166263
20
0.3388457
40
0.3694204
50
144.5883979
51
148.1161588
0
ARC
8
DEFAULT_255_1_388
10
22.6779008
20
0.3658667
40
0.322202
50
101.6440149
51
144.5142619
0
ARC
8
DEFAULT_255_1_388
10
22.72572
20
0.1758337
40
0.5180451
50
89.528284
51
102.5820197
0
ARC
8
DEFAULT_255_1_388
10
22.7346192
20
0.1714376
40
0.5224441
50
77.0437914
51
90.508231
0
ARC
8
DEFAULT_255_1_388
10
22.7798446
20
0.3562272
40
0.3322297
50
48.2777708
51
77.4996087
0
ARC
8
DEFAULT_255_1_388
10
22.7880186
20
0.3707557
40
0.315966
50
36.3141586
51
47.6307332
0
ARC
8
DEFAULT_255_1_388
10
22.6902908
20
0.3049159
40
0.4337313
50
18.2931065
51
35.6770203
0
ARC
8
DEFAULT_255_1_388
10
22.4041749
20
0.2067107
40
0.7362203
50
8.0246996
51
18.5605636
0
ARC
8
DEFAULT_255_1_388
10
21.9358105
20
0.1375432
40
1.2096583
50
1.127539
51
8.1718423
0
ARC
8
DEFAULT_255_1_388
10
21.5709238
20
0.1232374
40
1.5747719
50
0.5432713
51
1.38669
0
ARC
8
DEFAULT_255_1_388
10
21.7766617
20
0.1539163
40
1.2018103
50
359.8092569
51
4.9408001
0
ARC
8
DEFAULT_255_1_388
10
22.2503198
20
0.19619
40
0.7262727
50
4.8364937
51
12.2906017
0
ARC
8
DEFAULT_255_1_388
10
22.5602663
20
0.2652485
40
0.4087324
50
12.0806994
51
23.8171225
0
ARC
8
DEFAULT_255_1_388
10
22.6923059
20
0.3211508
40
0.2653719
50
24.2874621
51
31.3934353
0
ARC
8
DEFAULT_255_1_388
10
22.7513495
20
0.3597822
40
0.1948607
50
30.7407708
51
82.4658033
0
ARC
8
DEFAULT_255_1_388
10
22.7311155
20
0.2604017
40
0.2961198
50
81.1057101
51
90.2187368
0
ARC
8
DEFAULT_255_1_388
10
22.7270967
20
0.2894421
40
0.2670929
50
89.380395
51
105.6763916
0
ARC
8
DEFAULT_255_1_388
10
22.7064689
20
0.364432
40
0.1893189
50
105.7980655
51
149.7387869
0
ARC
8
DEFAULT_255_1_388
10
22.8261829
20
0.2924719
40
0.3289892
50
149.4208441
51
163.628295
0
ARC
8
DEFAULT_255_1_388
10
23.0614059
20
0.2207345
40
0.5749004
50
163.3764549
51
172.141138
0
ARC
8
DEFAULT_255_1_388
10
23.432678
20
0.1675582
40
0.9499585
50
172.0258462
51
178.0705453
0
ARC
8
DEFAULT_255_1_388
10
23.7748333
20
0.1513682
40
1.2924734
50
177.8639301
51
179.5036263
0
ARC
8
DEFAULT_255_1_388
10
23.6529352
20
-0.1089849
40
1.170534
50
179.7995545
51
185.246089
0
ARC
8
DEFAULT_255_1_388
10
23.1980945
20
-0.1520596
40
0.7136613
50
185.1411911
51
193.0082205
0
ARC
8
DEFAULT_255_1_388
10
22.9007206
20
-0.2223559
40
0.4080987
50
192.7897338
51
205.2507384
0
ARC
8
DEFAULT_255_1_388
10
22.7829416
20
-0.2749462
40
0.2791522
50
205.8001921
51
211.2545876
0
ARC
8
DEFAULT_255_1_388
10
22.7240955
20
-0.3143868
40
0.2084074
50
210.3789935
51
238.4007996
0
ARC
8
DEFAULT_255_1_388
10
22.7219041
20
-0.3091214
40
0.2117943
50
239.6521916
51
265.9793852
0
ARC
8
DEFAULT_255_1_388
10
22.731489
20
-0.2334642
40
0.2879689
50
265.1324455
51
270.0603288
0
ARC
8
DEFAULT_255_1_388
10
22.7347267
20
-0.2699582
40
0.2514919
50
269.3314378
51
287.2180039
0
ARC
8
DEFAULT_255_1_388
10
22.7502349
20
-0.3265709
40
0.1928357
50
287.7957942
51
329.0808983
0
ARC
8
DEFAULT_255_1_388
10
22.6425106
20
-0.2593349
40
0.319808
50
328.6635261
51
343.3325043
0
ARC
8
DEFAULT_255_1_388
10
22.3980565
20
-0.1831805
40
0.5758408
50
343.0498092
51
351.9392499
0
ARC
8
DEFAULT_255_1_388
10
22.0079886
20
-0.1256795
40
0.9701202
50
351.8071632
51
357.7957897
0
ARC
8
DEFAULT_255_1_388
10
21.6445363
20
-0.1068276
40
1.3340376
50
357.5870923
51
359.2682493
0
ARC
8
DEFAULT_255_2_778
10
7.7537338
20
84.0887992
40
3.0484709
50
251.6854144
51
258.6071955
0
ARC
8
DEFAULT_255_2_778
10
7.539521
20
83.0071738
40
1.9458471
50
258.4992492
51
268.3986479
0
ARC
8
DEFAULT_255_2_778
10
7.5172314
20
82.5769206
40
1.5151737
50
268.7865272
51
269.9950384
0
ARC
8
DEFAULT_255_2_778
10
7.5277432
20
82.1257355
40
1.0640417
50
269.426895
51
279.6711067
0
ARC
8
DEFAULT_255_2_778
10
7.6417753
20
81.4961746
40
0.4243233
50
278.7731084
51
300.3324923
0
ARC
8
DEFAULT_255_2_778
10
7.760746
20
81.2935552
40
0.1893587
50
300.2240287
51
1.9041213
0
ARC
8
DEFAULT_255_2_778
10
7.7452705
20
81.3027089
40
0.2047497
50
359.1991369
51
359.99965
0
ARC
8
DEFAULT_255_2_778
10
7.7523233
20
81.3035378
40
0.1976988
50
359.7594145
51
47.1793976
0
ARC
8
DEFAULT_255_2_778
10
7.6187277
20
81.154931
40
0.3975169
50
47.6144502
51
60.8366176
0
ARC
8
DEFAULT_255_2_778
10
7.0190958
20
80.1389865
40
1.5771337
50
59.799464
51
64.8885807
0
ARC
8
DEFAULT_255_2_778
10
6.0948833
20
78.2099682
40
3.7160912
50
64.6076081
51
66.8386974
0
ARC
8
DEFAULT_255_2_778
10
9.6419609
20
86.5730052
40
5.368109
50
244.3032309
51
247.1393781
0
ARC
8
DEFAULT_255_2_778
10
8.5507088
20
84.313018
40
2.8584574
50
240.2323579
51
244.3709759
0
ARC
8
DEFAULT_255_2_778
10
7.7800475
20
82.9761591
40
1.315392
50
233.2209971
51
240.4606284
0
ARC
8
DEFAULT_255_2_778
10
7.3561477
20
82.4050187
40
0.6041399
50
225.6990744
51
232.9899679
0
ARC
8
DEFAULT_255_2_778
10
7.3965073
20
82.4294214
40
0.6499005
50
178.2783416
51
224.6550883
0
ARC
8
DEFAULT_255_2_778
10
7.5059624
20
82.4627974
40
0.7591885
50
157.033673
51
181.0453383
0
ARC
8
DEFAULT_255_2_778
10
7.378439
20
82.5036396
40
0.6259551
50
124.9113017
51
155.9211516
0
ARC
8
DEFAULT_255_2_778
10
7.5960466
20
82.1950681
40
1.0035357
50
100.4079723
51
125.0168617
0
ARC
8
DEFAULT_255_2_778
10
7.6991199
20
81.7010046
40
1.5081396
50
89.6483922
51
100.8684975
0
ARC
8
DEFAULT_255_2_778
10
7.7083242
20
81.3487988
40
1.8603169
50
89.5079487
51
89.9984402
0
ARC
8
DEFAULT_255_2_778
10
7.7099573
20
81.2835694
40
1.9255311
50
83.9170631
51
89.5732113
0
ARC
8
DEFAULT_255_2_778
10
7.5071517
20
79.2759957
40
3.9433074
50
80.7325723
51
84.0779772
0
ARC
8
DEFAULT_255_2_778
10
7.0208457
20
76.253082
40
7.0050837
50
78.5086351
51
80.7886813
0
ARC
8
DEFAULT_255_2_778
10
7.6620177
20
80.8525544
40
1.9415426
50
67.135818
51
78.0934208
0
ARC
8
DEFAULT_255_2_778
10
7.7851814
20
81.4229809
40
1.3579807
50
78.2126325
51
89.7333975
0
ARC
8
DEFAULT_255_2_778
10
7.7793853
20
81.8381211
40
0.9429038
50
89.2638155
51
100.5666868
0
ARC
8
DEFAULT_255_2_778
10
7.6660949
20
82.4079419
40
0.362036
50
99.4784875
51
124.329414
0
ARC
8
DEFAULT_255_2_778
10
7.5705593
20
82.556051
40
0.1859067
50
125.7571195
51
182.2824883
0
ARC
8
DEFAULT_255_2_778
10
7.5493239
20
82.5493629
40
0.1645253
50
180.2492993
51
239.8144161
0
ARC
8
DEFAULT_255_2_778
10
7.932718
20
83.1494128
40
0.876484
50
237.8725734
51
242.8068846
0
ARC
8
DEFAULT_255_2_778
10
9.4175857
20
85.9659958
40
4.0604642
50
242.3328458
51
244.031083
0
ARC
8
DEFAULT_255_2_778
10
12.3804066
20
92.0144314
40
10.7955807
50
243.950624
51
244.8024316
0
ARC
8
DEFAULT_255_2_778
10
15.4009918
20
98.3984175
40
17.8580926
50
244.7535425
51
244.9563234
0
ARC
8
DEFAULT_255_2_778
10
5.8652927
20
77.8968264
40
4.7527588
50
62.2505456
51
65.4301556
0
ARC
8
DEFAULT_255_2_778
10
6.9275435
20
79.9049172
40
2.4810291
50
57.2951304
51
62.3684211
0
ARC
8
DEFAULT_255_2_778
10
7.6807233
20
81.0682235
40
1.0952081
50
48.7345704
51
57.5685367
0
ARC
8
DEFAULT_255_2_778
10
8.0117486
20
81.4557722
40
0.5856147
50
44.3236031
51
48.0704418
0
ARC
8
DEFAULT_255_2_778
10
7.9783002
20
81.4357468
40
0.6236013
50
1.3523843
51
43.4925744
0
ARC
8
DEFAULT_255_2_778
10
7.7103531
20
81.4028151
40
0.8926473
50
359.9763756
51
3.0599076
0
ARC
8
DEFAULT_255_2_778
10
7.8645343
20
81.3877407
40
0.7386124
50
333.0361889
51
1.1408766
0
ARC
8
DEFAULT_255_2_778
10
7.8947908
20
81.3946919
40
0.7150741
50
300.8430083
51
331.4403095
0
ARC
8
DEFAULT_255_2_778
10
7.694568
20
81.7082162
40
1.0869673
50
281.4258583
51
301.4316118
0
ARC
8
DEFAULT_255_2_778
10
7.5632666
20
82.3164414
40
1.7091691
50
270.2273513
51
281.7010805
0
ARC
8
DEFAULT_255_2_778
10
7.5453797
20
82.7931043
40
2.1859577
50
269.9983113
51
270.6466065
0
LINE
8
DEFAULT_255_2_778
10
7.5453153
20
80.6071465
11
7.5438002
21
80.607147
0
ARC
8
DEFAULT_255_2_778
10
7.5509161
20
83.7900969
40
3.1829579
50
256.2431122
51
269.871909
0
ARC
8
DEFAULT_255_2_778
10
21.7538511
20
84.0146629
40
2.9720345
50
251.5709223
51
258.7508181
0
ARC
8
DEFAULT_255_2_778
10
21.5538128
20
82.9914385
40
1.9294488
50
258.6495077
51
268.8281511
0
ARC
8
DEFAULT_255_2_778
10
21.5355488
20
82.5966193
40
1.5343723
50
269.2085037
51
269.9981866
0
ARC
8
DEFAULT_255_2_778
10
21.5473849
20
82.1282184
40
1.0660376
50
269.3612297
51
279.5899087
0
ARC
8
DEFAULT_255_2_778
10
21.6608439
20
81.4967324
40
0.424527
50
278.6895227
51
300.2363944
0
ARC
8
DEFAULT_255_2_778
10
21.7799083
20
81.2932793
40
0.188796
50
300.1108484
51
1.9024905
0
ARC
8
DEFAULT_255_2_778
10
21.7439577
20
81.3039221
40
0.2246851
50
358.8842611
51
0.0019649
0
ARC
8
DEFAULT_255_2_778
10
21.7769791
20
81.3078385
40
0.1917038
50
358.831716
51
47.0900458
0
ARC
8
DEFAULT_255_2_778
10
21.6364654
20
81.148484
40
0.4041259
50
47.8812665
51
61.174665
0
ARC
8
DEFAULT_255_2_778
10
21.0418848
20
80.1285117
40
1.5846568
50
60.1210877
51
65.1917015
0
ARC
8
DEFAULT_255_2_778
10
20.1415278
20
78.2229122
40
3.6922188
50
64.9168629
51
67.1565628
0
ARC
8
DEFAULT_255_2_778
10
23.6275467
20
86.4944888
40
5.2839333
50
244.2656926
51
247.1407051
0
ARC
8
DEFAULT_255_2_778
10
22.5594997
20
84.286265
40
2.8309849
50
240.1545061
51
244.3326325
0
ARC
8
DEFAULT_255_2_778
10
21.7856548
20
82.9502346
40
1.2870531
50
232.697515
51
240.4357497
0
ARC
8
DEFAULT_255_2_778
10
21.3705506
20
82.3992218
40
0.5972006
50
225.5850892
51
232.3393736
0
ARC
8
DEFAULT_255_2_778
10
21.4133941
20
82.4287933
40
0.6483829
50
178.7795739
51
224.7095916
0
ARC
8
DEFAULT_255_2_778
10
21.6669319
20
82.4528135
40
0.9018316
50
179.997867
51
180.6487041
0
ARC
8
DEFAULT_255_2_778
10
21.5167738
20
82.4666249
40
0.7517998
50
156.9195758
51
181.050088
0
ARC
8
DEFAULT_255_2_778
10
21.3928482
20
82.5060712
40
0.6224513
50
124.7111133
51
155.7879672
0
ARC
8
DEFAULT_255_2_778
10
21.6055459
20
82.2141942
40
0.9835402
50
101.7934503
51
125.2143527
0
ARC
8
DEFAULT_255_2_778
10
21.729848
20
81.6616326
40
1.5498677
50
89.5248728
51
102.1166783
0
ARC
8
DEFAULT_255_2_778
10
21.7283109
20
81.1080834
40
2.1034129
50
83.2889725
51
89.6080411
0
ARC
8
DEFAULT_255_2_778
10
21.529975
20
79.3402668
40
3.8823067
50
79.4764054
51
83.4308492
0
ARC
8
DEFAULT_255_2_778
10
21.2186357
20
77.5870673
40
5.6628977
50
78.2224868
51
79.6190915
0
ARC
8
DEFAULT_255_2_778
10
21.6838473
20
80.8645715
40
1.9311543
50
67.1323814
51
78.3148813
0
ARC
8
DEFAULT_255_2_778
10
21.801359
20
81.4160614
40
1.3672981
50
78.4565774
51
89.7552271
0
ARC
8
DEFAULT_255_2_778
10
21.7951366
20
81.846947
40
0.9364778
50
89.2619009
51
100.5950934
0
ARC
8
DEFAULT_255_2_778
10
21.6824182
20
82.4124169
40
0.3599879
50
99.5087086
51
124.406715
0
ARC
8
DEFAULT_255_2_778
10
21.5878565
20
82.558843
40
0.1858061
50
125.8630185
51
182.2986975
0
ARC
8
DEFAULT_255_2_778
10
21.5497296
20
82.5513047
40
0.1475296
50
179.9666559
51
180.100057
0
ARC
8
DEFAULT_255_2_778
10
21.566185
20
82.551293
40
0.163985
50
180.0859454
51
239.8819968
0
ARC
8
DEFAULT_255_2_778
10
21.9379018
20
83.1380619
40
0.8584853
50
238.072871
51
243.0442008
0
ARC
8
DEFAULT_255_2_778
10
23.4872034
20
86.1030845
40
4.2038426
50
242.5409111
51
244.1884903
0
ARC
8
DEFAULT_255_2_778
10
26.6463384
20
92.597696
40
11.4260319
50
244.1076525
51
244.9219574
0
ARC
8
DEFAULT_255_2_778
10
29.9038827
20
99.521355
40
19.0777309
50
244.8743531
51
245.066969
0
ARC
8
DEFAULT_255_2_778
10
19.8865272
20
77.9291274
40
4.7250654
50
62.0340028
51
65.293009
0
ARC
8
DEFAULT_255_2_778
10
20.9507744
20
79.9240758
40
2.464003
50
57.1127289
51
62.13736
0
ARC
8
DEFAULT_255_2_778
10
21.7037139
20
81.0777906
40
1.0863604
50
48.3695509
51
57.4197129
0
ARC
8
DEFAULT_255_2_778
10
22.0286268
20
81.4545419
40
0.5889589
50
44.472493
51
47.6467012
0
ARC
8
DEFAULT_255_2_778
10
21.9979457
20
81.4374032
40
0.6229283
50
1.2061613
51
43.6203607
0
ARC
8
DEFAULT_255_2_778
10
21.7312413
20
81.4049903
40
0.890659
50
359.9779196
51
2.9299178
0
ARC
8
DEFAULT_255_2_778
10
21.8802547
20
81.3898837
40
0.7417924
50
333.172934
51
1.140392
0
ARC
8
DEFAULT_255_2_778
10
21.9146167
20
81.3945736
40
0.7135172
50
300.9808035
51
331.5913995
0
ARC
8
DEFAULT_255_2_778
10
21.7182603
20
81.7044862
40
1.0803281
50
281.9040909
51
301.4483918
0
ARC
8
DEFAULT_255_2_778
10
21.5848425
20
82.3030518
40
1.6935565
50
270.5796874
51
282.1436175
0
ARC
8
DEFAULT_255_2_778
10
21.5636722
20
82.7979735
40
2.1887267
50
269.9959074
51
271.0027751
0
LINE
8
DEFAULT_255_2_778
10
21.5635158
20
80.6092468
11
21.5625002
21
80.609247
0
ARC
8
DEFAULT_255_2_778
10
21.5700221
20
83.7980174
40
3.1887792
50
256.2556596
51
269.8648469
0
LINE
8
DEFAULT_255_2_778
10
6.7958002
20
80.700047
11
6.7958002
21
81.194747
0
LINE
8
DEFAULT_255_2_778
10
8.4164002
20
83.117747
11
8.4164002
21
82.641547
0
LINE
8
DEFAULT_255_2_778
10
6.7940002
20
80.698447
11
6.7958002
21
80.700047
0
LINE
8
DEFAULT_255_2_778
10
8.9866002
20
83.167247
11
9.6629002
21
83.167247
0
LINE
8
DEFAULT_255_2_778
10
9.6629002
20
83.167247
11
9.6629002
21
80.659847
0
LINE
8
DEFAULT_255_2_778
10
9.6629002
20
80.659847
11
8.9866002
21
80.659847
0
LINE
8
DEFAULT_255_2_778
10
8.9866002
20
80.659847
11
8.9866002
21
83.167247
0
LINE
8
DEFAULT_255_2_778
10
10.2809002
20
80.659847
11
10.2809002
21
83.167247
0
LINE
8
DEFAULT_255_2_778
10
10.2809002
20
83.167247
11
12.0132002
21
83.167247
0
LINE
8
DEFAULT_255_2_778
10
12.0132002
20
83.167247
11
12.0132002
21
82.713547
0
LINE
8
DEFAULT_255_2_778
10
12.0132002
20
82.713547
11
10.9321002
21
82.713547
0
LINE
8
DEFAULT_255_2_778
10
10.9321002
20
82.713547
11
10.9321002
21
82.147247
0
LINE
8
DEFAULT_255_2_778
10
10.9321002
20
82.147247
11
11.8735002
21
82.147247
0
LINE
8
DEFAULT_255_2_778
10
11.8735002
20
82.147247
11
11.8735002
21
81.733747
0
LINE
8
DEFAULT_255_2_778
10
11.8735002
20
81.733747
11
10.9321002
21
81.733747
0
LINE
8
DEFAULT_255_2_778
10
10.9321002
20
81.733747
11
10.9321002
21
81.138447
0
LINE
8
DEFAULT_255_2_778
10
10.9321002
20
81.138447
11
12.0412002
21
81.138447
0
LINE
8
DEFAULT_255_2_778
10
12.0412002
20
81.138447
11
12.0412002
21
80.658247
0
LINE
8
DEFAULT_255_2_778
10
12.0412002
20
80.658247
11
10.2809002
21
80.659847
0
LINE
8
DEFAULT_255_2_778
10
12.4817002
20
80.659847
11
12.4817002
21
83.167247
0
LINE
8
DEFAULT_255_2_778
10
12.4817002
20
83.167247
11
13.3575002
21
83.167247
0
LINE
8
DEFAULT_255_2_778
10
13.3575002
20
83.167247
11
13.9671002
21
81.564947
0
LINE
8
DEFAULT_255_2_778
10
13.9671002
20
81.564947
11
14.5897002
21
83.167247
0
LINE
8
DEFAULT_255_2_778
10
14.5897002
20
83.167247
11
15.4215002
21
83.167247
0
LINE
8
DEFAULT_255_2_778
10
15.4215002
20
83.167247
11
15.4215002
21
80.659847
0
LINE
8
DEFAULT_255_2_778
10
15.4215002
20
80.659847
11
14.7812002
21
80.659847
0
LINE
8
DEFAULT_255_2_778
10
14.7812002
20
80.659847
11
14.7812002
21
82.435647
0
LINE
8
DEFAULT_255_2_778
10
14.7812002
20
82.435647
11
14.0724002
21
80.635447
0
LINE
8
DEFAULT_255_2_778
10
14.0724002
20
80.635447
11
13.6515002
21
80.635447
0
LINE
8
DEFAULT_255_2_778
10
13.6515002
20
80.635447
11
12.9559002
21
82.435647
0
LINE
8
DEFAULT_255_2_778
10
12.9559002
20
82.435647
11
12.9559002
21
80.659547
0
LINE
8
DEFAULT_255_2_778
10
12.9559002
20
80.659547
11
12.4817002
21
80.659847
0
LINE
8
DEFAULT_255_2_778
10
16.0409002
20
80.659847
11
16.0409002
21
83.167247
0
LINE
8
DEFAULT_255_2_778
10
16.0409002
20
83.167247
11
17.7731002
21
83.167247
0
LINE
8
DEFAULT_255_2_778
10
17.7731002
20
83.167247
11
17.7731002
21
82.713547
0
LINE
8
DEFAULT_255_2_778
10
17.7731002
20
82.713547
11
16.6921002
21
82.713547
0
LINE
8
DEFAULT_255_2_778
10
16.6921002
20
82.713547
11
16.6921002
21
82.147247
0
LINE
8
DEFAULT_255_2_778
10
16.6921002
20
82.147247
11
17.6334002
21
82.147247
0
LINE
8
DEFAULT_255_2_778
10
17.6334002
20
82.147247
11
17.6334002
21
81.733747
0
LINE
8
DEFAULT_255_2_778
10
17.6334002
20
81.733747
11
16.6921002
21
81.733747
0
LINE
8
DEFAULT_255_2_778
10
16.6921002
20
81.733747
11
16.6921002
21
81.138447
0
LINE
8
DEFAULT_255_2_778
10
16.6921002
20
81.138447
11
17.8030002
21
81.138447
0
LINE
8
DEFAULT_255_2_778
10
17.8030002
20
81.138447
11
17.8030002
21
80.658247
0
LINE
8
DEFAULT_255_2_778
10
17.8030002
20
80.658247
11
16.0409002
21
80.659847
0
LINE
8
DEFAULT_255_2_778
10
18.2454002
20
80.659847
11
18.2454002
21
83.167247
0
LINE
8
DEFAULT_255_2_778
10
18.2454002
20
83.167247
11
19.0283002
21
83.167247
0
LINE
8
DEFAULT_255_2_778
10
19.0283002
20
83.167247
11
19.8586002
21
81.488447
0
LINE
8
DEFAULT_255_2_778
10
19.8586002
20
81.488447
11
19.8586002
21
83.167247
0
LINE
8
DEFAULT_255_2_778
10
19.8586002
20
83.167247
11
20.3343002
21
83.167247
0
LINE
8
DEFAULT_255_2_778
10
20.3343002
20
83.167247
11
20.3343002
21
80.659847
0
LINE
8
DEFAULT_255_2_778
10
20.3343002
20
80.659847
11
19.5739002
21
80.659847
0
LINE
8
DEFAULT_255_2_778
10
19.5739002
20
80.659847
11
18.7214002
21
82.361047
0
LINE
8
DEFAULT_255_2_778
10
18.7214002
20
82.361047
11
18.7214002
21
80.659847
0
LINE
8
DEFAULT_255_2_778
10
18.7214002
20
80.659847
11
18.2454002
21
80.659847
0
LINE
8
DEFAULT_255_2_778
10
20.8143002
20
80.700247
11
20.8143002
21
81.195047
0
LINE
8
DEFAULT_255_2_778
10
22.3745002
20
83.130747
11
22.4343002
21
83.120147
0
LINE
8
DEFAULT_255_2_778
10
22.4343002
20
83.120147
11
22.4343002
21
82.643947
0
LINE
8
DEFAULT_255_2_778
10
20.8124002
20
80.700547
11
20.8143002
21
80.700247
0
LINE
8
DEFAULT_255_1_388
10
6.1080457
20
79.0089892
11
5.9336577
21
79.0089892
0
LINE
8
DEFAULT_255_1_388
10
5.1547852
20
78.4551042
11
5.3291731
21
78.4551042
0
ARC
8
DEFAULT_255_1_388
10
6.0077304
20
80.0153821
40
1.4087688
50
248.9196578
51
254.1442424
0
ARC
8
DEFAULT_255_1_388
10
5.8187184
20
79.5287805
40
0.8867498
50
241.6337352
51
249.0064643
0
ARC
8
DEFAULT_255_1_388
10
5.6467498
20
79.2136764
40
0.5277799
50
230.4982261
51
241.8087583
0
ARC
8
DEFAULT_255_1_388
10
5.5585269
20
79.1012686
40
0.3849419
50
227.4062979
51
229.9877433
0
ARC
8
DEFAULT_255_1_388
10
5.5036615
20
79.0477155
40
0.3084129
50
200.6782127
51
228.1765252
0
ARC
8
DEFAULT_255_1_388
10
5.5117984
20
79.0460277
40
0.315461
50
179.506278
51
199.8695278
0
ARC
8
DEFAULT_255_1_388
10
5.5107573
20
79.0543671
40
0.3144584
50
132.4834401
51
181.0242352
0
ARC
8
DEFAULT_255_1_388
10
5.5776777
20
78.9911788
40
0.4063094
50
129.2526113
51
133.4249077
0
ARC
8
DEFAULT_255_1_388
10
5.594237
20
78.9663619
40
0.436014
50
101.9878945
51
128.8741833
0
ARC
8
DEFAULT_255_1_388
10
5.6390785
20
78.772736
40
0.6347415
50
89.5906376
51
102.3170567
0
ARC
8
DEFAULT_255_1_388
10
5.6470097
20
78.8085586
40
0.5989122
50
77.2359491
51
90.3248968
0
ARC
8
DEFAULT_255_1_388
10
5.6703028
20
78.9173554
40
0.4876594
50
63.8379856
51
77.0808925
0
ARC
8
DEFAULT_255_1_388
10
5.7015561
20
78.9755882
40
0.4216191
50
45.9863127
51
64.1608798
0
ARC
8
DEFAULT_255_1_388
10
5.7308955
20
79.009099
40
0.3771394
50
32.2747934
51
45.6544796
0
ARC
8
DEFAULT_255_1_388
10
5.7383761
20
79.0112426
40
0.3696765
50
359.6507495
51
32.6129943
0
ARC
8
DEFAULT_255_1_388
10
5.6322944
20
79.0117788
40
0.3013762
50
359.469654
51
14.983205
0
ARC
8
DEFAULT_255_1_388
10
5.7116196
20
79.0330288
40
0.2192542
50
14.9781954
51
48.2004799
0
ARC
8
DEFAULT_255_1_388
10
5.6931307
20
79.0097937
40
0.2489048
50
48.5926661
51
74.1242559
0
ARC
8
DEFAULT_255_1_388
10
5.6556109
20
78.8859607
40
0.3782845
50
73.7889321
51
86.6653996
0
ARC
8
DEFAULT_255_1_388
10
5.6440924
20
78.7501955
40
0.5145025
50
86.2642725
51
90.0533288
0
ARC
8
DEFAULT_255_1_388
10
5.6409017
20
78.7946376
40
0.4700681
50
89.669455
51
99.2313411
0
ARC
8
DEFAULT_255_1_388
10
5.6136176
20
78.9571401
40
0.3052945
50
99.0695987
51
113.7659242
0
ARC
8
DEFAULT_255_1_388
10
5.5828171
20
79.0297772
40
0.226407
50
114.0402885
51
127.9848946
0
ARC
8
DEFAULT_255_1_388
10
5.5557647
20
79.0630884
40
0.1835045
50
127.7287217
51
176.7106493
0
ARC
8
DEFAULT_255_1_388
10
5.6321312
20
79.051721
40
0.2604907
50
175.1780759
51
180.0581213
0
ARC
8
DEFAULT_255_1_388
10
5.5372656
20
79.0503411
40
0.1656287
50
179.6140658
51
228.124674
0
ARC
8
DEFAULT_255_1_388
10
5.5870013
20
79.096394
40
0.2332038
50
226.5785315
51
230.8792476
0
ARC
8
DEFAULT_255_1_388
10
5.63995
20
79.1666908
40
0.3211664
50
231.4636401
51
241.9261664
0
ARC
8
DEFAULT_255_1_388
10
5.7746283
20
79.4145349
40
0.6032345
50
241.7177136
51
248.3259138
0
ARC
8
DEFAULT_255_1_388
10
5.9304878
20
79.8006771
40
1.0196417
50
248.2007377
51
252.4527713
0
ARC
8
DEFAULT_255_1_388
10
6.0658405
20
80.2191092
40
1.4594143
50
252.3388938
51
254.347037
0
ARC
8
DEFAULT_255_1_388
10
5.2173705
20
77.1843095
40
1.6917621
50
71.0197462
51
74.4085467
0
ARC
8
DEFAULT_255_1_388
10
5.4080793
20
77.7348144
40
1.1091618
50
66.1845203
51
71.086519
0
ARC
8
DEFAULT_255_1_388
10
5.5831342
20
78.1289439
40
0.6779073
50
59.3537334
51
66.269255
0
ARC
8
DEFAULT_255_1_388
10
5.6831068
20
78.2980777
40
0.4814366
50
49.1021732
51
59.3294421
0
ARC
8
DEFAULT_255_1_388
10
5.7752056
20
78.4030575
40
0.3417875
50
32.7924183
51
49.2503526
0
ARC
8
DEFAULT_255_1_388
10
5.810167
20
78.4280311
40
0.2988789
50
31.121225
51
32.3977355
0
ARC
8
DEFAULT_255_1_388
10
5.8013848
20
78.4247728
40
0.3080861
50
8.1116803
51
30.7958224
0
ARC
8
DEFAULT_255_1_388
10
5.7102194
20
78.4092437
40
0.4005385
50
359.8390945
51
8.4707348
0
ARC
8
DEFAULT_255_1_388
10
5.7806242
20
78.4037751
40
0.3301608
50
337.4732479
51
0.7538283
0
ARC
8
DEFAULT_255_1_388
10
5.8007267
20
78.4015554
40
0.3107929
50
307.5917028
51
336.4313755
0
ARC
8
DEFAULT_255_1_388
10
5.7496324
20
78.4583509
40
0.3870096
50
307.6560665
51
308.4561779
0
ARC
8
DEFAULT_255_1_388
10
5.7230541
20
78.4991832
40
0.435591
50
284.3733666
51
307.1426212
0
ARC
8
DEFAULT_255_1_388
10
5.6673435
20
78.7041391
40
0.6479685
50
272.4384566
51
284.6464689
0
ARC
8
DEFAULT_255_1_388
10
5.653082
20
78.9065434
40
0.8508149
50
269.9708517
51
272.8180721
0
ARC
8
DEFAULT_255_1_388
10
5.6482503
20
78.6773283
40
0.6216151
50
248.2707343
51
270.4054609
0
ARC
8
DEFAULT_255_1_388
10
5.6421374
20
78.6558673
40
0.5994203
50
246.1380358
51
248.054058
0
ARC
8
DEFAULT_255_1_388
10
5.5950517
20
78.5569705
40
0.4899388
50
233.1671897
51
246.4951656
0
ARC
8
DEFAULT_255_1_388
10
5.5327152
20
78.4728137
40
0.3852115
50
215.3403381
51
233.084328
0
ARC
8
DEFAULT_255_1_388
10
5.5020516
20
78.4505093
40
0.3472969
50
179.2419235
51
215.2648426
0
ARC
8
DEFAULT_255_1_388
10
5.5884067
20
78.4520979
40
0.259251
50
179.3355796
51
199.1045873
0
ARC
8
DEFAULT_255_1_388
10
5.5510209
20
78.4423223
40
0.2207454
50
199.8830064
51
232.7061328
0
ARC
8
DEFAULT_255_1_388
10
5.6041483
20
78.5091456
40
0.306101
50
232.3736206
51
255.5136621
0
ARC
8
DEFAULT_255_1_388
10
5.6424989
20
78.6491177
40
0.4512213
50
255.2447928
51
267.5318292
0
ARC
8
DEFAULT_255_1_388
10
5.6523456
20
78.7877709
40
0.5901825
50
267.1564563
51
270.0294721
0
ARC
8
DEFAULT_255_1_388
10
5.6554781
20
78.7378623
40
0.5402814
50
269.6999944
51
278.1662446
0
ARC
8
DEFAULT_255_1_388
10
5.6842809
20
78.5431974
40
0.3435003
50
278.0229022
51
290.6255326
0
ARC
8
DEFAULT_255_1_388
10
5.7233975
20
78.4388547
40
0.2320666
50
290.6616368
51
307.0374127
0
ARC
8
DEFAULT_255_1_388
10
5.7571875
20
78.397404
40
0.1786372
50
306.3942078
51
355.303191
0
ARC
8
DEFAULT_255_1_388
10
5.6996168
20
78.4060186
40
0.2367516
50
354.3662092
51
0.0709489
0
ARC
8
DEFAULT_255_1_388
10
5.7156037
20
78.4085561
40
0.2207761
50
359.4175379
51
16.1975911
0
ARC
8
DEFAULT_255_1_388
10
5.7668155
20
78.4225954
40
0.1676828
50
16.4721294
51
52.6261798
0
ARC
8
DEFAULT_255_1_388
10
5.6744662
20
78.3006606
40
0.3206412
50
52.7381828
51
62.4979144
0
ARC
8
DEFAULT_255_1_388
10
5.5186415
20
78.0074236
40
0.6527035
50
62.2517425
51
68.1219454
0
ARC
8
DEFAULT_255_1_388
10
5.3251903
20
77.5319951
40
1.1659797
50
68.006043
51
71.8055127
0
ARC
8
DEFAULT_255_1_388
10
5.1231811
20
76.9261723
40
1.8045908
50
71.718361
51
73.9260743
0
LINE
8
DEFAULT_255_1_388
10
6.5191675
20
79.3893898
11
6.5191675
21
78.0738
0
LINE
8
DEFAULT_255_1_388
10
6.5191675
20
78.0738
11
6.3456831
21
78.0738
0
LINE
8
DEFAULT_255_1_388
10
6.3456831
20
78.0738
11
6.3456831
21
79.3893898
0
LINE
8
DEFAULT_255_1_388
10
6.3456831
20
79.3893898
11
6.5191675
21
79.3893898
0
LINE
8
DEFAULT_255_1_388
10
6.8363186
20
79.3893898
11
7.0604026
21
79.3893898
0
LINE
8
DEFAULT_255_1_388
10
7.0604026
20
79.3893898
11
7.4904993
21
78.3159553
0
LINE
8
DEFAULT_255_1_388
10
7.4904993
20
78.3159553
11
7.9205959
21
79.3893898
0
LINE
8
DEFAULT_255_1_388
10
7.9205959
20
79.3893898
11
8.1455835
21
79.3893898
0
LINE
8
DEFAULT_255_1_388
10
8.1455835
20
79.3893898
11
8.1455835
21
78.0738
0
LINE
8
DEFAULT_255_1_388
10
8.1455835
20
78.0738
11
7.9720991
21
78.0738
0
LINE
8
DEFAULT_255_1_388
10
7.9720991
20
78.0738
11
7.9720991
21
78.586121
0
LINE
8
DEFAULT_255_1_388
10
7.9720991
20
78.586121
11
7.9883633
21
79.1391025
0
LINE
8
DEFAULT_255_1_388
10
7.9883633
20
79.1391025
11
7.5564595
21
78.0738
0
LINE
8
DEFAULT_255_1_388
10
7.5564595
20
78.0738
11
7.4236355
21
78.0738
0
LINE
8
DEFAULT_255_1_388
10
7.4236355
20
78.0738
11
6.9926353
21
79.1363918
0
LINE
8
DEFAULT_255_1_388
10
6.9926353
20
79.1363918
11
7.009803
21
78.586121
0
LINE
8
DEFAULT_255_1_388
10
7.009803
20
78.586121
11
7.009803
21
78.0738
0
LINE
8
DEFAULT_255_1_388
10
7.009803
20
78.0738
11
6.8363186
21
78.0738
0
LINE
8
DEFAULT_255_1_388
10
6.8363186
20
78.0738
11
6.8363186
21
79.3893898
0
LINE
8
DEFAULT_255_1_388
10
9.3202173
20
78.0738
11
9.1946218
21
78.4171545
0
LINE
8
DEFAULT_255_1_388
10
9.1946218
20
78.4171545
11
8.6434475
21
78.4171545
0
LINE
8
DEFAULT_255_1_388
10
8.6434475
20
78.4171545
11
8.5196592
21
78.0738
0
LINE
8
DEFAULT_255_1_388
10
8.5196592
20
78.0738
11
8.3407534
21
78.0738
0
LINE
8
DEFAULT_255_1_388
10
8.3407534
20
78.0738
11
8.8431353
21
79.3893898
0
LINE
8
DEFAULT_255_1_388
10
8.8431353
20
79.3893898
11
8.9949341
21
79.3893898
0
LINE
8
DEFAULT_255_1_388
10
8.9949341
20
79.3893898
11
9.4982195
21
78.0738
0
LINE
8
DEFAULT_255_1_388
10
9.4982195
20
78.0738
11
9.3202173
21
78.0738
0
LINE
8
DEFAULT_255_1_388
10
8.9190347
20
79.1752451
11
8.6958542
21
78.5599177
0
LINE
8
DEFAULT_255_1_388
10
8.6958542
20
78.5599177
11
9.1431187
21
78.5599177
0
LINE
8
DEFAULT_255_1_388
10
9.1431187
20
78.5599177
11
8.9190347
21
79.1752451
0
LINE
8
DEFAULT_255_1_388
10
10.4677441
20
79.3893898
11
10.4677441
21
79.2466267
0
LINE
8
DEFAULT_255_1_388
10
10.4677441
20
79.2466267
11
10.044876
21
79.2466267
0
LINE
8
DEFAULT_255_1_388
10
10.044876
20
79.2466267
11
10.044876
21
78.0738
0
LINE
8
DEFAULT_255_1_388
10
10.044876
20
78.0738
11
9.8722952
21
78.0738
0
LINE
8
DEFAULT_255_1_388
10
9.8722952
20
78.0738
11
9.8722952
21
79.2466267
0
LINE
8
DEFAULT_255_1_388
10
9.8722952
20
79.2466267
11
9.4503306
21
79.2466267
0
LINE
8
DEFAULT_255_1_388
10
9.4503306
20
79.2466267
11
9.4503306
21
79.3893898
0
LINE
8
DEFAULT_255_1_388
10
9.4503306
20
79.3893898
11
10.4677441
21
79.3893898
0
LINE
8
DEFAULT_255_1_388
10
10.8490483
20
79.3893898
11
10.8490483
21
78.0738
0
LINE
8
DEFAULT_255_1_388
10
10.8490483
20
78.0738
11
10.675564
21
78.0738
0
LINE
8
DEFAULT_255_1_388
10
10.675564
20
78.0738
11
10.675564
21
79.3893898
0
LINE
8
DEFAULT_255_1_388
10
10.675564
20
79.3893898
11
10.8490483
21
79.3893898
0
LINE
8
DEFAULT_255_1_388
10
11.9595291
20
78.4912468
11
12.133917
21
78.4912468
0
LINE
8
DEFAULT_255_1_388
10
11.1210212
20
78.6701525
11
11.1210212
21
78.7966516
0
LINE
8
DEFAULT_255_1_388
10
12.133917
20
78.9665217
11
11.9595291
21
78.9665217
0
LINE
8
DEFAULT_255_1_388
10
11.2954092
20
78.7921337
11
11.2954092
21
78.6647312
0
ARC
8
DEFAULT_255_1_388
10
11.5173404
20
78.5584329
40
0.6202263
50
340.1774904
51
353.7812217
0
ARC
8
DEFAULT_255_1_388
10
11.6941257
20
78.4925893
40
0.4315926
50
311.4560052
51
340.4420756
0
ARC
8
DEFAULT_255_1_388
10
11.6903796
20
78.5050665
40
0.4434573
50
282.4332229
51
310.7514507
0
ARC
8
DEFAULT_255_1_388
10
11.6409614
20
78.7092703
40
0.6535262
50
269.9358869
51
282.8096729
0
ARC
8
DEFAULT_255_1_388
10
11.6351554
20
78.8605329
40
0.8048043
50
269.9995752
51
270.3612856
0
ARC
8
DEFAULT_255_1_388
10
11.6292044
20
78.5806781
40
0.5249831
50
250.7885263
51
270.6488451
0
ARC
8
DEFAULT_255_1_388
10
11.6102868
20
78.5089853
40
0.4510942
50
219.3628377
51
250.0611024
0
ARC
8
DEFAULT_255_1_388
10
11.7035743
20
78.5882653
40
0.5735046
50
193.5480293
51
219.5755675
0
ARC
8
DEFAULT_255_1_388
10
11.9703952
20
78.657552
40
0.849146
50
181.1220183
51
193.8754971
0
ARC
8
DEFAULT_255_1_388
10
12.2027185
20
78.6699914
40
1.0816971
50
179.9914644
51
181.5398227
0
ARC
8
DEFAULT_255_1_388
10
11.9950495
20
78.8008586
40
0.8740384
50
169.5837606
51
180.275782
0
ARC
8
DEFAULT_255_1_388
10
11.7883844
20
78.8390439
40
0.6638751
50
155.0367033
51
169.6002779
0
ARC
8
DEFAULT_255_1_388
10
11.6606302
20
78.9006336
40
0.5220662
50
136.7831557
51
155.2472983
0
ARC
8
DEFAULT_255_1_388
10
11.6168092
20
78.9378577
40
0.4646502
50
121.7633063
51
136.4281161
0
ARC
8
DEFAULT_255_1_388
10
11.6319932
20
78.9098049
40
0.4964979
50
95.6460018
51
121.5489589
0
ARC
8
DEFAULT_255_1_388
10
11.6496907
20
78.7850704
40
0.6223912
50
89.9245727
51
96.1375919
0
ARC
8
DEFAULT_255_1_388
10
11.6553612
20
78.7984721
40
0.6090084
50
76.6779212
51
90.456405
0
ARC
8
DEFAULT_255_1_388
10
11.6996425
20
78.977406
40
0.42469
50
47.4858803
51
76.9287069
0
ARC
8
DEFAULT_255_1_388
10
11.6831038
20
78.9661623
40
0.4441778
50
16.5424081
51
46.8934505
0
ARC
8
DEFAULT_255_1_388
10
11.5022088
20
78.9067265
40
0.6345318
50
5.4072971
51
17.0363711
0
ARC
8
DEFAULT_255_1_388
10
11.3403813
20
78.8807304
40
0.6250632
50
7.8888693
51
15.9242022
0
ARC
8
DEFAULT_255_1_388
10
11.5638799
20
78.9456309
40
0.3923364
50
15.7650676
51
27.9410069
0
ARC
8
DEFAULT_255_1_388
10
11.6880968
20
79.0121317
40
0.2514401
50
27.8167196
51
46.4007942
0
ARC
8
DEFAULT_255_1_388
10
11.6936809
20
79.0114882
40
0.2480958
50
47.4372362
51
75.0695672
0
ARC
8
DEFAULT_255_1_388
10
11.6589646
20
78.8906277
40
0.3738281
50
74.7009379
51
87.8124314
0
ARC
8
DEFAULT_255_1_388
10
11.6507262
20
78.7722659
40
0.4924321
50
87.3802571
51
90.0251599
0
ARC
8
DEFAULT_255_1_388
10
11.646391
20
78.9042997
40
0.3604218
50
89.3451886
51
108.5744412
0
ARC
8
DEFAULT_255_1_388
10
11.6309902
20
78.9620836
40
0.3007661
50
109.2998307
51
143.3037387
0
ARC
8
DEFAULT_255_1_388
10
11.7167192
20
78.8961584
40
0.4089031
50
143.075267
51
163.1918576
0
ARC
8
DEFAULT_255_1_388
10
11.9363026
20
78.8268652
40
0.6391492
50
162.9375929
51
174.6208776
0
ARC
8
DEFAULT_255_1_388
10
12.2317408
20
78.7944711
40
0.9363344
50
174.342123
51
180.1430283
0
ARC
8
DEFAULT_255_1_388
10
12.1269949
20
78.6601117
40
0.8315986
50
179.6817261
51
189.150555
0
ARC
8
DEFAULT_255_1_388
10
11.8456698
20
78.6132559
40
0.5464044
50
188.9911061
51
203.5772363
0
ARC
8
DEFAULT_255_1_388
10
11.724199
20
78.5628539
40
0.4149206
50
203.9075402
51
215.1312435
0
ARC
8
DEFAULT_255_1_388
10
11.6203788
20
78.4823907
40
0.2837747
50
213.9071511
51
263.8848919
0
ARC
8
DEFAULT_255_1_388
10
11.6344781
20
78.5706519
40
0.3730641
50
263.1757928
51
270.1031044
0
ARC
8
DEFAULT_255_1_388
10
11.638086
20
78.7109511
40
0.5133712
50
269.6722503
51
279.0606936
0
ARC
8
DEFAULT_255_1_388
10
11.6681016
20
78.529515
40
0.3294739
50
278.8749101
51
293.6349581
0
ARC
8
DEFAULT_255_1_388
10
11.7041219
20
78.4449251
40
0.2375405
50
293.8553806
51
310.0518171
0
ARC
8
DEFAULT_255_1_388
10
11.7046728
20
78.4379021
40
0.2318463
50
311.0644687
51
332.0111037
0
ARC
8
DEFAULT_255_1_388
10
11.5705402
20
78.5118702
40
0.3850112
50
331.6586806
51
343.2877423
0
ARC
8
DEFAULT_255_1_388
10
11.3384867
20
78.5831806
40
0.6277712
50
343.1446576
51
351.0103568
0
ARC
8
DEFAULT_255_1_388
10
11.175219
20
78.6131873
40
0.7937327
50
350.71248
51
351.1626997
0
LINE
8
DEFAULT_255_1_388
10
13.5723916
20
78.8237585
11
13.5723916
21
78.6818989
0
LINE
8
DEFAULT_255_1_388
10
13.5723916
20
78.6818989
11
13.0022424
21
78.6818989
0
LINE
8
DEFAULT_255_1_388
10
13.0022424
20
78.6818989
11
13.0022424
21
78.2156596
0
LINE
8
DEFAULT_255_1_388
10
13.0022424
20
78.2156596
11
13.6645552
21
78.2156596
0
LINE
8
DEFAULT_255_1_388
10
13.6645552
20
78.2156596
11
13.6645552
21
78.0738
0
LINE
8
DEFAULT_255_1_388
10
13.6645552
20
78.0738
11
12.8287581
21
78.0738
0
LINE
8
DEFAULT_255_1_388
10
12.8287581
20
78.0738
11
12.8287581
21
79.3893898
0
LINE
8
DEFAULT_255_1_388
10
12.8287581
20
79.3893898
11
13.6555195
21
79.3893898
0
LINE
8
DEFAULT_255_1_388
10
13.6555195
20
79.3893898
11
13.6555195
21
79.2466267
0
LINE
8
DEFAULT_255_1_388
10
13.6555195
20
79.2466267
11
13.0022424
21
79.2466267
0
LINE
8
DEFAULT_255_1_388
10
13.0022424
20
79.2466267
11
13.0022424
21
78.8237585
0
LINE
8
DEFAULT_255_1_388
10
13.0022424
20
78.8237585
11
13.5723916
21
78.8237585
0
LINE
8
DEFAULT_255_1_388
10
14.8075642
20
79.3893898
11
14.8075642
21
79.2466267
0
LINE
8
DEFAULT_255_1_388
10
14.8075642
20
79.2466267
11
14.384696
21
79.2466267
0
LINE
8
DEFAULT_255_1_388
10
14.384696
20
79.2466267
11
14.384696
21
78.0738
0
LINE
8
DEFAULT_255_1_388
10
14.384696
20
78.0738
11
14.2121152
21
78.0738
0
LINE
8
DEFAULT_255_1_388
10
14.2121152
20
78.0738
11
14.2121152
21
79.2466267
0
LINE
8
DEFAULT_255_1_388
10
14.2121152
20
79.2466267
11
13.7901506
21
79.2466267
0
LINE
8
DEFAULT_255_1_388
10
13.7901506
20
79.2466267
11
13.7901506
21
79.3893898
0
LINE
8
DEFAULT_255_1_388
10
13.7901506
20
79.3893898
11
14.8075642
21
79.3893898
0
LINE
8
DEFAULT_255_1_388
10
15.8213635
20
78.2102382
11
15.8213635
21
78.0738
0
LINE
8
DEFAULT_255_1_388
10
15.8213635
20
78.0738
11
14.959363
21
78.0738
0
LINE
8
DEFAULT_255_1_388
10
14.959363
20
78.0738
11
14.959363
21
78.1939741
0
LINE
8
DEFAULT_255_1_388
10
14.959363
20
78.1939741
11
15.4147595
21
78.6999702
0
LINE
8
DEFAULT_255_1_388
10
15.1012227
20
79.0017607
11
14.9340632
21
79.0017607
0
LINE
8
DEFAULT_255_1_388
10
15.513248
20
78.592446
11
15.1608579
21
78.2102382
0
LINE
8
DEFAULT_255_1_388
10
15.1608579
20
78.2102382
11
15.8213635
21
78.2102382
0
ARC
8
DEFAULT_255_1_388
10
13.8971655
20
80.0419983
40
2.0258655
50
318.5132526
51
320.7829045
0
ARC
8
DEFAULT_255_1_388
10
14.4919612
20
79.5578929
40
1.2589638
50
320.7372878
51
323.9739031
0
ARC
8
DEFAULT_255_1_388
10
14.9328543
20
79.2384554
40
0.7145141
50
323.8962701
51
328.64194
0
ARC
8
DEFAULT_255_1_388
10
15.1630801
20
79.0964545
40
0.4440242
50
328.8294576
51
331.7891185
0
ARC
8
DEFAULT_255_1_388
10
15.2753121
20
79.0385374
40
0.3177517
50
331.4254512
51
352.9365785
0
ARC
8
DEFAULT_255_1_388
10
15.2906121
20
79.035105
40
0.3021496
50
353.2257659
51
0.0166158
0
ARC
8
DEFAULT_255_1_388
10
15.3142882
20
79.0376894
40
0.2784847
50
359.486299
51
15.9343185
0
ARC
8
DEFAULT_255_1_388
10
15.3713148
20
79.0530269
40
0.2194403
50
16.1712913
51
43.5286088
0
ARC
8
DEFAULT_255_1_388
10
15.3800093
20
79.0617191
40
0.2071504
50
43.4417391
51
83.1661095
0
ARC
8
DEFAULT_255_1_388
10
15.3649254
20
78.9788316
40
0.2912888
50
82.160179
51
90.1505708
0
ARC
8
DEFAULT_255_1_388
10
15.3613736
20
78.9184279
40
0.3517025
50
89.5460741
51
102.5418361
0
ARC
8
DEFAULT_255_1_388
10
15.3340456
20
79.0343933
40
0.2325748
50
102.1738499
51
129.206123
0
ARC
8
DEFAULT_255_1_388
10
15.3251909
20
79.0483664
40
0.2161591
50
129.72865
51
135.753947
0
ARC
8
DEFAULT_255_1_388
10
15.3388391
20
79.0374728
40
0.2335433
50
136.1757367
51
166.3673339
0
ARC
8
DEFAULT_255_1_388
10
15.452108
20
79.0071148
40
0.3507873
50
165.9090694
51
178.8684636
0
ARC
8
DEFAULT_255_1_388
10
15.5496851
20
79.0018263
40
0.4484624
50
178.4391136
51
180.0083808
0
ARC
8
DEFAULT_255_1_388
10
15.3917553
20
79.0062197
40
0.4577138
50
163.2878482
51
180.5581842
0
ARC
8
DEFAULT_255_1_388
10
15.3015594
20
79.0310393
40
0.3641968
50
133.4540601
51
162.947111
0
ARC
8
DEFAULT_255_1_388
10
15.3216476
20
79.0096789
40
0.3935189
50
100.7869829
51
133.4382499
0
ARC
8
DEFAULT_255_1_388
10
15.3607721
20
78.8354399
40
0.5720313
50
89.660664
51
101.3702276
0
ARC
8
DEFAULT_255_1_388
10
15.368233
20
78.8423263
40
0.5651495
50
78.2172678
51
90.412935
0
ARC
8
DEFAULT_255_1_388
10
15.4081795
20
79.0250511
40
0.378122
50
55.9269121
51
78.4888449
0
ARC
8
DEFAULT_255_1_388
10
15.430251
20
79.0631187
40
0.3342379
50
47.929771
51
55.4049217
0
ARC
8
DEFAULT_255_1_388
10
15.4417041
20
79.0747618
40
0.3179217
50
4.334829
51
48.0560205
0
ARC
8
DEFAULT_255_1_388
10
15.3184842
20
79.0556487
40
0.442341
50
359.9251713
51
5.5971671
0
ARC
8
DEFAULT_255_1_388
10
15.3666997
20
79.0619728
40
0.3941854
50
337.8914027
51
358.9967534
0
ARC
8
DEFAULT_255_1_388
10
15.0614567
20
79.1797295
40
0.7213271
50
326.9132501
51
338.3508308
0
ARC
8
DEFAULT_255_1_388
10
14.6130679
20
79.4671105
40
1.2538973
50
319.6471833
51
327.0959558
0
ARC
8
DEFAULT_255_1_388
10
14.1817337
20
79.822905
40
1.8129975
50
317.2588228
51
319.9045804
0
LINE
8
DEFAULT_255_1_388
10
16.8234165
20
78.851769
11
16.8234165
21
78.6349135
0
LINE
8
DEFAULT_255_1_388
10
15.9930408
20
78.6123244
11
15.9930408
21
78.8355048
0
LINE
8
DEFAULT_255_1_388
10
16.6562571
20
78.5897353
11
16.6562571
21
78.8635153
0
LINE
8
DEFAULT_255_1_388
10
16.1602002
20
78.8761652
11
16.1602002
21
78.6087102
0
ARC
8
DEFAULT_255_1_388
10
15.4456499
20
78.6294118
40
1.3777776
50
353.8440855
51
0.2287917
0
ARC
8
DEFAULT_255_1_388
10
15.9675516
20
78.5711414
40
0.852639
50
344.4934746
51
353.9763743
0
ARC
8
DEFAULT_255_1_388
10
16.3042324
20
78.4754191
40
0.5026273
50
329.2803599
51
344.7473406
0
ARC
8
DEFAULT_255_1_388
10
16.4157819
20
78.4142038
40
0.3754848
50
324.9361395
51
328.6153007
0
ARC
8
DEFAULT_255_1_388
10
16.4583469
20
78.3844586
40
0.3235566
50
280.5801797
51
324.9173226
0
ARC
8
DEFAULT_255_1_388
10
16.4132098
20
78.5724236
40
0.5167077
50
269.5979457
51
281.6732777
0
ARC
8
DEFAULT_255_1_388
10
16.4051001
20
78.5589113
40
0.5032026
50
256.6228565
51
270.5105488
0
ARC
8
DEFAULT_255_1_388
10
16.3598744
20
78.3847345
40
0.3233092
50
215.8618351
51
257.2787793
0
ARC
8
DEFAULT_255_1_388
10
16.4747451
20
78.4618106
40
0.4615831
50
197.9695203
51
215.2622745
0
ARC
8
DEFAULT_255_1_388
10
16.7543127
20
78.5561641
40
0.7566307
50
187.8816486
51
198.2346584
0
ARC
8
DEFAULT_255_1_388
10
17.1996365
20
78.6204453
40
1.2065653
50
180.8977266
51
188.0054894
0
ARC
8
DEFAULT_255_1_388
10
17.5046579
20
78.63194
40
1.5117443
50
180.7434591
51
181.152202
0
ARC
8
DEFAULT_255_1_388
10
17.3371575
20
78.8409371
40
1.3441277
50
173.7674302
51
180.2315596
0
ARC
8
DEFAULT_255_1_388
10
16.8289443
20
78.8983779
40
0.8326847
50
164.3058537
51
173.9000553
0
ARC
8
DEFAULT_255_1_388
10
16.5013443
20
78.9927652
40
0.4917711
50
148.7922028
51
164.5682288
0
ARC
8
DEFAULT_255_1_388
10
16.3944181
20
79.0524457
40
0.3694204
50
144.5883979
51
148.1161588
0
ARC
8
DEFAULT_255_1_388
10
16.3556926
20
79.0794667
40
0.322202
50
101.6440149
51
144.5142619
0
ARC
8
DEFAULT_255_1_388
10
16.4035118
20
78.8894337
40
0.5180451
50
89.528284
51
102.5820197
0
ARC
8
DEFAULT_255_1_388
10
16.412411
20
78.8850376
40
0.5224441
50
77.0437914
51
90.508231
0
ARC
8
DEFAULT_255_1_388
10
16.4576364
20
79.0698272
40
0.3322297
50
48.2777708
51
77.4996087
0
ARC
8
DEFAULT_255_1_388
10
16.4658104
20
79.0843557
40
0.315966
50
36.3141586
51
47.6307332
0
ARC
8
DEFAULT_255_1_388
10
16.3680826
20
79.0185159
40
0.4337313
50
18.2931065
51
35.6770203
0
ARC
8
DEFAULT_255_1_388
10
16.0819667
20
78.9203107
40
0.7362203
50
8.0246996
51
18.5605636
0
ARC
8
DEFAULT_255_1_388
10
15.6136022
20
78.8511432
40
1.2096583
50
1.127539
51
8.1718423
0
ARC
8
DEFAULT_255_1_388
10
15.2487156
20
78.8368374
40
1.5747719
50
0.5432713
51
1.38669
0
ARC
8
DEFAULT_255_1_388
10
15.4544535
20
78.8675163
40
1.2018103
50
359.8092569
51
4.9408001
0
ARC
8
DEFAULT_255_1_388
10
15.9281116
20
78.90979
40
0.7262727
50
4.8364937
51
12.2906017
0
ARC
8
DEFAULT_255_1_388
10
16.2380581
20
78.9788485
40
0.4087324
50
12.0806994
51
23.8171225
0
ARC
8
DEFAULT_255_1_388
10
16.3700977
20
79.0347508
40
0.2653719
50
24.2874621
51
31.3934353
0
ARC
8
DEFAULT_255_1_388
10
16.4291413
20
79.0733822
40
0.1948607
50
30.7407708
51
82.4658033
0
ARC
8
DEFAULT_255_1_388
10
16.4089073
20
78.9740017
40
0.2961198
50
81.1057101
51
90.2187368
0
ARC
8
DEFAULT_255_1_388
10
16.4048885
20
79.0030421
40
0.2670929
50
89.380395
51
105.6763916
0
ARC
8
DEFAULT_255_1_388
10
16.3842607
20
79.078032
40
0.1893189
50
105.7980655
51
149.7387869
0
ARC
8
DEFAULT_255_1_388
10
16.5039747
20
79.0060719
40
0.3289892
50
149.4208441
51
163.628295
0
ARC
8
DEFAULT_255_1_388
10
16.7391977
20
78.9343345
40
0.5749004
50
163.3764549
51
172.141138
0
ARC
8
DEFAULT_255_1_388
10
17.1104698
20
78.8811582
40
0.9499585
50
172.0258462
51
178.0705453
0
ARC
8
DEFAULT_255_1_388
10
17.4526251
20
78.8649682
40
1.2924734
50
177.8639301
51
179.5036263
0
ARC
8
DEFAULT_255_1_388
10
17.330727
20
78.6046151
40
1.170534
50
179.7995545
51
185.246089
0
ARC
8
DEFAULT_255_1_388
10
16.8758863
20
78.5615404
40
0.7136613
50
185.1411911
51
193.0082205
0
ARC
8
DEFAULT_255_1_388
10
16.5785124
20
78.4912441
40
0.4080987
50
192.7897338
51
205.2507384
0
ARC
8
DEFAULT_255_1_388
10
16.4607334
20
78.4386538
40
0.2791522
50
205.8001921
51
211.2545876
0
ARC
8
DEFAULT_255_1_388
10
16.4018873
20
78.3992132
40
0.2084074
50
210.3789935
51
238.4007996
0
ARC
8
DEFAULT_255_1_388
10
16.3996959
20
78.4044786
40
0.2117943
50
239.6521916
51
265.9793852
0
ARC
8
DEFAULT_255_1_388
10
16.4092808
20
78.4801358
40
0.2879689
50
265.1324455
51
270.0603288
0
ARC
8
DEFAULT_255_1_388
10
16.4125185
20
78.4436418
40
0.2514919
50
269.3314378
51
287.2180039
0
ARC
8
DEFAULT_255_1_388
10
16.4280267
20
78.3870291
40
0.1928357
50
287.7957942
51
329.0808983
0
ARC
8
DEFAULT_255_1_388
10
16.3203024
20
78.4542651
40
0.319808
50
328.6635261
51
343.3325043
0
ARC
8
DEFAULT_255_1_388
10
16.0758483
20
78.5304195
40
0.5758408
50
343.0498092
51
351.9392499
0
ARC
8
DEFAULT_255_1_388
10
15.6857804
20
78.5879205
40
0.9701202
50
351.8071632
51
357.7957897
0
ARC
8
DEFAULT_255_1_388
10
15.3223281
20
78.6067724
40
1.3340376
50
357.5870923
51
359.2682493
0
LINE
8
DEFAULT_255_1_388
10
17.8625156
20
78.851769
11
17.8625156
21
78.6349135
0
LINE
8
DEFAULT_255_1_388
10
17.0321399
20
78.6123244
11
17.0321399
21
78.8355048
0
LINE
8
DEFAULT_255_1_388
10
17.6953562
20
78.5897353
11
17.6953562
21
78.8635153
0
LINE
8
DEFAULT_255_1_388
10
17.1992993
20
78.8761652
11
17.1992993
21
78.6087102
0
ARC
8
DEFAULT_255_1_388
10
16.484749
20
78.6294118
40
1.3777776
50
353.8440855
51
0.2287917
0
ARC
8
DEFAULT_255_1_388
10
17.0066508
20
78.5711414
40
0.852639
50
344.4934746
51
353.9763743
0
ARC
8
DEFAULT_255_1_388
10
17.3433315
20
78.4754191
40
0.5026273
50
329.2803599
51
344.7473406
0
ARC
8
DEFAULT_255_1_388
10
17.4548811
20
78.4142038
40
0.3754848
50
324.9361395
51
328.6153007
0
ARC
8
DEFAULT_255_1_388
10
17.497446
20
78.3844586
40
0.3235566
50
280.5801797
51
324.9173226
0
ARC
8
DEFAULT_255_1_388
10
17.4523089
20
78.5724236
40
0.5167077
50
269.5979457
51
281.6732777
0
ARC
8
DEFAULT_255_1_388
10
17.4441992
20
78.5589113
40
0.5032026
50
256.6228565
51
270.5105488
0
ARC
8
DEFAULT_255_1_388
10
17.3989735
20
78.3847345
40
0.3233092
50
215.8618351
51
257.2787793
0
ARC
8
DEFAULT_255_1_388
10
17.5138442
20
78.4618106
40
0.4615831
50
197.9695203
51
215.2622745
0
ARC
8
DEFAULT_255_1_388
10
17.7934118
20
78.5561641
40
0.7566307
50
187.8816486
51
198.2346584
0
ARC
8
DEFAULT_255_1_388
10
18.2387356
20
78.6204453
40
1.2065653
50
180.8977266
51
188.0054894
0
ARC
8
DEFAULT_255_1_388
10
18.543757
20
78.63194
40
1.5117443
50
180.7434591
51
181.152202
0
ARC
8
DEFAULT_255_1_388
10
18.3762566
20
78.8409371
40
1.3441277
50
173.7674302
51
180.2315596
0
ARC
8
DEFAULT_255_1_388
10
17.8680435
20
78.8983779
40
0.8326847
50
164.3058537
51
173.9000553
0
ARC
8
DEFAULT_255_1_388
10
17.5404435
20
78.9927652
40
0.4917711
50
148.7922028
51
164.5682288
0
ARC
8
DEFAULT_255_1_388
10
17.4335172
20
79.0524457
40
0.3694204
50
144.5883979
51
148.1161588
0
ARC
8
DEFAULT_255_1_388
10
17.3947917
20
79.0794667
40
0.322202
50
101.6440149
51
144.5142619
0
ARC
8
DEFAULT_255_1_388
10
17.442611
20
78.8894337
40
0.5180451
50
89.528284
51
102.5820197
0
ARC
8
DEFAULT_255_1_388
10
17.4515102
20
78.8850376
40
0.5224441
50
77.0437914
51
90.508231
0
ARC
8
DEFAULT_255_1_388
10
17.4967355
20
79.0698272
40
0.3322297
50
48.2777708
51
77.4996087
0
ARC
8
DEFAULT_255_1_388
10
17.5049095
20
79.0843557
40
0.315966
50
36.3141586
51
47.6307332
0
ARC
8
DEFAULT_255_1_388
10
17.4071817
20
79.0185159
40
0.4337313
50
18.2931065
51
35.6770203
0
ARC
8
DEFAULT_255_1_388
10
17.1210658
20
78.9203107
40
0.7362203
50
8.0246996
51
18.5605636
0
ARC
8
DEFAULT_255_1_388
10
16.6527014
20
78.8511432
40
1.2096583
50
1.127539
51
8.1718423
0
ARC
8
DEFAULT_255_1_388
10
16.2878147
20
78.8368374
40
1.5747719
50
0.5432713
51
1.38669
0
ARC
8
DEFAULT_255_1_388
10
16.4935526
20
78.8675163
40
1.2018103
50
359.8092569
51
4.9408001
0
ARC
8
DEFAULT_255_1_388
10
16.9672107
20
78.90979
40
0.7262727
50
4.8364937
51
12.2906017
0
ARC
8
DEFAULT_255_1_388
10
17.2771572
20
78.9788485
40
0.4087324
50
12.0806994
51
23.8171225
0
ARC
8
DEFAULT_255_1_388
10
17.4091968
20
79.0347508
40
0.2653719
50
24.2874621
51
31.3934353
0
ARC
8
DEFAULT_255_1_388
10
17.4682404
20
79.0733822
40
0.1948607
50
30.7407708
51
82.4658033
0
ARC
8
DEFAULT_255_1_388
10
17.4480065
20
78.9740017
40
0.2961198
50
81.1057101
51
90.2187368
0
ARC
8
DEFAULT_255_1_388
10
17.4439877
20
79.0030421
40
0.2670929
50
89.380395
51
105.6763916
0
ARC
8
DEFAULT_255_1_388
10
17.4233598
20
79.078032
40
0.1893189
50
105.7980655
51
149.7387869
0
ARC
8
DEFAULT_255_1_388
10
17.5430739
20
79.0060719
40
0.3289892
50
149.4208441
51
163.628295
0
ARC
8
DEFAULT_255_1_388
10
17.7782968
20
78.9343345
40
0.5749004
50
163.3764549
51
172.141138
0
ARC
8
DEFAULT_255_1_388
10
18.149569
20
78.8811582
40
0.9499585
50
172.0258462
51
178.0705453
0
ARC
8
DEFAULT_255_1_388
10
18.4917242
20
78.8649682
40
1.2924734
50
177.8639301
51
179.5036263
0
ARC
8
DEFAULT_255_1_388
10
18.3698261
20
78.6046151
40
1.170534
50
179.7995545
51
185.246089
0
ARC
8
DEFAULT_255_1_388
10
17.9149854
20
78.5615404
40
0.7136613
50
185.1411911
51
193.0082205
0
ARC
8
DEFAULT_255_1_388
10
17.6176115
20
78.4912441
40
0.4080987
50
192.7897338
51
205.2507384
0
ARC
8
DEFAULT_255_1_388
10
17.4998325
20
78.4386538
40
0.2791522
50
205.8001921
51
211.2545876
0
ARC
8
DEFAULT_255_1_388
10
17.4409864
20
78.3992132
40
0.2084074
50
210.3789935
51
238.4007996
0
ARC
8
DEFAULT_255_1_388
10
17.438795
20
78.4044786
40
0.2117943
50
239.6521916
51
265.9793852
0
ARC
8
DEFAULT_255_1_388
10
17.4483799
20
78.4801358
40
0.2879689
50
265.1324455
51
270.0603288
0
ARC
8
DEFAULT_255_1_388
10
17.4516176
20
78.4436418
40
0.2514919
50
269.3314378
51
287.2180039
0
ARC
8
DEFAULT_255_1_388
10
17.4671258
20
78.3870291
40
0.1928357
50
287.7957942
51
329.0808983
0
ARC
8
DEFAULT_255_1_388
10
17.3594015
20
78.4542651
40
0.319808
50
328.6635261
51
343.3325043
0
ARC
8
DEFAULT_255_1_388
10
17.1149474
20
78.5304195
40
0.5758408
50
343.0498092
51
351.9392499
0
ARC
8
DEFAULT_255_1_388
10
16.7248795
20
78.5879205
40
0.9701202
50
351.8071632
51
357.7957897
0
ARC
8
DEFAULT_255_1_388
10
16.3614272
20
78.6067724
40
1.3340376
50
357.5870923
51
359.2682493
0
LINE
8
DEFAULT_255_1_388
10
18.9928748
20
79.0089892
11
18.8184868
21
79.0089892
0
LINE
8
DEFAULT_255_1_388
10
18.0396143
20
78.4551042
11
18.2140022
21
78.4551042
0
ARC
8
DEFAULT_255_1_388
10
18.8925595
20
80.0153821
40
1.4087688
50
248.9196578
51
254.1442424
0
ARC
8
DEFAULT_255_1_388
10
18.7035475
20
79.5287805
40
0.8867498
50
241.6337352
51
249.0064643
0
ARC
8
DEFAULT_255_1_388
10
18.5315789
20
79.2136764
40
0.5277799
50
230.4982261
51
241.8087583
0
ARC
8
DEFAULT_255_1_388
10
18.443356
20
79.1012686
40
0.3849419
50
227.4062979
51
229.9877433
0
ARC
8
DEFAULT_255_1_388
10
18.3884906
20
79.0477155
40
0.3084129
50
200.6782127
51
228.1765252
0
ARC
8
DEFAULT_255_1_388
10
18.3966275
20
79.0460277
40
0.315461
50
179.506278
51
199.8695278
0
ARC
8
DEFAULT_255_1_388
10
18.3955864
20
79.0543671
40
0.3144584
50
132.4834401
51
181.0242352
0
ARC
8
DEFAULT_255_1_388
10
18.4625068
20
78.9911788
40
0.4063094
50
129.2526113
51
133.4249077
0
ARC
8
DEFAULT_255_1_388
10
18.4790661
20
78.9663619
40
0.436014
50
101.9878945
51
128.8741833
0
ARC
8
DEFAULT_255_1_388
10
18.5239076
20
78.772736
40
0.6347415
50
89.5906376
51
102.3170567
0
ARC
8
DEFAULT_255_1_388
10
18.5318388
20
78.8085586
40
0.5989122
50
77.2359491
51
90.3248968
0
ARC
8
DEFAULT_255_1_388
10
18.5551319
20
78.9173554
40
0.4876594
50
63.8379856
51
77.0808925
0
ARC
8
DEFAULT_255_1_388
10
18.5863852
20
78.9755882
40
0.4216191
50
45.9863127
51
64.1608798
0
ARC
8
DEFAULT_255_1_388
10
18.6157246
20
79.009099
40
0.3771394
50
32.2747934
51
45.6544796
0
ARC
8
DEFAULT_255_1_388
10
18.6232052
20
79.0112426
40
0.3696765
50
359.6507495
51
32.6129943
0
ARC
8
DEFAULT_255_1_388
10
18.5171235
20
79.0117788
40
0.3013762
50
359.469654
51
14.983205
0
ARC
8
DEFAULT_255_1_388
10
18.5964487
20
79.0330288
40
0.2192542
50
14.9781954
51
48.2004799
0
ARC
8
DEFAULT_255_1_388
10
18.5779598
20
79.0097937
40
0.2489048
50
48.5926661
51
74.1242559
0
ARC
8
DEFAULT_255_1_388
10
18.54044
20
78.8859607
40
0.3782845
50
73.7889321
51
86.6653996
0
ARC
8
DEFAULT_255_1_388
10
18.5289215
20
78.7501955
40
0.5145025
50
86.2642725
51
90.0533288
0
ARC
8
DEFAULT_255_1_388
10
18.5257308
20
78.7946376
40
0.4700681
50
89.669455
51
99.2313411
0
ARC
8
DEFAULT_255_1_388
10
18.4984468
20
78.9571401
40
0.3052945
50
99.0695987
51
113.7659242
0
ARC
8
DEFAULT_255_1_388
10
18.4676462
20
79.0297772
40
0.226407
50
114.0402885
51
127.9848946
0
ARC
8
DEFAULT_255_1_388
10
18.4405938
20
79.0630884
40
0.1835045
50
127.7287217
51
176.7106493
0
ARC
8
DEFAULT_255_1_388
10
18.5169603
20
79.051721
40
0.2604907
50
175.1780759
51
180.0581213
0
ARC
8
DEFAULT_255_1_388
10
18.4220947
20
79.0503411
40
0.1656287
50
179.6140658
51
228.124674
0
ARC
8
DEFAULT_255_1_388
10
18.4718304
20
79.096394
40
0.2332038
50
226.5785315
51
230.8792476
0
ARC
8
DEFAULT_255_1_388
10
18.5247791
20
79.1666908
40
0.3211664
50
231.4636401
51
241.9261664
0
ARC
8
DEFAULT_255_1_388
10
18.6594574
20
79.4145349
40
0.6032345
50
241.7177136
51
248.3259138
0
ARC
8
DEFAULT_255_1_388
10
18.8153169
20
79.8006771
40
1.0196417
50
248.2007377
51
252.4527713
0
ARC
8
DEFAULT_255_1_388
10
18.9506696
20
80.2191092
40
1.4594143
50
252.3388938
51
254.347037
0
ARC
8
DEFAULT_255_1_388
10
18.1021996
20
77.1843095
40
1.6917621
50
71.0197462
51
74.4085467
0
ARC
8
DEFAULT_255_1_388
10
18.2929084
20
77.7348144
40
1.1091618
50
66.1845203
51
71.086519
0
ARC
8
DEFAULT_255_1_388
10
18.4679633
20
78.1289439
40
0.6779073
50
59.3537334
51
66.269255
0
ARC
8
DEFAULT_255_1_388
10
18.5679359
20
78.2980777
40
0.4814366
50
49.1021732
51
59.3294421
0
ARC
8
DEFAULT_255_1_388
10
18.6600347
20
78.4030575
40
0.3417875
50
32.7924183
51
49.2503526
0
ARC
8
DEFAULT_255_1_388
10
18.6949961
20
78.4280311
40
0.2988789
50
31.121225
51
32.3977355
0
ARC
8
DEFAULT_255_1_388
10
18.6862139
20
78.4247728
40
0.3080861
50
8.1116803
51
30.7958224
0
ARC
8
DEFAULT_255_1_388
10
18.5950485
20
78.4092437
40
0.4005385
50
359.8390945
51
8.4707348
0
ARC
8
DEFAULT_255_1_388
10
18.6654533
20
78.4037751
40
0.3301608
50
337.4732479
51
0.7538283
0
ARC
8
DEFAULT_255_1_388
10
18.6855558
20
78.4015554
40
0.3107929
50
307.5917028
51
336.4313755
0
ARC
8
DEFAULT_255_1_388
10
18.6344615
20
78.4583509
40
0.3870096
50
307.6560665
51
308.4561779
0
ARC
8
DEFAULT_255_1_388
10
18.6078832
20
78.4991832
40
0.435591
50
284.3733666
51
307.1426212
0
ARC
8
DEFAULT_255_1_388
10
18.5521726
20
78.7041391
40
0.6479685
50
272.4384566
51
284.6464689
0
ARC
8
DEFAULT_255_1_388
10
18.5379111
20
78.9065434
40
0.8508149
50
269.9708517
51
272.8180721
0
ARC
8
DEFAULT_255_1_388
10
18.5330794
20
78.6773283
40
0.6216151
50
248.2707343
51
270.4054609
0
ARC
8
DEFAULT_255_1_388
10
18.5269665
20
78.6558673
40
0.5994203
50
246.1380358
51
248.054058
0
ARC
8
DEFAULT_255_1_388
10
18.4798808
20
78.5569705
40
0.4899388
50
233.1671897
51
246.4951656
0
ARC
8
DEFAULT_255_1_388
10
18.4175443
20
78.4728137
40
0.3852115
50
215.3403381
51
233.084328
0
ARC
8
DEFAULT_255_1_388
10
18.3868807
20
78.4505093
40
0.3472969
50
179.2419235
51
215.2648426
0
ARC
8
DEFAULT_255_1_388
10
18.4732358
20
78.4520979
40
0.259251
50
179.3355796
51
199.1045873
0
ARC
8
DEFAULT_255_1_388
10
18.43585
20
78.4423223
40
0.2207454
50
199.8830064
51
232.7061328
0
ARC
8
DEFAULT_255_1_388
10
18.4889774
20
78.5091456
40
0.306101
50
232.3736206
51
255.5136621
0
ARC
8
DEFAULT_255_1_388
10
18.527328
20
78.6491177
40
0.4512213
50
255.2447928
51
267.5318292
0
ARC
8
DEFAULT_255_1_388
10
18.5371747
20
78.7877709
40
0.5901825
50
267.1564563
51
270.0294721
0
ARC
8
DEFAULT_255_1_388
10
18.5403072
20
78.7378623
40
0.5402814
50
269.6999944
51
278.1662446
0
ARC
8
DEFAULT_255_1_388
10
18.56911
20
78.5431974
40
0.3435003
50
278.0229022
51
290.6255326
0
ARC
8
DEFAULT_255_1_388
10
18.6082266
20
78.4388547
40
0.2320666
50
290.6616368
51
307.0374127
0
ARC
8
DEFAULT_255_1_388
10
18.6420166
20
78.397404
40
0.1786372
50
306.3942078
51
355.303191
0
ARC
8
DEFAULT_255_1_388
10
18.5844459
20
78.4060186
40
0.2367516
50
354.3662092
51
0.0709489
0
ARC
8
DEFAULT_255_1_388
10
18.6004328
20
78.4085561
40
0.2207761
50
359.4175379
51
16.1975911
0
ARC
8
DEFAULT_255_1_388
10
18.6516446
20
78.4225954
40
0.1676828
50
16.4721294
51
52.6261798
0
ARC
8
DEFAULT_255_1_388
10
18.5592953
20
78.3006606
40
0.3206412
50
52.7381828
51
62.4979144
0
ARC
8
DEFAULT_255_1_388
10
18.4034706
20
78.0074236
40
0.6527035
50
62.2517425
51
68.1219454
0
ARC
8
DEFAULT_255_1_388
10
18.2100194
20
77.5319951
40
1.1659797
50
68.006043
51
71.8055127
0
ARC
8
DEFAULT_255_1_388
10
18.0080102
20
76.9261723
40
1.8045908
50
71.718361
51
73.9260743
0
LINE
8
DEFAULT_255_1_388
10
19.7012693
20
78.5888317
11
19.3913467
21
78.5888317
0
LINE
8
DEFAULT_255_1_388
10
19.3913467
20
78.5888317
11
19.3913467
21
78.0738
0
LINE
8
DEFAULT_255_1_388
10
19.3913467
20
78.0738
11
19.2178623
21
78.0738
0
LINE
8
DEFAULT_255_1_388
10
19.2178623
20
78.0738
11
19.2178623
21
79.3893898
0
LINE
8
DEFAULT_255_1_388
10
19.2178623
20
79.3893898
11
19.7030764
21
79.3893898
0
LINE
8
DEFAULT_255_1_388
10
19.3913467
20
79.2466267
11
19.3913467
21
78.7306914
0
LINE
8
DEFAULT_255_1_388
10
19.3913467
20
78.7306914
11
19.7030764
21
78.7306914
0
LINE
8
DEFAULT_255_1_388
10
19.7130156
20
79.2466267
11
19.3913467
21
79.2466267
0
ARC
8
DEFAULT_255_1_388
10
19.7078137
20
78.7077334
40
0.6816729
50
78.8380084
51
90.398184
0
ARC
8
DEFAULT_255_1_388
10
19.7546168
20
78.9350796
40
0.449571
50
58.9633273
51
79.0810717
0
ARC
8
DEFAULT_255_1_388
10
19.7885552
20
78.9980823
40
0.3781049
50
48.0194715
51
58.4475592
0
ARC
8
DEFAULT_255_1_388
10
19.7985372
20
79.0076818
40
0.3642936
50
3.3374546
51
48.1766642
0
ARC
8
DEFAULT_255_1_388
10
19.6600179
20
78.9877581
40
0.5038766
50
359.9483251
51
4.6822857
0
ARC
8
DEFAULT_255_1_388
10
19.6740102
20
78.9829779
40
0.4899031
50
346.1879032
51
0.5059221
0
ARC
8
DEFAULT_255_1_388
10
19.8268894
20
78.9432763
40
0.3319729
50
310.8832219
51
346.5426612
0
ARC
8
DEFAULT_255_1_388
10
19.7921742
20
78.9901853
40
0.3901853
50
286.6925305
51
310.228778
0
ARC
8
DEFAULT_255_1_388
10
19.7281472
20
79.1915585
40
0.6014737
50
274.6848219
51
287.0247342
0
ARC
8
DEFAULT_255_1_388
10
19.7028021
20
79.4400088
40
0.8511785
50
269.8968222
51
275.0192639
0
ARC
8
DEFAULT_255_1_388
10
19.7059014
20
79.2062144
40
0.4755314
50
269.6596206
51
279.4150542
0
ARC
8
DEFAULT_255_1_388
10
19.7348472
20
79.0384945
40
0.3053379
50
279.2050006
51
294.9901776
0
ARC
8
DEFAULT_255_1_388
10
19.7675107
20
78.9656353
40
0.2255036
50
295.2886769
51
311.2912669
0
ARC
8
DEFAULT_255_1_388
10
19.7754848
20
78.9537938
40
0.2113522
50
311.7853512
51
347.2860549
0
ARC
8
DEFAULT_255_1_388
10
19.6648009
20
78.982243
40
0.3256011
50
346.6891629
51
0.1057086
0
ARC
8
DEFAULT_255_1_388
10
19.5725469
20
78.9855247
40
0.417863
50
359.63239
51
359.9961329
0
ARC
8
DEFAULT_255_1_388
10
19.6890074
20
78.9882987
40
0.3014155
50
359.4673371
51
15.5931159
0
ARC
8
DEFAULT_255_1_388
10
19.7593137
20
79.0072937
40
0.2285918
50
15.7441779
51
46.620186
0
ARC
8
DEFAULT_255_1_388
10
19.7426897
20
78.9881361
40
0.2539359
50
46.8628482
51
75.6676625
0
ARC
8
DEFAULT_255_1_388
10
19.7095954
20
78.8690243
40
0.3775415
50
75.2763152
51
88.2916439
0
ARC
8
DEFAULT_255_1_388
10
19.7029953
20
78.7688097
40
0.4779221
50
87.8589087
51
88.7986197
0
LINE
8
DEFAULT_255_1_388
10
21.8544634
20
79.3893898
11
21.8544634
21
78.0738
0
LINE
8
DEFAULT_255_1_388
10
21.8544634
20
78.0738
11
21.6800754
21
78.0738
0
LINE
8
DEFAULT_255_1_388
10
21.6800754
20
78.0738
11
21.6800754
21
78.6818989
0
LINE
8
DEFAULT_255_1_388
10
21.6800754
20
78.6818989
11
21.0168591
21
78.6818989
0
LINE
8
DEFAULT_255_1_388
10
21.0168591
20
78.6818989
11
21.0168591
21
78.0738
0
LINE
8
DEFAULT_255_1_388
10
21.0168591
20
78.0738
11
20.8433748
21
78.0738
0
LINE
8
DEFAULT_255_1_388
10
20.8433748
20
78.0738
11
20.8433748
21
79.3893898
0
LINE
8
DEFAULT_255_1_388
10
20.8433748
20
79.3893898
11
21.0168591
21
79.3893898
0
LINE
8
DEFAULT_255_1_388
10
21.0168591
20
79.3893898
11
21.0168591
21
78.8237585
0
LINE
8
DEFAULT_255_1_388
10
21.0168591
20
78.8237585
11
21.6800754
21
78.8237585
0
LINE
8
DEFAULT_255_1_388
10
21.6800754
20
78.8237585
11
21.6800754
21
79.3893898
0
LINE
8
DEFAULT_255_1_388
10
21.6800754
20
79.3893898
11
21.8544634
21
79.3893898
0
LINE
8
DEFAULT_255_1_388
10
23.0309043
20
78.0738
11
22.9053088
21
78.4171545
0
LINE
8
DEFAULT_255_1_388
10
22.9053088
20
78.4171545
11
22.3541345
21
78.4171545
0
LINE
8
DEFAULT_255_1_388
10
22.3541345
20
78.4171545
11
22.2303462
21
78.0738
0
LINE
8
DEFAULT_255_1_388
10
22.2303462
20
78.0738
11
22.0514404
21
78.0738
0
LINE
8
DEFAULT_255_1_388
10
22.0514404
20
78.0738
11
22.5538223
21
79.3893898
0
LINE
8
DEFAULT_255_1_388
10
22.5538223
20
79.3893898
11
22.7056211
21
79.3893898
0
LINE
8
DEFAULT_255_1_388
10
22.7056211
20
79.3893898
11
23.2089065
21
78.0738
0
LINE
8
DEFAULT_255_1_388
10
23.2089065
20
78.0738
11
23.0309043
21
78.0738
0
LINE
8
DEFAULT_255_1_388
10
22.6297217
20
79.1752451
11
22.4065413
21
78.5599177
0
LINE
8
DEFAULT_255_1_388
10
22.4065413
20
78.5599177
11
22.8538057
21
78.5599177
0
LINE
8
DEFAULT_255_1_388
10
22.8538057
20
78.5599177
11
22.6297217
21
79.1752451
0
LINE
8
DEFAULT_255_2_778
10
9.3927417
20
60.721908
11
10.7156417
21
60.721908
0
LINE
8
DEFAULT_255_2_778
10
10.7156417
20
60.721908
11
10.7156417
21
35.586508
0
LINE
8
DEFAULT_255_2_778
10
9.3926834
20
35.5864333
11
12.0384834
21
35.5864333
0
LINE
8
DEFAULT_255_2_778
10
12.0384834
20
35.5864333
11
12.0384834
21
30.2947333
0
LINE
8
DEFAULT_255_2_778
10
12.0384834
20
30.2947333
11
9.3926834
21
30.2947333
0
LINE
8
DEFAULT_255_2_778
10
9.3926834
20
30.2947333
11
9.3926834
21
35.5864333
0
LINE
8
DEFAULT_255_2_778
10
10.1865
20
30.8239666
11
10.1865
21
35.0572666
0
LINE
8
DEFAULT_255_2_778
10
9.9219167
20
34.263575
11
10.1865167
21
35.057275
0
LINE
8
DEFAULT_255_2_778
10
10.1865167
20
35.057275
11
10.4511167
21
34.263575
0
LINE
8
DEFAULT_255_2_778
10
10.4511167
20
34.263575
11
9.9219167
21
34.263575
0
LINE
8
DEFAULT_255_2_778
10
11.2448
20
35.0572666
11
11.2448
21
30.8239666
0
LINE
8
DEFAULT_255_2_778
10
10.9802167
20
31.617675
11
11.2448167
21
30.823975
0
LINE
8
DEFAULT_255_2_778
10
11.2448167
20
30.823975
11
11.5094167
21
31.617675
0
LINE
8
DEFAULT_255_2_778
10
11.5094167
20
31.617675
11
10.9802167
21
31.617675
0
LINE
8
DEFAULT_255_2_778
10
10.7156417
20
30.294808
11
10.7156417
21
5.159408
0
LINE
8
DEFAULT_255_2_778
10
10.7156417
20
5.159408
11
9.3927417
21
5.159408
0
LINE
8
DEFAULT_255_1_388
10
4.1680903
20
77.4049898
11
4.1680903
21
76.2312596
0
LINE
8
DEFAULT_255_1_388
10
4.1680903
20
76.2312596
11
4.7915498
21
76.2312596
0
LINE
8
DEFAULT_255_1_388
10
4.7915498
20
76.2312596
11
4.7915498
21
76.0894
0
LINE
8
DEFAULT_255_1_388
10
4.7915498
20
76.0894
11
3.9937024
21
76.0894
0
LINE
8
DEFAULT_255_1_388
10
3.9937024
20
76.0894
11
3.9937024
21
77.4049898
0
LINE
8
DEFAULT_255_1_388
10
3.9937024
20
77.4049898
11
4.1680903
21
77.4049898
0
LINE
8
DEFAULT_255_1_388
10
5.4421162
20
77.1790987
11
5.4421162
21
76.7950838
0
LINE
8
DEFAULT_255_1_388
10
5.4421162
20
76.7950838
11
5.8089634
21
76.7950838
0
LINE
8
DEFAULT_255_1_388
10
5.8089634
20
76.7950838
11
5.8089634
21
76.6369601
0
LINE
8
DEFAULT_255_1_388
10
5.8089634
20
76.6369601
11
5.4421162
21
76.6369601
0
LINE
8
DEFAULT_255_1_388
10
5.4421162
20
76.6369601
11
5.4421162
21
76.2213204
0
LINE
8
DEFAULT_255_1_388
10
5.4421162
20
76.2213204
11
5.2740532
21
76.2213204
0
LINE
8
DEFAULT_255_1_388
10
5.2740532
20
76.2213204
11
5.2740532
21
76.6369601
0
LINE
8
DEFAULT_255_1_388
10
5.2740532
20
76.6369601
11
4.9072061
21
76.6369601
0
LINE
8
DEFAULT_255_1_388
10
4.9072061
20
76.6369601
11
4.9072061
21
76.7950838
0
LINE
8
DEFAULT_255_1_388
10
4.9072061
20
76.7950838
11
5.2740532
21
76.7950838
0
LINE
8
DEFAULT_255_1_388
10
5.2740532
20
76.7950838
11
5.2740532
21
77.1790987
0
LINE
8
DEFAULT_255_1_388
10
5.2740532
20
77.1790987
11
5.4421162
21
77.1790987
0
LINE
8
DEFAULT_255_1_388
10
4.7472716
20
4.6519
11
4.5719801
21
4.6519
0
LINE
8
DEFAULT_255_1_388
10
4.3831351
20
5.2446383
11
4.5457767
21
5.2446383
0
LINE
8
DEFAULT_255_1_388
10
4.5457767
20
5.2446383
11
4.5457767
21
5.3214413
0
LINE
8
DEFAULT_255_1_388
10
4.1283299
20
5.3584874
11
3.9602669
21
5.3584874
0
LINE
8
DEFAULT_255_1_388
10
4.7129361
20
5.3304769
11
4.7129361
21
4.8805018
0
LINE
8
DEFAULT_255_1_388
10
4.7472716
20
4.666357
11
4.7472716
21
4.6519
0
LINE
8
DEFAULT_255_1_388
10
4.5457767
20
4.92568
11
4.5457767
21
5.1262713
0
LINE
8
DEFAULT_255_1_388
10
4.5457767
20
5.1262713
11
4.4147599
21
5.1262713
0
ARC
8
DEFAULT_255_1_388
10
4.688895
20
4.70861
40
0.1299428
50
197.0784902
51
205.8758668
0
ARC
8
DEFAULT_255_1_388
10
4.8283536
20
4.7527959
40
0.2762313
50
192.2927663
51
197.3441989
0
ARC
8
DEFAULT_255_1_388
10
5.0479042
20
4.801576
40
0.5011345
50
189.1573793
51
192.3977084
0
ARC
8
DEFAULT_255_1_388
10
5.3643888
20
4.8531878
40
0.8217995
50
186.8686098
51
189.1982636
0
ARC
8
DEFAULT_255_1_388
10
4.2588979
20
5.027226
40
0.3975173
50
294.0079259
51
316.7603918
0
ARC
8
DEFAULT_255_1_388
10
4.2734162
20
5.0067902
40
0.3729755
50
269.5043226
51
293.2478373
0
ARC
8
DEFAULT_255_1_388
10
4.2667214
20
5.0518915
40
0.4180772
50
255.4034155
51
270.4753052
0
ARC
8
DEFAULT_255_1_388
10
4.2408427
20
4.9514652
40
0.3143705
50
228.6141063
51
255.3550831
0
ARC
8
DEFAULT_255_1_388
10
4.2034409
20
4.915654
40
0.2628114
50
181.8954381
51
229.5703134
0
ARC
8
DEFAULT_255_1_388
10
4.2699345
20
4.9228824
40
0.329546
50
179.9848815
51
182.7691528
0
ARC
8
DEFAULT_255_1_388
10
4.2606411
20
4.9267827
40
0.3202753
50
161.0342928
51
180.6822077
0
ARC
8
DEFAULT_255_1_388
10
4.2112026
20
4.9396422
40
0.2693695
50
125.0525065
51
160.2034058
0
ARC
8
DEFAULT_255_1_388
10
4.2856748
20
4.8380275
40
0.3953338
50
106.2670809
51
125.4300189
0
ARC
8
DEFAULT_255_1_388
10
4.3500789
20
4.6275795
40
0.6154041
50
95.4857579
51
106.5348562
0
ARC
8
DEFAULT_255_1_388
10
4.3808077
20
4.3463993
40
0.8982419
50
89.8515405
51
95.7222579
0
ARC
8
DEFAULT_255_1_388
10
4.3088658
20
5.3234925
40
0.2369198
50
359.5039339
51
14.3181205
0
ARC
8
DEFAULT_255_1_388
10
4.3734662
20
5.3402862
40
0.170173
50
14.2184556
51
45.2028524
0
ARC
8
DEFAULT_255_1_388
10
4.3775358
20
5.3418862
40
0.1661795
50
45.8098216
51
73.0032926
0
ARC
8
DEFAULT_255_1_388
10
4.3495185
20
5.256226
40
0.2562942
50
72.6112517
51
85.7231489
0
ARC
8
DEFAULT_255_1_388
10
4.3393969
20
5.1535339
40
0.3594635
50
85.335019
51
90.0855069
0
ARC
8
DEFAULT_255_1_388
10
4.3367402
20
5.2199472
40
0.2930574
50
89.5854741
51
103.459124
0
ARC
8
DEFAULT_255_1_388
10
4.3195941
20
5.2914134
40
0.2195632
50
103.448332
51
126.5403399
0
ARC
8
DEFAULT_255_1_388
10
4.2926918
20
5.3258224
40
0.1759039
50
126.1730306
51
141.5008224
0
ARC
8
DEFAULT_255_1_388
10
4.2501233
20
5.3592266
40
0.1217955
50
141.3332087
51
180.3477313
0
ARC
8
DEFAULT_255_1_388
10
4.1742656
20
5.3572904
40
0.214002
50
151.6373605
51
179.6795088
0
ARC
8
DEFAULT_255_1_388
10
4.2419892
20
5.3235768
40
0.2896224
50
142.4981529
51
152.1330509
0
ARC
8
DEFAULT_255_1_388
10
4.2777896
20
5.2954781
40
0.3351307
50
120.8284906
51
142.4132156
0
ARC
8
DEFAULT_255_1_388
10
4.3245872
20
5.2222185
40
0.4220297
50
113.9634885
51
121.1871733
0
ARC
8
DEFAULT_255_1_388
10
4.3399181
20
5.1848705
40
0.4623867
50
93.3784336
51
113.8197902
0
ARC
8
DEFAULT_255_1_388
10
4.3485563
20
5.0987549
40
0.5488732
50
89.9745993
51
93.7488475
0
ARC
8
DEFAULT_255_1_388
10
4.3524809
20
5.1028587
40
0.5447818
50
79.1327128
51
90.3871707
0
ARC
8
DEFAULT_255_1_388
10
4.3890573
20
5.2856597
40
0.3583662
50
60.1434453
51
79.365517
0
ARC
8
DEFAULT_255_1_388
10
4.4179339
20
5.3411195
40
0.2959028
50
48.6191018
51
59.6466565
0
ARC
8
DEFAULT_255_1_388
10
4.4233051
20
5.3482356
40
0.2870136
50
9.0349502
51
48.4845487
0
ARC
8
DEFAULT_255_1_388
10
4.302235
20
5.3218084
40
0.4107927
50
1.2091359
51
10.0234369
0
ARC
8
DEFAULT_255_1_388
10
5.5719798
20
4.8777422
40
0.8590481
50
179.8159449
51
185.3205667
0
ARC
8
DEFAULT_255_1_388
10
5.2687643
20
4.8487945
40
0.5544553
50
185.2475628
51
192.7952551
0
ARC
8
DEFAULT_255_1_388
10
5.0705467
20
4.8033024
40
0.3510853
50
192.7195981
51
202.9584216
0
ARC
8
DEFAULT_255_1_388
10
4.2945503
20
5.0730895
40
0.2937869
50
270.006916
51
300.503478
0
ARC
8
DEFAULT_255_1_388
10
4.3083438
20
5.0586888
40
0.2744162
50
299.5482616
51
315.609538
0
ARC
8
DEFAULT_255_1_388
10
4.3409734
20
5.0253072
40
0.2277499
50
315.8682065
51
334.0592465
0
ARC
8
DEFAULT_255_1_388
10
4.4098708
20
4.34169
40
0.7845965
50
89.64297
51
97.2867877
0
ARC
8
DEFAULT_255_1_388
10
4.3602305
20
4.7133936
40
0.4096042
50
96.9938706
51
109.7783917
0
ARC
8
DEFAULT_255_1_388
10
4.2853768
20
4.9137851
40
0.1957225
50
109.0087985
51
135.3265591
0
ARC
8
DEFAULT_255_1_388
10
4.2546187
20
4.9518764
40
0.1471704
50
137.4537784
51
182.1083946
0
ARC
8
DEFAULT_255_1_388
10
4.2966887
20
4.9446101
40
0.1891498
50
179.4390335
51
195.7201623
0
ARC
8
DEFAULT_255_1_388
10
4.2503922
20
4.9319585
40
0.1411576
50
195.8683556
51
230.157074
0
ARC
8
DEFAULT_255_1_388
10
4.2776645
20
4.9646228
40
0.1837102
50
230.1532486
51
259.7486257
0
ARC
8
DEFAULT_255_1_388
10
4.2932687
20
5.0381472
40
0.258848
50
259.2461118
51
270.2915316
0
ARC
8
DEFAULT_255_1_388
10
5.0989855
20
4.7406142
40
0.1204062
50
163.5412609
51
180.5084512
0
ARC
8
DEFAULT_255_1_388
10
5.0773754
20
4.746446
40
0.0980307
50
138.1652
51
163.2315563
0
ARC
8
DEFAULT_255_1_388
10
5.0647495
20
4.7571456
40
0.0814881
50
105.6860499
51
137.8492655
0
ARC
8
DEFAULT_255_1_388
10
5.0780696
20
4.7139109
40
0.126719
50
92.6078949
51
106.199173
0
ARC
8
DEFAULT_255_1_388
10
5.0814886
20
4.6693207
40
0.1714243
50
89.9659531
51
93.0713334
0
ARC
8
DEFAULT_255_1_388
10
5.0826922
20
4.6943484
40
0.1464007
50
78.4379126
51
90.4311892
0
ARC
8
DEFAULT_255_1_388
10
5.0935569
20
4.7450017
40
0.094599
50
56.8961942
51
78.7357785
0
ARC
8
DEFAULT_255_1_388
10
5.1006679
20
4.7574075
40
0.0803272
50
42.6503148
51
56.3122241
0
ARC
8
DEFAULT_255_1_388
10
5.0862581
20
4.7441661
40
0.099897
50
3.8141057
51
42.636595
0
ARC
8
DEFAULT_255_1_388
10
5.0539903
20
4.7396616
40
0.1324137
50
359.9498843
51
4.8301897
0
ARC
8
DEFAULT_255_1_388
10
5.079504
20
4.7384722
40
0.1069053
50
340.9378148
51
0.5753733
0
ARC
8
DEFAULT_255_1_388
10
5.0921623
20
4.7350569
40
0.0938301
50
316.0798885
51
340.3845117
0
ARC
8
DEFAULT_255_1_388
10
5.0986934
20
4.729052
40
0.0849605
50
285.8512844
51
315.941661
0
ARC
8
DEFAULT_255_1_388
10
5.0854814
20
4.771762
40
0.1296594
50
273.1293204
51
286.3125006
0
ARC
8
DEFAULT_255_1_388
10
5.0817324
20
4.8169586
40
0.1749979
50
269.9535313
51
273.5471598
0
ARC
8
DEFAULT_255_1_388
10
5.0804929
20
4.7923833
40
0.1504266
50
259.0487117
51
270.4180248
0
ARC
8
DEFAULT_255_1_388
10
5.0696542
20
4.7386783
40
0.0956414
50
239.7583641
51
259.3115656
0
ARC
8
DEFAULT_255_1_388
10
5.0605475
20
4.7217048
40
0.0763945
50
222.6243303
51
239.2473835
0
ARC
8
DEFAULT_255_1_388
10
5.0756646
20
4.7355572
40
0.0968985
50
182.9231258
51
222.598101
0
ARC
8
DEFAULT_255_1_388
10
5.1059845
20
4.7394696
40
0.1274004
50
179.9657458
51
183.9850364
0
LINE
8
DEFAULT_255_1_388
10
6.2941739
20
5.9674898
11
6.2941739
21
5.8735191
0
LINE
8
DEFAULT_255_1_388
10
6.2941739
20
5.8735191
11
5.7493246
21
4.6519
0
LINE
8
DEFAULT_255_1_388
10
5.7493246
20
4.6519
11
5.5740331
21
4.6519
0
LINE
8
DEFAULT_255_1_388
10
5.5740331
20
4.6519
11
6.1170753
21
5.830148
0
LINE
8
DEFAULT_255_1_388
10
6.1170753
20
5.830148
11
5.4050665
21
5.830148
0
LINE
8
DEFAULT_255_1_388
10
5.4050665
20
5.830148
11
5.4050665
21
5.9674898
0
LINE
8
DEFAULT_255_1_388
10
5.4050665
20
5.9674898
11
6.2941739
21
5.9674898
0
LINE
8
DEFAULT_255_1_388
10
6.9799793
20
5.7415987
11
6.9799793
21
5.3575838
0
LINE
8
DEFAULT_255_1_388
10
6.9799793
20
5.3575838
11
7.3468265
21
5.3575838
0
LINE
8
DEFAULT_255_1_388
10
7.3468265
20
5.3575838
11
7.3468265
21
5.1994601
0
LINE
8
DEFAULT_255_1_388
10
7.3468265
20
5.1994601
11
6.9799793
21
5.1994601
0
LINE
8
DEFAULT_255_1_388
10
6.9799793
20
5.1994601
11
6.9799793
21
4.7838204
0
LINE
8
DEFAULT_255_1_388
10
6.9799793
20
4.7838204
11
6.8119164
21
4.7838204
0
LINE
8
DEFAULT_255_1_388
10
6.8119164
20
4.7838204
11
6.8119164
21
5.1994601
0
LINE
8
DEFAULT_255_1_388
10
6.8119164
20
5.1994601
11
6.4450692
21
5.1994601
0
LINE
8
DEFAULT_255_1_388
10
6.4450692
20
5.1994601
11
6.4450692
21
5.3575838
0
LINE
8
DEFAULT_255_1_388
10
6.4450692
20
5.3575838
11
6.8119164
21
5.3575838
0
LINE
8
DEFAULT_255_1_388
10
6.8119164
20
5.3575838
11
6.8119164
21
5.7415987
0
LINE
8
DEFAULT_255_1_388
10
6.8119164
20
5.7415987
11
6.9799793
21
5.7415987
0
LINE
8
DEFAULT_255_1_388
10
4.7472716
20
12.5894
11
4.5719801
21
12.5894
0
LINE
8
DEFAULT_255_1_388
10
4.3831351
20
13.1821383
11
4.5457767
21
13.1821383
0
LINE
8
DEFAULT_255_1_388
10
4.5457767
20
13.1821383
11
4.5457767
21
13.2589413
0
LINE
8
DEFAULT_255_1_388
10
4.1283299
20
13.2959874
11
3.9602669
21
13.2959874
0
LINE
8
DEFAULT_255_1_388
10
4.7129361
20
13.2679769
11
4.7129361
21
12.8180018
0
LINE
8
DEFAULT_255_1_388
10
4.7472716
20
12.603857
11
4.7472716
21
12.5894
0
LINE
8
DEFAULT_255_1_388
10
4.5457767
20
12.86318
11
4.5457767
21
13.0637713
0
LINE
8
DEFAULT_255_1_388
10
4.5457767
20
13.0637713
11
4.4147599
21
13.0637713
0
ARC
8
DEFAULT_255_1_388
10
4.688895
20
12.64611
40
0.1299428
50
197.0784902
51
205.8758668
0
ARC
8
DEFAULT_255_1_388
10
4.8283536
20
12.6902959
40
0.2762313
50
192.2927663
51
197.3441989
0
ARC
8
DEFAULT_255_1_388
10
5.0479042
20
12.739076
40
0.5011345
50
189.1573793
51
192.3977084
0
ARC
8
DEFAULT_255_1_388
10
5.3643888
20
12.7906878
40
0.8217995
50
186.8686098
51
189.1982636
0
ARC
8
DEFAULT_255_1_388
10
4.2588979
20
12.964726
40
0.3975173
50
294.0079259
51
316.7603918
0
ARC
8
DEFAULT_255_1_388
10
4.2734162
20
12.9442902
40
0.3729755
50
269.5043226
51
293.2478373
0
ARC
8
DEFAULT_255_1_388
10
4.2667214
20
12.9893915
40
0.4180772
50
255.4034155
51
270.4753052
0
ARC
8
DEFAULT_255_1_388
10
4.2408427
20
12.8889652
40
0.3143705
50
228.6141063
51
255.3550831
0
ARC
8
DEFAULT_255_1_388
10
4.2034409
20
12.853154
40
0.2628114
50
181.8954381
51
229.5703134
0
ARC
8
DEFAULT_255_1_388
10
4.2699345
20
12.8603824
40
0.329546
50
179.9848815
51
182.7691528
0
ARC
8
DEFAULT_255_1_388
10
4.2606411
20
12.8642827
40
0.3202753
50
161.0342928
51
180.6822077
0
ARC
8
DEFAULT_255_1_388
10
4.2112026
20
12.8771422
40
0.2693695
50
125.0525065
51
160.2034058
0
ARC
8
DEFAULT_255_1_388
10
4.2856748
20
12.7755275
40
0.3953338
50
106.2670809
51
125.4300189
0
ARC
8
DEFAULT_255_1_388
10
4.3500789
20
12.5650795
40
0.6154041
50
95.4857579
51
106.5348562
0
ARC
8
DEFAULT_255_1_388
10
4.3808077
20
12.2838993
40
0.8982419
50
89.8515405
51
95.7222579
0
ARC
8
DEFAULT_255_1_388
10
4.3088658
20
13.2609925
40
0.2369198
50
359.5039339
51
14.3181205
0
ARC
8
DEFAULT_255_1_388
10
4.3734662
20
13.2777862
40
0.170173
50
14.2184556
51
45.2028524
0
ARC
8
DEFAULT_255_1_388
10
4.3775358
20
13.2793862
40
0.1661795
50
45.8098216
51
73.0032926
0
ARC
8
DEFAULT_255_1_388
10
4.3495185
20
13.193726
40
0.2562942
50
72.6112517
51
85.7231489
0
ARC
8
DEFAULT_255_1_388
10
4.3393969
20
13.0910339
40
0.3594635
50
85.335019
51
90.0855069
0
ARC
8
DEFAULT_255_1_388
10
4.3367402
20
13.1574472
40
0.2930574
50
89.5854741
51
103.459124
0
ARC
8
DEFAULT_255_1_388
10
4.3195941
20
13.2289134
40
0.2195632
50
103.448332
51
126.5403399
0
ARC
8
DEFAULT_255_1_388
10
4.2926918
20
13.2633224
40
0.1759039
50
126.1730306
51
141.5008224
0
ARC
8
DEFAULT_255_1_388
10
4.2501233
20
13.2967266
40
0.1217955
50
141.3332087
51
180.3477313
0
ARC
8
DEFAULT_255_1_388
10
4.1742656
20
13.2947904
40
0.214002
50
151.6373605
51
179.6795088
0
ARC
8
DEFAULT_255_1_388
10
4.2419892
20
13.2610768
40
0.2896224
50
142.4981529
51
152.1330509
0
ARC
8
DEFAULT_255_1_388
10
4.2777896
20
13.2329781
40
0.3351307
50
120.8284906
51
142.4132156
0
ARC
8
DEFAULT_255_1_388
10
4.3245872
20
13.1597185
40
0.4220297
50
113.9634885
51
121.1871733
0
ARC
8
DEFAULT_255_1_388
10
4.3399181
20
13.1223705
40
0.4623867
50
93.3784336
51
113.8197902
0
ARC
8
DEFAULT_255_1_388
10
4.3485563
20
13.0362549
40
0.5488732
50
89.9745993
51
93.7488475
0
ARC
8
DEFAULT_255_1_388
10
4.3524809
20
13.0403587
40
0.5447818
50
79.1327128
51
90.3871707
0
ARC
8
DEFAULT_255_1_388
10
4.3890573
20
13.2231597
40
0.3583662
50
60.1434453
51
79.365517
0
ARC
8
DEFAULT_255_1_388
10
4.4179339
20
13.2786195
40
0.2959028
50
48.6191018
51
59.6466565
0
ARC
8
DEFAULT_255_1_388
10
4.4233051
20
13.2857356
40
0.2870136
50
9.0349502
51
48.4845487
0
ARC
8
DEFAULT_255_1_388
10
4.302235
20
13.2593084
40
0.4107927
50
1.2091359
51
10.0234369
0
ARC
8
DEFAULT_255_1_388
10
5.5719798
20
12.8152422
40
0.8590481
50
179.8159449
51
185.3205667
0
ARC
8
DEFAULT_255_1_388
10
5.2687643
20
12.7862945
40
0.5544553
50
185.2475628
51
192.7952551
0
ARC
8
DEFAULT_255_1_388
10
5.0705467
20
12.7408024
40
0.3510853
50
192.7195981
51
202.9584216
0
ARC
8
DEFAULT_255_1_388
10
4.2945503
20
13.0105895
40
0.2937869
50
270.006916
51
300.503478
0
ARC
8
DEFAULT_255_1_388
10
4.3083438
20
12.9961888
40
0.2744162
50
299.5482616
51
315.609538
0
ARC
8
DEFAULT_255_1_388
10
4.3409734
20
12.9628072
40
0.2277499
50
315.8682065
51
334.0592465
0
ARC
8
DEFAULT_255_1_388
10
4.4098708
20
12.27919
40
0.7845965
50
89.64297
51
97.2867877
0
ARC
8
DEFAULT_255_1_388
10
4.3602305
20
12.6508936
40
0.4096042
50
96.9938706
51
109.7783917
0
ARC
8
DEFAULT_255_1_388
10
4.2853768
20
12.8512851
40
0.1957225
50
109.0087985
51
135.3265591
0
ARC
8
DEFAULT_255_1_388
10
4.2546187
20
12.8893764
40
0.1471704
50
137.4537784
51
182.1083946
0
ARC
8
DEFAULT_255_1_388
10
4.2966887
20
12.8821101
40
0.1891498
50
179.4390335
51
195.7201623
0
ARC
8
DEFAULT_255_1_388
10
4.2503922
20
12.8694585
40
0.1411576
50
195.8683556
51
230.157074
0
ARC
8
DEFAULT_255_1_388
10
4.2776645
20
12.9021228
40
0.1837102
50
230.1532486
51
259.7486257
0
ARC
8
DEFAULT_255_1_388
10
4.2932687
20
12.9756472
40
0.258848
50
259.2461118
51
270.2915316
0
ARC
8
DEFAULT_255_1_388
10
5.0989855
20
12.6781142
40
0.1204062
50
163.5412609
51
180.5084512
0
ARC
8
DEFAULT_255_1_388
10
5.0773754
20
12.683946
40
0.0980307
50
138.1652
51
163.2315563
0
ARC
8
DEFAULT_255_1_388
10
5.0647495
20
12.6946456
40
0.0814881
50
105.6860499
51
137.8492655
0
ARC
8
DEFAULT_255_1_388
10
5.0780696
20
12.6514109
40
0.126719
50
92.6078949
51
106.199173
0
ARC
8
DEFAULT_255_1_388
10
5.0814886
20
12.6068207
40
0.1714243
50
89.9659531
51
93.0713334
0
ARC
8
DEFAULT_255_1_388
10
5.0826922
20
12.6318484
40
0.1464007
50
78.4379126
51
90.4311892
0
ARC
8
DEFAULT_255_1_388
10
5.0935569
20
12.6825017
40
0.094599
50
56.8961942
51
78.7357785
0
ARC
8
DEFAULT_255_1_388
10
5.1006679
20
12.6949075
40
0.0803272
50
42.6503148
51
56.3122241
0
ARC
8
DEFAULT_255_1_388
10
5.0862581
20
12.6816661
40
0.099897
50
3.8141057
51
42.636595
0
ARC
8
DEFAULT_255_1_388
10
5.0539903
20
12.6771616
40
0.1324137
50
359.9498843
51
4.8301897
0
ARC
8
DEFAULT_255_1_388
10
5.079504
20
12.6759722
40
0.1069053
50
340.9378148
51
0.5753733
0
ARC
8
DEFAULT_255_1_388
10
5.0921623
20
12.6725569
40
0.0938301
50
316.0798885
51
340.3845117
0
ARC
8
DEFAULT_255_1_388
10
5.0986934
20
12.666552
40
0.0849605
50
285.8512844
51
315.941661
0
ARC
8
DEFAULT_255_1_388
10
5.0854814
20
12.709262
40
0.1296594
50
273.1293204
51
286.3125006
0
ARC
8
DEFAULT_255_1_388
10
5.0817324
20
12.7544586
40
0.1749979
50
269.9535313
51
273.5471598
0
ARC
8
DEFAULT_255_1_388
10
5.0804929
20
12.7298833
40
0.1504266
50
259.0487117
51
270.4180248
0
ARC
8
DEFAULT_255_1_388
10
5.0696542
20
12.6761783
40
0.0956414
50
239.7583641
51
259.3115656
0
ARC
8
DEFAULT_255_1_388
10
5.0605475
20
12.6592048
40
0.0763945
50
222.6243303
51
239.2473835
0
ARC
8
DEFAULT_255_1_388
10
5.0756646
20
12.6730572
40
0.0968985
50
182.9231258
51
222.598101
0
ARC
8
DEFAULT_255_1_388
10
5.1059845
20
12.6769696
40
0.1274004
50
179.9657458
51
183.9850364
0
LINE
8
DEFAULT_255_1_388
10
6.0709935
20
13.9058934
11
6.1008111
21
13.9058934
0
LINE
8
DEFAULT_255_1_388
10
6.1008111
20
13.9058934
11
6.1008111
21
13.7640338
0
LINE
8
DEFAULT_255_1_388
10
6.1008111
20
13.7640338
11
6.0700899
21
13.7640338
0
LINE
8
DEFAULT_255_1_388
10
5.4547625
20
13.0899747
11
5.4547625
21
13.1541278
0
LINE
8
DEFAULT_255_1_388
10
5.6228255
20
13.1324422
11
5.6228255
21
13.0709999
0
ARC
8
DEFAULT_255_1_388
10
6.0759791
20
13.2017826
40
0.562282
50
90.6001079
51
104.5146616
0
ARC
8
DEFAULT_255_1_388
10
6.032275
20
13.36431
40
0.3939917
50
104.2855758
51
133.8630124
0
ARC
8
DEFAULT_255_1_388
10
6.0507003
20
13.3521243
40
0.4155734
50
134.5304124
51
161.6210222
0
ARC
8
DEFAULT_255_1_388
10
6.2366935
20
13.2865421
40
0.6127682
50
161.2850533
51
174.2074364
0
ARC
8
DEFAULT_255_1_388
10
6.3956502
20
13.2646437
40
0.7731446
50
173.7817938
51
174.9251711
0
ARC
8
DEFAULT_255_1_388
10
5.8830696
20
13.109127
40
0.3412588
50
95.8332067
51
138.995412
0
ARC
8
DEFAULT_255_1_388
10
5.9081976
20
12.9652695
40
0.4870358
50
89.8755506
51
97.0540979
0
ARC
8
DEFAULT_255_1_388
10
5.9135365
20
13.0592841
40
0.3930432
50
71.6407016
51
90.6240821
0
ARC
8
DEFAULT_255_1_388
10
5.9304759
20
13.1216433
40
0.3285421
50
39.6368051
51
71.0190743
0
ARC
8
DEFAULT_255_1_388
10
5.8588666
20
13.0597586
40
0.4231706
50
10.6588054
51
39.9044509
0
ARC
8
DEFAULT_255_1_388
10
5.6847212
20
13.0219223
40
0.60133
50
359.6827842
51
11.1326896
0
ARC
8
DEFAULT_255_1_388
10
5.6802548
20
13.0139715
40
0.6058047
50
347.2485908
51
0.4371098
0
ARC
8
DEFAULT_255_1_388
10
5.8678333
20
12.9688379
40
0.4128987
50
318.1408565
51
347.6118497
0
ARC
8
DEFAULT_255_1_388
10
5.904393
20
12.9387903
40
0.3656244
50
275.6342406
51
317.824739
0
ARC
8
DEFAULT_255_1_388
10
5.8795451
20
13.0849827
40
0.513655
50
269.8872513
51
276.7916069
0
ARC
8
DEFAULT_255_1_388
10
5.8733643
20
12.9696181
40
0.398323
50
246.9139443
51
270.7436787
0
ARC
8
DEFAULT_255_1_388
10
5.8740839
20
12.9536044
40
0.3839368
50
218.1665534
51
245.8780431
0
ARC
8
DEFAULT_255_1_388
10
5.9730211
20
13.0363903
40
0.5128958
50
191.4115343
51
218.6077624
0
ARC
8
DEFAULT_255_1_388
10
6.1910528
20
13.0852777
40
0.7363054
50
179.6344971
51
191.7836758
0
ARC
8
DEFAULT_255_1_388
10
6.8190402
20
13.1616495
40
1.3642984
50
171.4523743
51
180.3158856
0
ARC
8
DEFAULT_255_1_388
10
6.3246129
20
13.2385895
40
0.8639311
50
157.9802296
51
171.6246761
0
ARC
8
DEFAULT_255_1_388
10
6.075548
20
13.3379038
40
0.5958004
50
141.4299236
51
157.8541251
0
ARC
8
DEFAULT_255_1_388
10
6.0033563
20
13.3889746
40
0.5075416
50
102.871586
51
140.8564533
0
ARC
8
DEFAULT_255_1_388
10
6.0762116
20
13.1144943
40
0.7914163
50
90.377773
51
103.5868422
0
ARC
8
DEFAULT_255_1_388
10
5.8806637
20
13.0464543
40
0.2667015
50
89.8751238
51
126.2072139
0
ARC
8
DEFAULT_255_1_388
10
5.8858108
20
13.0290847
40
0.2838229
50
124.9742447
51
144.8960197
0
ARC
8
DEFAULT_255_1_388
10
5.8660353
20
13.0451981
40
0.2583845
50
145.2974778
51
160.2660922
0
ARC
8
DEFAULT_255_1_388
10
6.2116841
20
13.0674151
40
0.5888695
50
179.6512124
51
190.285571
0
ARC
8
DEFAULT_255_1_388
10
6.0211321
20
13.0314968
40
0.3949683
50
190.0944895
51
207.5099647
0
ARC
8
DEFAULT_255_1_388
10
5.9574903
20
13.0012177
40
0.3245464
50
207.9585471
51
216.325377
0
ARC
8
DEFAULT_255_1_388
10
5.919254
20
12.9697712
40
0.2751259
50
215.7661336
51
232.5457193
0
ARC
8
DEFAULT_255_1_388
10
5.8761656
20
12.9150273
40
0.2054668
50
232.8005815
51
270.6605497
0
ARC
8
DEFAULT_255_1_388
10
5.881308
20
12.9559853
40
0.2464268
50
269.3550767
51
288.474612
0
ARC
8
DEFAULT_255_1_388
10
5.8917587
20
12.9166721
40
0.2058436
50
289.1831976
51
322.9685307
0
ARC
8
DEFAULT_255_1_388
10
5.8229689
20
12.9709279
40
0.2934408
50
322.6007085
51
346.5183319
0
ARC
8
DEFAULT_255_1_388
10
5.6927445
20
13.0041434
40
0.4278249
50
346.2584622
51
358.7739592
0
ARC
8
DEFAULT_255_1_388
10
5.577602
20
13.0103829
40
0.5430876
50
358.3757628
51
0.0082477
0
ARC
8
DEFAULT_255_1_388
10
5.6632838
20
13.0134856
40
0.4574157
50
359.6211417
51
11.28403
0
ARC
8
DEFAULT_255_1_388
10
5.8069445
20
13.0434535
40
0.3106708
50
11.0483152
51
31.8145585
0
ARC
8
DEFAULT_255_1_388
10
5.841715
20
13.0623045
40
0.2711963
50
32.3028554
51
38.0820598
0
ARC
8
DEFAULT_255_1_388
10
5.8890383
20
13.1051717
40
0.2075566
50
36.8249851
51
85.741667
0
ARC
8
DEFAULT_255_1_388
10
5.8814795
20
13.0488065
40
0.2643487
50
85.0150021
51
90.050843
0
LINE
8
DEFAULT_255_1_388
10
6.9799793
20
13.6790987
11
6.9799793
21
13.2950838
0
LINE
8
DEFAULT_255_1_388
10
6.9799793
20
13.2950838
11
7.3468265
21
13.2950838
0
LINE
8
DEFAULT_255_1_388
10
7.3468265
20
13.2950838
11
7.3468265
21
13.1369601
0
LINE
8
DEFAULT_255_1_388
10
7.3468265
20
13.1369601
11
6.9799793
21
13.1369601
0
LINE
8
DEFAULT_255_1_388
10
6.9799793
20
13.1369601
11
6.9799793
21
12.7213204
0
LINE
8
DEFAULT_255_1_388
10
6.9799793
20
12.7213204
11
6.8119164
21
12.7213204
0
LINE
8
DEFAULT_255_1_388
10
6.8119164
20
12.7213204
11
6.8119164
21
13.1369601
0
LINE
8
DEFAULT_255_1_388
10
6.8119164
20
13.1369601
11
6.4450692
21
13.1369601
0
LINE
8
DEFAULT_255_1_388
10
6.4450692
20
13.1369601
11
6.4450692
21
13.2950838
0
LINE
8
DEFAULT_255_1_388
10
6.4450692
20
13.2950838
11
6.8119164
21
13.2950838
0
LINE
8
DEFAULT_255_1_388
10
6.8119164
20
13.2950838
11
6.8119164
21
13.6790987
0
LINE
8
DEFAULT_255_1_388
10
6.8119164
20
13.6790987
11
6.9799793
21
13.6790987
0
LINE
8
DEFAULT_255_1_388
10
4.7472716
20
20.5269
11
4.5719801
21
20.5269
0
LINE
8
DEFAULT_255_1_388
10
4.3831351
20
21.1196383
11
4.5457767
21
21.1196383
0
LINE
8
DEFAULT_255_1_388
10
4.5457767
20
21.1196383
11
4.5457767
21
21.1964413
0
LINE
8
DEFAULT_255_1_388
10
4.1283299
20
21.2334874
11
3.9602669
21
21.2334874
0
LINE
8
DEFAULT_255_1_388
10
4.7129361
20
21.2054769
11
4.7129361
21
20.7555018
0
LINE
8
DEFAULT_255_1_388
10
4.7472716
20
20.541357
11
4.7472716
21
20.5269
0
LINE
8
DEFAULT_255_1_388
10
4.5457767
20
20.80068
11
4.5457767
21
21.0012713
0
LINE
8
DEFAULT_255_1_388
10
4.5457767
20
21.0012713
11
4.4147599
21
21.0012713
0
ARC
8
DEFAULT_255_1_388
10
4.688895
20
20.58361
40
0.1299428
50
197.0784902
51
205.8758668
0
ARC
8
DEFAULT_255_1_388
10
4.8283536
20
20.6277959
40
0.2762313
50
192.2927663
51
197.3441989
0
ARC
8
DEFAULT_255_1_388
10
5.0479042
20
20.676576
40
0.5011345
50
189.1573793
51
192.3977084
0
ARC
8
DEFAULT_255_1_388
10
5.3643888
20
20.7281878
40
0.8217995
50
186.8686098
51
189.1982636
0
ARC
8
DEFAULT_255_1_388
10
4.2588979
20
20.902226
40
0.3975173
50
294.0079259
51
316.7603918
0
ARC
8
DEFAULT_255_1_388
10
4.2734162
20
20.8817902
40
0.3729755
50
269.5043226
51
293.2478373
0
ARC
8
DEFAULT_255_1_388
10
4.2667214
20
20.9268915
40
0.4180772
50
255.4034155
51
270.4753052
0
ARC
8
DEFAULT_255_1_388
10
4.2408427
20
20.8264652
40
0.3143705
50
228.6141063
51
255.3550831
0
ARC
8
DEFAULT_255_1_388
10
4.2034409
20
20.790654
40
0.2628114
50
181.8954381
51
229.5703134
0
ARC
8
DEFAULT_255_1_388
10
4.2699345
20
20.7978824
40
0.329546
50
179.9848815
51
182.7691528
0
ARC
8
DEFAULT_255_1_388
10
4.2606411
20
20.8017827
40
0.3202753
50
161.0342928
51
180.6822077
0
ARC
8
DEFAULT_255_1_388
10
4.2112026
20
20.8146422
40
0.2693695
50
125.0525065
51
160.2034058
0
ARC
8
DEFAULT_255_1_388
10
4.2856748
20
20.7130275
40
0.3953338
50
106.2670809
51
125.4300189
0
ARC
8
DEFAULT_255_1_388
10
4.3500789
20
20.5025795
40
0.6154041
50
95.4857579
51
106.5348562
0
ARC
8
DEFAULT_255_1_388
10
4.3808077
20
20.2213993
40
0.8982419
50
89.8515405
51
95.7222579
0
ARC
8
DEFAULT_255_1_388
10
4.3088658
20
21.1984925
40
0.2369198
50
359.5039339
51
14.3181205
0
ARC
8
DEFAULT_255_1_388
10
4.3734662
20
21.2152862
40
0.170173
50
14.2184556
51
45.2028524
0
ARC
8
DEFAULT_255_1_388
10
4.3775358
20
21.2168862
40
0.1661795
50
45.8098216
51
73.0032926
0
ARC
8
DEFAULT_255_1_388
10
4.3495185
20
21.131226
40
0.2562942
50
72.6112517
51
85.7231489
0
ARC
8
DEFAULT_255_1_388
10
4.3393969
20
21.0285339
40
0.3594635
50
85.335019
51
90.0855069
0
ARC
8
DEFAULT_255_1_388
10
4.3367402
20
21.0949472
40
0.2930574
50
89.5854741
51
103.459124
0
ARC
8
DEFAULT_255_1_388
10
4.3195941
20
21.1664134
40
0.2195632
50
103.448332
51
126.5403399
0
ARC
8
DEFAULT_255_1_388
10
4.2926918
20
21.2008224
40
0.1759039
50
126.1730306
51
141.5008224
0
ARC
8
DEFAULT_255_1_388
10
4.2501233
20
21.2342266
40
0.1217955
50
141.3332087
51
180.3477313
0
ARC
8
DEFAULT_255_1_388
10
4.1742656
20
21.2322904
40
0.214002
50
151.6373605
51
179.6795088
0
ARC
8
DEFAULT_255_1_388
10
4.2419892
20
21.1985768
40
0.2896224
50
142.4981529
51
152.1330509
0
ARC
8
DEFAULT_255_1_388
10
4.2777896
20
21.1704781
40
0.3351307
50
120.8284906
51
142.4132156
0
ARC
8
DEFAULT_255_1_388
10
4.3245872
20
21.0972185
40
0.4220297
50
113.9634885
51
121.1871733
0
ARC
8
DEFAULT_255_1_388
10
4.3399181
20
21.0598705
40
0.4623867
50
93.3784336
51
113.8197902
0
ARC
8
DEFAULT_255_1_388
10
4.3485563
20
20.9737549
40
0.5488732
50
89.9745993
51
93.7488475
0
ARC
8
DEFAULT_255_1_388
10
4.3524809
20
20.9778587
40
0.5447818
50
79.1327128
51
90.3871707
0
ARC
8
DEFAULT_255_1_388
10
4.3890573
20
21.1606597
40
0.3583662
50
60.1434453
51
79.365517
0
ARC
8
DEFAULT_255_1_388
10
4.4179339
20
21.2161195
40
0.2959028
50
48.6191018
51
59.6466565
0
ARC
8
DEFAULT_255_1_388
10
4.4233051
20
21.2232356
40
0.2870136
50
9.0349502
51
48.4845487
0
ARC
8
DEFAULT_255_1_388
10
4.302235
20
21.1968084
40
0.4107927
50
1.2091359
51
10.0234369
0
ARC
8
DEFAULT_255_1_388
10
5.5719798
20
20.7527422
40
0.8590481
50
179.8159449
51
185.3205667
0
ARC
8
DEFAULT_255_1_388
10
5.2687643
20
20.7237945
40
0.5544553
50
185.2475628
51
192.7952551
0
ARC
8
DEFAULT_255_1_388
10
5.0705467
20
20.6783024
40
0.3510853
50
192.7195981
51
202.9584216
0
ARC
8
DEFAULT_255_1_388
10
4.2945503
20
20.9480895
40
0.2937869
50
270.006916
51
300.503478
0
ARC
8
DEFAULT_255_1_388
10
4.3083438
20
20.9336888
40
0.2744162
50
299.5482616
51
315.609538
0
ARC
8
DEFAULT_255_1_388
10
4.3409734
20
20.9003072
40
0.2277499
50
315.8682065
51
334.0592465
0
ARC
8
DEFAULT_255_1_388
10
4.4098708
20
20.21669
40
0.7845965
50
89.64297
51
97.2867877
0
ARC
8
DEFAULT_255_1_388
10
4.3602305
20
20.5883936
40
0.4096042
50
96.9938706
51
109.7783917
0
ARC
8
DEFAULT_255_1_388
10
4.2853768
20
20.7887851
40
0.1957225
50
109.0087985
51
135.3265591
0
ARC
8
DEFAULT_255_1_388
10
4.2546187
20
20.8268764
40
0.1471704
50
137.4537784
51
182.1083946
0
ARC
8
DEFAULT_255_1_388
10
4.2966887
20
20.8196101
40
0.1891498
50
179.4390335
51
195.7201623
0
ARC
8
DEFAULT_255_1_388
10
4.2503922
20
20.8069585
40
0.1411576
50
195.8683556
51
230.157074
0
ARC
8
DEFAULT_255_1_388
10
4.2776645
20
20.8396228
40
0.1837102
50
230.1532486
51
259.7486257
0
ARC
8
DEFAULT_255_1_388
10
4.2932687
20
20.9131472
40
0.258848
50
259.2461118
51
270.2915316
0
ARC
8
DEFAULT_255_1_388
10
5.0989855
20
20.6156142
40
0.1204062
50
163.5412609
51
180.5084512
0
ARC
8
DEFAULT_255_1_388
10
5.0773754
20
20.621446
40
0.0980307
50
138.1652
51
163.2315563
0
ARC
8
DEFAULT_255_1_388
10
5.0647495
20
20.6321456
40
0.0814881
50
105.6860499
51
137.8492655
0
ARC
8
DEFAULT_255_1_388
10
5.0780696
20
20.5889109
40
0.126719
50
92.6078949
51
106.199173
0
ARC
8
DEFAULT_255_1_388
10
5.0814886
20
20.5443207
40
0.1714243
50
89.9659531
51
93.0713334
0
ARC
8
DEFAULT_255_1_388
10
5.0826922
20
20.5693484
40
0.1464007
50
78.4379126
51
90.4311892
0
ARC
8
DEFAULT_255_1_388
10
5.0935569
20
20.6200017
40
0.094599
50
56.8961942
51
78.7357785
0
ARC
8
DEFAULT_255_1_388
10
5.1006679
20
20.6324075
40
0.0803272
50
42.6503148
51
56.3122241
0
ARC
8
DEFAULT_255_1_388
10
5.0862581
20
20.6191661
40
0.099897
50
3.8141057
51
42.636595
0
ARC
8
DEFAULT_255_1_388
10
5.0539903
20
20.6146616
40
0.1324137
50
359.9498843
51
4.8301897
0
ARC
8
DEFAULT_255_1_388
10
5.079504
20
20.6134722
40
0.1069053
50
340.9378148
51
0.5753733
0
ARC
8
DEFAULT_255_1_388
10
5.0921623
20
20.6100569
40
0.0938301
50
316.0798885
51
340.3845117
0
ARC
8
DEFAULT_255_1_388
10
5.0986934
20
20.604052
40
0.0849605
50
285.8512844
51
315.941661
0
ARC
8
DEFAULT_255_1_388
10
5.0854814
20
20.646762
40
0.1296594
50
273.1293204
51
286.3125006
0
ARC
8
DEFAULT_255_1_388
10
5.0817324
20
20.6919586
40
0.1749979
50
269.9535313
51
273.5471598
0
ARC
8
DEFAULT_255_1_388
10
5.0804929
20
20.6673833
40
0.1504266
50
259.0487117
51
270.4180248
0
ARC
8
DEFAULT_255_1_388
10
5.0696542
20
20.6136783
40
0.0956414
50
239.7583641
51
259.3115656
0
ARC
8
DEFAULT_255_1_388
10
5.0605475
20
20.5967048
40
0.0763945
50
222.6243303
51
239.2473835
0
ARC
8
DEFAULT_255_1_388
10
5.0756646
20
20.6105572
40
0.0968985
50
182.9231258
51
222.598101
0
ARC
8
DEFAULT_255_1_388
10
5.1059845
20
20.6144696
40
0.1274004
50
179.9657458
51
183.9850364
0
LINE
8
DEFAULT_255_1_388
10
5.6553539
20
21.1521666
11
5.5216263
21
21.1865021
0
LINE
8
DEFAULT_255_1_388
10
5.5216263
20
21.1865021
11
5.5884901
21
21.8424898
0
LINE
8
DEFAULT_255_1_388
10
5.5884901
20
21.8424898
11
6.2625492
21
21.8424898
0
LINE
8
DEFAULT_255_1_388
10
6.2625492
20
21.8424898
11
6.2625492
21
21.6879803
0
LINE
8
DEFAULT_255_1_388
10
6.2625492
20
21.6879803
11
5.7303497
21
21.6879803
0
LINE
8
DEFAULT_255_1_388
10
5.7303497
20
21.6879803
11
5.6905929
21
21.3292652
0
LINE
8
DEFAULT_255_1_388
10
5.474641
20
20.8729652
11
5.6327647
21
20.8729652
0
LINE
8
DEFAULT_255_1_388
10
5.6996285
20
21.1883092
11
5.6553539
21
21.1521666
0
ARC
8
DEFAULT_255_1_388
10
5.8992542
20
20.9715241
40
0.4141476
50
93.7181681
51
120.253934
0
ARC
8
DEFAULT_255_1_388
10
5.9098594
20
20.8806284
40
0.5055616
50
89.9660471
51
94.2495185
0
ARC
8
DEFAULT_255_1_388
10
5.9144416
20
20.9469154
40
0.4392953
50
73.8045384
51
90.5585736
0
ARC
8
DEFAULT_255_1_388
10
5.9408674
20
21.043452
40
0.3392225
50
41.3071072
51
73.543002
0
ARC
8
DEFAULT_255_1_388
10
5.8940494
20
21.0031461
40
0.4009977
50
13.5075837
51
41.2174839
0
ARC
8
DEFAULT_255_1_388
10
5.7093591
20
20.9547907
40
0.5918864
50
1.1330171
51
13.8830737
0
ARC
8
DEFAULT_255_1_388
10
5.5497237
20
20.9462522
40
0.7516787
50
359.9925091
51
1.5431298
0
ARC
8
DEFAULT_255_1_388
10
5.6941852
20
20.9416027
40
0.6072343
50
347.8572712
51
0.4294349
0
ARC
8
DEFAULT_255_1_388
10
5.8910987
20
20.8969898
40
0.4053482
50
323.6727442
51
348.1674594
0
ARC
8
DEFAULT_255_1_388
10
5.9241951
20
20.8768175
40
0.3667495
50
316.8171818
51
323.1486802
0
ARC
8
DEFAULT_255_1_388
10
5.9311075
20
20.8726612
40
0.358869
50
281.839603
51
316.5458142
0
ARC
8
DEFAULT_255_1_388
10
5.8888363
20
21.0476363
40
0.5388223
50
269.5770964
51
282.4214641
0
ARC
8
DEFAULT_255_1_388
10
5.8808283
20
21.023593
40
0.5147801
50
256.2425863
51
270.4486481
0
ARC
8
DEFAULT_255_1_388
10
5.8471811
20
20.8886124
40
0.3756708
50
228.9024379
51
256.33135
0
ARC
8
DEFAULT_255_1_388
10
5.8388791
20
20.8755054
40
0.360344
50
193.7536029
51
228.5272638
0
ARC
8
DEFAULT_255_1_388
10
5.9781356
20
20.9163463
40
0.5053599
50
184.9244437
51
194.4976052
0
ARC
8
DEFAULT_255_1_388
10
5.9997998
20
20.9203722
40
0.3700839
50
187.3596909
51
198.6733728
0
ARC
8
DEFAULT_255_1_388
10
5.8817241
20
20.8794373
40
0.2451195
50
198.4453795
51
217.7945479
0
ARC
8
DEFAULT_255_1_388
10
5.8484414
20
20.8558563
40
0.2043754
50
218.2887146
51
228.5613203
0
ARC
8
DEFAULT_255_1_388
10
5.859442
20
20.8706902
40
0.2227819
50
228.9652423
51
258.1237049
0
ARC
8
DEFAULT_255_1_388
10
5.8825858
20
20.9697964
40
0.3245374
50
257.7260585
51
270.4013717
0
ARC
8
DEFAULT_255_1_388
10
5.8876356
20
20.9197255
40
0.2744726
50
269.4204315
51
286.420998
0
ARC
8
DEFAULT_255_1_388
10
5.9043412
20
20.8590705
40
0.2115721
50
286.7250065
51
320.6004665
0
ARC
8
DEFAULT_255_1_388
10
5.8612327
20
20.8940527
40
0.2670878
50
320.6712228
51
344.5440474
0
ARC
8
DEFAULT_255_1_388
10
5.7311041
20
20.9322394
40
0.4026927
50
344.241448
51
356.735803
0
ARC
8
DEFAULT_255_1_388
10
5.5907348
20
20.9438656
40
0.5435085
50
356.3547471
51
0.0507222
0
ARC
8
DEFAULT_255_1_388
10
5.7409613
20
20.9473812
40
0.3932934
50
359.5579289
51
12.9534322
0
ARC
8
DEFAULT_255_1_388
10
5.8596453
20
20.9761586
40
0.2711827
50
12.6489751
51
41.608121
0
ARC
8
DEFAULT_255_1_388
10
5.8855613
20
20.9981946
40
0.2371737
50
41.7851122
51
85.9892156
0
ARC
8
DEFAULT_255_1_388
10
5.8716923
20
20.9066738
40
0.3295244
50
84.6965848
51
90.0672125
0
ARC
8
DEFAULT_255_1_388
10
5.8690491
20
20.8315118
40
0.4046926
50
89.6804991
51
99.161352
0
ARC
8
DEFAULT_255_1_388
10
5.84595
20
20.9695848
40
0.2647044
50
98.9836248
51
113.8905702
0
ARC
8
DEFAULT_255_1_388
10
5.8201175
20
21.0305118
40
0.1985386
50
114.195234
51
127.3641866
0
LINE
8
DEFAULT_255_1_388
10
6.9799793
20
21.6165987
11
6.9799793
21
21.2325838
0
LINE
8
DEFAULT_255_1_388
10
6.9799793
20
21.2325838
11
7.3468265
21
21.2325838
0
LINE
8
DEFAULT_255_1_388
10
7.3468265
20
21.2325838
11
7.3468265
21
21.0744601
0
LINE
8
DEFAULT_255_1_388
10
7.3468265
20
21.0744601
11
6.9799793
21
21.0744601
0
LINE
8
DEFAULT_255_1_388
10
6.9799793
20
21.0744601
11
6.9799793
21
20.6588204
0
LINE
8
DEFAULT_255_1_388
10
6.9799793
20
20.6588204
11
6.8119164
21
20.6588204
0
LINE
8
DEFAULT_255_1_388
10
6.8119164
20
20.6588204
11
6.8119164
21
21.0744601
0
LINE
8
DEFAULT_255_1_388
10
6.8119164
20
21.0744601
11
6.4450692
21
21.0744601
0
LINE
8
DEFAULT_255_1_388
10
6.4450692
20
21.0744601
11
6.4450692
21
21.2325838
0
LINE
8
DEFAULT_255_1_388
10
6.4450692
20
21.2325838
11
6.8119164
21
21.2325838
0
LINE
8
DEFAULT_255_1_388
10
6.8119164
20
21.2325838
11
6.8119164
21
21.6165987
0
LINE
8
DEFAULT_255_1_388
10
6.8119164
20
21.6165987
11
6.9799793
21
21.6165987
0
LINE
8
DEFAULT_255_1_388
10
4.7472716
20
28.4644
11
4.5719801
21
28.4644
0
LINE
8
DEFAULT_255_1_388
10
4.3831351
20
29.0571383
11
4.5457767
21
29.0571383
0
LINE
8
DEFAULT_255_1_388
10
4.5457767
20
29.0571383
11
4.5457767
21
29.1339413
0
LINE
8
DEFAULT_255_1_388
10
4.1283299
20
29.1709874
11
3.9602669
21
29.1709874
0
LINE
8
DEFAULT_255_1_388
10
4.7129361
20
29.1429769
11
4.7129361
21
28.6930018
0
LINE
8
DEFAULT_255_1_388
10
4.7472716
20
28.478857
11
4.7472716
21
28.4644
0
LINE
8
DEFAULT_255_1_388
10
4.5457767
20
28.73818
11
4.5457767
21
28.9387713
0
LINE
8
DEFAULT_255_1_388
10
4.5457767
20
28.9387713
11
4.4147599
21
28.9387713
0
ARC
8
DEFAULT_255_1_388
10
4.688895
20
28.52111
40
0.1299428
50
197.0784902
51
205.8758668
0
ARC
8
DEFAULT_255_1_388
10
4.8283536
20
28.5652959
40
0.2762313
50
192.2927663
51
197.3441989
0
ARC
8
DEFAULT_255_1_388
10
5.0479042
20
28.614076
40
0.5011345
50
189.1573793
51
192.3977084
0
ARC
8
DEFAULT_255_1_388
10
5.3643888
20
28.6656878
40
0.8217995
50
186.8686098
51
189.1982636
0
ARC
8
DEFAULT_255_1_388
10
4.2588979
20
28.839726
40
0.3975173
50
294.0079259
51
316.7603918
0
ARC
8
DEFAULT_255_1_388
10
4.2734162
20
28.8192902
40
0.3729755
50
269.5043226
51
293.2478373
0
ARC
8
DEFAULT_255_1_388
10
4.2667214
20
28.8643915
40
0.4180772
50
255.4034155
51
270.4753052
0
ARC
8
DEFAULT_255_1_388
10
4.2408427
20
28.7639652
40
0.3143705
50
228.6141063
51
255.3550831
0
ARC
8
DEFAULT_255_1_388
10
4.2034409
20
28.728154
40
0.2628114
50
181.8954381
51
229.5703134
0
ARC
8
DEFAULT_255_1_388
10
4.2699345
20
28.7353824
40
0.329546
50
179.9848815
51
182.7691528
0
ARC
8
DEFAULT_255_1_388
10
4.2606411
20
28.7392827
40
0.3202753
50
161.0342928
51
180.6822077
0
ARC
8
DEFAULT_255_1_388
10
4.2112026
20
28.7521422
40
0.2693695
50
125.0525065
51
160.2034058
0
ARC
8
DEFAULT_255_1_388
10
4.2856748
20
28.6505275
40
0.3953338
50
106.2670809
51
125.4300189
0
ARC
8
DEFAULT_255_1_388
10
4.3500789
20
28.4400795
40
0.6154041
50
95.4857579
51
106.5348562
0
ARC
8
DEFAULT_255_1_388
10
4.3808077
20
28.1588993
40
0.8982419
50
89.8515405
51
95.7222579
0
ARC
8
DEFAULT_255_1_388
10
4.3088658
20
29.1359925
40
0.2369198
50
359.5039339
51
14.3181205
0
ARC
8
DEFAULT_255_1_388
10
4.3734662
20
29.1527862
40
0.170173
50
14.2184556
51
45.2028524
0
ARC
8
DEFAULT_255_1_388
10
4.3775358
20
29.1543862
40
0.1661795
50
45.8098216
51
73.0032926
0
ARC
8
DEFAULT_255_1_388
10
4.3495185
20
29.068726
40
0.2562942
50
72.6112517
51
85.7231489
0
ARC
8
DEFAULT_255_1_388
10
4.3393969
20
28.9660339
40
0.3594635
50
85.335019
51
90.0855069
0
ARC
8
DEFAULT_255_1_388
10
4.3367402
20
29.0324472
40
0.2930574
50
89.5854741
51
103.459124
0
ARC
8
DEFAULT_255_1_388
10
4.3195941
20
29.1039134
40
0.2195632
50
103.448332
51
126.5403399
0
ARC
8
DEFAULT_255_1_388
10
4.2926918
20
29.1383224
40
0.1759039
50
126.1730306
51
141.5008224
0
ARC
8
DEFAULT_255_1_388
10
4.2501233
20
29.1717266
40
0.1217955
50
141.3332087
51
180.3477313
0
ARC
8
DEFAULT_255_1_388
10
4.1742656
20
29.1697904
40
0.214002
50
151.6373605
51
179.6795088
0
ARC
8
DEFAULT_255_1_388
10
4.2419892
20
29.1360768
40
0.2896224
50
142.4981529
51
152.1330509
0
ARC
8
DEFAULT_255_1_388
10
4.2777896
20
29.1079781
40
0.3351307
50
120.8284906
51
142.4132156
0
ARC
8
DEFAULT_255_1_388
10
4.3245872
20
29.0347185
40
0.4220297
50
113.9634885
51
121.1871733
0
ARC
8
DEFAULT_255_1_388
10
4.3399181
20
28.9973705
40
0.4623867
50
93.3784336
51
113.8197902
0
ARC
8
DEFAULT_255_1_388
10
4.3485563
20
28.9112549
40
0.5488732
50
89.9745993
51
93.7488475
0
ARC
8
DEFAULT_255_1_388
10
4.3524809
20
28.9153587
40
0.5447818
50
79.1327128
51
90.3871707
0
ARC
8
DEFAULT_255_1_388
10
4.3890573
20
29.0981597
40
0.3583662
50
60.1434453
51
79.365517
0
ARC
8
DEFAULT_255_1_388
10
4.4179339
20
29.1536195
40
0.2959028
50
48.6191018
51
59.6466565
0
ARC
8
DEFAULT_255_1_388
10
4.4233051
20
29.1607356
40
0.2870136
50
9.0349502
51
48.4845487
0
ARC
8
DEFAULT_255_1_388
10
4.302235
20
29.1343084
40
0.4107927
50
1.2091359
51
10.0234369
0
ARC
8
DEFAULT_255_1_388
10
5.5719798
20
28.6902422
40
0.8590481
50
179.8159449
51
185.3205667
0
ARC
8
DEFAULT_255_1_388
10
5.2687643
20
28.6612945
40
0.5544553
50
185.2475628
51
192.7952551
0
ARC
8
DEFAULT_255_1_388
10
5.0705467
20
28.6158024
40
0.3510853
50
192.7195981
51
202.9584216
0
ARC
8
DEFAULT_255_1_388
10
4.2945503
20
28.8855895
40
0.2937869
50
270.006916
51
300.503478
0
ARC
8
DEFAULT_255_1_388
10
4.3083438
20
28.8711888
40
0.2744162
50
299.5482616
51
315.609538
0
ARC
8
DEFAULT_255_1_388
10
4.3409734
20
28.8378072
40
0.2277499
50
315.8682065
51
334.0592465
0
ARC
8
DEFAULT_255_1_388
10
4.4098708
20
28.15419
40
0.7845965
50
89.64297
51
97.2867877
0
ARC
8
DEFAULT_255_1_388
10
4.3602305
20
28.5258936
40
0.4096042
50
96.9938706
51
109.7783917
0
ARC
8
DEFAULT_255_1_388
10
4.2853768
20
28.7262851
40
0.1957225
50
109.0087985
51
135.3265591
0
ARC
8
DEFAULT_255_1_388
10
4.2546187
20
28.7643764
40
0.1471704
50
137.4537784
51
182.1083946
0
ARC
8
DEFAULT_255_1_388
10
4.2966887
20
28.7571101
40
0.1891498
50
179.4390335
51
195.7201623
0
ARC
8
DEFAULT_255_1_388
10
4.2503922
20
28.7444585
40
0.1411576
50
195.8683556
51
230.157074
0
ARC
8
DEFAULT_255_1_388
10
4.2776645
20
28.7771228
40
0.1837102
50
230.1532486
51
259.7486257
0
ARC
8
DEFAULT_255_1_388
10
4.2932687
20
28.8506472
40
0.258848
50
259.2461118
51
270.2915316
0
ARC
8
DEFAULT_255_1_388
10
5.0989855
20
28.5531142
40
0.1204062
50
163.5412609
51
180.5084512
0
ARC
8
DEFAULT_255_1_388
10
5.0773754
20
28.558946
40
0.0980307
50
138.1652
51
163.2315563
0
ARC
8
DEFAULT_255_1_388
10
5.0647495
20
28.5696456
40
0.0814881
50
105.6860499
51
137.8492655
0
ARC
8
DEFAULT_255_1_388
10
5.0780696
20
28.5264109
40
0.126719
50
92.6078949
51
106.199173
0
ARC
8
DEFAULT_255_1_388
10
5.0814886
20
28.4818207
40
0.1714243
50
89.9659531
51
93.0713334
0
ARC
8
DEFAULT_255_1_388
10
5.0826922
20
28.5068484
40
0.1464007
50
78.4379126
51
90.4311892
0
ARC
8
DEFAULT_255_1_388
10
5.0935569
20
28.5575017
40
0.094599
50
56.8961942
51
78.7357785
0
ARC
8
DEFAULT_255_1_388
10
5.1006679
20
28.5699075
40
0.0803272
50
42.6503148
51
56.3122241
0
ARC
8
DEFAULT_255_1_388
10
5.0862581
20
28.5566661
40
0.099897
50
3.8141057
51
42.636595
0
ARC
8
DEFAULT_255_1_388
10
5.0539903
20
28.5521616
40
0.1324137
50
359.9498843
51
4.8301897
0
ARC
8
DEFAULT_255_1_388
10
5.079504
20
28.5509722
40
0.1069053
50
340.9378148
51
0.5753733
0
ARC
8
DEFAULT_255_1_388
10
5.0921623
20
28.5475569
40
0.0938301
50
316.0798885
51
340.3845117
0
ARC
8
DEFAULT_255_1_388
10
5.0986934
20
28.541552
40
0.0849605
50
285.8512844
51
315.941661
0
ARC
8
DEFAULT_255_1_388
10
5.0854814
20
28.584262
40
0.1296594
50
273.1293204
51
286.3125006
0
ARC
8
DEFAULT_255_1_388
10
5.0817324
20
28.6294586
40
0.1749979
50
269.9535313
51
273.5471598
0
ARC
8
DEFAULT_255_1_388
10
5.0804929
20
28.6048833
40
0.1504266
50
259.0487117
51
270.4180248
0
ARC
8
DEFAULT_255_1_388
10
5.0696542
20
28.5511783
40
0.0956414
50
239.7583641
51
259.3115656
0
ARC
8
DEFAULT_255_1_388
10
5.0605475
20
28.5342048
40
0.0763945
50
222.6243303
51
239.2473835
0
ARC
8
DEFAULT_255_1_388
10
5.0756646
20
28.5480572
40
0.0968985
50
182.9231258
51
222.598101
0
ARC
8
DEFAULT_255_1_388
10
5.1059845
20
28.5519696
40
0.1274004
50
179.9657458
51
183.9850364
0
LINE
8
DEFAULT_255_1_388
10
6.1505072
20
29.7799898
11
6.1505072
21
28.906243
0
LINE
8
DEFAULT_255_1_388
10
6.1505072
20
28.906243
11
6.3330272
21
28.906243
0
LINE
8
DEFAULT_255_1_388
10
6.3330272
20
28.906243
11
6.3330272
21
28.7698048
0
LINE
8
DEFAULT_255_1_388
10
6.3330272
20
28.7698048
11
6.1505072
21
28.7698048
0
LINE
8
DEFAULT_255_1_388
10
6.1505072
20
28.7698048
11
6.1505072
21
28.4644
0
LINE
8
DEFAULT_255_1_388
10
6.1505072
20
28.4644
11
5.9824442
21
28.4644
0
LINE
8
DEFAULT_255_1_388
10
5.9824442
20
28.4644
11
5.9824442
21
28.7698048
0
LINE
8
DEFAULT_255_1_388
10
5.9824442
20
28.7698048
11
5.383381
21
28.7698048
0
LINE
8
DEFAULT_255_1_388
10
5.383381
20
28.7698048
11
5.383381
21
28.8682933
0
LINE
8
DEFAULT_255_1_388
10
5.383381
20
28.8682933
11
5.972505
21
29.7799898
0
LINE
8
DEFAULT_255_1_388
10
5.972505
20
29.7799898
11
6.1505072
21
29.7799898
0
LINE
8
DEFAULT_255_1_388
10
5.9625658
20
29.5152455
11
5.5731295
21
28.906243
0
LINE
8
DEFAULT_255_1_388
10
5.5731295
20
28.906243
11
5.9824442
21
28.906243
0
LINE
8
DEFAULT_255_1_388
10
5.9824442
20
28.906243
11
5.9824442
21
29.551388
0
LINE
8
DEFAULT_255_1_388
10
5.9824442
20
29.551388
11
5.9625658
21
29.5152455
0
LINE
8
DEFAULT_255_1_388
10
6.9799793
20
29.5540987
11
6.9799793
21
29.1700838
0
LINE
8
DEFAULT_255_1_388
10
6.9799793
20
29.1700838
11
7.3468265
21
29.1700838
0
LINE
8
DEFAULT_255_1_388
10
7.3468265
20
29.1700838
11
7.3468265
21
29.0119601
0
LINE
8
DEFAULT_255_1_388
10
7.3468265
20
29.0119601
11
6.9799793
21
29.0119601
0
LINE
8
DEFAULT_255_1_388
10
6.9799793
20
29.0119601
11
6.9799793
21
28.5963204
0
LINE
8
DEFAULT_255_1_388
10
6.9799793
20
28.5963204
11
6.8119164
21
28.5963204
0
LINE
8
DEFAULT_255_1_388
10
6.8119164
20
28.5963204
11
6.8119164
21
29.0119601
0
LINE
8
DEFAULT_255_1_388
10
6.8119164
20
29.0119601
11
6.4450692
21
29.0119601
0
LINE
8
DEFAULT_255_1_388
10
6.4450692
20
29.0119601
11
6.4450692
21
29.1700838
0
LINE
8
DEFAULT_255_1_388
10
6.4450692
20
29.1700838
11
6.8119164
21
29.1700838
0
LINE
8
DEFAULT_255_1_388
10
6.8119164
20
29.1700838
11
6.8119164
21
29.5540987
0
LINE
8
DEFAULT_255_1_388
10
6.8119164
20
29.5540987
11
6.9799793
21
29.5540987
0
LINE
8
DEFAULT_255_1_388
10
4.7472716
20
36.4019
11
4.5719801
21
36.4019
0
LINE
8
DEFAULT_255_1_388
10
4.3831351
20
36.9946383
11
4.5457767
21
36.9946383
0
LINE
8
DEFAULT_255_1_388
10
4.5457767
20
36.9946383
11
4.5457767
21
37.0714413
0
LINE
8
DEFAULT_255_1_388
10
4.1283299
20
37.1084874
11
3.9602669
21
37.1084874
0
LINE
8
DEFAULT_255_1_388
10
4.7129361
20
37.0804769
11
4.7129361
21
36.6305018
0
LINE
8
DEFAULT_255_1_388
10
4.7472716
20
36.416357
11
4.7472716
21
36.4019
0
LINE
8
DEFAULT_255_1_388
10
4.5457767
20
36.67568
11
4.5457767
21
36.8762713
0
LINE
8
DEFAULT_255_1_388
10
4.5457767
20
36.8762713
11
4.4147599
21
36.8762713
0
ARC
8
DEFAULT_255_1_388
10
4.688895
20
36.45861
40
0.1299428
50
197.0784902
51
205.8758668
0
ARC
8
DEFAULT_255_1_388
10
4.8283536
20
36.5027959
40
0.2762313
50
192.2927663
51
197.3441989
0
ARC
8
DEFAULT_255_1_388
10
5.0479042
20
36.551576
40
0.5011345
50
189.1573793
51
192.3977084
0
ARC
8
DEFAULT_255_1_388
10
5.3643888
20
36.6031878
40
0.8217995
50
186.8686098
51
189.1982636
0
ARC
8
DEFAULT_255_1_388
10
4.2588979
20
36.777226
40
0.3975173
50
294.0079259
51
316.7603918
0
ARC
8
DEFAULT_255_1_388
10
4.2734162
20
36.7567902
40
0.3729755
50
269.5043226
51
293.2478373
0
ARC
8
DEFAULT_255_1_388
10
4.2667214
20
36.8018915
40
0.4180772
50
255.4034155
51
270.4753052
0
ARC
8
DEFAULT_255_1_388
10
4.2408427
20
36.7014652
40
0.3143705
50
228.6141063
51
255.3550831
0
ARC
8
DEFAULT_255_1_388
10
4.2034409
20
36.665654
40
0.2628114
50
181.8954381
51
229.5703134
0
ARC
8
DEFAULT_255_1_388
10
4.2699345
20
36.6728824
40
0.329546
50
179.9848815
51
182.7691528
0
ARC
8
DEFAULT_255_1_388
10
4.2606411
20
36.6767827
40
0.3202753
50
161.0342928
51
180.6822077
0
ARC
8
DEFAULT_255_1_388
10
4.2112026
20
36.6896422
40
0.2693695
50
125.0525065
51
160.2034058
0
ARC
8
DEFAULT_255_1_388
10
4.2856748
20
36.5880275
40
0.3953338
50
106.2670809
51
125.4300189
0
ARC
8
DEFAULT_255_1_388
10
4.3500789
20
36.3775795
40
0.6154041
50
95.4857579
51
106.5348562
0
ARC
8
DEFAULT_255_1_388
10
4.3808077
20
36.0963993
40
0.8982419
50
89.8515405
51
95.7222579
0
ARC
8
DEFAULT_255_1_388
10
4.3088658
20
37.0734925
40
0.2369198
50
359.5039339
51
14.3181205
0
ARC
8
DEFAULT_255_1_388
10
4.3734662
20
37.0902862
40
0.170173
50
14.2184556
51
45.2028524
0
ARC
8
DEFAULT_255_1_388
10
4.3775358
20
37.0918862
40
0.1661795
50
45.8098216
51
73.0032926
0
ARC
8
DEFAULT_255_1_388
10
4.3495185
20
37.006226
40
0.2562942
50
72.6112517
51
85.7231489
0
ARC
8
DEFAULT_255_1_388
10
4.3393969
20
36.9035339
40
0.3594635
50
85.335019
51
90.0855069
0
ARC
8
DEFAULT_255_1_388
10
4.3367402
20
36.9699472
40
0.2930574
50
89.5854741
51
103.459124
0
ARC
8
DEFAULT_255_1_388
10
4.3195941
20
37.0414134
40
0.2195632
50
103.448332
51
126.5403399
0
ARC
8
DEFAULT_255_1_388
10
4.2926918
20
37.0758224
40
0.1759039
50
126.1730306
51
141.5008224
0
ARC
8
DEFAULT_255_1_388
10
4.2501233
20
37.1092266
40
0.1217955
50
141.3332087
51
180.3477313
0
ARC
8
DEFAULT_255_1_388
10
4.1742656
20
37.1072904
40
0.214002
50
151.6373605
51
179.6795088
0
ARC
8
DEFAULT_255_1_388
10
4.2419892
20
37.0735768
40
0.2896224
50
142.4981529
51
152.1330509
0
ARC
8
DEFAULT_255_1_388
10
4.2777896
20
37.0454781
40
0.3351307
50
120.8284906
51
142.4132156
0
ARC
8
DEFAULT_255_1_388
10
4.3245872
20
36.9722185
40
0.4220297
50
113.9634885
51
121.1871733
0
ARC
8
DEFAULT_255_1_388
10
4.3399181
20
36.9348705
40
0.4623867
50
93.3784336
51
113.8197902
0
ARC
8
DEFAULT_255_1_388
10
4.3485563
20
36.8487549
40
0.5488732
50
89.9745993
51
93.7488475
0
ARC
8
DEFAULT_255_1_388
10
4.3524809
20
36.8528587
40
0.5447818
50
79.1327128
51
90.3871707
0
ARC
8
DEFAULT_255_1_388
10
4.3890573
20
37.0356597
40
0.3583662
50
60.1434453
51
79.365517
0
ARC
8
DEFAULT_255_1_388
10
4.4179339
20
37.0911195
40
0.2959028
50
48.6191018
51
59.6466565
0
ARC
8
DEFAULT_255_1_388
10
4.4233051
20
37.0982356
40
0.2870136
50
9.0349502
51
48.4845487
0
ARC
8
DEFAULT_255_1_388
10
4.302235
20
37.0718084
40
0.4107927
50
1.2091359
51
10.0234369
0
ARC
8
DEFAULT_255_1_388
10
5.5719798
20
36.6277422
40
0.8590481
50
179.8159449
51
185.3205667
0
ARC
8
DEFAULT_255_1_388
10
5.2687643
20
36.5987945
40
0.5544553
50
185.2475628
51
192.7952551
0
ARC
8
DEFAULT_255_1_388
10
5.0705467
20
36.5533024
40
0.3510853
50
192.7195981
51
202.9584216
0
ARC
8
DEFAULT_255_1_388
10
4.2945503
20
36.8230895
40
0.2937869
50
270.006916
51
300.503478
0
ARC
8
DEFAULT_255_1_388
10
4.3083438
20
36.8086888
40
0.2744162
50
299.5482616
51
315.609538
0
ARC
8
DEFAULT_255_1_388
10
4.3409734
20
36.7753072
40
0.2277499
50
315.8682065
51
334.0592465
0
ARC
8
DEFAULT_255_1_388
10
4.4098708
20
36.09169
40
0.7845965
50
89.64297
51
97.2867877
0
ARC
8
DEFAULT_255_1_388
10
4.3602305
20
36.4633936
40
0.4096042
50
96.9938706
51
109.7783917
0
ARC
8
DEFAULT_255_1_388
10
4.2853768
20
36.6637851
40
0.1957225
50
109.0087985
51
135.3265591
0
ARC
8
DEFAULT_255_1_388
10
4.2546187
20
36.7018764
40
0.1471704
50
137.4537784
51
182.1083946
0
ARC
8
DEFAULT_255_1_388
10
4.2966887
20
36.6946101
40
0.1891498
50
179.4390335
51
195.7201623
0
ARC
8
DEFAULT_255_1_388
10
4.2503922
20
36.6819585
40
0.1411576
50
195.8683556
51
230.157074
0
ARC
8
DEFAULT_255_1_388
10
4.2776645
20
36.7146228
40
0.1837102
50
230.1532486
51
259.7486257
0
ARC
8
DEFAULT_255_1_388
10
4.2932687
20
36.7881472
40
0.258848
50
259.2461118
51
270.2915316
0
ARC
8
DEFAULT_255_1_388
10
5.0989855
20
36.4906142
40
0.1204062
50
163.5412609
51
180.5084512
0
ARC
8
DEFAULT_255_1_388
10
5.0773754
20
36.496446
40
0.0980307
50
138.1652
51
163.2315563
0
ARC
8
DEFAULT_255_1_388
10
5.0647495
20
36.5071456
40
0.0814881
50
105.6860499
51
137.8492655
0
ARC
8
DEFAULT_255_1_388
10
5.0780696
20
36.4639109
40
0.126719
50
92.6078949
51
106.199173
0
ARC
8
DEFAULT_255_1_388
10
5.0814886
20
36.4193207
40
0.1714243
50
89.9659531
51
93.0713334
0
ARC
8
DEFAULT_255_1_388
10
5.0826922
20
36.4443484
40
0.1464007
50
78.4379126
51
90.4311892
0
ARC
8
DEFAULT_255_1_388
10
5.0935569
20
36.4950017
40
0.094599
50
56.8961942
51
78.7357785
0
ARC
8
DEFAULT_255_1_388
10
5.1006679
20
36.5074075
40
0.0803272
50
42.6503148
51
56.3122241
0
ARC
8
DEFAULT_255_1_388
10
5.0862581
20
36.4941661
40
0.099897
50
3.8141057
51
42.636595
0
ARC
8
DEFAULT_255_1_388
10
5.0539903
20
36.4896616
40
0.1324137
50
359.9498843
51
4.8301897
0
ARC
8
DEFAULT_255_1_388
10
5.079504
20
36.4884722
40
0.1069053
50
340.9378148
51
0.5753733
0
ARC
8
DEFAULT_255_1_388
10
5.0921623
20
36.4850569
40
0.0938301
50
316.0798885
51
340.3845117
0
ARC
8
DEFAULT_255_1_388
10
5.0986934
20
36.479052
40
0.0849605
50
285.8512844
51
315.941661
0
ARC
8
DEFAULT_255_1_388
10
5.0854814
20
36.521762
40
0.1296594
50
273.1293204
51
286.3125006
0
ARC
8
DEFAULT_255_1_388
10
5.0817324
20
36.5669586
40
0.1749979
50
269.9535313
51
273.5471598
0
ARC
8
DEFAULT_255_1_388
10
5.0804929
20
36.5423833
40
0.1504266
50
259.0487117
51
270.4180248
0
ARC
8
DEFAULT_255_1_388
10
5.0696542
20
36.4886783
40
0.0956414
50
239.7583641
51
259.3115656
0
ARC
8
DEFAULT_255_1_388
10
5.0605475
20
36.4717048
40
0.0763945
50
222.6243303
51
239.2473835
0
ARC
8
DEFAULT_255_1_388
10
5.0756646
20
36.4855572
40
0.0968985
50
182.9231258
51
222.598101
0
ARC
8
DEFAULT_255_1_388
10
5.1059845
20
36.4894696
40
0.1274004
50
179.9657458
51
183.9850364
0
LINE
8
DEFAULT_255_1_388
10
5.6878822
20
37.0045775
11
5.6878822
21
37.1410157
0
LINE
8
DEFAULT_255_1_388
10
5.6878822
20
37.1410157
11
5.8134776
21
37.1410157
0
LINE
8
DEFAULT_255_1_388
10
5.5993329
20
37.3723282
11
5.4321734
21
37.3723282
0
LINE
8
DEFAULT_255_1_388
10
5.4204271
20
36.7488688
11
5.5884901
21
36.7488688
0
LINE
8
DEFAULT_255_1_388
10
5.8134776
20
37.0045775
11
5.6878822
21
37.0045775
0
ARC
8
DEFAULT_255_1_388
10
5.8102003
20
37.5226922
40
0.3816905
50
270.491971
51
281.8953028
0
ARC
8
DEFAULT_255_1_388
10
5.837343
20
37.3987199
40
0.2547877
50
281.6690378
51
301.2943765
0
ARC
8
DEFAULT_255_1_388
10
5.8564881
20
37.3636926
40
0.2149197
50
301.7834992
51
311.754567
0
ARC
8
DEFAULT_255_1_388
10
5.8667923
20
37.352265
40
0.1995326
50
311.7325027
51
354.2803031
0
ARC
8
DEFAULT_255_1_388
10
5.7850338
20
37.366328
40
0.2823461
50
353.0941646
51
0.1174696
0
ARC
8
DEFAULT_255_1_388
10
5.7331896
20
37.3716874
40
0.3342238
50
359.1804452
51
15.0452323
0
ARC
8
DEFAULT_255_1_388
10
5.8845955
20
37.4158546
40
0.1765747
50
13.957816
51
77.6713812
0
ARC
8
DEFAULT_255_1_388
10
5.841119
20
37.2600464
40
0.3381982
50
76.111571
51
90.7028736
0
ARC
8
DEFAULT_255_1_388
10
5.8344603
20
37.290825
40
0.3074046
50
89.5321574
51
103.5319393
0
ARC
8
DEFAULT_255_1_388
10
5.8118986
20
37.3807443
40
0.2147041
50
103.2930114
51
133.5619756
0
ARC
8
DEFAULT_255_1_388
10
5.8068928
20
37.3874351
40
0.2064084
50
133.8349761
51
173.5343225
0
ARC
8
DEFAULT_255_1_388
10
5.8882585
20
37.3730144
40
0.2889266
50
172.5097183
51
180.1360699
0
ARC
8
DEFAULT_255_1_388
10
5.7812349
20
37.376888
40
0.3490913
50
155.3483706
51
180.7484035
0
ARC
8
DEFAULT_255_1_388
10
5.7757325
20
37.3736519
40
0.3454798
50
131.5745177
51
154.4799474
0
ARC
8
DEFAULT_255_1_388
10
5.8109607
20
37.3380422
40
0.3955058
50
96.9874487
51
131.9690874
0
ARC
8
DEFAULT_255_1_388
10
5.83565
20
37.1979407
40
0.537622
50
89.8592909
51
97.7827481
0
ARC
8
DEFAULT_255_1_388
10
5.8410609
20
37.168436
40
0.5671399
50
78.3654493
51
90.4132586
0
ARC
8
DEFAULT_255_1_388
10
5.881325
20
37.3550918
40
0.3762034
50
56.6229818
51
78.6387103
0
ARC
8
DEFAULT_255_1_388
10
5.9055079
20
37.3973846
40
0.3275964
50
47.0254604
51
56.085558
0
ARC
8
DEFAULT_255_1_388
10
5.907733
20
37.4018189
40
0.3228382
50
10.9207523
51
46.777927
0
ARC
8
DEFAULT_255_1_388
10
5.7542924
20
37.3663401
40
0.4802559
50
359.6364235
51
11.6087615
0
ARC
8
DEFAULT_255_1_388
10
5.960709
20
37.3646404
40
0.273833
50
332.3549969
51
359.7179765
0
ARC
8
DEFAULT_255_1_388
10
5.8875491
20
37.3993285
40
0.3547505
50
325.2332381
51
332.8746682
0
ARC
8
DEFAULT_255_1_388
10
5.9047074
20
37.3873763
40
0.3338396
50
292.9803892
51
325.2391113
0
ARC
8
DEFAULT_255_1_388
10
5.8736269
20
37.4478679
40
0.4016959
50
292.542178
51
293.6931461
0
ARC
8
DEFAULT_255_1_388
10
5.9179841
20
36.7213036
40
0.372079
50
57.643292
51
72.8626085
0
ARC
8
DEFAULT_255_1_388
10
5.9578676
20
36.7859273
40
0.2961455
50
36.7246661
51
57.4701329
0
ARC
8
DEFAULT_255_1_388
10
5.9565833
20
36.787347
40
0.2963321
50
8.054535
51
36.3561529
0
ARC
8
DEFAULT_255_1_388
10
5.8595505
20
36.7699073
40
0.3948682
50
359.8316595
51
8.5873361
0
ARC
8
DEFAULT_255_1_388
10
5.8172979
20
36.764497
40
0.4371398
50
343.9831631
51
0.557075
0
ARC
8
DEFAULT_255_1_388
10
5.9170029
20
36.7371963
40
0.3337749
50
311.6358204
51
343.7652116
0
ARC
8
DEFAULT_255_1_388
10
5.8744283
20
36.7851955
40
0.3979351
50
279.7829743
51
311.625622
0
ARC
8
DEFAULT_255_1_388
10
5.8405418
20
36.9468642
40
0.5630417
50
269.7285092
51
280.3857694
0
ARC
8
DEFAULT_255_1_388
10
5.8335731
20
36.9422241
40
0.5584119
50
256.6827433
51
270.4412869
0
ARC
8
DEFAULT_255_1_388
10
5.7954717
20
36.7864698
40
0.3980715
50
229.4223821
51
256.8554507
0
ARC
8
DEFAULT_255_1_388
10
5.7488271
20
36.7339683
40
0.3278564
50
181.8183354
51
229.6455015
0
ARC
8
DEFAULT_255_1_388
10
5.865788
20
36.7486825
40
0.4453611
50
179.9760419
51
183.2330638
0
ARC
8
DEFAULT_255_1_388
10
5.8464433
20
36.7463781
40
0.2579652
50
179.4467996
51
196.2871626
0
ARC
8
DEFAULT_255_1_388
10
5.7915886
20
36.7313709
40
0.2011057
50
196.5661293
51
227.7059371
0
ARC
8
DEFAULT_255_1_388
10
5.8100493
20
36.7520155
40
0.2287994
50
227.7653015
51
257.8763321
0
ARC
8
DEFAULT_255_1_388
10
5.8353577
20
36.8580961
40
0.3378385
50
257.4583525
51
270.4267406
0
ARC
8
DEFAULT_255_1_388
10
5.8404826
20
36.890723
40
0.3704652
50
269.5965319
51
280.8788143
0
ARC
8
DEFAULT_255_1_388
10
5.8663054
20
36.7617529
40
0.2389415
50
280.6347277
51
299.8594068
0
ARC
8
DEFAULT_255_1_388
10
5.8877824
20
36.7209736
40
0.19289
50
300.3575552
51
314.5515667
0
ARC
8
DEFAULT_255_1_388
10
5.87845
20
36.7278025
40
0.204312
50
315.0730962
51
345.0429362
0
ARC
8
DEFAULT_255_1_388
10
5.7746007
20
36.7580539
40
0.31246
50
344.598526
51
357.9270698
0
ARC
8
DEFAULT_255_1_388
10
5.6736312
20
36.7649705
40
0.4136265
50
357.4755098
51
0.0224936
0
ARC
8
DEFAULT_255_1_388
10
5.7889189
20
36.7677099
40
0.2983498
50
359.5051035
51
13.4236939
0
ARC
8
DEFAULT_255_1_388
10
5.8864279
20
36.7926637
40
0.1977186
50
12.9497905
51
48.7550905
0
ARC
8
DEFAULT_255_1_388
10
5.8659201
20
36.7646373
40
0.2323321
50
49.509109
51
72.1832965
0
ARC
8
DEFAULT_255_1_388
10
5.825667
20
36.6451632
40
0.358397
50
71.9008458
51
84.3555134
0
ARC
8
DEFAULT_255_1_388
10
5.8075064
20
36.4919712
40
0.512641
50
84.019632
51
89.3326067
0
LINE
8
DEFAULT_255_1_388
10
6.9799793
20
37.4915987
11
6.9799793
21
37.1075838
0
LINE
8
DEFAULT_255_1_388
10
6.9799793
20
37.1075838
11
7.3468265
21
37.1075838
0
LINE
8
DEFAULT_255_1_388
10
7.3468265
20
37.1075838
11
7.3468265
21
36.9494601
0
LINE
8
DEFAULT_255_1_388
10
7.3468265
20
36.9494601
11
6.9799793
21
36.9494601
0
LINE
8
DEFAULT_255_1_388
10
6.9799793
20
36.9494601
11
6.9799793
21
36.5338204
0
LINE
8
DEFAULT_255_1_388
10
6.9799793
20
36.5338204
11
6.8119164
21
36.5338204
0
LINE
8
DEFAULT_255_1_388
10
6.8119164
20
36.5338204
11
6.8119164
21
36.9494601
0
LINE
8
DEFAULT_255_1_388
10
6.8119164
20
36.9494601
11
6.4450692
21
36.9494601
0
LINE
8
DEFAULT_255_1_388
10
6.4450692
20
36.9494601
11
6.4450692
21
37.1075838
0
LINE
8
DEFAULT_255_1_388
10
6.4450692
20
37.1075838
11
6.8119164
21
37.1075838
0
LINE
8
DEFAULT_255_1_388
10
6.8119164
20
37.1075838
11
6.8119164
21
37.4915987
0
LINE
8
DEFAULT_255_1_388
10
6.8119164
20
37.4915987
11
6.9799793
21
37.4915987
0
LINE
8
DEFAULT_255_1_388
10
4.7472716
20
44.3394
11
4.5719801
21
44.3394
0
LINE
8
DEFAULT_255_1_388
10
4.3831351
20
44.9321383
11
4.5457767
21
44.9321383
0
LINE
8
DEFAULT_255_1_388
10
4.5457767
20
44.9321383
11
4.5457767
21
45.0089413
0
LINE
8
DEFAULT_255_1_388
10
4.1283299
20
45.0459874
11
3.9602669
21
45.0459874
0
LINE
8
DEFAULT_255_1_388
10
4.7129361
20
45.0179769
11
4.7129361
21
44.5680018
0
LINE
8
DEFAULT_255_1_388
10
4.7472716
20
44.353857
11
4.7472716
21
44.3394
0
LINE
8
DEFAULT_255_1_388
10
4.5457767
20
44.61318
11
4.5457767
21
44.8137713
0
LINE
8
DEFAULT_255_1_388
10
4.5457767
20
44.8137713
11
4.4147599
21
44.8137713
0
ARC
8
DEFAULT_255_1_388
10
4.688895
20
44.39611
40
0.1299428
50
197.0784902
51
205.8758668
0
ARC
8
DEFAULT_255_1_388
10
4.8283536
20
44.4402959
40
0.2762313
50
192.2927663
51
197.3441989
0
ARC
8
DEFAULT_255_1_388
10
5.0479042
20
44.489076
40
0.5011345
50
189.1573793
51
192.3977084
0
ARC
8
DEFAULT_255_1_388
10
5.3643888
20
44.5406878
40
0.8217995
50
186.8686098
51
189.1982636
0
ARC
8
DEFAULT_255_1_388
10
4.2588979
20
44.714726
40
0.3975173
50
294.0079259
51
316.7603918
0
ARC
8
DEFAULT_255_1_388
10
4.2734162
20
44.6942902
40
0.3729755
50
269.5043226
51
293.2478373
0
ARC
8
DEFAULT_255_1_388
10
4.2667214
20
44.7393915
40
0.4180772
50
255.4034155
51
270.4753052
0
ARC
8
DEFAULT_255_1_388
10
4.2408427
20
44.6389652
40
0.3143705
50
228.6141063
51
255.3550831
0
ARC
8
DEFAULT_255_1_388
10
4.2034409
20
44.603154
40
0.2628114
50
181.8954381
51
229.5703134
0
ARC
8
DEFAULT_255_1_388
10
4.2699345
20
44.6103824
40
0.329546
50
179.9848815
51
182.7691528
0
ARC
8
DEFAULT_255_1_388
10
4.2606411
20
44.6142827
40
0.3202753
50
161.0342928
51
180.6822077
0
ARC
8
DEFAULT_255_1_388
10
4.2112026
20
44.6271422
40
0.2693695
50
125.0525065
51
160.2034058
0
ARC
8
DEFAULT_255_1_388
10
4.2856748
20
44.5255275
40
0.3953338
50
106.2670809
51
125.4300189
0
ARC
8
DEFAULT_255_1_388
10
4.3500789
20
44.3150795
40
0.6154041
50
95.4857579
51
106.5348562
0
ARC
8
DEFAULT_255_1_388
10
4.3808077
20
44.0338993
40
0.8982419
50
89.8515405
51
95.7222579
0
ARC
8
DEFAULT_255_1_388
10
4.3088658
20
45.0109925
40
0.2369198
50
359.5039339
51
14.3181205
0
ARC
8
DEFAULT_255_1_388
10
4.3734662
20
45.0277862
40
0.170173
50
14.2184556
51
45.2028524
0
ARC
8
DEFAULT_255_1_388
10
4.3775358
20
45.0293862
40
0.1661795
50
45.8098216
51
73.0032926
0
ARC
8
DEFAULT_255_1_388
10
4.3495185
20
44.943726
40
0.2562942
50
72.6112517
51
85.7231489
0
ARC
8
DEFAULT_255_1_388
10
4.3393969
20
44.8410339
40
0.3594635
50
85.335019
51
90.0855069
0
ARC
8
DEFAULT_255_1_388
10
4.3367402
20
44.9074472
40
0.2930574
50
89.5854741
51
103.459124
0
ARC
8
DEFAULT_255_1_388
10
4.3195941
20
44.9789134
40
0.2195632
50
103.448332
51
126.5403399
0
ARC
8
DEFAULT_255_1_388
10
4.2926918
20
45.0133224
40
0.1759039
50
126.1730306
51
141.5008224
0
ARC
8
DEFAULT_255_1_388
10
4.2501233
20
45.0467266
40
0.1217955
50
141.3332087
51
180.3477313
0
ARC
8
DEFAULT_255_1_388
10
4.1742656
20
45.0447904
40
0.214002
50
151.6373605
51
179.6795088
0
ARC
8
DEFAULT_255_1_388
10
4.2419892
20
45.0110768
40
0.2896224
50
142.4981529
51
152.1330509
0
ARC
8
DEFAULT_255_1_388
10
4.2777896
20
44.9829781
40
0.3351307
50
120.8284906
51
142.4132156
0
ARC
8
DEFAULT_255_1_388
10
4.3245872
20
44.9097185
40
0.4220297
50
113.9634885
51
121.1871733
0
ARC
8
DEFAULT_255_1_388
10
4.3399181
20
44.8723705
40
0.4623867
50
93.3784336
51
113.8197902
0
ARC
8
DEFAULT_255_1_388
10
4.3485563
20
44.7862549
40
0.5488732
50
89.9745993
51
93.7488475
0
ARC
8
DEFAULT_255_1_388
10
4.3524809
20
44.7903587
40
0.5447818
50
79.1327128
51
90.3871707
0
ARC
8
DEFAULT_255_1_388
10
4.3890573
20
44.9731597
40
0.3583662
50
60.1434453
51
79.365517
0
ARC
8
DEFAULT_255_1_388
10
4.4179339
20
45.0286195
40
0.2959028
50
48.6191018
51
59.6466565
0
ARC
8
DEFAULT_255_1_388
10
4.4233051
20
45.0357356
40
0.2870136
50
9.0349502
51
48.4845487
0
ARC
8
DEFAULT_255_1_388
10
4.302235
20
45.0093084
40
0.4107927
50
1.2091359
51
10.0234369
0
ARC
8
DEFAULT_255_1_388
10
5.5719798
20
44.5652422
40
0.8590481
50
179.8159449
51
185.3205667
0
ARC
8
DEFAULT_255_1_388
10
5.2687643
20
44.5362945
40
0.5544553
50
185.2475628
51
192.7952551
0
ARC
8
DEFAULT_255_1_388
10
5.0705467
20
44.4908024
40
0.3510853
50
192.7195981
51
202.9584216
0
ARC
8
DEFAULT_255_1_388
10
4.2945503
20
44.7605895
40
0.2937869
50
270.006916
51
300.503478
0
ARC
8
DEFAULT_255_1_388
10
4.3083438
20
44.7461888
40
0.2744162
50
299.5482616
51
315.609538
0
ARC
8
DEFAULT_255_1_388
10
4.3409734
20
44.7128072
40
0.2277499
50
315.8682065
51
334.0592465
0
ARC
8
DEFAULT_255_1_388
10
4.4098708
20
44.02919
40
0.7845965
50
89.64297
51
97.2867877
0
ARC
8
DEFAULT_255_1_388
10
4.3602305
20
44.4008936
40
0.4096042
50
96.9938706
51
109.7783917
0
ARC
8
DEFAULT_255_1_388
10
4.2853768
20
44.6012851
40
0.1957225
50
109.0087985
51
135.3265591
0
ARC
8
DEFAULT_255_1_388
10
4.2546187
20
44.6393764
40
0.1471704
50
137.4537784
51
182.1083946
0
ARC
8
DEFAULT_255_1_388
10
4.2966887
20
44.6321101
40
0.1891498
50
179.4390335
51
195.7201623
0
ARC
8
DEFAULT_255_1_388
10
4.2503922
20
44.6194585
40
0.1411576
50
195.8683556
51
230.157074
0
ARC
8
DEFAULT_255_1_388
10
4.2776645
20
44.6521228
40
0.1837102
50
230.1532486
51
259.7486257
0
ARC
8
DEFAULT_255_1_388
10
4.2932687
20
44.7256472
40
0.258848
50
259.2461118
51
270.2915316
0
ARC
8
DEFAULT_255_1_388
10
5.0989855
20
44.4281142
40
0.1204062
50
163.5412609
51
180.5084512
0
ARC
8
DEFAULT_255_1_388
10
5.0773754
20
44.433946
40
0.0980307
50
138.1652
51
163.2315563
0
ARC
8
DEFAULT_255_1_388
10
5.0647495
20
44.4446456
40
0.0814881
50
105.6860499
51
137.8492655
0
ARC
8
DEFAULT_255_1_388
10
5.0780696
20
44.4014109
40
0.126719
50
92.6078949
51
106.199173
0
ARC
8
DEFAULT_255_1_388
10
5.0814886
20
44.3568207
40
0.1714243
50
89.9659531
51
93.0713334
0
ARC
8
DEFAULT_255_1_388
10
5.0826922
20
44.3818484
40
0.1464007
50
78.4379126
51
90.4311892
0
ARC
8
DEFAULT_255_1_388
10
5.0935569
20
44.4325017
40
0.094599
50
56.8961942
51
78.7357785
0
ARC
8
DEFAULT_255_1_388
10
5.1006679
20
44.4449075
40
0.0803272
50
42.6503148
51
56.3122241
0
ARC
8
DEFAULT_255_1_388
10
5.0862581
20
44.4316661
40
0.099897
50
3.8141057
51
42.636595
0
ARC
8
DEFAULT_255_1_388
10
5.0539903
20
44.4271616
40
0.1324137
50
359.9498843
51
4.8301897
0
ARC
8
DEFAULT_255_1_388
10
5.079504
20
44.4259722
40
0.1069053
50
340.9378148
51
0.5753733
0
ARC
8
DEFAULT_255_1_388
10
5.0921623
20
44.4225569
40
0.0938301
50
316.0798885
51
340.3845117
0
ARC
8
DEFAULT_255_1_388
10
5.0986934
20
44.416552
40
0.0849605
50
285.8512844
51
315.941661
0
ARC
8
DEFAULT_255_1_388
10
5.0854814
20
44.459262
40
0.1296594
50
273.1293204
51
286.3125006
0
ARC
8
DEFAULT_255_1_388
10
5.0817324
20
44.5044586
40
0.1749979
50
269.9535313
51
273.5471598
0
ARC
8
DEFAULT_255_1_388
10
5.0804929
20
44.4798833
40
0.1504266
50
259.0487117
51
270.4180248
0
ARC
8
DEFAULT_255_1_388
10
5.0696542
20
44.4261783
40
0.0956414
50
239.7583641
51
259.3115656
0
ARC
8
DEFAULT_255_1_388
10
5.0605475
20
44.4092048
40
0.0763945
50
222.6243303
51
239.2473835
0
ARC
8
DEFAULT_255_1_388
10
5.0756646
20
44.4230572
40
0.0968985
50
182.9231258
51
222.598101
0
ARC
8
DEFAULT_255_1_388
10
5.1059845
20
44.4269696
40
0.1274004
50
179.9657458
51
183.9850364
0
LINE
8
DEFAULT_255_1_388
10
6.3068238
20
44.4758382
11
6.3068238
21
44.3394
0
LINE
8
DEFAULT_255_1_388
10
6.3068238
20
44.3394
11
5.4448233
21
44.3394
0
LINE
8
DEFAULT_255_1_388
10
5.4448233
20
44.3394
11
5.4448233
21
44.4595741
0
LINE
8
DEFAULT_255_1_388
10
5.4448233
20
44.4595741
11
5.9002198
21
44.9655702
0
LINE
8
DEFAULT_255_1_388
10
5.586683
20
45.2673607
11
5.4195235
21
45.2673607
0
LINE
8
DEFAULT_255_1_388
10
5.9987083
20
44.858046
11
5.6463182
21
44.4758382
0
LINE
8
DEFAULT_255_1_388
10
5.6463182
20
44.4758382
11
6.3068238
21
44.4758382
0
ARC
8
DEFAULT_255_1_388
10
4.3826258
20
46.3075983
40
2.0258655
50
318.5132526
51
320.7829045
0
ARC
8
DEFAULT_255_1_388
10
4.9774215
20
45.8234929
40
1.2589638
50
320.7372878
51
323.9739031
0
ARC
8
DEFAULT_255_1_388
10
5.4183146
20
45.5040554
40
0.7145141
50
323.8962701
51
328.64194
0
ARC
8
DEFAULT_255_1_388
10
5.6485404
20
45.3620545
40
0.4440242
50
328.8294576
51
331.7891185
0
ARC
8
DEFAULT_255_1_388
10
5.7607724
20
45.3041374
40
0.3177517
50
331.4254512
51
352.9365785
0
ARC
8
DEFAULT_255_1_388
10
5.7760724
20
45.300705
40
0.3021496
50
353.2257659
51
0.0166158
0
ARC
8
DEFAULT_255_1_388
10
5.7997485
20
45.3032894
40
0.2784847
50
359.486299
51
15.9343185
0
ARC
8
DEFAULT_255_1_388
10
5.8567751
20
45.3186269
40
0.2194403
50
16.1712913
51
43.5286088
0
ARC
8
DEFAULT_255_1_388
10
5.8654696
20
45.3273191
40
0.2071504
50
43.4417391
51
83.1661095
0
ARC
8
DEFAULT_255_1_388
10
5.8503857
20
45.2444316
40
0.2912888
50
82.160179
51
90.1505708
0
ARC
8
DEFAULT_255_1_388
10
5.8468339
20
45.1840279
40
0.3517025
50
89.5460741
51
102.5418361
0
ARC
8
DEFAULT_255_1_388
10
5.8195059
20
45.2999933
40
0.2325748
50
102.1738499
51
129.206123
0
ARC
8
DEFAULT_255_1_388
10
5.8106512
20
45.3139664
40
0.2161591
50
129.72865
51
135.753947
0
ARC
8
DEFAULT_255_1_388
10
5.8242994
20
45.3030728
40
0.2335433
50
136.1757367
51
166.3673339
0
ARC
8
DEFAULT_255_1_388
10
5.9375683
20
45.2727148
40
0.3507873
50
165.9090694
51
178.8684636
0
ARC
8
DEFAULT_255_1_388
10
6.0351454
20
45.2674263
40
0.4484624
50
178.4391136
51
180.0083808
0
ARC
8
DEFAULT_255_1_388
10
5.8772156
20
45.2718197
40
0.4577138
50
163.2878482
51
180.5581842
0
ARC
8
DEFAULT_255_1_388
10
5.7870197
20
45.2966393
40
0.3641968
50
133.4540601
51
162.947111
0
ARC
8
DEFAULT_255_1_388
10
5.8071079
20
45.2752789
40
0.3935189
50
100.7869829
51
133.4382499
0
ARC
8
DEFAULT_255_1_388
10
5.8462324
20
45.1010399
40
0.5720313
50
89.660664
51
101.3702276
0
ARC
8
DEFAULT_255_1_388
10
5.8536933
20
45.1079263
40
0.5651495
50
78.2172678
51
90.412935
0
ARC
8
DEFAULT_255_1_388
10
5.8936398
20
45.2906511
40
0.378122
50
55.9269121
51
78.4888449
0
ARC
8
DEFAULT_255_1_388
10
5.9157113
20
45.3287187
40
0.3342379
50
47.929771
51
55.4049217
0
ARC
8
DEFAULT_255_1_388
10
5.9271644
20
45.3403618
40
0.3179217
50
4.334829
51
48.0560205
0
ARC
8
DEFAULT_255_1_388
10
5.8039445
20
45.3212487
40
0.442341
50
359.9251713
51
5.5971671
0
ARC
8
DEFAULT_255_1_388
10
5.85216
20
45.3275728
40
0.3941854
50
337.8914027
51
358.9967534
0
ARC
8
DEFAULT_255_1_388
10
5.546917
20
45.4453295
40
0.7213271
50
326.9132501
51
338.3508308
0
ARC
8
DEFAULT_255_1_388
10
5.0985282
20
45.7327105
40
1.2538973
50
319.6471833
51
327.0959558
0
ARC
8
DEFAULT_255_1_388
10
4.667194
20
46.088505
40
1.8129975
50
317.2588228
51
319.9045804
0
LINE
8
DEFAULT_255_1_388
10
6.9799793
20
45.4290987
11
6.9799793
21
45.0450838
0
LINE
8
DEFAULT_255_1_388
10
6.9799793
20
45.0450838
11
7.3468265
21
45.0450838
0
LINE
8
DEFAULT_255_1_388
10
7.3468265
20
45.0450838
11
7.3468265
21
44.8869601
0
LINE
8
DEFAULT_255_1_388
10
7.3468265
20
44.8869601
11
6.9799793
21
44.8869601
0
LINE
8
DEFAULT_255_1_388
10
6.9799793
20
44.8869601
11
6.9799793
21
44.4713204
0
LINE
8
DEFAULT_255_1_388
10
6.9799793
20
44.4713204
11
6.8119164
21
44.4713204
0
LINE
8
DEFAULT_255_1_388
10
6.8119164
20
44.4713204
11
6.8119164
21
44.8869601
0
LINE
8
DEFAULT_255_1_388
10
6.8119164
20
44.8869601
11
6.4450692
21
44.8869601
0
LINE
8
DEFAULT_255_1_388
10
6.4450692
20
44.8869601
11
6.4450692
21
45.0450838
0
LINE
8
DEFAULT_255_1_388
10
6.4450692
20
45.0450838
11
6.8119164
21
45.0450838
0
LINE
8
DEFAULT_255_1_388
10
6.8119164
20
45.0450838
11
6.8119164
21
45.4290987
0
LINE
8
DEFAULT_255_1_388
10
6.8119164
20
45.4290987
11
6.9799793
21
45.4290987
0
LINE
8
DEFAULT_255_1_388
10
4.7472716
20
52.2769
11
4.5719801
21
52.2769
0
LINE
8
DEFAULT_255_1_388
10
4.3831351
20
52.8696383
11
4.5457767
21
52.8696383
0
LINE
8
DEFAULT_255_1_388
10
4.5457767
20
52.8696383
11
4.5457767
21
52.9464413
0
LINE
8
DEFAULT_255_1_388
10
4.1283299
20
52.9834874
11
3.9602669
21
52.9834874
0
LINE
8
DEFAULT_255_1_388
10
4.7129361
20
52.9554769
11
4.7129361
21
52.5055018
0
LINE
8
DEFAULT_255_1_388
10
4.7472716
20
52.291357
11
4.7472716
21
52.2769
0
LINE
8
DEFAULT_255_1_388
10
4.5457767
20
52.55068
11
4.5457767
21
52.7512713
0
LINE
8
DEFAULT_255_1_388
10
4.5457767
20
52.7512713
11
4.4147599
21
52.7512713
0
ARC
8
DEFAULT_255_1_388
10
4.688895
20
52.33361
40
0.1299428
50
197.0784902
51
205.8758668
0
ARC
8
DEFAULT_255_1_388
10
4.8283536
20
52.3777959
40
0.2762313
50
192.2927663
51
197.3441989
0
ARC
8
DEFAULT_255_1_388
10
5.0479042
20
52.426576
40
0.5011345
50
189.1573793
51
192.3977084
0
ARC
8
DEFAULT_255_1_388
10
5.3643888
20
52.4781878
40
0.8217995
50
186.8686098
51
189.1982636
0
ARC
8
DEFAULT_255_1_388
10
4.2588979
20
52.652226
40
0.3975173
50
294.0079259
51
316.7603918
0
ARC
8
DEFAULT_255_1_388
10
4.2734162
20
52.6317902
40
0.3729755
50
269.5043226
51
293.2478373
0
ARC
8
DEFAULT_255_1_388
10
4.2667214
20
52.6768915
40
0.4180772
50
255.4034155
51
270.4753052
0
ARC
8
DEFAULT_255_1_388
10
4.2408427
20
52.5764652
40
0.3143705
50
228.6141063
51
255.3550831
0
ARC
8
DEFAULT_255_1_388
10
4.2034409
20
52.540654
40
0.2628114
50
181.8954381
51
229.5703134
0
ARC
8
DEFAULT_255_1_388
10
4.2699345
20
52.5478824
40
0.329546
50
179.9848815
51
182.7691528
0
ARC
8
DEFAULT_255_1_388
10
4.2606411
20
52.5517827
40
0.3202753
50
161.0342928
51
180.6822077
0
ARC
8
DEFAULT_255_1_388
10
4.2112026
20
52.5646422
40
0.2693695
50
125.0525065
51
160.2034058
0
ARC
8
DEFAULT_255_1_388
10
4.2856748
20
52.4630275
40
0.3953338
50
106.2670809
51
125.4300189
0
ARC
8
DEFAULT_255_1_388
10
4.3500789
20
52.2525795
40
0.6154041
50
95.4857579
51
106.5348562
0
ARC
8
DEFAULT_255_1_388
10
4.3808077
20
51.9713993
40
0.8982419
50
89.8515405
51
95.7222579
0
ARC
8
DEFAULT_255_1_388
10
4.3088658
20
52.9484925
40
0.2369198
50
359.5039339
51
14.3181205
0
ARC
8
DEFAULT_255_1_388
10
4.3734662
20
52.9652862
40
0.170173
50
14.2184556
51
45.2028524
0
ARC
8
DEFAULT_255_1_388
10
4.3775358
20
52.9668862
40
0.1661795
50
45.8098216
51
73.0032926
0
ARC
8
DEFAULT_255_1_388
10
4.3495185
20
52.881226
40
0.2562942
50
72.6112517
51
85.7231489
0
ARC
8
DEFAULT_255_1_388
10
4.3393969
20
52.7785339
40
0.3594635
50
85.335019
51
90.0855069
0
ARC
8
DEFAULT_255_1_388
10
4.3367402
20
52.8449472
40
0.2930574
50
89.5854741
51
103.459124
0
ARC
8
DEFAULT_255_1_388
10
4.3195941
20
52.9164134
40
0.2195632
50
103.448332
51
126.5403399
0
ARC
8
DEFAULT_255_1_388
10
4.2926918
20
52.9508224
40
0.1759039
50
126.1730306
51
141.5008224
0
ARC
8
DEFAULT_255_1_388
10
4.2501233
20
52.9842266
40
0.1217955
50
141.3332087
51
180.3477313
0
ARC
8
DEFAULT_255_1_388
10
4.1742656
20
52.9822904
40
0.214002
50
151.6373605
51
179.6795088
0
ARC
8
DEFAULT_255_1_388
10
4.2419892
20
52.9485768
40
0.2896224
50
142.4981529
51
152.1330509
0
ARC
8
DEFAULT_255_1_388
10
4.2777896
20
52.9204781
40
0.3351307
50
120.8284906
51
142.4132156
0
ARC
8
DEFAULT_255_1_388
10
4.3245872
20
52.8472185
40
0.4220297
50
113.9634885
51
121.1871733
0
ARC
8
DEFAULT_255_1_388
10
4.3399181
20
52.8098705
40
0.4623867
50
93.3784336
51
113.8197902
0
ARC
8
DEFAULT_255_1_388
10
4.3485563
20
52.7237549
40
0.5488732
50
89.9745993
51
93.7488475
0
ARC
8
DEFAULT_255_1_388
10
4.3524809
20
52.7278587
40
0.5447818
50
79.1327128
51
90.3871707
0
ARC
8
DEFAULT_255_1_388
10
4.3890573
20
52.9106597
40
0.3583662
50
60.1434453
51
79.365517
0
ARC
8
DEFAULT_255_1_388
10
4.4179339
20
52.9661195
40
0.2959028
50
48.6191018
51
59.6466565
0
ARC
8
DEFAULT_255_1_388
10
4.4233051
20
52.9732356
40
0.2870136
50
9.0349502
51
48.4845487
0
ARC
8
DEFAULT_255_1_388
10
4.302235
20
52.9468084
40
0.4107927
50
1.2091359
51
10.0234369
0
ARC
8
DEFAULT_255_1_388
10
5.5719798
20
52.5027422
40
0.8590481
50
179.8159449
51
185.3205667
0
ARC
8
DEFAULT_255_1_388
10
5.2687643
20
52.4737945
40
0.5544553
50
185.2475628
51
192.7952551
0
ARC
8
DEFAULT_255_1_388
10
5.0705467
20
52.4283024
40
0.3510853
50
192.7195981
51
202.9584216
0
ARC
8
DEFAULT_255_1_388
10
4.2945503
20
52.6980895
40
0.2937869
50
270.006916
51
300.503478
0
ARC
8
DEFAULT_255_1_388
10
4.3083438
20
52.6836888
40
0.2744162
50
299.5482616
51
315.609538
0
ARC
8
DEFAULT_255_1_388
10
4.3409734
20
52.6503072
40
0.2277499
50
315.8682065
51
334.0592465
0
ARC
8
DEFAULT_255_1_388
10
4.4098708
20
51.96669
40
0.7845965
50
89.64297
51
97.2867877
0
ARC
8
DEFAULT_255_1_388
10
4.3602305
20
52.3383936
40
0.4096042
50
96.9938706
51
109.7783917
0
ARC
8
DEFAULT_255_1_388
10
4.2853768
20
52.5387851
40
0.1957225
50
109.0087985
51
135.3265591
0
ARC
8
DEFAULT_255_1_388
10
4.2546187
20
52.5768764
40
0.1471704
50
137.4537784
51
182.1083946
0
ARC
8
DEFAULT_255_1_388
10
4.2966887
20
52.5696101
40
0.1891498
50
179.4390335
51
195.7201623
0
ARC
8
DEFAULT_255_1_388
10
4.2503922
20
52.5569585
40
0.1411576
50
195.8683556
51
230.157074
0
ARC
8
DEFAULT_255_1_388
10
4.2776645
20
52.5896228
40
0.1837102
50
230.1532486
51
259.7486257
0
ARC
8
DEFAULT_255_1_388
10
4.2932687
20
52.6631472
40
0.258848
50
259.2461118
51
270.2915316
0
ARC
8
DEFAULT_255_1_388
10
5.0989855
20
52.3656142
40
0.1204062
50
163.5412609
51
180.5084512
0
ARC
8
DEFAULT_255_1_388
10
5.0773754
20
52.371446
40
0.0980307
50
138.1652
51
163.2315563
0
ARC
8
DEFAULT_255_1_388
10
5.0647495
20
52.3821456
40
0.0814881
50
105.6860499
51
137.8492655
0
ARC
8
DEFAULT_255_1_388
10
5.0780696
20
52.3389109
40
0.126719
50
92.6078949
51
106.199173
0
ARC
8
DEFAULT_255_1_388
10
5.0814886
20
52.2943207
40
0.1714243
50
89.9659531
51
93.0713334
0
ARC
8
DEFAULT_255_1_388
10
5.0826922
20
52.3193484
40
0.1464007
50
78.4379126
51
90.4311892
0
ARC
8
DEFAULT_255_1_388
10
5.0935569
20
52.3700017
40
0.094599
50
56.8961942
51
78.7357785
0
ARC
8
DEFAULT_255_1_388
10
5.1006679
20
52.3824075
40
0.0803272
50
42.6503148
51
56.3122241
0
ARC
8
DEFAULT_255_1_388
10
5.0862581
20
52.3691661
40
0.099897
50
3.8141057
51
42.636595
0
ARC
8
DEFAULT_255_1_388
10
5.0539903
20
52.3646616
40
0.1324137
50
359.9498843
51
4.8301897
0
ARC
8
DEFAULT_255_1_388
10
5.079504
20
52.3634722
40
0.1069053
50
340.9378148
51
0.5753733
0
ARC
8
DEFAULT_255_1_388
10
5.0921623
20
52.3600569
40
0.0938301
50
316.0798885
51
340.3845117
0
ARC
8
DEFAULT_255_1_388
10
5.0986934
20
52.354052
40
0.0849605
50
285.8512844
51
315.941661
0
ARC
8
DEFAULT_255_1_388
10
5.0854814
20
52.396762
40
0.1296594
50
273.1293204
51
286.3125006
0
ARC
8
DEFAULT_255_1_388
10
5.0817324
20
52.4419586
40
0.1749979
50
269.9535313
51
273.5471598
0
ARC
8
DEFAULT_255_1_388
10
5.0804929
20
52.4173833
40
0.1504266
50
259.0487117
51
270.4180248
0
ARC
8
DEFAULT_255_1_388
10
5.0696542
20
52.3636783
40
0.0956414
50
239.7583641
51
259.3115656
0
ARC
8
DEFAULT_255_1_388
10
5.0605475
20
52.3467048
40
0.0763945
50
222.6243303
51
239.2473835
0
ARC
8
DEFAULT_255_1_388
10
5.0756646
20
52.3605572
40
0.0968985
50
182.9231258
51
222.598101
0
ARC
8
DEFAULT_255_1_388
10
5.1059845
20
52.3644696
40
0.1274004
50
179.9657458
51
183.9850364
0
LINE
8
DEFAULT_255_1_388
10
5.9941905
20
53.5988148
11
5.9941905
21
52.2769
0
LINE
8
DEFAULT_255_1_388
10
5.9941905
20
52.2769
11
5.8261275
21
52.2769
0
LINE
8
DEFAULT_255_1_388
10
5.8261275
20
52.2769
11
5.8261275
21
53.390995
0
LINE
8
DEFAULT_255_1_388
10
5.8261275
20
53.390995
11
5.489098
21
53.2672066
0
LINE
8
DEFAULT_255_1_388
10
5.489098
20
53.2672066
11
5.489098
21
53.4190055
0
LINE
8
DEFAULT_255_1_388
10
5.489098
20
53.4190055
11
5.9679872
21
53.5988148
0
LINE
8
DEFAULT_255_1_388
10
5.9679872
20
53.5988148
11
5.9941905
21
53.5988148
0
LINE
8
DEFAULT_255_1_388
10
6.9799793
20
53.3665987
11
6.9799793
21
52.9825838
0
LINE
8
DEFAULT_255_1_388
10
6.9799793
20
52.9825838
11
7.3468265
21
52.9825838
0
LINE
8
DEFAULT_255_1_388
10
7.3468265
20
52.9825838
11
7.3468265
21
52.8244601
0
LINE
8
DEFAULT_255_1_388
10
7.3468265
20
52.8244601
11
6.9799793
21
52.8244601
0
LINE
8
DEFAULT_255_1_388
10
6.9799793
20
52.8244601
11
6.9799793
21
52.4088204
0
LINE
8
DEFAULT_255_1_388
10
6.9799793
20
52.4088204
11
6.8119164
21
52.4088204
0
LINE
8
DEFAULT_255_1_388
10
6.8119164
20
52.4088204
11
6.8119164
21
52.8244601
0
LINE
8
DEFAULT_255_1_388
10
6.8119164
20
52.8244601
11
6.4450692
21
52.8244601
0
LINE
8
DEFAULT_255_1_388
10
6.4450692
20
52.8244601
11
6.4450692
21
52.9825838
0
LINE
8
DEFAULT_255_1_388
10
6.4450692
20
52.9825838
11
6.8119164
21
52.9825838
0
LINE
8
DEFAULT_255_1_388
10
6.8119164
20
52.9825838
11
6.8119164
21
53.3665987
0
LINE
8
DEFAULT_255_1_388
10
6.8119164
20
53.3665987
11
6.9799793
21
53.3665987
0
LINE
8
DEFAULT_255_1_388
10
4.7472716
20
60.2144
11
4.5719801
21
60.2144
0
LINE
8
DEFAULT_255_1_388
10
4.3831351
20
60.8071383
11
4.5457767
21
60.8071383
0
LINE
8
DEFAULT_255_1_388
10
4.5457767
20
60.8071383
11
4.5457767
21
60.8839413
0
LINE
8
DEFAULT_255_1_388
10
4.1283299
20
60.9209874
11
3.9602669
21
60.9209874
0
LINE
8
DEFAULT_255_1_388
10
4.7129361
20
60.8929769
11
4.7129361
21
60.4430018
0
LINE
8
DEFAULT_255_1_388
10
4.7472716
20
60.228857
11
4.7472716
21
60.2144
0
LINE
8
DEFAULT_255_1_388
10
4.5457767
20
60.48818
11
4.5457767
21
60.6887713
0
LINE
8
DEFAULT_255_1_388
10
4.5457767
20
60.6887713
11
4.4147599
21
60.6887713
0
ARC
8
DEFAULT_255_1_388
10
4.688895
20
60.27111
40
0.1299428
50
197.0784902
51
205.8758668
0
ARC
8
DEFAULT_255_1_388
10
4.8283536
20
60.3152959
40
0.2762313
50
192.2927663
51
197.3441989
0
ARC
8
DEFAULT_255_1_388
10
5.0479042
20
60.364076
40
0.5011345
50
189.1573793
51
192.3977084
0
ARC
8
DEFAULT_255_1_388
10
5.3643888
20
60.4156878
40
0.8217995
50
186.8686098
51
189.1982636
0
ARC
8
DEFAULT_255_1_388
10
4.2588979
20
60.589726
40
0.3975173
50
294.0079259
51
316.7603918
0
ARC
8
DEFAULT_255_1_388
10
4.2734162
20
60.5692902
40
0.3729755
50
269.5043226
51
293.2478373
0
ARC
8
DEFAULT_255_1_388
10
4.2667214
20
60.6143915
40
0.4180772
50
255.4034155
51
270.4753052
0
ARC
8
DEFAULT_255_1_388
10
4.2408427
20
60.5139652
40
0.3143705
50
228.6141063
51
255.3550831
0
ARC
8
DEFAULT_255_1_388
10
4.2034409
20
60.478154
40
0.2628114
50
181.8954381
51
229.5703134
0
ARC
8
DEFAULT_255_1_388
10
4.2699345
20
60.4853824
40
0.329546
50
179.9848815
51
182.7691528
0
ARC
8
DEFAULT_255_1_388
10
4.2606411
20
60.4892827
40
0.3202753
50
161.0342928
51
180.6822077
0
ARC
8
DEFAULT_255_1_388
10
4.2112026
20
60.5021422
40
0.2693695
50
125.0525065
51
160.2034058
0
ARC
8
DEFAULT_255_1_388
10
4.2856748
20
60.4005275
40
0.3953338
50
106.2670809
51
125.4300189
0
ARC
8
DEFAULT_255_1_388
10
4.3500789
20
60.1900795
40
0.6154041
50
95.4857579
51
106.5348562
0
ARC
8
DEFAULT_255_1_388
10
4.3808077
20
59.9088993
40
0.8982419
50
89.8515405
51
95.7222579
0
ARC
8
DEFAULT_255_1_388
10
4.3088658
20
60.8859925
40
0.2369198
50
359.5039339
51
14.3181205
0
ARC
8
DEFAULT_255_1_388
10
4.3734662
20
60.9027862
40
0.170173
50
14.2184556
51
45.2028524
0
ARC
8
DEFAULT_255_1_388
10
4.3775358
20
60.9043862
40
0.1661795
50
45.8098216
51
73.0032926
0
ARC
8
DEFAULT_255_1_388
10
4.3495185
20
60.818726
40
0.2562942
50
72.6112517
51
85.7231489
0
ARC
8
DEFAULT_255_1_388
10
4.3393969
20
60.7160339
40
0.3594635
50
85.335019
51
90.0855069
0
ARC
8
DEFAULT_255_1_388
10
4.3367402
20
60.7824472
40
0.2930574
50
89.5854741
51
103.459124
0
ARC
8
DEFAULT_255_1_388
10
4.3195941
20
60.8539134
40
0.2195632
50
103.448332
51
126.5403399
0
ARC
8
DEFAULT_255_1_388
10
4.2926918
20
60.8883224
40
0.1759039
50
126.1730306
51
141.5008224
0
ARC
8
DEFAULT_255_1_388
10
4.2501233
20
60.9217266
40
0.1217955
50
141.3332087
51
180.3477313
0
ARC
8
DEFAULT_255_1_388
10
4.1742656
20
60.9197904
40
0.214002
50
151.6373605
51
179.6795088
0
ARC
8
DEFAULT_255_1_388
10
4.2419892
20
60.8860768
40
0.2896224
50
142.4981529
51
152.1330509
0
ARC
8
DEFAULT_255_1_388
10
4.2777896
20
60.8579781
40
0.3351307
50
120.8284906
51
142.4132156
0
ARC
8
DEFAULT_255_1_388
10
4.3245872
20
60.7847185
40
0.4220297
50
113.9634885
51
121.1871733
0
ARC
8
DEFAULT_255_1_388
10
4.3399181
20
60.7473705
40
0.4623867
50
93.3784336
51
113.8197902
0
ARC
8
DEFAULT_255_1_388
10
4.3485563
20
60.6612549
40
0.5488732
50
89.9745993
51
93.7488475
0
ARC
8
DEFAULT_255_1_388
10
4.3524809
20
60.6653587
40
0.5447818
50
79.1327128
51
90.3871707
0
ARC
8
DEFAULT_255_1_388
10
4.3890573
20
60.8481597
40
0.3583662
50
60.1434453
51
79.365517
0
ARC
8
DEFAULT_255_1_388
10
4.4179339
20
60.9036195
40
0.2959028
50
48.6191018
51
59.6466565
0
ARC
8
DEFAULT_255_1_388
10
4.4233051
20
60.9107356
40
0.2870136
50
9.0349502
51
48.4845487
0
ARC
8
DEFAULT_255_1_388
10
4.302235
20
60.8843084
40
0.4107927
50
1.2091359
51
10.0234369
0
ARC
8
DEFAULT_255_1_388
10
5.5719798
20
60.4402422
40
0.8590481
50
179.8159449
51
185.3205667
0
ARC
8
DEFAULT_255_1_388
10
5.2687643
20
60.4112945
40
0.5544553
50
185.2475628
51
192.7952551
0
ARC
8
DEFAULT_255_1_388
10
5.0705467
20
60.3658024
40
0.3510853
50
192.7195981
51
202.9584216
0
ARC
8
DEFAULT_255_1_388
10
4.2945503
20
60.6355895
40
0.2937869
50
270.006916
51
300.503478
0
ARC
8
DEFAULT_255_1_388
10
4.3083438
20
60.6211888
40
0.2744162
50
299.5482616
51
315.609538
0
ARC
8
DEFAULT_255_1_388
10
4.3409734
20
60.5878072
40
0.2277499
50
315.8682065
51
334.0592465
0
ARC
8
DEFAULT_255_1_388
10
4.4098708
20
59.90419
40
0.7845965
50
89.64297
51
97.2867877
0
ARC
8
DEFAULT_255_1_388
10
4.3602305
20
60.2758936
40
0.4096042
50
96.9938706
51
109.7783917
0
ARC
8
DEFAULT_255_1_388
10
4.2853768
20
60.4762851
40
0.1957225
50
109.0087985
51
135.3265591
0
ARC
8
DEFAULT_255_1_388
10
4.2546187
20
60.5143764
40
0.1471704
50
137.4537784
51
182.1083946
0
ARC
8
DEFAULT_255_1_388
10
4.2966887
20
60.5071101
40
0.1891498
50
179.4390335
51
195.7201623
0
ARC
8
DEFAULT_255_1_388
10
4.2503922
20
60.4944585
40
0.1411576
50
195.8683556
51
230.157074
0
ARC
8
DEFAULT_255_1_388
10
4.2776645
20
60.5271228
40
0.1837102
50
230.1532486
51
259.7486257
0
ARC
8
DEFAULT_255_1_388
10
4.2932687
20
60.6006472
40
0.258848
50
259.2461118
51
270.2915316
0
ARC
8
DEFAULT_255_1_388
10
5.0989855
20
60.3031142
40
0.1204062
50
163.5412609
51
180.5084512
0
ARC
8
DEFAULT_255_1_388
10
5.0773754
20
60.308946
40
0.0980307
50
138.1652
51
163.2315563
0
ARC
8
DEFAULT_255_1_388
10
5.0647495
20
60.3196456
40
0.0814881
50
105.6860499
51
137.8492655
0
ARC
8
DEFAULT_255_1_388
10
5.0780696
20
60.2764109
40
0.126719
50
92.6078949
51
106.199173
0
ARC
8
DEFAULT_255_1_388
10
5.0814886
20
60.2318207
40
0.1714243
50
89.9659531
51
93.0713334
0
ARC
8
DEFAULT_255_1_388
10
5.0826922
20
60.2568484
40
0.1464007
50
78.4379126
51
90.4311892
0
ARC
8
DEFAULT_255_1_388
10
5.0935569
20
60.3075017
40
0.094599
50
56.8961942
51
78.7357785
0
ARC
8
DEFAULT_255_1_388
10
5.1006679
20
60.3199075
40
0.0803272
50
42.6503148
51
56.3122241
0
ARC
8
DEFAULT_255_1_388
10
5.0862581
20
60.3066661
40
0.099897
50
3.8141057
51
42.636595
0
ARC
8
DEFAULT_255_1_388
10
5.0539903
20
60.3021616
40
0.1324137
50
359.9498843
51
4.8301897
0
ARC
8
DEFAULT_255_1_388
10
5.079504
20
60.3009722
40
0.1069053
50
340.9378148
51
0.5753733
0
ARC
8
DEFAULT_255_1_388
10
5.0921623
20
60.2975569
40
0.0938301
50
316.0798885
51
340.3845117
0
ARC
8
DEFAULT_255_1_388
10
5.0986934
20
60.291552
40
0.0849605
50
285.8512844
51
315.941661
0
ARC
8
DEFAULT_255_1_388
10
5.0854814
20
60.334262
40
0.1296594
50
273.1293204
51
286.3125006
0
ARC
8
DEFAULT_255_1_388
10
5.0817324
20
60.3794586
40
0.1749979
50
269.9535313
51
273.5471598
0
ARC
8
DEFAULT_255_1_388
10
5.0804929
20
60.3548833
40
0.1504266
50
259.0487117
51
270.4180248
0
ARC
8
DEFAULT_255_1_388
10
5.0696542
20
60.3011783
40
0.0956414
50
239.7583641
51
259.3115656
0
ARC
8
DEFAULT_255_1_388
10
5.0605475
20
60.2842048
40
0.0763945
50
222.6243303
51
239.2473835
0
ARC
8
DEFAULT_255_1_388
10
5.0756646
20
60.2980572
40
0.0968985
50
182.9231258
51
222.598101
0
ARC
8
DEFAULT_255_1_388
10
5.1059845
20
60.3019696
40
0.1274004
50
179.9657458
51
183.9850364
0
LINE
8
DEFAULT_255_1_388
10
6.2697777
20
60.992369
11
6.2697777
21
60.7755135
0
LINE
8
DEFAULT_255_1_388
10
5.439402
20
60.7529244
11
5.439402
21
60.9761048
0
LINE
8
DEFAULT_255_1_388
10
6.1026183
20
60.7303353
11
6.1026183
21
61.0041153
0
LINE
8
DEFAULT_255_1_388
10
5.6065614
20
61.0167652
11
5.6065614
21
60.7493102
0
ARC
8
DEFAULT_255_1_388
10
4.8920111
20
60.7700118
40
1.3777776
50
353.8440855
51
0.2287917
0
ARC
8
DEFAULT_255_1_388
10
5.4139128
20
60.7117414
40
0.852639
50
344.4934746
51
353.9763743
0
ARC
8
DEFAULT_255_1_388
10
5.7505935
20
60.6160191
40
0.5026273
50
329.2803599
51
344.7473406
0
ARC
8
DEFAULT_255_1_388
10
5.8621431
20
60.5548038
40
0.3754848
50
324.9361395
51
328.6153007
0
ARC
8
DEFAULT_255_1_388
10
5.9047081
20
60.5250586
40
0.3235566
50
280.5801797
51
324.9173226
0
ARC
8
DEFAULT_255_1_388
10
5.859571
20
60.7130236
40
0.5167077
50
269.5979457
51
281.6732777
0
ARC
8
DEFAULT_255_1_388
10
5.8514613
20
60.6995113
40
0.5032026
50
256.6228565
51
270.5105488
0
ARC
8
DEFAULT_255_1_388
10
5.8062356
20
60.5253345
40
0.3233092
50
215.8618351
51
257.2787793
0
ARC
8
DEFAULT_255_1_388
10
5.9211063
20
60.6024106
40
0.4615831
50
197.9695203
51
215.2622745
0
ARC
8
DEFAULT_255_1_388
10
6.2006739
20
60.6967641
40
0.7566307
50
187.8816486
51
198.2346584
0
ARC
8
DEFAULT_255_1_388
10
6.6459977
20
60.7610453
40
1.2065653
50
180.8977266
51
188.0054894
0
ARC
8
DEFAULT_255_1_388
10
6.951019
20
60.77254
40
1.5117443
50
180.7434591
51
181.152202
0
ARC
8
DEFAULT_255_1_388
10
6.7835186
20
60.9815371
40
1.3441277
50
173.7674302
51
180.2315596
0
ARC
8
DEFAULT_255_1_388
10
6.2753055
20
61.0389779
40
0.8326847
50
164.3058537
51
173.9000553
0
ARC
8
DEFAULT_255_1_388
10
5.9477055
20
61.1333652
40
0.4917711
50
148.7922028
51
164.5682288
0
ARC
8
DEFAULT_255_1_388
10
5.8407793
20
61.1930457
40
0.3694204
50
144.5883979
51
148.1161588
0
ARC
8
DEFAULT_255_1_388
10
5.8020538
20
61.2200667
40
0.322202
50
101.6440149
51
144.5142619
0
ARC
8
DEFAULT_255_1_388
10
5.849873
20
61.0300337
40
0.5180451
50
89.528284
51
102.5820197
0
ARC
8
DEFAULT_255_1_388
10
5.8587722
20
61.0256376
40
0.5224441
50
77.0437914
51
90.508231
0
ARC
8
DEFAULT_255_1_388
10
5.9039976
20
61.2104272
40
0.3322297
50
48.2777708
51
77.4996087
0
ARC
8
DEFAULT_255_1_388
10
5.9121716
20
61.2249557
40
0.315966
50
36.3141586
51
47.6307332
0
ARC
8
DEFAULT_255_1_388
10
5.8144438
20
61.1591159
40
0.4337313
50
18.2931065
51
35.6770203
0
ARC
8
DEFAULT_255_1_388
10
5.5283279
20
61.0609107
40
0.7362203
50
8.0246996
51
18.5605636
0
ARC
8
DEFAULT_255_1_388
10
5.0599634
20
60.9917432
40
1.2096583
50
1.127539
51
8.1718423
0
ARC
8
DEFAULT_255_1_388
10
4.6950768
20
60.9774374
40
1.5747719
50
0.5432713
51
1.38669
0
ARC
8
DEFAULT_255_1_388
10
4.9008146
20
61.0081163
40
1.2018103
50
359.8092569
51
4.9408001
0
ARC
8
DEFAULT_255_1_388
10
5.3744728
20
61.05039
40
0.7262727
50
4.8364937
51
12.2906017
0
ARC
8
DEFAULT_255_1_388
10
5.6844193
20
61.1194485
40
0.4087324
50
12.0806994
51
23.8171225
0
ARC
8
DEFAULT_255_1_388
10
5.8164589
20
61.1753508
40
0.2653719
50
24.2874621
51
31.3934353
0
ARC
8
DEFAULT_255_1_388
10
5.8755024
20
61.2139822
40
0.1948607
50
30.7407708
51
82.4658033
0
ARC
8
DEFAULT_255_1_388
10
5.8552685
20
61.1146017
40
0.2961198
50
81.1057101
51
90.2187368
0
ARC
8
DEFAULT_255_1_388
10
5.8512497
20
61.1436421
40
0.2670929
50
89.380395
51
105.6763916
0
ARC
8
DEFAULT_255_1_388
10
5.8306219
20
61.218632
40
0.1893189
50
105.7980655
51
149.7387869
0
ARC
8
DEFAULT_255_1_388
10
5.9503359
20
61.1466719
40
0.3289892
50
149.4208441
51
163.628295
0
ARC
8
DEFAULT_255_1_388
10
6.1855589
20
61.0749345
40
0.5749004
50
163.3764549
51
172.141138
0
ARC
8
DEFAULT_255_1_388
10
6.556831
20
61.0217582
40
0.9499585
50
172.0258462
51
178.0705453
0
ARC
8
DEFAULT_255_1_388
10
6.8989863
20
61.0055682
40
1.2924734
50
177.8639301
51
179.5036263
0
ARC
8
DEFAULT_255_1_388
10
6.7770882
20
60.7452151
40
1.170534
50
179.7995545
51
185.246089
0
ARC
8
DEFAULT_255_1_388
10
6.3222475
20
60.7021404
40
0.7136613
50
185.1411911
51
193.0082205
0
ARC
8
DEFAULT_255_1_388
10
6.0248736
20
60.6318441
40
0.4080987
50
192.7897338
51
205.2507384
0
ARC
8
DEFAULT_255_1_388
10
5.9070945
20
60.5792538
40
0.2791522
50
205.8001921
51
211.2545876
0
ARC
8
DEFAULT_255_1_388
10
5.8482485
20
60.5398132
40
0.2084074
50
210.3789935
51
238.4007996
0
ARC
8
DEFAULT_255_1_388
10
5.8460571
20
60.5450786
40
0.2117943
50
239.6521916
51
265.9793852
0
ARC
8
DEFAULT_255_1_388
10
5.855642
20
60.6207358
40
0.2879689
50
265.1324455
51
270.0603288
0
ARC
8
DEFAULT_255_1_388
10
5.8588797
20
60.5842418
40
0.2514919
50
269.3314378
51
287.2180039
0
ARC
8
DEFAULT_255_1_388
10
5.8743879
20
60.5276291
40
0.1928357
50
287.7957942
51
329.0808983
0
ARC
8
DEFAULT_255_1_388
10
5.7666636
20
60.5948651
40
0.319808
50
328.6635261
51
343.3325043
0
ARC
8
DEFAULT_255_1_388
10
5.5222095
20
60.6710195
40
0.5758408
50
343.0498092
51
351.9392499
0
ARC
8
DEFAULT_255_1_388
10
5.1321416
20
60.7285205
40
0.9701202
50
351.8071632
51
357.7957897
0
ARC
8
DEFAULT_255_1_388
10
4.7686893
20
60.7473724
40
1.3340376
50
357.5870923
51
359.2682493
0
LINE
8
DEFAULT_255_1_388
10
6.9799793
20
61.3040987
11
6.9799793
21
60.9200838
0
LINE
8
DEFAULT_255_1_388
10
6.9799793
20
60.9200838
11
7.3468265
21
60.9200838
0
LINE
8
DEFAULT_255_1_388
10
7.3468265
20
60.9200838
11
7.3468265
21
60.7619601
0
LINE
8
DEFAULT_255_1_388
10
7.3468265
20
60.7619601
11
6.9799793
21
60.7619601
0
LINE
8
DEFAULT_255_1_388
10
6.9799793
20
60.7619601
11
6.9799793
21
60.3463204
0
LINE
8
DEFAULT_255_1_388
10
6.9799793
20
60.3463204
11
6.8119164
21
60.3463204
0
LINE
8
DEFAULT_255_1_388
10
6.8119164
20
60.3463204
11
6.8119164
21
60.7619601
0
LINE
8
DEFAULT_255_1_388
10
6.8119164
20
60.7619601
11
6.4450692
21
60.7619601
0
LINE
8
DEFAULT_255_1_388
10
6.4450692
20
60.7619601
11
6.4450692
21
60.9200838
0
LINE
8
DEFAULT_255_1_388
10
6.4450692
20
60.9200838
11
6.8119164
21
60.9200838
0
LINE
8
DEFAULT_255_1_388
10
6.8119164
20
60.9200838
11
6.8119164
21
61.3040987
0
LINE
8
DEFAULT_255_1_388
10
6.8119164
20
61.3040987
11
6.9799793
21
61.3040987
0
LINE
8
DEFAULT_255_1_388
10
4.1680903
20
69.4674898
11
4.1680903
21
68.2937596
0
LINE
8
DEFAULT_255_1_388
10
4.1680903
20
68.2937596
11
4.7915498
21
68.2937596
0
LINE
8
DEFAULT_255_1_388
10
4.7915498
20
68.2937596
11
4.7915498
21
68.1519
0
LINE
8
DEFAULT_255_1_388
10
4.7915498
20
68.1519
11
3.9937024
21
68.1519
0
LINE
8
DEFAULT_255_1_388
10
3.9937024
20
68.1519
11
3.9937024
21
69.4674898
0
LINE
8
DEFAULT_255_1_388
10
3.9937024
20
69.4674898
11
4.1680903
21
69.4674898
0
LINE
8
DEFAULT_255_1_388
10
5.4421162
20
69.2415987
11
5.4421162
21
68.8575838
0
LINE
8
DEFAULT_255_1_388
10
5.4421162
20
68.8575838
11
5.8089634
21
68.8575838
0
LINE
8
DEFAULT_255_1_388
10
5.8089634
20
68.8575838
11
5.8089634
21
68.6994601
0
LINE
8
DEFAULT_255_1_388
10
5.8089634
20
68.6994601
11
5.4421162
21
68.6994601
0
LINE
8
DEFAULT_255_1_388
10
5.4421162
20
68.6994601
11
5.4421162
21
68.2838204
0
LINE
8
DEFAULT_255_1_388
10
5.4421162
20
68.2838204
11
5.2740532
21
68.2838204
0
LINE
8
DEFAULT_255_1_388
10
5.2740532
20
68.2838204
11
5.2740532
21
68.6994601
0
LINE
8
DEFAULT_255_1_388
10
5.2740532
20
68.6994601
11
4.9072061
21
68.6994601
0
LINE
8
DEFAULT_255_1_388
10
4.9072061
20
68.6994601
11
4.9072061
21
68.8575838
0
LINE
8
DEFAULT_255_1_388
10
4.9072061
20
68.8575838
11
5.2740532
21
68.8575838
0
LINE
8
DEFAULT_255_1_388
10
5.2740532
20
68.8575838
11
5.2740532
21
69.2415987
0
LINE
8
DEFAULT_255_1_388
10
5.2740532
20
69.2415987
11
5.4421162
21
69.2415987
0
LINE
8
DEFAULT_255_1_388
10
23.0082024
20
77.4049898
11
23.2322864
21
77.4049898
0
LINE
8
DEFAULT_255_1_388
10
23.2322864
20
77.4049898
11
23.6623831
21
76.3315553
0
LINE
8
DEFAULT_255_1_388
10
23.6623831
20
76.3315553
11
24.0924797
21
77.4049898
0
LINE
8
DEFAULT_255_1_388
10
24.0924797
20
77.4049898
11
24.3174673
21
77.4049898
0
LINE
8
DEFAULT_255_1_388
10
24.3174673
20
77.4049898
11
24.3174673
21
76.0894
0
LINE
8
DEFAULT_255_1_388
10
24.3174673
20
76.0894
11
24.1439829
21
76.0894
0
LINE
8
DEFAULT_255_1_388
10
24.1439829
20
76.0894
11
24.1439829
21
76.601721
0
LINE
8
DEFAULT_255_1_388
10
24.1439829
20
76.601721
11
24.1602471
21
77.1547025
0
LINE
8
DEFAULT_255_1_388
10
24.1602471
20
77.1547025
11
23.7283433
21
76.0894
0
LINE
8
DEFAULT_255_1_388
10
23.7283433
20
76.0894
11
23.5955193
21
76.0894
0
LINE
8
DEFAULT_255_1_388
10
23.5955193
20
76.0894
11
23.164519
21
77.1519918
0
LINE
8
DEFAULT_255_1_388
10
23.164519
20
77.1519918
11
23.1816868
21
76.601721
0
LINE
8
DEFAULT_255_1_388
10
23.1816868
20
76.601721
11
23.1816868
21
76.0894
0
LINE
8
DEFAULT_255_1_388
10
23.1816868
20
76.0894
11
23.0082024
21
76.0894
0
LINE
8
DEFAULT_255_1_388
10
23.0082024
20
76.0894
11
23.0082024
21
77.4049898
0
LINE
8
DEFAULT_255_1_388
10
20.9447716
20
4.6519
11
20.7694801
21
4.6519
0
LINE
8
DEFAULT_255_1_388
10
20.5806351
20
5.2446383
11
20.7432767
21
5.2446383
0
LINE
8
DEFAULT_255_1_388
10
20.7432767
20
5.2446383
11
20.7432767
21
5.3214413
0
LINE
8
DEFAULT_255_1_388
10
20.3258299
20
5.3584874
11
20.1577669
21
5.3584874
0
LINE
8
DEFAULT_255_1_388
10
20.9104361
20
5.3304769
11
20.9104361
21
4.8805018
0
LINE
8
DEFAULT_255_1_388
10
20.9447716
20
4.666357
11
20.9447716
21
4.6519
0
LINE
8
DEFAULT_255_1_388
10
20.7432767
20
4.92568
11
20.7432767
21
5.1262713
0
LINE
8
DEFAULT_255_1_388
10
20.7432767
20
5.1262713
11
20.6122599
21
5.1262713
0
ARC
8
DEFAULT_255_1_388
10
20.886395
20
4.70861
40
0.1299428
50
197.0784902
51
205.8758668
0
ARC
8
DEFAULT_255_1_388
10
21.0258536
20
4.7527959
40
0.2762313
50
192.2927663
51
197.3441989
0
ARC
8
DEFAULT_255_1_388
10
21.2454042
20
4.801576
40
0.5011345
50
189.1573793
51
192.3977084
0
ARC
8
DEFAULT_255_1_388
10
21.5618888
20
4.8531878
40
0.8217995
50
186.8686098
51
189.1982636
0
ARC
8
DEFAULT_255_1_388
10
20.4563979
20
5.027226
40
0.3975173
50
294.0079259
51
316.7603918
0
ARC
8
DEFAULT_255_1_388
10
20.4709162
20
5.0067902
40
0.3729755
50
269.5043226
51
293.2478373
0
ARC
8
DEFAULT_255_1_388
10
20.4642214
20
5.0518915
40
0.4180772
50
255.4034155
51
270.4753052
0
ARC
8
DEFAULT_255_1_388
10
20.4383427
20
4.9514652
40
0.3143705
50
228.6141063
51
255.3550831
0
ARC
8
DEFAULT_255_1_388
10
20.4009409
20
4.915654
40
0.2628114
50
181.8954381
51
229.5703134
0
ARC
8
DEFAULT_255_1_388
10
20.4674345
20
4.9228824
40
0.329546
50
179.9848815
51
182.7691528
0
ARC
8
DEFAULT_255_1_388
10
20.4581411
20
4.9267827
40
0.3202753
50
161.0342928
51
180.6822077
0
ARC
8
DEFAULT_255_1_388
10
20.4087026
20
4.9396422
40
0.2693695
50
125.0525065
51
160.2034058
0
ARC
8
DEFAULT_255_1_388
10
20.4831748
20
4.8380275
40
0.3953338
50
106.2670809
51
125.4300189
0
ARC
8
DEFAULT_255_1_388
10
20.5475789
20
4.6275795
40
0.6154041
50
95.4857579
51
106.5348562
0
ARC
8
DEFAULT_255_1_388
10
20.5783077
20
4.3463993
40
0.8982419
50
89.8515405
51
95.7222579
0
ARC
8
DEFAULT_255_1_388
10
20.5063658
20
5.3234925
40
0.2369198
50
359.5039339
51
14.3181205
0
ARC
8
DEFAULT_255_1_388
10
20.5709662
20
5.3402862
40
0.170173
50
14.2184556
51
45.2028524
0
ARC
8
DEFAULT_255_1_388
10
20.5750358
20
5.3418862
40
0.1661795
50
45.8098216
51
73.0032926
0
ARC
8
DEFAULT_255_1_388
10
20.5470185
20
5.256226
40
0.2562942
50
72.6112517
51
85.7231489
0
ARC
8
DEFAULT_255_1_388
10
20.5368969
20
5.1535339
40
0.3594635
50
85.335019
51
90.0855069
0
ARC
8
DEFAULT_255_1_388
10
20.5342402
20
5.2199472
40
0.2930574
50
89.5854741
51
103.459124
0
ARC
8
DEFAULT_255_1_388
10
20.5170941
20
5.2914134
40
0.2195632
50
103.448332
51
126.5403399
0
ARC
8
DEFAULT_255_1_388
10
20.4901918
20
5.3258224
40
0.1759039
50
126.1730306
51
141.5008224
0
ARC
8
DEFAULT_255_1_388
10
20.4476233
20
5.3592266
40
0.1217955
50
141.3332087
51
180.3477313
0
ARC
8
DEFAULT_255_1_388
10
20.3717656
20
5.3572904
40
0.214002
50
151.6373605
51
179.6795088
0
ARC
8
DEFAULT_255_1_388
10
20.4394892
20
5.3235768
40
0.2896224
50
142.4981529
51
152.1330509
0
ARC
8
DEFAULT_255_1_388
10
20.4752896
20
5.2954781
40
0.3351307
50
120.8284906
51
142.4132156
0
ARC
8
DEFAULT_255_1_388
10
20.5220872
20
5.2222185
40
0.4220297
50
113.9634885
51
121.1871733
0
ARC
8
DEFAULT_255_1_388
10
20.5374181
20
5.1848705
40
0.4623867
50
93.3784336
51
113.8197902
0
ARC
8
DEFAULT_255_1_388
10
20.5460563
20
5.0987549
40
0.5488732
50
89.9745993
51
93.7488475
0
ARC
8
DEFAULT_255_1_388
10
20.5499809
20
5.1028587
40
0.5447818
50
79.1327128
51
90.3871707
0
ARC
8
DEFAULT_255_1_388
10
20.5865573
20
5.2856597
40
0.3583662
50
60.1434453
51
79.365517
0
ARC
8
DEFAULT_255_1_388
10
20.6154339
20
5.3411195
40
0.2959028
50
48.6191018
51
59.6466565
0
ARC
8
DEFAULT_255_1_388
10
20.6208051
20
5.3482356
40
0.2870136
50
9.0349502
51
48.4845487
0
ARC
8
DEFAULT_255_1_388
10
20.499735
20
5.3218084
40
0.4107927
50
1.2091359
51
10.0234369
0
ARC
8
DEFAULT_255_1_388
10
21.7694798
20
4.8777422
40
0.8590481
50
179.8159449
51
185.3205667
0
ARC
8
DEFAULT_255_1_388
10
21.4662643
20
4.8487945
40
0.5544553
50
185.2475628
51
192.7952551
0
ARC
8
DEFAULT_255_1_388
10
21.2680467
20
4.8033024
40
0.3510853
50
192.7195981
51
202.9584216
0
ARC
8
DEFAULT_255_1_388
10
20.4920503
20
5.0730895
40
0.2937869
50
270.006916
51
300.503478
0
ARC
8
DEFAULT_255_1_388
10
20.5058438
20
5.0586888
40
0.2744162
50
299.5482616
51
315.609538
0
ARC
8
DEFAULT_255_1_388
10
20.5384734
20
5.0253072
40
0.2277499
50
315.8682065
51
334.0592465
0
ARC
8
DEFAULT_255_1_388
10
20.6073708
20
4.34169
40
0.7845965
50
89.64297
51
97.2867877
0
ARC
8
DEFAULT_255_1_388
10
20.5577305
20
4.7133936
40
0.4096042
50
96.9938706
51
109.7783917
0
ARC
8
DEFAULT_255_1_388
10
20.4828768
20
4.9137851
40
0.1957225
50
109.0087985
51
135.3265591
0
ARC
8
DEFAULT_255_1_388
10
20.4521187
20
4.9518764
40
0.1471704
50
137.4537784
51
182.1083946
0
ARC
8
DEFAULT_255_1_388
10
20.4941887
20
4.9446101
40
0.1891498
50
179.4390335
51
195.7201623
0
ARC
8
DEFAULT_255_1_388
10
20.4478922
20
4.9319585
40
0.1411576
50
195.8683556
51
230.157074
0
ARC
8
DEFAULT_255_1_388
10
20.4751645
20
4.9646228
40
0.1837102
50
230.1532486
51
259.7486257
0
ARC
8
DEFAULT_255_1_388
10
20.4907687
20
5.0381472
40
0.258848
50
259.2461118
51
270.2915316
0
LINE
8
DEFAULT_255_1_388
10
21.9504388
20
5.9674898
11
22.1248268
21
5.9674898
0
LINE
8
DEFAULT_255_1_388
10
22.1248268
20
5.9674898
11
22.1248268
21
5.072961
0
LINE
8
DEFAULT_255_1_388
10
21.6929229
20
4.6356358
11
21.6468412
21
4.6338287
0
LINE
8
DEFAULT_255_1_388
10
21.1724698
20
5.0711539
11
21.1724698
21
5.9674898
0
LINE
8
DEFAULT_255_1_388
10
21.1724698
20
5.9674898
11
21.3441471
21
5.9674898
0
LINE
8
DEFAULT_255_1_388
10
21.3441471
20
5.9674898
11
21.3441471
21
5.0765753
0
LINE
8
DEFAULT_255_1_388
10
21.9504388
20
5.0756717
11
21.9504388
21
5.9674898
0
ARC
8
DEFAULT_255_1_388
10
21.6351066
20
5.070727
40
0.4897252
50
343.0897723
51
0.2613727
0
ARC
8
DEFAULT_255_1_388
10
21.7283037
20
5.044727
40
0.3930016
50
315.3344451
51
342.7642569
0
ARC
8
DEFAULT_255_1_388
10
21.7031533
20
5.0708085
40
0.4292244
50
284.6605441
51
315.2183439
0
ARC
8
DEFAULT_255_1_388
10
21.6519313
20
5.2447508
40
0.6104926
50
273.8500371
51
285.1796441
0
ARC
8
DEFAULT_255_1_388
10
21.6420377
20
5.2831762
40
0.6493653
50
257.6315393
51
270.4238259
0
ARC
8
DEFAULT_255_1_388
10
21.5942461
20
5.0782915
40
0.4390079
50
230.6086859
51
257.9965362
0
ARC
8
DEFAULT_255_1_388
10
21.5796519
20
5.0553643
40
0.4120404
50
227.745033
51
230.1538266
0
ARC
8
DEFAULT_255_1_388
10
21.5643048
20
5.0369253
40
0.3880742
50
189.2524335
51
227.5915299
0
ARC
8
DEFAULT_255_1_388
10
21.7354919
20
5.0737735
40
0.5630282
50
180.2665782
51
190.1525221
0
ARC
8
DEFAULT_255_1_388
10
21.7604647
20
5.0734254
40
0.4163296
50
179.566507
51
191.9954402
0
ARC
8
DEFAULT_255_1_388
10
21.6223336
20
5.0426151
40
0.274815
50
191.6974619
51
215.1403758
0
ARC
8
DEFAULT_255_1_388
10
21.5955728
20
5.0266689
40
0.2437647
50
215.6958251
51
224.8509274
0
ARC
8
DEFAULT_255_1_388
10
21.6018205
20
5.0356016
40
0.2545012
50
225.2846515
51
255.0110023
0
ARC
8
DEFAULT_255_1_388
10
21.6382651
20
5.1609017
40
0.384974
50
254.5945979
51
267.9129427
0
ARC
8
DEFAULT_255_1_388
10
21.6466344
20
5.2826444
40
0.506956
50
267.4687563
51
270.0233681
0
ARC
8
DEFAULT_255_1_388
10
21.6500339
20
5.2166288
40
0.440952
50
269.5851384
51
281.1845308
0
ARC
8
DEFAULT_255_1_388
10
21.6813943
20
5.0644469
40
0.2855802
50
280.9345159
51
300.9740496
0
ARC
8
DEFAULT_255_1_388
10
21.7053123
20
5.0204128
40
0.2355257
50
301.4982546
51
315.1468616
0
ARC
8
DEFAULT_255_1_388
10
21.689062
20
5.0337488
40
0.2564594
50
315.5952932
51
345.6679188
0
ARC
8
DEFAULT_255_1_388
10
21.5631177
20
5.0688235
40
0.3871766
50
345.2525685
51
358.6303941
0
ARC
8
DEFAULT_255_1_388
10
21.4487567
20
5.0755695
40
0.5016822
50
358.1723541
51
0.0116795
0
LINE
8
DEFAULT_255_1_388
10
22.4600492
20
5.9674898
11
22.8341249
21
4.8823089
0
LINE
8
DEFAULT_255_1_388
10
22.8341249
20
4.8823089
11
23.2100077
21
5.9674898
0
LINE
8
DEFAULT_255_1_388
10
23.2100077
20
5.9674898
11
23.3997562
21
5.9674898
0
LINE
8
DEFAULT_255_1_388
10
23.3997562
20
5.9674898
11
22.9118314
21
4.6519
0
LINE
8
DEFAULT_255_1_388
10
22.9118314
20
4.6519
11
22.7582254
21
4.6519
0
LINE
8
DEFAULT_255_1_388
10
22.7582254
20
4.6519
11
22.2712042
21
5.9674898
0
LINE
8
DEFAULT_255_1_388
10
22.2712042
20
5.9674898
11
22.4600492
21
5.9674898
0
LINE
8
DEFAULT_255_1_388
10
24.3819308
20
5.9674898
11
24.3819308
21
5.8735191
0
LINE
8
DEFAULT_255_1_388
10
24.3819308
20
5.8735191
11
23.8370814
21
4.6519
0
LINE
8
DEFAULT_255_1_388
10
23.8370814
20
4.6519
11
23.6617899
21
4.6519
0
LINE
8
DEFAULT_255_1_388
10
23.6617899
20
4.6519
11
24.2048321
21
5.830148
0
LINE
8
DEFAULT_255_1_388
10
24.2048321
20
5.830148
11
23.4928233
21
5.830148
0
LINE
8
DEFAULT_255_1_388
10
23.4928233
20
5.830148
11
23.4928233
21
5.9674898
0
LINE
8
DEFAULT_255_1_388
10
23.4928233
20
5.9674898
11
24.3819308
21
5.9674898
0
LINE
8
DEFAULT_255_1_388
10
20.9447716
20
12.5894
11
20.7694801
21
12.5894
0
LINE
8
DEFAULT_255_1_388
10
20.5806351
20
13.1821383
11
20.7432767
21
13.1821383
0
LINE
8
DEFAULT_255_1_388
10
20.7432767
20
13.1821383
11
20.7432767
21
13.2589413
0
LINE
8
DEFAULT_255_1_388
10
20.3258299
20
13.2959874
11
20.1577669
21
13.2959874
0
LINE
8
DEFAULT_255_1_388
10
20.9104361
20
13.2679769
11
20.9104361
21
12.8180018
0
LINE
8
DEFAULT_255_1_388
10
20.9447716
20
12.603857
11
20.9447716
21
12.5894
0
LINE
8
DEFAULT_255_1_388
10
20.7432767
20
12.86318
11
20.7432767
21
13.0637713
0
LINE
8
DEFAULT_255_1_388
10
20.7432767
20
13.0637713
11
20.6122599
21
13.0637713
0
ARC
8
DEFAULT_255_1_388
10
20.886395
20
12.64611
40
0.1299428
50
197.0784902
51
205.8758668
0
ARC
8
DEFAULT_255_1_388
10
21.0258536
20
12.6902959
40
0.2762313
50
192.2927663
51
197.3441989
0
ARC
8
DEFAULT_255_1_388
10
21.2454042
20
12.739076
40
0.5011345
50
189.1573793
51
192.3977084
0
ARC
8
DEFAULT_255_1_388
10
21.5618888
20
12.7906878
40
0.8217995
50
186.8686098
51
189.1982636
0
ARC
8
DEFAULT_255_1_388
10
20.4563979
20
12.964726
40
0.3975173
50
294.0079259
51
316.7603918
0
ARC
8
DEFAULT_255_1_388
10
20.4709162
20
12.9442902
40
0.3729755
50
269.5043226
51
293.2478373
0
ARC
8
DEFAULT_255_1_388
10
20.4642214
20
12.9893915
40
0.4180772
50
255.4034155
51
270.4753052
0
ARC
8
DEFAULT_255_1_388
10
20.4383427
20
12.8889652
40
0.3143705
50
228.6141063
51
255.3550831
0
ARC
8
DEFAULT_255_1_388
10
20.4009409
20
12.853154
40
0.2628114
50
181.8954381
51
229.5703134
0
ARC
8
DEFAULT_255_1_388
10
20.4674345
20
12.8603824
40
0.329546
50
179.9848815
51
182.7691528
0
ARC
8
DEFAULT_255_1_388
10
20.4581411
20
12.8642827
40
0.3202753
50
161.0342928
51
180.6822077
0
ARC
8
DEFAULT_255_1_388
10
20.4087026
20
12.8771422
40
0.2693695
50
125.0525065
51
160.2034058
0
ARC
8
DEFAULT_255_1_388
10
20.4831748
20
12.7755275
40
0.3953338
50
106.2670809
51
125.4300189
0
ARC
8
DEFAULT_255_1_388
10
20.5475789
20
12.5650795
40
0.6154041
50
95.4857579
51
106.5348562
0
ARC
8
DEFAULT_255_1_388
10
20.5783077
20
12.2838993
40
0.8982419
50
89.8515405
51
95.7222579
0
ARC
8
DEFAULT_255_1_388
10
20.5063658
20
13.2609925
40
0.2369198
50
359.5039339
51
14.3181205
0
ARC
8
DEFAULT_255_1_388
10
20.5709662
20
13.2777862
40
0.170173
50
14.2184556
51
45.2028524
0
ARC
8
DEFAULT_255_1_388
10
20.5750358
20
13.2793862
40
0.1661795
50
45.8098216
51
73.0032926
0
ARC
8
DEFAULT_255_1_388
10
20.5470185
20
13.193726
40
0.2562942
50
72.6112517
51
85.7231489
0
ARC
8
DEFAULT_255_1_388
10
20.5368969
20
13.0910339
40
0.3594635
50
85.335019
51
90.0855069
0
ARC
8
DEFAULT_255_1_388
10
20.5342402
20
13.1574472
40
0.2930574
50
89.5854741
51
103.459124
0
ARC
8
DEFAULT_255_1_388
10
20.5170941
20
13.2289134
40
0.2195632
50
103.448332
51
126.5403399
0
ARC
8
DEFAULT_255_1_388
10
20.4901918
20
13.2633224
40
0.1759039
50
126.1730306
51
141.5008224
0
ARC
8
DEFAULT_255_1_388
10
20.4476233
20
13.2967266
40
0.1217955
50
141.3332087
51
180.3477313
0
ARC
8
DEFAULT_255_1_388
10
20.3717656
20
13.2947904
40
0.214002
50
151.6373605
51
179.6795088
0
ARC
8
DEFAULT_255_1_388
10
20.4394892
20
13.2610768
40
0.2896224
50
142.4981529
51
152.1330509
0
ARC
8
DEFAULT_255_1_388
10
20.4752896
20
13.2329781
40
0.3351307
50
120.8284906
51
142.4132156
0
ARC
8
DEFAULT_255_1_388
10
20.5220872
20
13.1597185
40
0.4220297
50
113.9634885
51
121.1871733
0
ARC
8
DEFAULT_255_1_388
10
20.5374181
20
13.1223705
40
0.4623867
50
93.3784336
51
113.8197902
0
ARC
8
DEFAULT_255_1_388
10
20.5460563
20
13.0362549
40
0.5488732
50
89.9745993
51
93.7488475
0
ARC
8
DEFAULT_255_1_388
10
20.5499809
20
13.0403587
40
0.5447818
50
79.1327128
51
90.3871707
0
ARC
8
DEFAULT_255_1_388
10
20.5865573
20
13.2231597
40
0.3583662
50
60.1434453
51
79.365517
0
ARC
8
DEFAULT_255_1_388
10
20.6154339
20
13.2786195
40
0.2959028
50
48.6191018
51
59.6466565
0
ARC
8
DEFAULT_255_1_388
10
20.6208051
20
13.2857356
40
0.2870136
50
9.0349502
51
48.4845487
0
ARC
8
DEFAULT_255_1_388
10
20.499735
20
13.2593084
40
0.4107927
50
1.2091359
51
10.0234369
0
ARC
8
DEFAULT_255_1_388
10
21.7694798
20
12.8152422
40
0.8590481
50
179.8159449
51
185.3205667
0
ARC
8
DEFAULT_255_1_388
10
21.4662643
20
12.7862945
40
0.5544553
50
185.2475628
51
192.7952551
0
ARC
8
DEFAULT_255_1_388
10
21.2680467
20
12.7408024
40
0.3510853
50
192.7195981
51
202.9584216
0
ARC
8
DEFAULT_255_1_388
10
20.4920503
20
13.0105895
40
0.2937869
50
270.006916
51
300.503478
0
ARC
8
DEFAULT_255_1_388
10
20.5058438
20
12.9961888
40
0.2744162
50
299.5482616
51
315.609538
0
ARC
8
DEFAULT_255_1_388
10
20.5384734
20
12.9628072
40
0.2277499
50
315.8682065
51
334.0592465
0
ARC
8
DEFAULT_255_1_388
10
20.6073708
20
12.27919
40
0.7845965
50
89.64297
51
97.2867877
0
ARC
8
DEFAULT_255_1_388
10
20.5577305
20
12.6508936
40
0.4096042
50
96.9938706
51
109.7783917
0
ARC
8
DEFAULT_255_1_388
10
20.4828768
20
12.8512851
40
0.1957225
50
109.0087985
51
135.3265591
0
ARC
8
DEFAULT_255_1_388
10
20.4521187
20
12.8893764
40
0.1471704
50
137.4537784
51
182.1083946
0
ARC
8
DEFAULT_255_1_388
10
20.4941887
20
12.8821101
40
0.1891498
50
179.4390335
51
195.7201623
0
ARC
8
DEFAULT_255_1_388
10
20.4478922
20
12.8694585
40
0.1411576
50
195.8683556
51
230.157074
0
ARC
8
DEFAULT_255_1_388
10
20.4751645
20
12.9021228
40
0.1837102
50
230.1532486
51
259.7486257
0
ARC
8
DEFAULT_255_1_388
10
20.4907687
20
12.9756472
40
0.258848
50
259.2461118
51
270.2915316
0
LINE
8
DEFAULT_255_1_388
10
21.9504388
20
13.9049898
11
22.1248268
21
13.9049898
0
LINE
8
DEFAULT_255_1_388
10
22.1248268
20
13.9049898
11
22.1248268
21
13.010461
0
LINE
8
DEFAULT_255_1_388
10
21.6929229
20
12.5731358
11
21.6468412
21
12.5713287
0
LINE
8
DEFAULT_255_1_388
10
21.1724698
20
13.0086539
11
21.1724698
21
13.9049898
0
LINE
8
DEFAULT_255_1_388
10
21.1724698
20
13.9049898
11
21.3441471
21
13.9049898
0
LINE
8
DEFAULT_255_1_388
10
21.3441471
20
13.9049898
11
21.3441471
21
13.0140753
0
LINE
8
DEFAULT_255_1_388
10
21.9504388
20
13.0131717
11
21.9504388
21
13.9049898
0
ARC
8
DEFAULT_255_1_388
10
21.6351066
20
13.008227
40
0.4897252
50
343.0897723
51
0.2613727
0
ARC
8
DEFAULT_255_1_388
10
21.7283037
20
12.982227
40
0.3930016
50
315.3344451
51
342.7642569
0
ARC
8
DEFAULT_255_1_388
10
21.7031533
20
13.0083085
40
0.4292244
50
284.6605441
51
315.2183439
0
ARC
8
DEFAULT_255_1_388
10
21.6519313
20
13.1822508
40
0.6104926
50
273.8500371
51
285.1796441
0
ARC
8
DEFAULT_255_1_388
10
21.6420377
20
13.2206762
40
0.6493653
50
257.6315393
51
270.4238259
0
ARC
8
DEFAULT_255_1_388
10
21.5942461
20
13.0157915
40
0.4390079
50
230.6086859
51
257.9965362
0
ARC
8
DEFAULT_255_1_388
10
21.5796519
20
12.9928643
40
0.4120404
50
227.745033
51
230.1538266
0
ARC
8
DEFAULT_255_1_388
10
21.5643048
20
12.9744253
40
0.3880742
50
189.2524335
51
227.5915299
0
ARC
8
DEFAULT_255_1_388
10
21.7354919
20
13.0112735
40
0.5630282
50
180.2665782
51
190.1525221
0
ARC
8
DEFAULT_255_1_388
10
21.7604647
20
13.0109254
40
0.4163296
50
179.566507
51
191.9954402
0
ARC
8
DEFAULT_255_1_388
10
21.6223336
20
12.9801151
40
0.274815
50
191.6974619
51
215.1403758
0
ARC
8
DEFAULT_255_1_388
10
21.5955728
20
12.9641689
40
0.2437647
50
215.6958251
51
224.8509274
0
ARC
8
DEFAULT_255_1_388
10
21.6018205
20
12.9731016
40
0.2545012
50
225.2846515
51
255.0110023
0
ARC
8
DEFAULT_255_1_388
10
21.6382651
20
13.0984017
40
0.384974
50
254.5945979
51
267.9129427
0
ARC
8
DEFAULT_255_1_388
10
21.6466344
20
13.2201444
40
0.506956
50
267.4687563
51
270.0233681
0
ARC
8
DEFAULT_255_1_388
10
21.6500339
20
13.1541288
40
0.440952
50
269.5851384
51
281.1845308
0
ARC
8
DEFAULT_255_1_388
10
21.6813943
20
13.0019469
40
0.2855802
50
280.9345159
51
300.9740496
0
ARC
8
DEFAULT_255_1_388
10
21.7053123
20
12.9579128
40
0.2355257
50
301.4982546
51
315.1468616
0
ARC
8
DEFAULT_255_1_388
10
21.689062
20
12.9712488
40
0.2564594
50
315.5952932
51
345.6679188
0
ARC
8
DEFAULT_255_1_388
10
21.5631177
20
13.0063235
40
0.3871766
50
345.2525685
51
358.6303941
0
ARC
8
DEFAULT_255_1_388
10
21.4487567
20
13.0130695
40
0.5016822
50
358.1723541
51
0.0116795
0
LINE
8
DEFAULT_255_1_388
10
22.4600492
20
13.9049898
11
22.8341249
21
12.8198089
0
LINE
8
DEFAULT_255_1_388
10
22.8341249
20
12.8198089
11
23.2100077
21
13.9049898
0
LINE
8
DEFAULT_255_1_388
10
23.2100077
20
13.9049898
11
23.3997562
21
13.9049898
0
LINE
8
DEFAULT_255_1_388
10
23.3997562
20
13.9049898
11
22.9118314
21
12.5894
0
LINE
8
DEFAULT_255_1_388
10
22.9118314
20
12.5894
11
22.7582254
21
12.5894
0
LINE
8
DEFAULT_255_1_388
10
22.7582254
20
12.5894
11
22.2712042
21
13.9049898
0
LINE
8
DEFAULT_255_1_388
10
22.2712042
20
13.9049898
11
22.4600492
21
13.9049898
0
LINE
8
DEFAULT_255_1_388
10
24.1587503
20
13.9058934
11
24.188568
21
13.9058934
0
LINE
8
DEFAULT_255_1_388
10
24.188568
20
13.9058934
11
24.188568
21
13.7640338
0
LINE
8
DEFAULT_255_1_388
10
24.188568
20
13.7640338
11
24.1578468
21
13.7640338
0
LINE
8
DEFAULT_255_1_388
10
23.5425194
20
13.0899747
11
23.5425194
21
13.1541278
0
LINE
8
DEFAULT_255_1_388
10
23.7105824
20
13.1324422
11
23.7105824
21
13.0709999
0
ARC
8
DEFAULT_255_1_388
10
24.1637359
20
13.2017826
40
0.562282
50
90.6001079
51
104.5146616
0
ARC
8
DEFAULT_255_1_388
10
24.1200319
20
13.36431
40
0.3939917
50
104.2855758
51
133.8630124
0
ARC
8
DEFAULT_255_1_388
10
24.1384572
20
13.3521243
40
0.4155734
50
134.5304124
51
161.6210222
0
ARC
8
DEFAULT_255_1_388
10
24.3244504
20
13.2865421
40
0.6127682
50
161.2850533
51
174.2074364
0
ARC
8
DEFAULT_255_1_388
10
24.4834071
20
13.2646437
40
0.7731446
50
173.7817938
51
174.9251711
0
ARC
8
DEFAULT_255_1_388
10
23.9708264
20
13.109127
40
0.3412588
50
95.8332067
51
138.995412
0
ARC
8
DEFAULT_255_1_388
10
23.9959544
20
12.9652695
40
0.4870358
50
89.8755506
51
97.0540979
0
ARC
8
DEFAULT_255_1_388
10
24.0012934
20
13.0592841
40
0.3930432
50
71.6407016
51
90.6240821
0
ARC
8
DEFAULT_255_1_388
10
24.0182327
20
13.1216433
40
0.3285421
50
39.6368051
51
71.0190743
0
ARC
8
DEFAULT_255_1_388
10
23.9466235
20
13.0597586
40
0.4231706
50
10.6588054
51
39.9044509
0
ARC
8
DEFAULT_255_1_388
10
23.772478
20
13.0219223
40
0.60133
50
359.6827842
51
11.1326896
0
ARC
8
DEFAULT_255_1_388
10
23.7680116
20
13.0139715
40
0.6058047
50
347.2485908
51
0.4371098
0
ARC
8
DEFAULT_255_1_388
10
23.9555901
20
12.9688379
40
0.4128987
50
318.1408565
51
347.6118497
0
ARC
8
DEFAULT_255_1_388
10
23.9921498
20
12.9387903
40
0.3656244
50
275.6342406
51
317.824739
0
ARC
8
DEFAULT_255_1_388
10
23.9673019
20
13.0849827
40
0.513655
50
269.8872513
51
276.7916069
0
ARC
8
DEFAULT_255_1_388
10
23.9611212
20
12.9696181
40
0.398323
50
246.9139443
51
270.7436787
0
ARC
8
DEFAULT_255_1_388
10
23.9618408
20
12.9536044
40
0.3839368
50
218.1665534
51
245.8780431
0
ARC
8
DEFAULT_255_1_388
10
24.060778
20
13.0363903
40
0.5128958
50
191.4115343
51
218.6077624
0
ARC
8
DEFAULT_255_1_388
10
24.2788096
20
13.0852777
40
0.7363054
50
179.6344971
51
191.7836758
0
ARC
8
DEFAULT_255_1_388
10
24.906797
20
13.1616495
40
1.3642984
50
171.4523743
51
180.3158856
0
ARC
8
DEFAULT_255_1_388
10
24.4123698
20
13.2385895
40
0.8639311
50
157.9802296
51
171.6246761
0
ARC
8
DEFAULT_255_1_388
10
24.1633048
20
13.3379038
40
0.5958004
50
141.4299236
51
157.8541251
0
ARC
8
DEFAULT_255_1_388
10
24.0911132
20
13.3889746
40
0.5075416
50
102.871586
51
140.8564533
0
ARC
8
DEFAULT_255_1_388
10
24.1639684
20
13.1144943
40
0.7914163
50
90.377773
51
103.5868422
0
ARC
8
DEFAULT_255_1_388
10
23.9684205
20
13.0464543
40
0.2667015
50
89.8751238
51
126.2072139
0
ARC
8
DEFAULT_255_1_388
10
23.9735676
20
13.0290847
40
0.2838229
50
124.9742447
51
144.8960197
0
ARC
8
DEFAULT_255_1_388
10
23.9537921
20
13.0451981
40
0.2583845
50
145.2974778
51
160.2660922
0
ARC
8
DEFAULT_255_1_388
10
24.299441
20
13.0674151
40
0.5888695
50
179.6512124
51
190.285571
0
ARC
8
DEFAULT_255_1_388
10
24.1088889
20
13.0314968
40
0.3949683
50
190.0944895
51
207.5099647
0
ARC
8
DEFAULT_255_1_388
10
24.0452471
20
13.0012177
40
0.3245464
50
207.9585471
51
216.325377
0
ARC
8
DEFAULT_255_1_388
10
24.0070108
20
12.9697712
40
0.2751259
50
215.7661336
51
232.5457193
0
ARC
8
DEFAULT_255_1_388
10
23.9639224
20
12.9150273
40
0.2054668
50
232.8005815
51
270.6605497
0
ARC
8
DEFAULT_255_1_388
10
23.9690648
20
12.9559853
40
0.2464268
50
269.3550767
51
288.474612
0
ARC
8
DEFAULT_255_1_388
10
23.9795155
20
12.9166721
40
0.2058436
50
289.1831976
51
322.9685307
0
ARC
8
DEFAULT_255_1_388
10
23.9107257
20
12.9709279
40
0.2934408
50
322.6007085
51
346.5183319
0
ARC
8
DEFAULT_255_1_388
10
23.7805013
20
13.0041434
40
0.4278249
50
346.2584622
51
358.7739592
0
ARC
8
DEFAULT_255_1_388
10
23.6653588
20
13.0103829
40
0.5430876
50
358.3757628
51
0.0082477
0
ARC
8
DEFAULT_255_1_388
10
23.7510407
20
13.0134856
40
0.4574157
50
359.6211417
51
11.28403
0
ARC
8
DEFAULT_255_1_388
10
23.8947013
20
13.0434535
40
0.3106708
50
11.0483152
51
31.8145585
0
ARC
8
DEFAULT_255_1_388
10
23.9294718
20
13.0623045
40
0.2711963
50
32.3028554
51
38.0820598
0
ARC
8
DEFAULT_255_1_388
10
23.9767951
20
13.1051717
40
0.2075566
50
36.8249851
51
85.741667
0
ARC
8
DEFAULT_255_1_388
10
23.9692364
20
13.0488065
40
0.2643487
50
85.0150021
51
90.050843
0
LINE
8
DEFAULT_255_1_388
10
20.9447716
20
20.5269
11
20.7694801
21
20.5269
0
LINE
8
DEFAULT_255_1_388
10
20.5806351
20
21.1196383
11
20.7432767
21
21.1196383
0
LINE
8
DEFAULT_255_1_388
10
20.7432767
20
21.1196383
11
20.7432767
21
21.1964413
0
LINE
8
DEFAULT_255_1_388
10
20.3258299
20
21.2334874
11
20.1577669
21
21.2334874
0
LINE
8
DEFAULT_255_1_388
10
20.9104361
20
21.2054769
11
20.9104361
21
20.7555018
0
LINE
8
DEFAULT_255_1_388
10
20.9447716
20
20.541357
11
20.9447716
21
20.5269
0
LINE
8
DEFAULT_255_1_388
10
20.7432767
20
20.80068
11
20.7432767
21
21.0012713
0
LINE
8
DEFAULT_255_1_388
10
20.7432767
20
21.0012713
11
20.6122599
21
21.0012713
0
ARC
8
DEFAULT_255_1_388
10
20.886395
20
20.58361
40
0.1299428
50
197.0784902
51
205.8758668
0
ARC
8
DEFAULT_255_1_388
10
21.0258536
20
20.6277959
40
0.2762313
50
192.2927663
51
197.3441989
0
ARC
8
DEFAULT_255_1_388
10
21.2454042
20
20.676576
40
0.5011345
50
189.1573793
51
192.3977084
0
ARC
8
DEFAULT_255_1_388
10
21.5618888
20
20.7281878
40
0.8217995
50
186.8686098
51
189.1982636
0
ARC
8
DEFAULT_255_1_388
10
20.4563979
20
20.902226
40
0.3975173
50
294.0079259
51
316.7603918
0
ARC
8
DEFAULT_255_1_388
10
20.4709162
20
20.8817902
40
0.3729755
50
269.5043226
51
293.2478373
0
ARC
8
DEFAULT_255_1_388
10
20.4642214
20
20.9268915
40
0.4180772
50
255.4034155
51
270.4753052
0
ARC
8
DEFAULT_255_1_388
10
20.4383427
20
20.8264652
40
0.3143705
50
228.6141063
51
255.3550831
0
ARC
8
DEFAULT_255_1_388
10
20.4009409
20
20.790654
40
0.2628114
50
181.8954381
51
229.5703134
0
ARC
8
DEFAULT_255_1_388
10
20.4674345
20
20.7978824
40
0.329546
50
179.9848815
51
182.7691528
0
ARC
8
DEFAULT_255_1_388
10
20.4581411
20
20.8017827
40
0.3202753
50
161.0342928
51
180.6822077
0
ARC
8
DEFAULT_255_1_388
10
20.4087026
20
20.8146422
40
0.2693695
50
125.0525065
51
160.2034058
0
ARC
8
DEFAULT_255_1_388
10
20.4831748
20
20.7130275
40
0.3953338
50
106.2670809
51
125.4300189
0
ARC
8
DEFAULT_255_1_388
10
20.5475789
20
20.5025795
40
0.6154041
50
95.4857579
51
106.5348562
0
ARC
8
DEFAULT_255_1_388
10
20.5783077
20
20.2213993
40
0.8982419
50
89.8515405
51
95.7222579
0
ARC
8
DEFAULT_255_1_388
10
20.5063658
20
21.1984925
40
0.2369198
50
359.5039339
51
14.3181205
0
ARC
8
DEFAULT_255_1_388
10
20.5709662
20
21.2152862
40
0.170173
50
14.2184556
51
45.2028524
0
ARC
8
DEFAULT_255_1_388
10
20.5750358
20
21.2168862
40
0.1661795
50
45.8098216
51
73.0032926
0
ARC
8
DEFAULT_255_1_388
10
20.5470185
20
21.131226
40
0.2562942
50
72.6112517
51
85.7231489
0
ARC
8
DEFAULT_255_1_388
10
20.5368969
20
21.0285339
40
0.3594635
50
85.335019
51
90.0855069
0
ARC
8
DEFAULT_255_1_388
10
20.5342402
20
21.0949472
40
0.2930574
50
89.5854741
51
103.459124
0
ARC
8
DEFAULT_255_1_388
10
20.5170941
20
21.1664134
40
0.2195632
50
103.448332
51
126.5403399
0
ARC
8
DEFAULT_255_1_388
10
20.4901918
20
21.2008224
40
0.1759039
50
126.1730306
51
141.5008224
0
ARC
8
DEFAULT_255_1_388
10
20.4476233
20
21.2342266
40
0.1217955
50
141.3332087
51
180.3477313
0
ARC
8
DEFAULT_255_1_388
10
20.3717656
20
21.2322904
40
0.214002
50
151.6373605
51
179.6795088
0
ARC
8
DEFAULT_255_1_388
10
20.4394892
20
21.1985768
40
0.2896224
50
142.4981529
51
152.1330509
0
ARC
8
DEFAULT_255_1_388
10
20.4752896
20
21.1704781
40
0.3351307
50
120.8284906
51
142.4132156
0
ARC
8
DEFAULT_255_1_388
10
20.5220872
20
21.0972185
40
0.4220297
50
113.9634885
51
121.1871733
0
ARC
8
DEFAULT_255_1_388
10
20.5374181
20
21.0598705
40
0.4623867
50
93.3784336
51
113.8197902
0
ARC
8
DEFAULT_255_1_388
10
20.5460563
20
20.9737549
40
0.5488732
50
89.9745993
51
93.7488475
0
ARC
8
DEFAULT_255_1_388
10
20.5499809
20
20.9778587
40
0.5447818
50
79.1327128
51
90.3871707
0
ARC
8
DEFAULT_255_1_388
10
20.5865573
20
21.1606597
40
0.3583662
50
60.1434453
51
79.365517
0
ARC
8
DEFAULT_255_1_388
10
20.6154339
20
21.2161195
40
0.2959028
50
48.6191018
51
59.6466565
0
ARC
8
DEFAULT_255_1_388
10
20.6208051
20
21.2232356
40
0.2870136
50
9.0349502
51
48.4845487
0
ARC
8
DEFAULT_255_1_388
10
20.499735
20
21.1968084
40
0.4107927
50
1.2091359
51
10.0234369
0
ARC
8
DEFAULT_255_1_388
10
21.7694798
20
20.7527422
40
0.8590481
50
179.8159449
51
185.3205667
0
ARC
8
DEFAULT_255_1_388
10
21.4662643
20
20.7237945
40
0.5544553
50
185.2475628
51
192.7952551
0
ARC
8
DEFAULT_255_1_388
10
21.2680467
20
20.6783024
40
0.3510853
50
192.7195981
51
202.9584216
0
ARC
8
DEFAULT_255_1_388
10
20.4920503
20
20.9480895
40
0.2937869
50
270.006916
51
300.503478
0
ARC
8
DEFAULT_255_1_388
10
20.5058438
20
20.9336888
40
0.2744162
50
299.5482616
51
315.609538
0
ARC
8
DEFAULT_255_1_388
10
20.5384734
20
20.9003072
40
0.2277499
50
315.8682065
51
334.0592465
0
ARC
8
DEFAULT_255_1_388
10
20.6073708
20
20.21669
40
0.7845965
50
89.64297
51
97.2867877
0
ARC
8
DEFAULT_255_1_388
10
20.5577305
20
20.5883936
40
0.4096042
50
96.9938706
51
109.7783917
0
ARC
8
DEFAULT_255_1_388
10
20.4828768
20
20.7887851
40
0.1957225
50
109.0087985
51
135.3265591
0
ARC
8
DEFAULT_255_1_388
10
20.4521187
20
20.8268764
40
0.1471704
50
137.4537784
51
182.1083946
0
ARC
8
DEFAULT_255_1_388
10
20.4941887
20
20.8196101
40
0.1891498
50
179.4390335
51
195.7201623
0
ARC
8
DEFAULT_255_1_388
10
20.4478922
20
20.8069585
40
0.1411576
50
195.8683556
51
230.157074
0
ARC
8
DEFAULT_255_1_388
10
20.4751645
20
20.8396228
40
0.1837102
50
230.1532486
51
259.7486257
0
ARC
8
DEFAULT_255_1_388
10
20.4907687
20
20.9131472
40
0.258848
50
259.2461118
51
270.2915316
0
LINE
8
DEFAULT_255_1_388
10
21.9504388
20
21.8424898
11
22.1248268
21
21.8424898
0
LINE
8
DEFAULT_255_1_388
10
22.1248268
20
21.8424898
11
22.1248268
21
20.947961
0
LINE
8
DEFAULT_255_1_388
10
21.6929229
20
20.5106358
11
21.6468412
21
20.5088287
0
LINE
8
DEFAULT_255_1_388
10
21.1724698
20
20.9461539
11
21.1724698
21
21.8424898
0
LINE
8
DEFAULT_255_1_388
10
21.1724698
20
21.8424898
11
21.3441471
21
21.8424898
0
LINE
8
DEFAULT_255_1_388
10
21.3441471
20
21.8424898
11
21.3441471
21
20.9515753
0
LINE
8
DEFAULT_255_1_388
10
21.9504388
20
20.9506717
11
21.9504388
21
21.8424898
0
ARC
8
DEFAULT_255_1_388
10
21.6351066
20
20.945727
40
0.4897252
50
343.0897723
51
0.2613727
0
ARC
8
DEFAULT_255_1_388
10
21.7283037
20
20.919727
40
0.3930016
50
315.3344451
51
342.7642569
0
ARC
8
DEFAULT_255_1_388
10
21.7031533
20
20.9458085
40
0.4292244
50
284.6605441
51
315.2183439
0
ARC
8
DEFAULT_255_1_388
10
21.6519313
20
21.1197508
40
0.6104926
50
273.8500371
51
285.1796441
0
ARC
8
DEFAULT_255_1_388
10
21.6420377
20
21.1581762
40
0.6493653
50
257.6315393
51
270.4238259
0
ARC
8
DEFAULT_255_1_388
10
21.5942461
20
20.9532915
40
0.4390079
50
230.6086859
51
257.9965362
0
ARC
8
DEFAULT_255_1_388
10
21.5796519
20
20.9303643
40
0.4120404
50
227.745033
51
230.1538266
0
ARC
8
DEFAULT_255_1_388
10
21.5643048
20
20.9119253
40
0.3880742
50
189.2524335
51
227.5915299
0
ARC
8
DEFAULT_255_1_388
10
21.7354919
20
20.9487735
40
0.5630282
50
180.2665782
51
190.1525221
0
ARC
8
DEFAULT_255_1_388
10
21.7604647
20
20.9484254
40
0.4163296
50
179.566507
51
191.9954402
0
ARC
8
DEFAULT_255_1_388
10
21.6223336
20
20.9176151
40
0.274815
50
191.6974619
51
215.1403758
0
ARC
8
DEFAULT_255_1_388
10
21.5955728
20
20.9016689
40
0.2437647
50
215.6958251
51
224.8509274
0
ARC
8
DEFAULT_255_1_388
10
21.6018205
20
20.9106016
40
0.2545012
50
225.2846515
51
255.0110023
0
ARC
8
DEFAULT_255_1_388
10
21.6382651
20
21.0359017
40
0.384974
50
254.5945979
51
267.9129427
0
ARC
8
DEFAULT_255_1_388
10
21.6466344
20
21.1576444
40
0.506956
50
267.4687563
51
270.0233681
0
ARC
8
DEFAULT_255_1_388
10
21.6500339
20
21.0916288
40
0.440952
50
269.5851384
51
281.1845308
0
ARC
8
DEFAULT_255_1_388
10
21.6813943
20
20.9394469
40
0.2855802
50
280.9345159
51
300.9740496
0
ARC
8
DEFAULT_255_1_388
10
21.7053123
20
20.8954128
40
0.2355257
50
301.4982546
51
315.1468616
0
ARC
8
DEFAULT_255_1_388
10
21.689062
20
20.9087488
40
0.2564594
50
315.5952932
51
345.6679188
0
ARC
8
DEFAULT_255_1_388
10
21.5631177
20
20.9438235
40
0.3871766
50
345.2525685
51
358.6303941
0
ARC
8
DEFAULT_255_1_388
10
21.4487567
20
20.9505695
40
0.5016822
50
358.1723541
51
0.0116795
0
LINE
8
DEFAULT_255_1_388
10
22.4600492
20
21.8424898
11
22.8341249
21
20.7573089
0
LINE
8
DEFAULT_255_1_388
10
22.8341249
20
20.7573089
11
23.2100077
21
21.8424898
0
LINE
8
DEFAULT_255_1_388
10
23.2100077
20
21.8424898
11
23.3997562
21
21.8424898
0
LINE
8
DEFAULT_255_1_388
10
23.3997562
20
21.8424898
11
22.9118314
21
20.5269
0
LINE
8
DEFAULT_255_1_388
10
22.9118314
20
20.5269
11
22.7582254
21
20.5269
0
LINE
8
DEFAULT_255_1_388
10
22.7582254
20
20.5269
11
22.2712042
21
21.8424898
0
LINE
8
DEFAULT_255_1_388
10
22.2712042
20
21.8424898
11
22.4600492
21
21.8424898
0
LINE
8
DEFAULT_255_1_388
10
23.7431107
20
21.1521666
11
23.6093832
21
21.1865021
0
LINE
8
DEFAULT_255_1_388
10
23.6093832
20
21.1865021
11
23.6762469
21
21.8424898
0
LINE
8
DEFAULT_255_1_388
10
23.6762469
20
21.8424898
11
24.350306
21
21.8424898
0
LINE
8
DEFAULT_255_1_388
10
24.350306
20
21.8424898
11
24.350306
21
21.6879803
0
LINE
8
DEFAULT_255_1_388
10
24.350306
20
21.6879803
11
23.8181065
21
21.6879803
0
LINE
8
DEFAULT_255_1_388
10
23.8181065
20
21.6879803
11
23.7783497
21
21.3292652
0
LINE
8
DEFAULT_255_1_388
10
23.5623978
20
20.8729652
11
23.7205216
21
20.8729652
0
LINE
8
DEFAULT_255_1_388
10
23.7873854
20
21.1883092
11
23.7431107
21
21.1521666
0
ARC
8
DEFAULT_255_1_388
10
23.9870111
20
20.9715241
40
0.4141476
50
93.7181681
51
120.253934
0
ARC
8
DEFAULT_255_1_388
10
23.9976163
20
20.8806284
40
0.5055616
50
89.9660471
51
94.2495185
0
ARC
8
DEFAULT_255_1_388
10
24.0021985
20
20.9469154
40
0.4392953
50
73.8045384
51
90.5585736
0
ARC
8
DEFAULT_255_1_388
10
24.0286242
20
21.043452
40
0.3392225
50
41.3071072
51
73.543002
0
ARC
8
DEFAULT_255_1_388
10
23.9818062
20
21.0031461
40
0.4009977
50
13.5075837
51
41.2174839
0
ARC
8
DEFAULT_255_1_388
10
23.797116
20
20.9547907
40
0.5918864
50
1.1330171
51
13.8830737
0
ARC
8
DEFAULT_255_1_388
10
23.6374806
20
20.9462522
40
0.7516787
50
359.9925091
51
1.5431298
0
ARC
8
DEFAULT_255_1_388
10
23.781942
20
20.9416027
40
0.6072343
50
347.8572712
51
0.4294349
0
ARC
8
DEFAULT_255_1_388
10
23.9788555
20
20.8969898
40
0.4053482
50
323.6727442
51
348.1674594
0
ARC
8
DEFAULT_255_1_388
10
24.011952
20
20.8768175
40
0.3667495
50
316.8171818
51
323.1486802
0
ARC
8
DEFAULT_255_1_388
10
24.0188643
20
20.8726612
40
0.358869
50
281.839603
51
316.5458142
0
ARC
8
DEFAULT_255_1_388
10
23.9765931
20
21.0476363
40
0.5388223
50
269.5770964
51
282.4214641
0
ARC
8
DEFAULT_255_1_388
10
23.9685852
20
21.023593
40
0.5147801
50
256.2425863
51
270.4486481
0
ARC
8
DEFAULT_255_1_388
10
23.9349379
20
20.8886124
40
0.3756708
50
228.9024379
51
256.33135
0
ARC
8
DEFAULT_255_1_388
10
23.926636
20
20.8755054
40
0.360344
50
193.7536029
51
228.5272638
0
ARC
8
DEFAULT_255_1_388
10
24.0658925
20
20.9163463
40
0.5053599
50
184.9244437
51
194.4976052
0
ARC
8
DEFAULT_255_1_388
10
24.0875566
20
20.9203722
40
0.3700839
50
187.3596909
51
198.6733728
0
ARC
8
DEFAULT_255_1_388
10
23.9694809
20
20.8794373
40
0.2451195
50
198.4453795
51
217.7945479
0
ARC
8
DEFAULT_255_1_388
10
23.9361982
20
20.8558563
40
0.2043754
50
218.2887146
51
228.5613203
0
ARC
8
DEFAULT_255_1_388
10
23.9471989
20
20.8706902
40
0.2227819
50
228.9652423
51
258.1237049
0
ARC
8
DEFAULT_255_1_388
10
23.9703426
20
20.9697964
40
0.3245374
50
257.7260585
51
270.4013717
0
ARC
8
DEFAULT_255_1_388
10
23.9753924
20
20.9197255
40
0.2744726
50
269.4204315
51
286.420998
0
ARC
8
DEFAULT_255_1_388
10
23.992098
20
20.8590705
40
0.2115721
50
286.7250065
51
320.6004665
0
ARC
8
DEFAULT_255_1_388
10
23.9489895
20
20.8940527
40
0.2670878
50
320.6712228
51
344.5440474
0
ARC
8
DEFAULT_255_1_388
10
23.8188609
20
20.9322394
40
0.4026927
50
344.241448
51
356.735803
0
ARC
8
DEFAULT_255_1_388
10
23.6784916
20
20.9438656
40
0.5435085
50
356.3547471
51
0.0507222
0
ARC
8
DEFAULT_255_1_388
10
23.8287182
20
20.9473812
40
0.3932934
50
359.5579289
51
12.9534322
0
ARC
8
DEFAULT_255_1_388
10
23.9474021
20
20.9761586
40
0.2711827
50
12.6489751
51
41.608121
0
ARC
8
DEFAULT_255_1_388
10
23.9733181
20
20.9981946
40
0.2371737
50
41.7851122
51
85.9892156
0
ARC
8
DEFAULT_255_1_388
10
23.9594492
20
20.9066738
40
0.3295244
50
84.6965848
51
90.0672125
0
ARC
8
DEFAULT_255_1_388
10
23.9568059
20
20.8315118
40
0.4046926
50
89.6804991
51
99.161352
0
ARC
8
DEFAULT_255_1_388
10
23.9337068
20
20.9695848
40
0.2647044
50
98.9836248
51
113.8905702
0
ARC
8
DEFAULT_255_1_388
10
23.9078743
20
21.0305118
40
0.1985386
50
114.195234
51
127.3641866
0
LINE
8
DEFAULT_255_1_388
10
20.8124716
20
28.4644
11
20.6371801
21
28.4644
0
LINE
8
DEFAULT_255_1_388
10
20.4483351
20
29.0571383
11
20.6109767
21
29.0571383
0
LINE
8
DEFAULT_255_1_388
10
20.6109767
20
29.0571383
11
20.6109767
21
29.1339413
0
LINE
8
DEFAULT_255_1_388
10
20.1935299
20
29.1709874
11
20.0254669
21
29.1709874
0
LINE
8
DEFAULT_255_1_388
10
20.7781361
20
29.1429769
11
20.7781361
21
28.6930018
0
LINE
8
DEFAULT_255_1_388
10
20.8124716
20
28.478857
11
20.8124716
21
28.4644
0
LINE
8
DEFAULT_255_1_388
10
20.6109767
20
28.73818
11
20.6109767
21
28.9387713
0
LINE
8
DEFAULT_255_1_388
10
20.6109767
20
28.9387713
11
20.4799599
21
28.9387713
0
ARC
8
DEFAULT_255_1_388
10
20.754095
20
28.52111
40
0.1299428
50
197.0784902
51
205.8758668
0
ARC
8
DEFAULT_255_1_388
10
20.8935536
20
28.5652959
40
0.2762313
50
192.2927663
51
197.3441989
0
ARC
8
DEFAULT_255_1_388
10
21.1131042
20
28.614076
40
0.5011345
50
189.1573793
51
192.3977084
0
ARC
8
DEFAULT_255_1_388
10
21.4295888
20
28.6656878
40
0.8217995
50
186.8686098
51
189.1982636
0
ARC
8
DEFAULT_255_1_388
10
20.3240979
20
28.839726
40
0.3975173
50
294.0079259
51
316.7603918
0
ARC
8
DEFAULT_255_1_388
10
20.3386162
20
28.8192902
40
0.3729755
50
269.5043226
51
293.2478373
0
ARC
8
DEFAULT_255_1_388
10
20.3319214
20
28.8643915
40
0.4180772
50
255.4034155
51
270.4753052
0
ARC
8
DEFAULT_255_1_388
10
20.3060427
20
28.7639652
40
0.3143705
50
228.6141063
51
255.3550831
0
ARC
8
DEFAULT_255_1_388
10
20.2686409
20
28.728154
40
0.2628114
50
181.8954381
51
229.5703134
0
ARC
8
DEFAULT_255_1_388
10
20.3351345
20
28.7353824
40
0.329546
50
179.9848815
51
182.7691528
0
ARC
8
DEFAULT_255_1_388
10
20.3258411
20
28.7392827
40
0.3202753
50
161.0342928
51
180.6822077
0
ARC
8
DEFAULT_255_1_388
10
20.2764026
20
28.7521422
40
0.2693695
50
125.0525065
51
160.2034058
0
ARC
8
DEFAULT_255_1_388
10
20.3508748
20
28.6505275
40
0.3953338
50
106.2670809
51
125.4300189
0
ARC
8
DEFAULT_255_1_388
10
20.4152789
20
28.4400795
40
0.6154041
50
95.4857579
51
106.5348562
0
ARC
8
DEFAULT_255_1_388
10
20.4460077
20
28.1588993
40
0.8982419
50
89.8515405
51
95.7222579
0
ARC
8
DEFAULT_255_1_388
10
20.3740658
20
29.1359925
40
0.2369198
50
359.5039339
51
14.3181205
0
ARC
8
DEFAULT_255_1_388
10
20.4386662
20
29.1527862
40
0.170173
50
14.2184556
51
45.2028524
0
ARC
8
DEFAULT_255_1_388
10
20.4427358
20
29.1543862
40
0.1661795
50
45.8098216
51
73.0032926
0
ARC
8
DEFAULT_255_1_388
10
20.4147185
20
29.068726
40
0.2562942
50
72.6112517
51
85.7231489
0
ARC
8
DEFAULT_255_1_388
10
20.4045969
20
28.9660339
40
0.3594635
50
85.335019
51
90.0855069
0
ARC
8
DEFAULT_255_1_388
10
20.4019402
20
29.0324472
40
0.2930574
50
89.5854741
51
103.459124
0
ARC
8
DEFAULT_255_1_388
10
20.3847941
20
29.1039134
40
0.2195632
50
103.448332
51
126.5403399
0
ARC
8
DEFAULT_255_1_388
10
20.3578918
20
29.1383224
40
0.1759039
50
126.1730306
51
141.5008224
0
ARC
8
DEFAULT_255_1_388
10
20.3153233
20
29.1717266
40
0.1217955
50
141.3332087
51
180.3477313
0
ARC
8
DEFAULT_255_1_388
10
20.2394656
20
29.1697904
40
0.214002
50
151.6373605
51
179.6795088
0
ARC
8
DEFAULT_255_1_388
10
20.3071892
20
29.1360768
40
0.2896224
50
142.4981529
51
152.1330509
0
ARC
8
DEFAULT_255_1_388
10
20.3429896
20
29.1079781
40
0.3351307
50
120.8284906
51
142.4132156
0
ARC
8
DEFAULT_255_1_388
10
20.3897872
20
29.0347185
40
0.4220297
50
113.9634885
51
121.1871733
0
ARC
8
DEFAULT_255_1_388
10
20.4051181
20
28.9973705
40
0.4623867
50
93.3784336
51
113.8197902
0
ARC
8
DEFAULT_255_1_388
10
20.4137563
20
28.9112549
40
0.5488732
50
89.9745993
51
93.7488475
0
ARC
8
DEFAULT_255_1_388
10
20.4176809
20
28.9153587
40
0.5447818
50
79.1327128
51
90.3871707
0
ARC
8
DEFAULT_255_1_388
10
20.4542573
20
29.0981597
40
0.3583662
50
60.1434453
51
79.365517
0
ARC
8
DEFAULT_255_1_388
10
20.4831339
20
29.1536195
40
0.2959028
50
48.6191018
51
59.6466565
0
ARC
8
DEFAULT_255_1_388
10
20.4885051
20
29.1607356
40
0.2870136
50
9.0349502
51
48.4845487
0
ARC
8
DEFAULT_255_1_388
10
20.367435
20
29.1343084
40
0.4107927
50
1.2091359
51
10.0234369
0
ARC
8
DEFAULT_255_1_388
10
21.6371798
20
28.6902422
40
0.8590481
50
179.8159449
51
185.3205667
0
ARC
8
DEFAULT_255_1_388
10
21.3339643
20
28.6612945
40
0.5544553
50
185.2475628
51
192.7952551
0
ARC
8
DEFAULT_255_1_388
10
21.1357467
20
28.6158024
40
0.3510853
50
192.7195981
51
202.9584216
0
ARC
8
DEFAULT_255_1_388
10
20.3597503
20
28.8855895
40
0.2937869
50
270.006916
51
300.503478
0
ARC
8
DEFAULT_255_1_388
10
20.3735438
20
28.8711888
40
0.2744162
50
299.5482616
51
315.609538
0
ARC
8
DEFAULT_255_1_388
10
20.4061734
20
28.8378072
40
0.2277499
50
315.8682065
51
334.0592465
0
ARC
8
DEFAULT_255_1_388
10
20.4750708
20
28.15419
40
0.7845965
50
89.64297
51
97.2867877
0
ARC
8
DEFAULT_255_1_388
10
20.4254305
20
28.5258936
40
0.4096042
50
96.9938706
51
109.7783917
0
ARC
8
DEFAULT_255_1_388
10
20.3505768
20
28.7262851
40
0.1957225
50
109.0087985
51
135.3265591
0
ARC
8
DEFAULT_255_1_388
10
20.3198187
20
28.7643764
40
0.1471704
50
137.4537784
51
182.1083946
0
ARC
8
DEFAULT_255_1_388
10
20.3618887
20
28.7571101
40
0.1891498
50
179.4390335
51
195.7201623
0
ARC
8
DEFAULT_255_1_388
10
20.3155922
20
28.7444585
40
0.1411576
50
195.8683556
51
230.157074
0
ARC
8
DEFAULT_255_1_388
10
20.3428645
20
28.7771228
40
0.1837102
50
230.1532486
51
259.7486257
0
ARC
8
DEFAULT_255_1_388
10
20.3584687
20
28.8506472
40
0.258848
50
259.2461118
51
270.2915316
0
LINE
8
DEFAULT_255_1_388
10
21.8181388
20
29.7799898
11
21.9925268
21
29.7799898
0
LINE
8
DEFAULT_255_1_388
10
21.9925268
20
29.7799898
11
21.9925268
21
28.885461
0
LINE
8
DEFAULT_255_1_388
10
21.5606229
20
28.4481358
11
21.5145412
21
28.4463287
0
LINE
8
DEFAULT_255_1_388
10
21.0401698
20
28.8836539
11
21.0401698
21
29.7799898
0
LINE
8
DEFAULT_255_1_388
10
21.0401698
20
29.7799898
11
21.2118471
21
29.7799898
0
LINE
8
DEFAULT_255_1_388
10
21.2118471
20
29.7799898
11
21.2118471
21
28.8890753
0
LINE
8
DEFAULT_255_1_388
10
21.8181388
20
28.8881717
11
21.8181388
21
29.7799898
0
ARC
8
DEFAULT_255_1_388
10
21.5028066
20
28.883227
40
0.4897252
50
343.0897723
51
0.2613727
0
ARC
8
DEFAULT_255_1_388
10
21.5960037
20
28.857227
40
0.3930016
50
315.3344451
51
342.7642569
0
ARC
8
DEFAULT_255_1_388
10
21.5708533
20
28.8833085
40
0.4292244
50
284.6605441
51
315.2183439
0
ARC
8
DEFAULT_255_1_388
10
21.5196313
20
29.0572508
40
0.6104926
50
273.8500371
51
285.1796441
0
ARC
8
DEFAULT_255_1_388
10
21.5097377
20
29.0956762
40
0.6493653
50
257.6315393
51
270.4238259
0
ARC
8
DEFAULT_255_1_388
10
21.4619461
20
28.8907915
40
0.4390079
50
230.6086859
51
257.9965362
0
ARC
8
DEFAULT_255_1_388
10
21.4473519
20
28.8678643
40
0.4120404
50
227.745033
51
230.1538266
0
ARC
8
DEFAULT_255_1_388
10
21.4320048
20
28.8494253
40
0.3880742
50
189.2524335
51
227.5915299
0
ARC
8
DEFAULT_255_1_388
10
21.6031919
20
28.8862735
40
0.5630282
50
180.2665782
51
190.1525221
0
ARC
8
DEFAULT_255_1_388
10
21.6281647
20
28.8859254
40
0.4163296
50
179.566507
51
191.9954402
0
ARC
8
DEFAULT_255_1_388
10
21.4900336
20
28.8551151
40
0.274815
50
191.6974619
51
215.1403758
0
ARC
8
DEFAULT_255_1_388
10
21.4632728
20
28.8391689
40
0.2437647
50
215.6958251
51
224.8509274
0
ARC
8
DEFAULT_255_1_388
10
21.4695205
20
28.8481016
40
0.2545012
50
225.2846515
51
255.0110023
0
ARC
8
DEFAULT_255_1_388
10
21.5059651
20
28.9734017
40
0.384974
50
254.5945979
51
267.9129427
0
ARC
8
DEFAULT_255_1_388
10
21.5143344
20
29.0951444
40
0.506956
50
267.4687563
51
270.0233681
0
ARC
8
DEFAULT_255_1_388
10
21.5177339
20
29.0291288
40
0.440952
50
269.5851384
51
281.1845308
0
ARC
8
DEFAULT_255_1_388
10
21.5490943
20
28.8769469
40
0.2855802
50
280.9345159
51
300.9740496
0
ARC
8
DEFAULT_255_1_388
10
21.5730123
20
28.8329128
40
0.2355257
50
301.4982546
51
315.1468616
0
ARC
8
DEFAULT_255_1_388
10
21.556762
20
28.8462488
40
0.2564594
50
315.5952932
51
345.6679188
0
ARC
8
DEFAULT_255_1_388
10
21.4308177
20
28.8813235
40
0.3871766
50
345.2525685
51
358.6303941
0
ARC
8
DEFAULT_255_1_388
10
21.3164567
20
28.8880695
40
0.5016822
50
358.1723541
51
0.0116795
0
LINE
8
DEFAULT_255_1_388
10
22.3277492
20
29.7799898
11
22.7018249
21
28.6948089
0
LINE
8
DEFAULT_255_1_388
10
22.7018249
20
28.6948089
11
23.0777077
21
29.7799898
0
LINE
8
DEFAULT_255_1_388
10
23.0777077
20
29.7799898
11
23.2674562
21
29.7799898
0
LINE
8
DEFAULT_255_1_388
10
23.2674562
20
29.7799898
11
22.7795314
21
28.4644
0
LINE
8
DEFAULT_255_1_388
10
22.7795314
20
28.4644
11
22.6259254
21
28.4644
0
LINE
8
DEFAULT_255_1_388
10
22.6259254
20
28.4644
11
22.1389042
21
29.7799898
0
LINE
8
DEFAULT_255_1_388
10
22.1389042
20
29.7799898
11
22.3277492
21
29.7799898
0
LINE
8
DEFAULT_255_1_388
10
24.105964
20
29.7799898
11
24.105964
21
28.906243
0
LINE
8
DEFAULT_255_1_388
10
24.105964
20
28.906243
11
24.288484
21
28.906243
0
LINE
8
DEFAULT_255_1_388
10
24.288484
20
28.906243
11
24.288484
21
28.7698048
0
LINE
8
DEFAULT_255_1_388
10
24.288484
20
28.7698048
11
24.105964
21
28.7698048
0
LINE
8
DEFAULT_255_1_388
10
24.105964
20
28.7698048
11
24.105964
21
28.4644
0
LINE
8
DEFAULT_255_1_388
10
24.105964
20
28.4644
11
23.937901
21
28.4644
0
LINE
8
DEFAULT_255_1_388
10
23.937901
20
28.4644
11
23.937901
21
28.7698048
0
LINE
8
DEFAULT_255_1_388
10
23.937901
20
28.7698048
11
23.3388378
21
28.7698048
0
LINE
8
DEFAULT_255_1_388
10
23.3388378
20
28.7698048
11
23.3388378
21
28.8682933
0
LINE
8
DEFAULT_255_1_388
10
23.3388378
20
28.8682933
11
23.9279618
21
29.7799898
0
LINE
8
DEFAULT_255_1_388
10
23.9279618
20
29.7799898
11
24.105964
21
29.7799898
0
LINE
8
DEFAULT_255_1_388
10
23.9180226
20
29.5152455
11
23.5285863
21
28.906243
0
LINE
8
DEFAULT_255_1_388
10
23.5285863
20
28.906243
11
23.937901
21
28.906243
0
LINE
8
DEFAULT_255_1_388
10
23.937901
20
28.906243
11
23.937901
21
29.551388
0
LINE
8
DEFAULT_255_1_388
10
23.937901
20
29.551388
11
23.9180226
21
29.5152455
0
LINE
8
DEFAULT_255_1_388
10
20.9447716
20
36.4019
11
20.7694801
21
36.4019
0
LINE
8
DEFAULT_255_1_388
10
20.5806351
20
36.9946383
11
20.7432767
21
36.9946383
0
LINE
8
DEFAULT_255_1_388
10
20.7432767
20
36.9946383
11
20.7432767
21
37.0714413
0
LINE
8
DEFAULT_255_1_388
10
20.3258299
20
37.1084874
11
20.1577669
21
37.1084874
0
LINE
8
DEFAULT_255_1_388
10
20.9104361
20
37.0804769
11
20.9104361
21
36.6305018
0
LINE
8
DEFAULT_255_1_388
10
20.9447716
20
36.416357
11
20.9447716
21
36.4019
0
LINE
8
DEFAULT_255_1_388
10
20.7432767
20
36.67568
11
20.7432767
21
36.8762713
0
LINE
8
DEFAULT_255_1_388
10
20.7432767
20
36.8762713
11
20.6122599
21
36.8762713
0
ARC
8
DEFAULT_255_1_388
10
20.886395
20
36.45861
40
0.1299428
50
197.0784902
51
205.8758668
0
ARC
8
DEFAULT_255_1_388
10
21.0258536
20
36.5027959
40
0.2762313
50
192.2927663
51
197.3441989
0
ARC
8
DEFAULT_255_1_388
10
21.2454042
20
36.551576
40
0.5011345
50
189.1573793
51
192.3977084
0
ARC
8
DEFAULT_255_1_388
10
21.5618888
20
36.6031878
40
0.8217995
50
186.8686098
51
189.1982636
0
ARC
8
DEFAULT_255_1_388
10
20.4563979
20
36.777226
40
0.3975173
50
294.0079259
51
316.7603918
0
ARC
8
DEFAULT_255_1_388
10
20.4709162
20
36.7567902
40
0.3729755
50
269.5043226
51
293.2478373
0
ARC
8
DEFAULT_255_1_388
10
20.4642214
20
36.8018915
40
0.4180772
50
255.4034155
51
270.4753052
0
ARC
8
DEFAULT_255_1_388
10
20.4383427
20
36.7014652
40
0.3143705
50
228.6141063
51
255.3550831
0
ARC
8
DEFAULT_255_1_388
10
20.4009409
20
36.665654
40
0.2628114
50
181.8954381
51
229.5703134
0
ARC
8
DEFAULT_255_1_388
10
20.4674345
20
36.6728824
40
0.329546
50
179.9848815
51
182.7691528
0
ARC
8
DEFAULT_255_1_388
10
20.4581411
20
36.6767827
40
0.3202753
50
161.0342928
51
180.6822077
0
ARC
8
DEFAULT_255_1_388
10
20.4087026
20
36.6896422
40
0.2693695
50
125.0525065
51
160.2034058
0
ARC
8
DEFAULT_255_1_388
10
20.4831748
20
36.5880275
40
0.3953338
50
106.2670809
51
125.4300189
0
ARC
8
DEFAULT_255_1_388
10
20.5475789
20
36.3775795
40
0.6154041
50
95.4857579
51
106.5348562
0
ARC
8
DEFAULT_255_1_388
10
20.5783077
20
36.0963993
40
0.8982419
50
89.8515405
51
95.7222579
0
ARC
8
DEFAULT_255_1_388
10
20.5063658
20
37.0734925
40
0.2369198
50
359.5039339
51
14.3181205
0
ARC
8
DEFAULT_255_1_388
10
20.5709662
20
37.0902862
40
0.170173
50
14.2184556
51
45.2028524
0
ARC
8
DEFAULT_255_1_388
10
20.5750358
20
37.0918862
40
0.1661795
50
45.8098216
51
73.0032926
0
ARC
8
DEFAULT_255_1_388
10
20.5470185
20
37.006226
40
0.2562942
50
72.6112517
51
85.7231489
0
ARC
8
DEFAULT_255_1_388
10
20.5368969
20
36.9035339
40
0.3594635
50
85.335019
51
90.0855069
0
ARC
8
DEFAULT_255_1_388
10
20.5342402
20
36.9699472
40
0.2930574
50
89.5854741
51
103.459124
0
ARC
8
DEFAULT_255_1_388
10
20.5170941
20
37.0414134
40
0.2195632
50
103.448332
51
126.5403399
0
ARC
8
DEFAULT_255_1_388
10
20.4901918
20
37.0758224
40
0.1759039
50
126.1730306
51
141.5008224
0
ARC
8
DEFAULT_255_1_388
10
20.4476233
20
37.1092266
40
0.1217955
50
141.3332087
51
180.3477313
0
ARC
8
DEFAULT_255_1_388
10
20.3717656
20
37.1072904
40
0.214002
50
151.6373605
51
179.6795088
0
ARC
8
DEFAULT_255_1_388
10
20.4394892
20
37.0735768
40
0.2896224
50
142.4981529
51
152.1330509
0
ARC
8
DEFAULT_255_1_388
10
20.4752896
20
37.0454781
40
0.3351307
50
120.8284906
51
142.4132156
0
ARC
8
DEFAULT_255_1_388
10
20.5220872
20
36.9722185
40
0.4220297
50
113.9634885
51
121.1871733
0
ARC
8
DEFAULT_255_1_388
10
20.5374181
20
36.9348705
40
0.4623867
50
93.3784336
51
113.8197902
0
ARC
8
DEFAULT_255_1_388
10
20.5460563
20
36.8487549
40
0.5488732
50
89.9745993
51
93.7488475
0
ARC
8
DEFAULT_255_1_388
10
20.5499809
20
36.8528587
40
0.5447818
50
79.1327128
51
90.3871707
0
ARC
8
DEFAULT_255_1_388
10
20.5865573
20
37.0356597
40
0.3583662
50
60.1434453
51
79.365517
0
ARC
8
DEFAULT_255_1_388
10
20.6154339
20
37.0911195
40
0.2959028
50
48.6191018
51
59.6466565
0
ARC
8
DEFAULT_255_1_388
10
20.6208051
20
37.0982356
40
0.2870136
50
9.0349502
51
48.4845487
0
ARC
8
DEFAULT_255_1_388
10
20.499735
20
37.0718084
40
0.4107927
50
1.2091359
51
10.0234369
0
ARC
8
DEFAULT_255_1_388
10
21.7694798
20
36.6277422
40
0.8590481
50
179.8159449
51
185.3205667
0
ARC
8
DEFAULT_255_1_388
10
21.4662643
20
36.5987945
40
0.5544553
50
185.2475628
51
192.7952551
0
ARC
8
DEFAULT_255_1_388
10
21.2680467
20
36.5533024
40
0.3510853
50
192.7195981
51
202.9584216
0
ARC
8
DEFAULT_255_1_388
10
20.4920503
20
36.8230895
40
0.2937869
50
270.006916
51
300.503478
0
ARC
8
DEFAULT_255_1_388
10
20.5058438
20
36.8086888
40
0.2744162
50
299.5482616
51
315.609538
0
ARC
8
DEFAULT_255_1_388
10
20.5384734
20
36.7753072
40
0.2277499
50
315.8682065
51
334.0592465
0
ARC
8
DEFAULT_255_1_388
10
20.6073708
20
36.09169
40
0.7845965
50
89.64297
51
97.2867877
0
ARC
8
DEFAULT_255_1_388
10
20.5577305
20
36.4633936
40
0.4096042
50
96.9938706
51
109.7783917
0
ARC
8
DEFAULT_255_1_388
10
20.4828768
20
36.6637851
40
0.1957225
50
109.0087985
51
135.3265591
0
ARC
8
DEFAULT_255_1_388
10
20.4521187
20
36.7018764
40
0.1471704
50
137.4537784
51
182.1083946
0
ARC
8
DEFAULT_255_1_388
10
20.4941887
20
36.6946101
40
0.1891498
50
179.4390335
51
195.7201623
0
ARC
8
DEFAULT_255_1_388
10
20.4478922
20
36.6819585
40
0.1411576
50
195.8683556
51
230.157074
0
ARC
8
DEFAULT_255_1_388
10
20.4751645
20
36.7146228
40
0.1837102
50
230.1532486
51
259.7486257
0
ARC
8
DEFAULT_255_1_388
10
20.4907687
20
36.7881472
40
0.258848
50
259.2461118
51
270.2915316
0
LINE
8
DEFAULT_255_1_388
10
21.9504388
20
37.7174898
11
22.1248268
21
37.7174898
0
LINE
8
DEFAULT_255_1_388
10
22.1248268
20
37.7174898
11
22.1248268
21
36.822961
0
LINE
8
DEFAULT_255_1_388
10
21.6929229
20
36.3856358
11
21.6468412
21
36.3838287
0
LINE
8
DEFAULT_255_1_388
10
21.1724698
20
36.8211539
11
21.1724698
21
37.7174898
0
LINE
8
DEFAULT_255_1_388
10
21.1724698
20
37.7174898
11
21.3441471
21
37.7174898
0
LINE
8
DEFAULT_255_1_388
10
21.3441471
20
37.7174898
11
21.3441471
21
36.8265753
0
LINE
8
DEFAULT_255_1_388
10
21.9504388
20
36.8256717
11
21.9504388
21
37.7174898
0
ARC
8
DEFAULT_255_1_388
10
21.6351066
20
36.820727
40
0.4897252
50
343.0897723
51
0.2613727
0
ARC
8
DEFAULT_255_1_388
10
21.7283037
20
36.794727
40
0.3930016
50
315.3344451
51
342.7642569
0
ARC
8
DEFAULT_255_1_388
10
21.7031533
20
36.8208085
40
0.4292244
50
284.6605441
51
315.2183439
0
ARC
8
DEFAULT_255_1_388
10
21.6519313
20
36.9947508
40
0.6104926
50
273.8500371
51
285.1796441
0
ARC
8
DEFAULT_255_1_388
10
21.6420377
20
37.0331762
40
0.6493653
50
257.6315393
51
270.4238259
0
ARC
8
DEFAULT_255_1_388
10
21.5942461
20
36.8282915
40
0.4390079
50
230.6086859
51
257.9965362
0
ARC
8
DEFAULT_255_1_388
10
21.5796519
20
36.8053643
40
0.4120404
50
227.745033
51
230.1538266
0
ARC
8
DEFAULT_255_1_388
10
21.5643048
20
36.7869253
40
0.3880742
50
189.2524335
51
227.5915299
0
ARC
8
DEFAULT_255_1_388
10
21.7354919
20
36.8237735
40
0.5630282
50
180.2665782
51
190.1525221
0
ARC
8
DEFAULT_255_1_388
10
21.7604647
20
36.8234254
40
0.4163296
50
179.566507
51
191.9954402
0
ARC
8
DEFAULT_255_1_388
10
21.6223336
20
36.7926151
40
0.274815
50
191.6974619
51
215.1403758
0
ARC
8
DEFAULT_255_1_388
10
21.5955728
20
36.7766689
40
0.2437647
50
215.6958251
51
224.8509274
0
ARC
8
DEFAULT_255_1_388
10
21.6018205
20
36.7856016
40
0.2545012
50
225.2846515
51
255.0110023
0
ARC
8
DEFAULT_255_1_388
10
21.6382651
20
36.9109017
40
0.384974
50
254.5945979
51
267.9129427
0
ARC
8
DEFAULT_255_1_388
10
21.6466344
20
37.0326444
40
0.506956
50
267.4687563
51
270.0233681
0
ARC
8
DEFAULT_255_1_388
10
21.6500339
20
36.9666288
40
0.440952
50
269.5851384
51
281.1845308
0
ARC
8
DEFAULT_255_1_388
10
21.6813943
20
36.8144469
40
0.2855802
50
280.9345159
51
300.9740496
0
ARC
8
DEFAULT_255_1_388
10
21.7053123
20
36.7704128
40
0.2355257
50
301.4982546
51
315.1468616
0
ARC
8
DEFAULT_255_1_388
10
21.689062
20
36.7837488
40
0.2564594
50
315.5952932
51
345.6679188
0
ARC
8
DEFAULT_255_1_388
10
21.5631177
20
36.8188235
40
0.3871766
50
345.2525685
51
358.6303941
0
ARC
8
DEFAULT_255_1_388
10
21.4487567
20
36.8255695
40
0.5016822
50
358.1723541
51
0.0116795
0
LINE
8
DEFAULT_255_1_388
10
22.4600492
20
37.7174898
11
22.8341249
21
36.6323089
0
LINE
8
DEFAULT_255_1_388
10
22.8341249
20
36.6323089
11
23.2100077
21
37.7174898
0
LINE
8
DEFAULT_255_1_388
10
23.2100077
20
37.7174898
11
23.3997562
21
37.7174898
0
LINE
8
DEFAULT_255_1_388
10
23.3997562
20
37.7174898
11
22.9118314
21
36.4019
0
LINE
8
DEFAULT_255_1_388
10
22.9118314
20
36.4019
11
22.7582254
21
36.4019
0
LINE
8
DEFAULT_255_1_388
10
22.7582254
20
36.4019
11
22.2712042
21
37.7174898
0
LINE
8
DEFAULT_255_1_388
10
22.2712042
20
37.7174898
11
22.4600492
21
37.7174898
0
LINE
8
DEFAULT_255_1_388
10
23.775639
20
37.0045775
11
23.775639
21
37.1410157
0
LINE
8
DEFAULT_255_1_388
10
23.775639
20
37.1410157
11
23.9012345
21
37.1410157
0
LINE
8
DEFAULT_255_1_388
10
23.6870897
20
37.3723282
11
23.5199303
21
37.3723282
0
LINE
8
DEFAULT_255_1_388
10
23.5081839
20
36.7488688
11
23.6762469
21
36.7488688
0
LINE
8
DEFAULT_255_1_388
10
23.9012345
20
37.0045775
11
23.775639
21
37.0045775
0
ARC
8
DEFAULT_255_1_388
10
23.8979571
20
37.5226922
40
0.3816905
50
270.491971
51
281.8953028
0
ARC
8
DEFAULT_255_1_388
10
23.9250998
20
37.3987199
40
0.2547877
50
281.6690378
51
301.2943765
0
ARC
8
DEFAULT_255_1_388
10
23.9442449
20
37.3636926
40
0.2149197
50
301.7834992
51
311.754567
0
ARC
8
DEFAULT_255_1_388
10
23.9545491
20
37.352265
40
0.1995326
50
311.7325027
51
354.2803031
0
ARC
8
DEFAULT_255_1_388
10
23.8727907
20
37.366328
40
0.2823461
50
353.0941646
51
0.1174696
0
ARC
8
DEFAULT_255_1_388
10
23.8209465
20
37.3716874
40
0.3342238
50
359.1804452
51
15.0452323
0
ARC
8
DEFAULT_255_1_388
10
23.9723523
20
37.4158546
40
0.1765747
50
13.957816
51
77.6713812
0
ARC
8
DEFAULT_255_1_388
10
23.9288759
20
37.2600464
40
0.3381982
50
76.111571
51
90.7028736
0
ARC
8
DEFAULT_255_1_388
10
23.9222171
20
37.290825
40
0.3074046
50
89.5321574
51
103.5319393
0
ARC
8
DEFAULT_255_1_388
10
23.8996555
20
37.3807443
40
0.2147041
50
103.2930114
51
133.5619756
0
ARC
8
DEFAULT_255_1_388
10
23.8946496
20
37.3874351
40
0.2064084
50
133.8349761
51
173.5343225
0
ARC
8
DEFAULT_255_1_388
10
23.9760154
20
37.3730144
40
0.2889266
50
172.5097183
51
180.1360699
0
ARC
8
DEFAULT_255_1_388
10
23.8689918
20
37.376888
40
0.3490913
50
155.3483706
51
180.7484035
0
ARC
8
DEFAULT_255_1_388
10
23.8634893
20
37.3736519
40
0.3454798
50
131.5745177
51
154.4799474
0
ARC
8
DEFAULT_255_1_388
10
23.8987176
20
37.3380422
40
0.3955058
50
96.9874487
51
131.9690874
0
ARC
8
DEFAULT_255_1_388
10
23.9234068
20
37.1979407
40
0.537622
50
89.8592909
51
97.7827481
0
ARC
8
DEFAULT_255_1_388
10
23.9288177
20
37.168436
40
0.5671399
50
78.3654493
51
90.4132586
0
ARC
8
DEFAULT_255_1_388
10
23.9690819
20
37.3550918
40
0.3762034
50
56.6229818
51
78.6387103
0
ARC
8
DEFAULT_255_1_388
10
23.9932648
20
37.3973846
40
0.3275964
50
47.0254604
51
56.085558
0
ARC
8
DEFAULT_255_1_388
10
23.9954899
20
37.4018189
40
0.3228382
50
10.9207523
51
46.777927
0
ARC
8
DEFAULT_255_1_388
10
23.8420493
20
37.3663401
40
0.4802559
50
359.6364235
51
11.6087615
0
ARC
8
DEFAULT_255_1_388
10
24.0484658
20
37.3646404
40
0.273833
50
332.3549969
51
359.7179765
0
ARC
8
DEFAULT_255_1_388
10
23.9753059
20
37.3993285
40
0.3547505
50
325.2332381
51
332.8746682
0
ARC
8
DEFAULT_255_1_388
10
23.9924642
20
37.3873763
40
0.3338396
50
292.9803892
51
325.2391113
0
ARC
8
DEFAULT_255_1_388
10
23.9613838
20
37.4478679
40
0.4016959
50
292.542178
51
293.6931461
0
ARC
8
DEFAULT_255_1_388
10
24.005741
20
36.7213036
40
0.372079
50
57.643292
51
72.8626085
0
ARC
8
DEFAULT_255_1_388
10
24.0456244
20
36.7859273
40
0.2961455
50
36.7246661
51
57.4701329
0
ARC
8
DEFAULT_255_1_388
10
24.0443401
20
36.787347
40
0.2963321
50
8.054535
51
36.3561529
0
ARC
8
DEFAULT_255_1_388
10
23.9473074
20
36.7699073
40
0.3948682
50
359.8316595
51
8.5873361
0
ARC
8
DEFAULT_255_1_388
10
23.9050548
20
36.764497
40
0.4371398
50
343.9831631
51
0.557075
0
ARC
8
DEFAULT_255_1_388
10
24.0047597
20
36.7371963
40
0.3337749
50
311.6358204
51
343.7652116
0
ARC
8
DEFAULT_255_1_388
10
23.9621851
20
36.7851955
40
0.3979351
50
279.7829743
51
311.625622
0
ARC
8
DEFAULT_255_1_388
10
23.9282986
20
36.9468642
40
0.5630417
50
269.7285092
51
280.3857694
0
ARC
8
DEFAULT_255_1_388
10
23.9213299
20
36.9422241
40
0.5584119
50
256.6827433
51
270.4412869
0
ARC
8
DEFAULT_255_1_388
10
23.8832286
20
36.7864698
40
0.3980715
50
229.4223821
51
256.8554507
0
ARC
8
DEFAULT_255_1_388
10
23.8365839
20
36.7339683
40
0.3278564
50
181.8183354
51
229.6455015
0
ARC
8
DEFAULT_255_1_388
10
23.9535449
20
36.7486825
40
0.4453611
50
179.9760419
51
183.2330638
0
ARC
8
DEFAULT_255_1_388
10
23.9342001
20
36.7463781
40
0.2579652
50
179.4467996
51
196.2871626
0
ARC
8
DEFAULT_255_1_388
10
23.8793455
20
36.7313709
40
0.2011057
50
196.5661293
51
227.7059371
0
ARC
8
DEFAULT_255_1_388
10
23.8978062
20
36.7520155
40
0.2287994
50
227.7653015
51
257.8763321
0
ARC
8
DEFAULT_255_1_388
10
23.9231145
20
36.8580961
40
0.3378385
50
257.4583525
51
270.4267406
0
ARC
8
DEFAULT_255_1_388
10
23.9282395
20
36.890723
40
0.3704652
50
269.5965319
51
280.8788143
0
ARC
8
DEFAULT_255_1_388
10
23.9540623
20
36.7617529
40
0.2389415
50
280.6347277
51
299.8594068
0
ARC
8
DEFAULT_255_1_388
10
23.9755392
20
36.7209736
40
0.19289
50
300.3575552
51
314.5515667
0
ARC
8
DEFAULT_255_1_388
10
23.9662068
20
36.7278025
40
0.204312
50
315.0730962
51
345.0429362
0
ARC
8
DEFAULT_255_1_388
10
23.8623575
20
36.7580539
40
0.31246
50
344.598526
51
357.9270698
0
ARC
8
DEFAULT_255_1_388
10
23.761388
20
36.7649705
40
0.4136265
50
357.4755098
51
0.0224936
0
ARC
8
DEFAULT_255_1_388
10
23.8766758
20
36.7677099
40
0.2983498
50
359.5051035
51
13.4236939
0
ARC
8
DEFAULT_255_1_388
10
23.9741848
20
36.7926637
40
0.1977186
50
12.9497905
51
48.7550905
0
ARC
8
DEFAULT_255_1_388
10
23.953677
20
36.7646373
40
0.2323321
50
49.509109
51
72.1832965
0
ARC
8
DEFAULT_255_1_388
10
23.9134238
20
36.6451632
40
0.358397
50
71.9008458
51
84.3555134
0
ARC
8
DEFAULT_255_1_388
10
23.8952633
20
36.4919712
40
0.512641
50
84.019632
51
89.3326067
0
LINE
8
DEFAULT_255_1_388
10
20.9447716
20
44.3394
11
20.7694801
21
44.3394
0
LINE
8
DEFAULT_255_1_388
10
20.5806351
20
44.9321383
11
20.7432767
21
44.9321383
0
LINE
8
DEFAULT_255_1_388
10
20.7432767
20
44.9321383
11
20.7432767
21
45.0089413
0
LINE
8
DEFAULT_255_1_388
10
20.3258299
20
45.0459874
11
20.1577669
21
45.0459874
0
LINE
8
DEFAULT_255_1_388
10
20.9104361
20
45.0179769
11
20.9104361
21
44.5680018
0
LINE
8
DEFAULT_255_1_388
10
20.9447716
20
44.353857
11
20.9447716
21
44.3394
0
LINE
8
DEFAULT_255_1_388
10
20.7432767
20
44.61318
11
20.7432767
21
44.8137713
0
LINE
8
DEFAULT_255_1_388
10
20.7432767
20
44.8137713
11
20.6122599
21
44.8137713
0
ARC
8
DEFAULT_255_1_388
10
20.886395
20
44.39611
40
0.1299428
50
197.0784902
51
205.8758668
0
ARC
8
DEFAULT_255_1_388
10
21.0258536
20
44.4402959
40
0.2762313
50
192.2927663
51
197.3441989
0
ARC
8
DEFAULT_255_1_388
10
21.2454042
20
44.489076
40
0.5011345
50
189.1573793
51
192.3977084
0
ARC
8
DEFAULT_255_1_388
10
21.5618888
20
44.5406878
40
0.8217995
50
186.8686098
51
189.1982636
0
ARC
8
DEFAULT_255_1_388
10
20.4563979
20
44.714726
40
0.3975173
50
294.0079259
51
316.7603918
0
ARC
8
DEFAULT_255_1_388
10
20.4709162
20
44.6942902
40
0.3729755
50
269.5043226
51
293.2478373
0
ARC
8
DEFAULT_255_1_388
10
20.4642214
20
44.7393915
40
0.4180772
50
255.4034155
51
270.4753052
0
ARC
8
DEFAULT_255_1_388
10
20.4383427
20
44.6389652
40
0.3143705
50
228.6141063
51
255.3550831
0
ARC
8
DEFAULT_255_1_388
10
20.4009409
20
44.603154
40
0.2628114
50
181.8954381
51
229.5703134
0
ARC
8
DEFAULT_255_1_388
10
20.4674345
20
44.6103824
40
0.329546
50
179.9848815
51
182.7691528
0
ARC
8
DEFAULT_255_1_388
10
20.4581411
20
44.6142827
40
0.3202753
50
161.0342928
51
180.6822077
0
ARC
8
DEFAULT_255_1_388
10
20.4087026
20
44.6271422
40
0.2693695
50
125.0525065
51
160.2034058
0
ARC
8
DEFAULT_255_1_388
10
20.4831748
20
44.5255275
40
0.3953338
50
106.2670809
51
125.4300189
0
ARC
8
DEFAULT_255_1_388
10
20.5475789
20
44.3150795
40
0.6154041
50
95.4857579
51
106.5348562
0
ARC
8
DEFAULT_255_1_388
10
20.5783077
20
44.0338993
40
0.8982419
50
89.8515405
51
95.7222579
0
ARC
8
DEFAULT_255_1_388
10
20.5063658
20
45.0109925
40
0.2369198
50
359.5039339
51
14.3181205
0
ARC
8
DEFAULT_255_1_388
10
20.5709662
20
45.0277862
40
0.170173
50
14.2184556
51
45.2028524
0
ARC
8
DEFAULT_255_1_388
10
20.5750358
20
45.0293862
40
0.1661795
50
45.8098216
51
73.0032926
0
ARC
8
DEFAULT_255_1_388
10
20.5470185
20
44.943726
40
0.2562942
50
72.6112517
51
85.7231489
0
ARC
8
DEFAULT_255_1_388
10
20.5368969
20
44.8410339
40
0.3594635
50
85.335019
51
90.0855069
0
ARC
8
DEFAULT_255_1_388
10
20.5342402
20
44.9074472
40
0.2930574
50
89.5854741
51
103.459124
0
ARC
8
DEFAULT_255_1_388
10
20.5170941
20
44.9789134
40
0.2195632
50
103.448332
51
126.5403399
0
ARC
8
DEFAULT_255_1_388
10
20.4901918
20
45.0133224
40
0.1759039
50
126.1730306
51
141.5008224
0
ARC
8
DEFAULT_255_1_388
10
20.4476233
20
45.0467266
40
0.1217955
50
141.3332087
51
180.3477313
0
ARC
8
DEFAULT_255_1_388
10
20.3717656
20
45.0447904
40
0.214002
50
151.6373605
51
179.6795088
0
ARC
8
DEFAULT_255_1_388
10
20.4394892
20
45.0110768
40
0.2896224
50
142.4981529
51
152.1330509
0
ARC
8
DEFAULT_255_1_388
10
20.4752896
20
44.9829781
40
0.3351307
50
120.8284906
51
142.4132156
0
ARC
8
DEFAULT_255_1_388
10
20.5220872
20
44.9097185
40
0.4220297
50
113.9634885
51
121.1871733
0
ARC
8
DEFAULT_255_1_388
10
20.5374181
20
44.8723705
40
0.4623867
50
93.3784336
51
113.8197902
0
ARC
8
DEFAULT_255_1_388
10
20.5460563
20
44.7862549
40
0.5488732
50
89.9745993
51
93.7488475
0
ARC
8
DEFAULT_255_1_388
10
20.5499809
20
44.7903587
40
0.5447818
50
79.1327128
51
90.3871707
0
ARC
8
DEFAULT_255_1_388
10
20.5865573
20
44.9731597
40
0.3583662
50
60.1434453
51
79.365517
0
ARC
8
DEFAULT_255_1_388
10
20.6154339
20
45.0286195
40
0.2959028
50
48.6191018
51
59.6466565
0
ARC
8
DEFAULT_255_1_388
10
20.6208051
20
45.0357356
40
0.2870136
50
9.0349502
51
48.4845487
0
ARC
8
DEFAULT_255_1_388
10
20.499735
20
45.0093084
40
0.4107927
50
1.2091359
51
10.0234369
0
ARC
8
DEFAULT_255_1_388
10
21.7694798
20
44.5652422
40
0.8590481
50
179.8159449
51
185.3205667
0
ARC
8
DEFAULT_255_1_388
10
21.4662643
20
44.5362945
40
0.5544553
50
185.2475628
51
192.7952551
0
ARC
8
DEFAULT_255_1_388
10
21.2680467
20
44.4908024
40
0.3510853
50
192.7195981
51
202.9584216
0
ARC
8
DEFAULT_255_1_388
10
20.4920503
20
44.7605895
40
0.2937869
50
270.006916
51
300.503478
0
ARC
8
DEFAULT_255_1_388
10
20.5058438
20
44.7461888
40
0.2744162
50
299.5482616
51
315.609538
0
ARC
8
DEFAULT_255_1_388
10
20.5384734
20
44.7128072
40
0.2277499
50
315.8682065
51
334.0592465
0
ARC
8
DEFAULT_255_1_388
10
20.6073708
20
44.02919
40
0.7845965
50
89.64297
51
97.2867877
0
ARC
8
DEFAULT_255_1_388
10
20.5577305
20
44.4008936
40
0.4096042
50
96.9938706
51
109.7783917
0
ARC
8
DEFAULT_255_1_388
10
20.4828768
20
44.6012851
40
0.1957225
50
109.0087985
51
135.3265591
0
ARC
8
DEFAULT_255_1_388
10
20.4521187
20
44.6393764
40
0.1471704
50
137.4537784
51
182.1083946
0
ARC
8
DEFAULT_255_1_388
10
20.4941887
20
44.6321101
40
0.1891498
50
179.4390335
51
195.7201623
0
ARC
8
DEFAULT_255_1_388
10
20.4478922
20
44.6194585
40
0.1411576
50
195.8683556
51
230.157074
0
ARC
8
DEFAULT_255_1_388
10
20.4751645
20
44.6521228
40
0.1837102
50
230.1532486
51
259.7486257
0
ARC
8
DEFAULT_255_1_388
10
20.4907687
20
44.7256472
40
0.258848
50
259.2461118
51
270.2915316
0
LINE
8
DEFAULT_255_1_388
10
21.9504388
20
45.6549898
11
22.1248268
21
45.6549898
0
LINE
8
DEFAULT_255_1_388
10
22.1248268
20
45.6549898
11
22.1248268
21
44.760461
0
LINE
8
DEFAULT_255_1_388
10
21.6929229
20
44.3231358
11
21.6468412
21
44.3213287
0
LINE
8
DEFAULT_255_1_388
10
21.1724698
20
44.7586539
11
21.1724698
21
45.6549898
0
LINE
8
DEFAULT_255_1_388
10
21.1724698
20
45.6549898
11
21.3441471
21
45.6549898
0
LINE
8
DEFAULT_255_1_388
10
21.3441471
20
45.6549898
11
21.3441471
21
44.7640753
0
LINE
8
DEFAULT_255_1_388
10
21.9504388
20
44.7631717
11
21.9504388
21
45.6549898
0
ARC
8
DEFAULT_255_1_388
10
21.6351066
20
44.758227
40
0.4897252
50
343.0897723
51
0.2613727
0
ARC
8
DEFAULT_255_1_388
10
21.7283037
20
44.732227
40
0.3930016
50
315.3344451
51
342.7642569
0
ARC
8
DEFAULT_255_1_388
10
21.7031533
20
44.7583085
40
0.4292244
50
284.6605441
51
315.2183439
0
ARC
8
DEFAULT_255_1_388
10
21.6519313
20
44.9322508
40
0.6104926
50
273.8500371
51
285.1796441
0
ARC
8
DEFAULT_255_1_388
10
21.6420377
20
44.9706762
40
0.6493653
50
257.6315393
51
270.4238259
0
ARC
8
DEFAULT_255_1_388
10
21.5942461
20
44.7657915
40
0.4390079
50
230.6086859
51
257.9965362
0
ARC
8
DEFAULT_255_1_388
10
21.5796519
20
44.7428643
40
0.4120404
50
227.745033
51
230.1538266
0
ARC
8
DEFAULT_255_1_388
10
21.5643048
20
44.7244253
40
0.3880742
50
189.2524335
51
227.5915299
0
ARC
8
DEFAULT_255_1_388
10
21.7354919
20
44.7612735
40
0.5630282
50
180.2665782
51
190.1525221
0
ARC
8
DEFAULT_255_1_388
10
21.7604647
20
44.7609254
40
0.4163296
50
179.566507
51
191.9954402
0
ARC
8
DEFAULT_255_1_388
10
21.6223336
20
44.7301151
40
0.274815
50
191.6974619
51
215.1403758
0
ARC
8
DEFAULT_255_1_388
10
21.5955728
20
44.7141689
40
0.2437647
50
215.6958251
51
224.8509274
0
ARC
8
DEFAULT_255_1_388
10
21.6018205
20
44.7231016
40
0.2545012
50
225.2846515
51
255.0110023
0
ARC
8
DEFAULT_255_1_388
10
21.6382651
20
44.8484017
40
0.384974
50
254.5945979
51
267.9129427
0
ARC
8
DEFAULT_255_1_388
10
21.6466344
20
44.9701444
40
0.506956
50
267.4687563
51
270.0233681
0
ARC
8
DEFAULT_255_1_388
10
21.6500339
20
44.9041288
40
0.440952
50
269.5851384
51
281.1845308
0
ARC
8
DEFAULT_255_1_388
10
21.6813943
20
44.7519469
40
0.2855802
50
280.9345159
51
300.9740496
0
ARC
8
DEFAULT_255_1_388
10
21.7053123
20
44.7079128
40
0.2355257
50
301.4982546
51
315.1468616
0
ARC
8
DEFAULT_255_1_388
10
21.689062
20
44.7212488
40
0.2564594
50
315.5952932
51
345.6679188
0
ARC
8
DEFAULT_255_1_388
10
21.5631177
20
44.7563235
40
0.3871766
50
345.2525685
51
358.6303941
0
ARC
8
DEFAULT_255_1_388
10
21.4487567
20
44.7630695
40
0.5016822
50
358.1723541
51
0.0116795
0
LINE
8
DEFAULT_255_1_388
10
22.4600492
20
45.6549898
11
22.8341249
21
44.5698089
0
LINE
8
DEFAULT_255_1_388
10
22.8341249
20
44.5698089
11
23.2100077
21
45.6549898
0
LINE
8
DEFAULT_255_1_388
10
23.2100077
20
45.6549898
11
23.3997562
21
45.6549898
0
LINE
8
DEFAULT_255_1_388
10
23.3997562
20
45.6549898
11
22.9118314
21
44.3394
0
LINE
8
DEFAULT_255_1_388
10
22.9118314
20
44.3394
11
22.7582254
21
44.3394
0
LINE
8
DEFAULT_255_1_388
10
22.7582254
20
44.3394
11
22.2712042
21
45.6549898
0
LINE
8
DEFAULT_255_1_388
10
22.2712042
20
45.6549898
11
22.4600492
21
45.6549898
0
LINE
8
DEFAULT_255_1_388
10
24.3945807
20
44.4758382
11
24.3945807
21
44.3394
0
LINE
8
DEFAULT_255_1_388
10
24.3945807
20
44.3394
11
23.5325802
21
44.3394
0
LINE
8
DEFAULT_255_1_388
10
23.5325802
20
44.3394
11
23.5325802
21
44.4595741
0
LINE
8
DEFAULT_255_1_388
10
23.5325802
20
44.4595741
11
23.9879767
21
44.9655702
0
LINE
8
DEFAULT_255_1_388
10
23.6744398
20
45.2673607
11
23.5072804
21
45.2673607
0
LINE
8
DEFAULT_255_1_388
10
24.0864652
20
44.858046
11
23.734075
21
44.4758382
0
LINE
8
DEFAULT_255_1_388
10
23.734075
20
44.4758382
11
24.3945807
21
44.4758382
0
ARC
8
DEFAULT_255_1_388
10
22.4703826
20
46.3075983
40
2.0258655
50
318.5132526
51
320.7829045
0
ARC
8
DEFAULT_255_1_388
10
23.0651783
20
45.8234929
40
1.2589638
50
320.7372878
51
323.9739031
0
ARC
8
DEFAULT_255_1_388
10
23.5060715
20
45.5040554
40
0.7145141
50
323.8962701
51
328.64194
0
ARC
8
DEFAULT_255_1_388
10
23.7362972
20
45.3620545
40
0.4440242
50
328.8294576
51
331.7891185
0
ARC
8
DEFAULT_255_1_388
10
23.8485292
20
45.3041374
40
0.3177517
50
331.4254512
51
352.9365785
0
ARC
8
DEFAULT_255_1_388
10
23.8638292
20
45.300705
40
0.3021496
50
353.2257659
51
0.0166158
0
ARC
8
DEFAULT_255_1_388
10
23.8875053
20
45.3032894
40
0.2784847
50
359.486299
51
15.9343185
0
ARC
8
DEFAULT_255_1_388
10
23.944532
20
45.3186269
40
0.2194403
50
16.1712913
51
43.5286088
0
ARC
8
DEFAULT_255_1_388
10
23.9532264
20
45.3273191
40
0.2071504
50
43.4417391
51
83.1661095
0
ARC
8
DEFAULT_255_1_388
10
23.9381425
20
45.2444316
40
0.2912888
50
82.160179
51
90.1505708
0
ARC
8
DEFAULT_255_1_388
10
23.9345907
20
45.1840279
40
0.3517025
50
89.5460741
51
102.5418361
0
ARC
8
DEFAULT_255_1_388
10
23.9072627
20
45.2999933
40
0.2325748
50
102.1738499
51
129.206123
0
ARC
8
DEFAULT_255_1_388
10
23.898408
20
45.3139664
40
0.2161591
50
129.72865
51
135.753947
0
ARC
8
DEFAULT_255_1_388
10
23.9120563
20
45.3030728
40
0.2335433
50
136.1757367
51
166.3673339
0
ARC
8
DEFAULT_255_1_388
10
24.0253251
20
45.2727148
40
0.3507873
50
165.9090694
51
178.8684636
0
ARC
8
DEFAULT_255_1_388
10
24.1229022
20
45.2674263
40
0.4484624
50
178.4391136
51
180.0083808
0
ARC
8
DEFAULT_255_1_388
10
23.9649724
20
45.2718197
40
0.4577138
50
163.2878482
51
180.5581842
0
ARC
8
DEFAULT_255_1_388
10
23.8747765
20
45.2966393
40
0.3641968
50
133.4540601
51
162.947111
0
ARC
8
DEFAULT_255_1_388
10
23.8948647
20
45.2752789
40
0.3935189
50
100.7869829
51
133.4382499
0
ARC
8
DEFAULT_255_1_388
10
23.9339892
20
45.1010399
40
0.5720313
50
89.660664
51
101.3702276
0
ARC
8
DEFAULT_255_1_388
10
23.9414501
20
45.1079263
40
0.5651495
50
78.2172678
51
90.412935
0
ARC
8
DEFAULT_255_1_388
10
23.9813967
20
45.2906511
40
0.378122
50
55.9269121
51
78.4888449
0
ARC
8
DEFAULT_255_1_388
10
24.0034682
20
45.3287187
40
0.3342379
50
47.929771
51
55.4049217
0
ARC
8
DEFAULT_255_1_388
10
24.0149212
20
45.3403618
40
0.3179217
50
4.334829
51
48.0560205
0
ARC
8
DEFAULT_255_1_388
10
23.8917014
20
45.3212487
40
0.442341
50
359.9251713
51
5.5971671
0
ARC
8
DEFAULT_255_1_388
10
23.9399168
20
45.3275728
40
0.3941854
50
337.8914027
51
358.9967534
0
ARC
8
DEFAULT_255_1_388
10
23.6346739
20
45.4453295
40
0.7213271
50
326.9132501
51
338.3508308
0
ARC
8
DEFAULT_255_1_388
10
23.186285
20
45.7327105
40
1.2538973
50
319.6471833
51
327.0959558
0
ARC
8
DEFAULT_255_1_388
10
22.7549509
20
46.088505
40
1.8129975
50
317.2588228
51
319.9045804
0
LINE
8
DEFAULT_255_1_388
10
20.9534716
20
52.2769
11
20.7781801
21
52.2769
0
LINE
8
DEFAULT_255_1_388
10
20.5893351
20
52.8696383
11
20.7519767
21
52.8696383
0
LINE
8
DEFAULT_255_1_388
10
20.7519767
20
52.8696383
11
20.7519767
21
52.9464413
0
LINE
8
DEFAULT_255_1_388
10
20.3345299
20
52.9834874
11
20.1664669
21
52.9834874
0
LINE
8
DEFAULT_255_1_388
10
20.9191361
20
52.9554769
11
20.9191361
21
52.5055018
0
LINE
8
DEFAULT_255_1_388
10
20.9534716
20
52.291357
11
20.9534716
21
52.2769
0
LINE
8
DEFAULT_255_1_388
10
20.7519767
20
52.55068
11
20.7519767
21
52.7512713
0
LINE
8
DEFAULT_255_1_388
10
20.7519767
20
52.7512713
11
20.6209599
21
52.7512713
0
ARC
8
DEFAULT_255_1_388
10
20.895095
20
52.33361
40
0.1299428
50
197.0784902
51
205.8758668
0
ARC
8
DEFAULT_255_1_388
10
21.0345536
20
52.3777959
40
0.2762313
50
192.2927663
51
197.3441989
0
ARC
8
DEFAULT_255_1_388
10
21.2541042
20
52.426576
40
0.5011345
50
189.1573793
51
192.3977084
0
ARC
8
DEFAULT_255_1_388
10
21.5705888
20
52.4781878
40
0.8217995
50
186.8686098
51
189.1982636
0
ARC
8
DEFAULT_255_1_388
10
20.4650979
20
52.652226
40
0.3975173
50
294.0079259
51
316.7603918
0
ARC
8
DEFAULT_255_1_388
10
20.4796162
20
52.6317902
40
0.3729755
50
269.5043226
51
293.2478373
0
ARC
8
DEFAULT_255_1_388
10
20.4729214
20
52.6768915
40
0.4180772
50
255.4034155
51
270.4753052
0
ARC
8
DEFAULT_255_1_388
10
20.4470427
20
52.5764652
40
0.3143705
50
228.6141063
51
255.3550831
0
ARC
8
DEFAULT_255_1_388
10
20.4096409
20
52.540654
40
0.2628114
50
181.8954381
51
229.5703134
0
ARC
8
DEFAULT_255_1_388
10
20.4761345
20
52.5478824
40
0.329546
50
179.9848815
51
182.7691528
0
ARC
8
DEFAULT_255_1_388
10
20.4668411
20
52.5517827
40
0.3202753
50
161.0342928
51
180.6822077
0
ARC
8
DEFAULT_255_1_388
10
20.4174026
20
52.5646422
40
0.2693695
50
125.0525065
51
160.2034058
0
ARC
8
DEFAULT_255_1_388
10
20.4918748
20
52.4630275
40
0.3953338
50
106.2670809
51
125.4300189
0
ARC
8
DEFAULT_255_1_388
10
20.5562789
20
52.2525795
40
0.6154041
50
95.4857579
51
106.5348562
0
ARC
8
DEFAULT_255_1_388
10
20.5870077
20
51.9713993
40
0.8982419
50
89.8515405
51
95.7222579
0
ARC
8
DEFAULT_255_1_388
10
20.5150658
20
52.9484925
40
0.2369198
50
359.5039339
51
14.3181205
0
ARC
8
DEFAULT_255_1_388
10
20.5796662
20
52.9652862
40
0.170173
50
14.2184556
51
45.2028524
0
ARC
8
DEFAULT_255_1_388
10
20.5837358
20
52.9668862
40
0.1661795
50
45.8098216
51
73.0032926
0
ARC
8
DEFAULT_255_1_388
10
20.5557185
20
52.881226
40
0.2562942
50
72.6112517
51
85.7231489
0
ARC
8
DEFAULT_255_1_388
10
20.5455969
20
52.7785339
40
0.3594635
50
85.335019
51
90.0855069
0
ARC
8
DEFAULT_255_1_388
10
20.5429402
20
52.8449472
40
0.2930574
50
89.5854741
51
103.459124
0
ARC
8
DEFAULT_255_1_388
10
20.5257941
20
52.9164134
40
0.2195632
50
103.448332
51
126.5403399
0
ARC
8
DEFAULT_255_1_388
10
20.4988918
20
52.9508224
40
0.1759039
50
126.1730306
51
141.5008224
0
ARC
8
DEFAULT_255_1_388
10
20.4563233
20
52.9842266
40
0.1217955
50
141.3332087
51
180.3477313
0
ARC
8
DEFAULT_255_1_388
10
20.3804656
20
52.9822904
40
0.214002
50
151.6373605
51
179.6795088
0
ARC
8
DEFAULT_255_1_388
10
20.4481892
20
52.9485768
40
0.2896224
50
142.4981529
51
152.1330509
0
ARC
8
DEFAULT_255_1_388
10
20.4839896
20
52.9204781
40
0.3351307
50
120.8284906
51
142.4132156
0
ARC
8
DEFAULT_255_1_388
10
20.5307872
20
52.8472185
40
0.4220297
50
113.9634885
51
121.1871733
0
ARC
8
DEFAULT_255_1_388
10
20.5461181
20
52.8098705
40
0.4623867
50
93.3784336
51
113.8197902
0
ARC
8
DEFAULT_255_1_388
10
20.5547563
20
52.7237549
40
0.5488732
50
89.9745993
51
93.7488475
0
ARC
8
DEFAULT_255_1_388
10
20.5586809
20
52.7278587
40
0.5447818
50
79.1327128
51
90.3871707
0
ARC
8
DEFAULT_255_1_388
10
20.5952573
20
52.9106597
40
0.3583662
50
60.1434453
51
79.365517
0
ARC
8
DEFAULT_255_1_388
10
20.6241339
20
52.9661195
40
0.2959028
50
48.6191018
51
59.6466565
0
ARC
8
DEFAULT_255_1_388
10
20.6295051
20
52.9732356
40
0.2870136
50
9.0349502
51
48.4845487
0
ARC
8
DEFAULT_255_1_388
10
20.508435
20
52.9468084
40
0.4107927
50
1.2091359
51
10.0234369
0
ARC
8
DEFAULT_255_1_388
10
21.7781798
20
52.5027422
40
0.8590481
50
179.8159449
51
185.3205667
0
ARC
8
DEFAULT_255_1_388
10
21.4749643
20
52.4737945
40
0.5544553
50
185.2475628
51
192.7952551
0
ARC
8
DEFAULT_255_1_388
10
21.2767467
20
52.4283024
40
0.3510853
50
192.7195981
51
202.9584216
0
ARC
8
DEFAULT_255_1_388
10
20.5007503
20
52.6980895
40
0.2937869
50
270.006916
51
300.503478
0
ARC
8
DEFAULT_255_1_388
10
20.5145438
20
52.6836888
40
0.2744162
50
299.5482616
51
315.609538
0
ARC
8
DEFAULT_255_1_388
10
20.5471734
20
52.6503072
40
0.2277499
50
315.8682065
51
334.0592465
0
ARC
8
DEFAULT_255_1_388
10
20.6160708
20
51.96669
40
0.7845965
50
89.64297
51
97.2867877
0
ARC
8
DEFAULT_255_1_388
10
20.5664305
20
52.3383936
40
0.4096042
50
96.9938706
51
109.7783917
0
ARC
8
DEFAULT_255_1_388
10
20.4915768
20
52.5387851
40
0.1957225
50
109.0087985
51
135.3265591
0
ARC
8
DEFAULT_255_1_388
10
20.4608187
20
52.5768764
40
0.1471704
50
137.4537784
51
182.1083946
0
ARC
8
DEFAULT_255_1_388
10
20.5028887
20
52.5696101
40
0.1891498
50
179.4390335
51
195.7201623
0
ARC
8
DEFAULT_255_1_388
10
20.4565922
20
52.5569585
40
0.1411576
50
195.8683556
51
230.157074
0
ARC
8
DEFAULT_255_1_388
10
20.4838645
20
52.5896228
40
0.1837102
50
230.1532486
51
259.7486257
0
ARC
8
DEFAULT_255_1_388
10
20.4994687
20
52.6631472
40
0.258848
50
259.2461118
51
270.2915316
0
LINE
8
DEFAULT_255_1_388
10
21.9591388
20
53.5924898
11
22.1335268
21
53.5924898
0
LINE
8
DEFAULT_255_1_388
10
22.1335268
20
53.5924898
11
22.1335268
21
52.697961
0
LINE
8
DEFAULT_255_1_388
10
21.7016229
20
52.2606358
11
21.6555412
21
52.2588287
0
LINE
8
DEFAULT_255_1_388
10
21.1811698
20
52.6961539
11
21.1811698
21
53.5924898
0
LINE
8
DEFAULT_255_1_388
10
21.1811698
20
53.5924898
11
21.3528471
21
53.5924898
0
LINE
8
DEFAULT_255_1_388
10
21.3528471
20
53.5924898
11
21.3528471
21
52.7015753
0
LINE
8
DEFAULT_255_1_388
10
21.9591388
20
52.7006717
11
21.9591388
21
53.5924898
0
ARC
8
DEFAULT_255_1_388
10
21.6438066
20
52.695727
40
0.4897252
50
343.0897723
51
0.2613727
0
ARC
8
DEFAULT_255_1_388
10
21.7370037
20
52.669727
40
0.3930016
50
315.3344451
51
342.7642569
0
ARC
8
DEFAULT_255_1_388
10
21.7118533
20
52.6958085
40
0.4292244
50
284.6605441
51
315.2183439
0
ARC
8
DEFAULT_255_1_388
10
21.6606313
20
52.8697508
40
0.6104926
50
273.8500371
51
285.1796441
0
ARC
8
DEFAULT_255_1_388
10
21.6507377
20
52.9081762
40
0.6493653
50
257.6315393
51
270.4238259
0
ARC
8
DEFAULT_255_1_388
10
21.6029461
20
52.7032915
40
0.4390079
50
230.6086859
51
257.9965362
0
ARC
8
DEFAULT_255_1_388
10
21.5883519
20
52.6803643
40
0.4120404
50
227.745033
51
230.1538266
0
ARC
8
DEFAULT_255_1_388
10
21.5730048
20
52.6619253
40
0.3880742
50
189.2524335
51
227.5915299
0
ARC
8
DEFAULT_255_1_388
10
21.7441919
20
52.6987735
40
0.5630282
50
180.2665782
51
190.1525221
0
ARC
8
DEFAULT_255_1_388
10
21.7691647
20
52.6984254
40
0.4163296
50
179.566507
51
191.9954402
0
ARC
8
DEFAULT_255_1_388
10
21.6310336
20
52.6676151
40
0.274815
50
191.6974619
51
215.1403758
0
ARC
8
DEFAULT_255_1_388
10
21.6042728
20
52.6516689
40
0.2437647
50
215.6958251
51
224.8509274
0
ARC
8
DEFAULT_255_1_388
10
21.6105205
20
52.6606016
40
0.2545012
50
225.2846515
51
255.0110023
0
ARC
8
DEFAULT_255_1_388
10
21.6469651
20
52.7859017
40
0.384974
50
254.5945979
51
267.9129427
0
ARC
8
DEFAULT_255_1_388
10
21.6553344
20
52.9076444
40
0.506956
50
267.4687563
51
270.0233681
0
ARC
8
DEFAULT_255_1_388
10
21.6587339
20
52.8416288
40
0.440952
50
269.5851384
51
281.1845308
0
ARC
8
DEFAULT_255_1_388
10
21.6900943
20
52.6894469
40
0.2855802
50
280.9345159
51
300.9740496
0
ARC
8
DEFAULT_255_1_388
10
21.7140123
20
52.6454128
40
0.2355257
50
301.4982546
51
315.1468616
0
ARC
8
DEFAULT_255_1_388
10
21.697762
20
52.6587488
40
0.2564594
50
315.5952932
51
345.6679188
0
ARC
8
DEFAULT_255_1_388
10
21.5718177
20
52.6938235
40
0.3871766
50
345.2525685
51
358.6303941
0
ARC
8
DEFAULT_255_1_388
10
21.4574567
20
52.7005695
40
0.5016822
50
358.1723541
51
0.0116795
0
LINE
8
DEFAULT_255_1_388
10
22.4687492
20
53.5924898
11
22.8428249
21
52.5073089
0
LINE
8
DEFAULT_255_1_388
10
22.8428249
20
52.5073089
11
23.2187077
21
53.5924898
0
LINE
8
DEFAULT_255_1_388
10
23.2187077
20
53.5924898
11
23.4084562
21
53.5924898
0
LINE
8
DEFAULT_255_1_388
10
23.4084562
20
53.5924898
11
22.9205314
21
52.2769
0
LINE
8
DEFAULT_255_1_388
10
22.9205314
20
52.2769
11
22.7669254
21
52.2769
0
LINE
8
DEFAULT_255_1_388
10
22.7669254
20
52.2769
11
22.2799042
21
53.5924898
0
LINE
8
DEFAULT_255_1_388
10
22.2799042
20
53.5924898
11
22.4687492
21
53.5924898
0
LINE
8
DEFAULT_255_1_388
10
24.0906474
20
53.5988148
11
24.0906474
21
52.2769
0
LINE
8
DEFAULT_255_1_388
10
24.0906474
20
52.2769
11
23.9225844
21
52.2769
0
LINE
8
DEFAULT_255_1_388
10
23.9225844
20
52.2769
11
23.9225844
21
53.390995
0
LINE
8
DEFAULT_255_1_388
10
23.9225844
20
53.390995
11
23.5855548
21
53.2672066
0
LINE
8
DEFAULT_255_1_388
10
23.5855548
20
53.2672066
11
23.5855548
21
53.4190055
0
LINE
8
DEFAULT_255_1_388
10
23.5855548
20
53.4190055
11
24.064444
21
53.5988148
0
LINE
8
DEFAULT_255_1_388
10
24.064444
20
53.5988148
11
24.0906474
21
53.5988148
0
LINE
8
DEFAULT_255_1_388
10
20.9447716
20
60.2144
11
20.7694801
21
60.2144
0
LINE
8
DEFAULT_255_1_388
10
20.5806351
20
60.8071383
11
20.7432767
21
60.8071383
0
LINE
8
DEFAULT_255_1_388
10
20.7432767
20
60.8071383
11
20.7432767
21
60.8839413
0
LINE
8
DEFAULT_255_1_388
10
20.3258299
20
60.9209874
11
20.1577669
21
60.9209874
0
LINE
8
DEFAULT_255_1_388
10
20.9104361
20
60.8929769
11
20.9104361
21
60.4430018
0
LINE
8
DEFAULT_255_1_388
10
20.9447716
20
60.228857
11
20.9447716
21
60.2144
0
LINE
8
DEFAULT_255_1_388
10
20.7432767
20
60.48818
11
20.7432767
21
60.6887713
0
LINE
8
DEFAULT_255_1_388
10
20.7432767
20
60.6887713
11
20.6122599
21
60.6887713
0
ARC
8
DEFAULT_255_1_388
10
20.886395
20
60.27111
40
0.1299428
50
197.0784902
51
205.8758668
0
ARC
8
DEFAULT_255_1_388
10
21.0258536
20
60.3152959
40
0.2762313
50
192.2927663
51
197.3441989
0
ARC
8
DEFAULT_255_1_388
10
21.2454042
20
60.364076
40
0.5011345
50
189.1573793
51
192.3977084
0
ARC
8
DEFAULT_255_1_388
10
21.5618888
20
60.4156878
40
0.8217995
50
186.8686098
51
189.1982636
0
ARC
8
DEFAULT_255_1_388
10
20.4563979
20
60.589726
40
0.3975173
50
294.0079259
51
316.7603918
0
ARC
8
DEFAULT_255_1_388
10
20.4709162
20
60.5692902
40
0.3729755
50
269.5043226
51
293.2478373
0
ARC
8
DEFAULT_255_1_388
10
20.4642214
20
60.6143915
40
0.4180772
50
255.4034155
51
270.4753052
0
ARC
8
DEFAULT_255_1_388
10
20.4383427
20
60.5139652
40
0.3143705
50
228.6141063
51
255.3550831
0
ARC
8
DEFAULT_255_1_388
10
20.4009409
20
60.478154
40
0.2628114
50
181.8954381
51
229.5703134
0
ARC
8
DEFAULT_255_1_388
10
20.4674345
20
60.4853824
40
0.329546
50
179.9848815
51
182.7691528
0
ARC
8
DEFAULT_255_1_388
10
20.4581411
20
60.4892827
40
0.3202753
50
161.0342928
51
180.6822077
0
ARC
8
DEFAULT_255_1_388
10
20.4087026
20
60.5021422
40
0.2693695
50
125.0525065
51
160.2034058
0
ARC
8
DEFAULT_255_1_388
10
20.4831748
20
60.4005275
40
0.3953338
50
106.2670809
51
125.4300189
0
ARC
8
DEFAULT_255_1_388
10
20.5475789
20
60.1900795
40
0.6154041
50
95.4857579
51
106.5348562
0
ARC
8
DEFAULT_255_1_388
10
20.5783077
20
59.9088993
40
0.8982419
50
89.8515405
51
95.7222579
0
ARC
8
DEFAULT_255_1_388
10
20.5063658
20
60.8859925
40
0.2369198
50
359.5039339
51
14.3181205
0
ARC
8
DEFAULT_255_1_388
10
20.5709662
20
60.9027862
40
0.170173
50
14.2184556
51
45.2028524
0
ARC
8
DEFAULT_255_1_388
10
20.5750358
20
60.9043862
40
0.1661795
50
45.8098216
51
73.0032926
0
ARC
8
DEFAULT_255_1_388
10
20.5470185
20
60.818726
40
0.2562942
50
72.6112517
51
85.7231489
0
ARC
8
DEFAULT_255_1_388
10
20.5368969
20
60.7160339
40
0.3594635
50
85.335019
51
90.0855069
0
ARC
8
DEFAULT_255_1_388
10
20.5342402
20
60.7824472
40
0.2930574
50
89.5854741
51
103.459124
0
ARC
8
DEFAULT_255_1_388
10
20.5170941
20
60.8539134
40
0.2195632
50
103.448332
51
126.5403399
0
ARC
8
DEFAULT_255_1_388
10
20.4901918
20
60.8883224
40
0.1759039
50
126.1730306
51
141.5008224
0
ARC
8
DEFAULT_255_1_388
10
20.4476233
20
60.9217266
40
0.1217955
50
141.3332087
51
180.3477313
0
ARC
8
DEFAULT_255_1_388
10
20.3717656
20
60.9197904
40
0.214002
50
151.6373605
51
179.6795088
0
ARC
8
DEFAULT_255_1_388
10
20.4394892
20
60.8860768
40
0.2896224
50
142.4981529
51
152.1330509
0
ARC
8
DEFAULT_255_1_388
10
20.4752896
20
60.8579781
40
0.3351307
50
120.8284906
51
142.4132156
0
ARC
8
DEFAULT_255_1_388
10
20.5220872
20
60.7847185
40
0.4220297
50
113.9634885
51
121.1871733
0
ARC
8
DEFAULT_255_1_388
10
20.5374181
20
60.7473705
40
0.4623867
50
93.3784336
51
113.8197902
0
ARC
8
DEFAULT_255_1_388
10
20.5460563
20
60.6612549
40
0.5488732
50
89.9745993
51
93.7488475
0
ARC
8
DEFAULT_255_1_388
10
20.5499809
20
60.6653587
40
0.5447818
50
79.1327128
51
90.3871707
0
ARC
8
DEFAULT_255_1_388
10
20.5865573
20
60.8481597
40
0.3583662
50
60.1434453
51
79.365517
0
ARC
8
DEFAULT_255_1_388
10
20.6154339
20
60.9036195
40
0.2959028
50
48.6191018
51
59.6466565
0
ARC
8
DEFAULT_255_1_388
10
20.6208051
20
60.9107356
40
0.2870136
50
9.0349502
51
48.4845487
0
ARC
8
DEFAULT_255_1_388
10
20.499735
20
60.8843084
40
0.4107927
50
1.2091359
51
10.0234369
0
ARC
8
DEFAULT_255_1_388
10
21.7694798
20
60.4402422
40
0.8590481
50
179.8159449
51
185.3205667
0
ARC
8
DEFAULT_255_1_388
10
21.4662643
20
60.4112945
40
0.5544553
50
185.2475628
51
192.7952551
0
ARC
8
DEFAULT_255_1_388
10
21.2680467
20
60.3658024
40
0.3510853
50
192.7195981
51
202.9584216
0
ARC
8
DEFAULT_255_1_388
10
20.4920503
20
60.6355895
40
0.2937869
50
270.006916
51
300.503478
0
ARC
8
DEFAULT_255_1_388
10
20.5058438
20
60.6211888
40
0.2744162
50
299.5482616
51
315.609538
0
ARC
8
DEFAULT_255_1_388
10
20.5384734
20
60.5878072
40
0.2277499
50
315.8682065
51
334.0592465
0
ARC
8
DEFAULT_255_1_388
10
20.6073708
20
59.90419
40
0.7845965
50
89.64297
51
97.2867877
0
ARC
8
DEFAULT_255_1_388
10
20.5577305
20
60.2758936
40
0.4096042
50
96.9938706
51
109.7783917
0
ARC
8
DEFAULT_255_1_388
10
20.4828768
20
60.4762851
40
0.1957225
50
109.0087985
51
135.3265591
0
ARC
8
DEFAULT_255_1_388
10
20.4521187
20
60.5143764
40
0.1471704
50
137.4537784
51
182.1083946
0
ARC
8
DEFAULT_255_1_388
10
20.4941887
20
60.5071101
40
0.1891498
50
179.4390335
51
195.7201623
0
ARC
8
DEFAULT_255_1_388
10
20.4478922
20
60.4944585
40
0.1411576
50
195.8683556
51
230.157074
0
ARC
8
DEFAULT_255_1_388
10
20.4751645
20
60.5271228
40
0.1837102
50
230.1532486
51
259.7486257
0
ARC
8
DEFAULT_255_1_388
10
20.4907687
20
60.6006472
40
0.258848
50
259.2461118
51
270.2915316
0
LINE
8
DEFAULT_255_1_388
10
21.9504388
20
61.5299898
11
22.1248268
21
61.5299898
0
LINE
8
DEFAULT_255_1_388
10
22.1248268
20
61.5299898
11
22.1248268
21
60.635461
0
LINE
8
DEFAULT_255_1_388
10
21.6929229
20
60.1981358
11
21.6468412
21
60.1963287
0
LINE
8
DEFAULT_255_1_388
10
21.1724698
20
60.6336539
11
21.1724698
21
61.5299898
0
LINE
8
DEFAULT_255_1_388
10
21.1724698
20
61.5299898
11
21.3441471
21
61.5299898
0
LINE
8
DEFAULT_255_1_388
10
21.3441471
20
61.5299898
11
21.3441471
21
60.6390753
0
LINE
8
DEFAULT_255_1_388
10
21.9504388
20
60.6381717
11
21.9504388
21
61.5299898
0
ARC
8
DEFAULT_255_1_388
10
21.6351066
20
60.633227
40
0.4897252
50
343.0897723
51
0.2613727
0
ARC
8
DEFAULT_255_1_388
10
21.7283037
20
60.607227
40
0.3930016
50
315.3344451
51
342.7642569
0
ARC
8
DEFAULT_255_1_388
10
21.7031533
20
60.6333085
40
0.4292244
50
284.6605441
51
315.2183439
0
ARC
8
DEFAULT_255_1_388
10
21.6519313
20
60.8072508
40
0.6104926
50
273.8500371
51
285.1796441
0
ARC
8
DEFAULT_255_1_388
10
21.6420377
20
60.8456762
40
0.6493653
50
257.6315393
51
270.4238259
0
ARC
8
DEFAULT_255_1_388
10
21.5942461
20
60.6407915
40
0.4390079
50
230.6086859
51
257.9965362
0
ARC
8
DEFAULT_255_1_388
10
21.5796519
20
60.6178643
40
0.4120404
50
227.745033
51
230.1538266
0
ARC
8
DEFAULT_255_1_388
10
21.5643048
20
60.5994253
40
0.3880742
50
189.2524335
51
227.5915299
0
ARC
8
DEFAULT_255_1_388
10
21.7354919
20
60.6362735
40
0.5630282
50
180.2665782
51
190.1525221
0
ARC
8
DEFAULT_255_1_388
10
21.7604647
20
60.6359254
40
0.4163296
50
179.566507
51
191.9954402
0
ARC
8
DEFAULT_255_1_388
10
21.6223336
20
60.6051151
40
0.274815
50
191.6974619
51
215.1403758
0
ARC
8
DEFAULT_255_1_388
10
21.5955728
20
60.5891689
40
0.2437647
50
215.6958251
51
224.8509274
0
ARC
8
DEFAULT_255_1_388
10
21.6018205
20
60.5981016
40
0.2545012
50
225.2846515
51
255.0110023
0
ARC
8
DEFAULT_255_1_388
10
21.6382651
20
60.7234017
40
0.384974
50
254.5945979
51
267.9129427
0
ARC
8
DEFAULT_255_1_388
10
21.6466344
20
60.8451444
40
0.506956
50
267.4687563
51
270.0233681
0
ARC
8
DEFAULT_255_1_388
10
21.6500339
20
60.7791288
40
0.440952
50
269.5851384
51
281.1845308
0
ARC
8
DEFAULT_255_1_388
10
21.6813943
20
60.6269469
40
0.2855802
50
280.9345159
51
300.9740496
0
ARC
8
DEFAULT_255_1_388
10
21.7053123
20
60.5829128
40
0.2355257
50
301.4982546
51
315.1468616
0
ARC
8
DEFAULT_255_1_388
10
21.689062
20
60.5962488
40
0.2564594
50
315.5952932
51
345.6679188
0
ARC
8
DEFAULT_255_1_388
10
21.5631177
20
60.6313235
40
0.3871766
50
345.2525685
51
358.6303941
0
ARC
8
DEFAULT_255_1_388
10
21.4487567
20
60.6380695
40
0.5016822
50
358.1723541
51
0.0116795
0
LINE
8
DEFAULT_255_1_388
10
22.4600492
20
61.5299898
11
22.8341249
21
60.4448089
0
LINE
8
DEFAULT_255_1_388
10
22.8341249
20
60.4448089
11
23.2100077
21
61.5299898
0
LINE
8
DEFAULT_255_1_388
10
23.2100077
20
61.5299898
11
23.3997562
21
61.5299898
0
LINE
8
DEFAULT_255_1_388
10
23.3997562
20
61.5299898
11
22.9118314
21
60.2144
0
LINE
8
DEFAULT_255_1_388
10
22.9118314
20
60.2144
11
22.7582254
21
60.2144
0
LINE
8
DEFAULT_255_1_388
10
22.7582254
20
60.2144
11
22.2712042
21
61.5299898
0
LINE
8
DEFAULT_255_1_388
10
22.2712042
20
61.5299898
11
22.4600492
21
61.5299898
0
LINE
8
DEFAULT_255_1_388
10
24.3575345
20
60.992369
11
24.3575345
21
60.7755135
0
LINE
8
DEFAULT_255_1_388
10
23.5271588
20
60.7529244
11
23.5271588
21
60.9761048
0
LINE
8
DEFAULT_255_1_388
10
24.1903751
20
60.7303353
11
24.1903751
21
61.0041153
0
LINE
8
DEFAULT_255_1_388
10
23.6943182
20
61.0167652
11
23.6943182
21
60.7493102
0
ARC
8
DEFAULT_255_1_388
10
22.9797679
20
60.7700118
40
1.3777776
50
353.8440855
51
0.2287917
0
ARC
8
DEFAULT_255_1_388
10
23.5016697
20
60.7117414
40
0.852639
50
344.4934746
51
353.9763743
0
ARC
8
DEFAULT_255_1_388
10
23.8383504
20
60.6160191
40
0.5026273
50
329.2803599
51
344.7473406
0
ARC
8
DEFAULT_255_1_388
10
23.9499
20
60.5548038
40
0.3754848
50
324.9361395
51
328.6153007
0
ARC
8
DEFAULT_255_1_388
10
23.9924649
20
60.5250586
40
0.3235566
50
280.5801797
51
324.9173226
0
ARC
8
DEFAULT_255_1_388
10
23.9473278
20
60.7130236
40
0.5167077
50
269.5979457
51
281.6732777
0
ARC
8
DEFAULT_255_1_388
10
23.9392181
20
60.6995113
40
0.5032026
50
256.6228565
51
270.5105488
0
ARC
8
DEFAULT_255_1_388
10
23.8939924
20
60.5253345
40
0.3233092
50
215.8618351
51
257.2787793
0
ARC
8
DEFAULT_255_1_388
10
24.0088631
20
60.6024106
40
0.4615831
50
197.9695203
51
215.2622745
0
ARC
8
DEFAULT_255_1_388
10
24.2884307
20
60.6967641
40
0.7566307
50
187.8816486
51
198.2346584
0
ARC
8
DEFAULT_255_1_388
10
24.7337545
20
60.7610453
40
1.2065653
50
180.8977266
51
188.0054894
0
ARC
8
DEFAULT_255_1_388
10
25.0387759
20
60.77254
40
1.5117443
50
180.7434591
51
181.152202
0
ARC
8
DEFAULT_255_1_388
10
24.8712755
20
60.9815371
40
1.3441277
50
173.7674302
51
180.2315596
0
ARC
8
DEFAULT_255_1_388
10
24.3630624
20
61.0389779
40
0.8326847
50
164.3058537
51
173.9000553
0
ARC
8
DEFAULT_255_1_388
10
24.0354624
20
61.1333652
40
0.4917711
50
148.7922028
51
164.5682288
0
ARC
8
DEFAULT_255_1_388
10
23.9285361
20
61.1930457
40
0.3694204
50
144.5883979
51
148.1161588
0
ARC
8
DEFAULT_255_1_388
10
23.8898106
20
61.2200667
40
0.322202
50
101.6440149
51
144.5142619
0
ARC
8
DEFAULT_255_1_388
10
23.9376299
20
61.0300337
40
0.5180451
50
89.528284
51
102.5820197
0
ARC
8
DEFAULT_255_1_388
10
23.9465291
20
61.0256376
40
0.5224441
50
77.0437914
51
90.508231
0
ARC
8
DEFAULT_255_1_388
10
23.9917544
20
61.2104272
40
0.3322297
50
48.2777708
51
77.4996087
0
ARC
8
DEFAULT_255_1_388
10
23.9999284
20
61.2249557
40
0.315966
50
36.3141586
51
47.6307332
0
ARC
8
DEFAULT_255_1_388
10
23.9022006
20
61.1591159
40
0.4337313
50
18.2931065
51
35.6770203
0
ARC
8
DEFAULT_255_1_388
10
23.6160847
20
61.0609107
40
0.7362203
50
8.0246996
51
18.5605636
0
ARC
8
DEFAULT_255_1_388
10
23.1477203
20
60.9917432
40
1.2096583
50
1.127539
51
8.1718423
0
ARC
8
DEFAULT_255_1_388
10
22.7828336
20
60.9774374
40
1.5747719
50
0.5432713
51
1.38669
0
ARC
8
DEFAULT_255_1_388
10
22.9885715
20
61.0081163
40
1.2018103
50
359.8092569
51
4.9408001
0
ARC
8
DEFAULT_255_1_388
10
23.4622296
20
61.05039
40
0.7262727
50
4.8364937
51
12.2906017
0
ARC
8
DEFAULT_255_1_388
10
23.7721761
20
61.1194485
40
0.4087324
50
12.0806994
51
23.8171225
0
ARC
8
DEFAULT_255_1_388
10
23.9042157
20
61.1753508
40
0.2653719
50
24.2874621
51
31.3934353
0
ARC
8
DEFAULT_255_1_388
10
23.9632593
20
61.2139822
40
0.1948607
50
30.7407708
51
82.4658033
0
ARC
8
DEFAULT_255_1_388
10
23.9430254
20
61.1146017
40
0.2961198
50
81.1057101
51
90.2187368
0
ARC
8
DEFAULT_255_1_388
10
23.9390065
20
61.1436421
40
0.2670929
50
89.380395
51
105.6763916
0
ARC
8
DEFAULT_255_1_388
10
23.9183787
20
61.218632
40
0.1893189
50
105.7980655
51
149.7387869
0
ARC
8
DEFAULT_255_1_388
10
24.0380928
20
61.1466719
40
0.3289892
50
149.4208441
51
163.628295
0
ARC
8
DEFAULT_255_1_388
10
24.2733157
20
61.0749345
40
0.5749004
50
163.3764549
51
172.141138
0
ARC
8
DEFAULT_255_1_388
10
24.6445879
20
61.0217582
40
0.9499585
50
172.0258462
51
178.0705453
0
ARC
8
DEFAULT_255_1_388
10
24.9867431
20
61.0055682
40
1.2924734
50
177.8639301
51
179.5036263
0
ARC
8
DEFAULT_255_1_388
10
24.864845
20
60.7452151
40
1.170534
50
179.7995545
51
185.246089
0
ARC
8
DEFAULT_255_1_388
10
24.4100043
20
60.7021404
40
0.7136613
50
185.1411911
51
193.0082205
0
ARC
8
DEFAULT_255_1_388
10
24.1126304
20
60.6318441
40
0.4080987
50
192.7897338
51
205.2507384
0
ARC
8
DEFAULT_255_1_388
10
23.9948514
20
60.5792538
40
0.2791522
50
205.8001921
51
211.2545876
0
ARC
8
DEFAULT_255_1_388
10
23.9360053
20
60.5398132
40
0.2084074
50
210.3789935
51
238.4007996
0
ARC
8
DEFAULT_255_1_388
10
23.9338139
20
60.5450786
40
0.2117943
50
239.6521916
51
265.9793852
0
ARC
8
DEFAULT_255_1_388
10
23.9433988
20
60.6207358
40
0.2879689
50
265.1324455
51
270.0603288
0
ARC
8
DEFAULT_255_1_388
10
23.9466365
20
60.5842418
40
0.2514919
50
269.3314378
51
287.2180039
0
ARC
8
DEFAULT_255_1_388
10
23.9621447
20
60.5276291
40
0.1928357
50
287.7957942
51
329.0808983
0
ARC
8
DEFAULT_255_1_388
10
23.8544204
20
60.5948651
40
0.319808
50
328.6635261
51
343.3325043
0
ARC
8
DEFAULT_255_1_388
10
23.6099663
20
60.6710195
40
0.5758408
50
343.0498092
51
351.9392499
0
ARC
8
DEFAULT_255_1_388
10
23.2198984
20
60.7285205
40
0.9701202
50
351.8071632
51
357.7957897
0
ARC
8
DEFAULT_255_1_388
10
22.8564461
20
60.7473724
40
1.3340376
50
357.5870923
51
359.2682493
0
LINE
8
DEFAULT_255_1_388
10
23.0082024
20
69.4674898
11
23.2322864
21
69.4674898
0
LINE
8
DEFAULT_255_1_388
10
23.2322864
20
69.4674898
11
23.6623831
21
68.3940553
0
LINE
8
DEFAULT_255_1_388
10
23.6623831
20
68.3940553
11
24.0924797
21
69.4674898
0
LINE
8
DEFAULT_255_1_388
10
24.0924797
20
69.4674898
11
24.3174673
21
69.4674898
0
LINE
8
DEFAULT_255_1_388
10
24.3174673
20
69.4674898
11
24.3174673
21
68.1519
0
LINE
8
DEFAULT_255_1_388
10
24.3174673
20
68.1519
11
24.1439829
21
68.1519
0
LINE
8
DEFAULT_255_1_388
10
24.1439829
20
68.1519
11
24.1439829
21
68.664221
0
LINE
8
DEFAULT_255_1_388
10
24.1439829
20
68.664221
11
24.1602471
21
69.2172025
0
LINE
8
DEFAULT_255_1_388
10
24.1602471
20
69.2172025
11
23.7283433
21
68.1519
0
LINE
8
DEFAULT_255_1_388
10
23.7283433
20
68.1519
11
23.5955193
21
68.1519
0
LINE
8
DEFAULT_255_1_388
10
23.5955193
20
68.1519
11
23.164519
21
69.2144918
0
LINE
8
DEFAULT_255_1_388
10
23.164519
20
69.2144918
11
23.1816868
21
68.664221
0
LINE
8
DEFAULT_255_1_388
10
23.1816868
20
68.664221
11
23.1816868
21
68.1519
0
LINE
8
DEFAULT_255_1_388
10
23.1816868
20
68.1519
11
23.0082024
21
68.1519
0
LINE
8
DEFAULT_255_1_388
10
23.0082024
20
68.1519
11
23.0082024
21
69.4674898
0
ENDSEC
0
EOF