0
SECTION
2
HEADER
9
$MEASUREMENT
70
1
0
ENDSEC
0
SECTION
2
TABLES
0
TABLE
2
LTYPE
0
LTYPE
72
65
70
64
2
CONTINUOUS
3
______
73
0
40
0
0
ENDTAB
0
TABLE
2
LAYER
0
LAYER
2
DEFAULT_255_2_778
70
0
62
255
6
CONTINUOUS
0
LAYER
2
DEFAULT_255_1_234
70
0
62
255
6
CONTINUOUS
0
LAYER
2
DEFAULT_255_2_778_1
70
0
62
255
6
CONTINUOUS
0
ENDTAB
0
ENDSEC
0
SECTION
2
ENTITIES
0
ARC
8
DEFAULT_255_2_778
10
3.5695693
20
181.6384682
40
0.7914215
50
129.1312896
51
180.1450914
0
ARC
8
DEFAULT_255_2_778
10
3.5698345
20
181.6389553
40
0.7912112
50
89.854026
51
129.1684493
0
ARC
8
DEFAULT_255_2_778
10
25.7988937
20
181.6386419
40
0.7915249
50
39.4792447
51
90.147911
0
ARC
8
DEFAULT_255_2_778
10
25.7994935
20
181.6384885
40
0.7911595
50
359.8533901
51
39.5154338
0
ARC
8
DEFAULT_255_2_778
10
25.7992714
20
-1.9864442
40
0.7913815
50
309.1282118
51
0.1454017
0
ARC
8
DEFAULT_255_2_778
10
25.7988889
20
-1.9867615
40
0.7913769
50
269.8524075
51
309.1641908
0
ARC
8
DEFAULT_255_2_778
10
3.5698462
20
-1.9867169
40
0.7914215
50
219.1312896
51
270.1450914
0
ARC
8
DEFAULT_255_2_778
10
3.5693591
20
-1.9864517
40
0.7912112
50
179.854026
51
219.1684493
0
LINE
8
DEFAULT_255_2_778
10
3.5718503
20
182.4301641
11
25.7968503
21
182.4301641
0
LINE
8
DEFAULT_255_2_778
10
26.5906503
20
181.6364641
11
26.5906503
21
-1.9844359
0
LINE
8
DEFAULT_255_2_778
10
25.7968503
20
-2.7781359
11
3.5718503
21
-2.7781359
0
LINE
8
DEFAULT_255_2_778
10
2.7781503
20
-1.9844359
11
2.7781503
21
181.6364641
0
LINE
8
DEFAULT_255_1_234
10
6.6201835
20
0.5189243
11
6.6466882
21
0.5189243
0
LINE
8
DEFAULT_255_1_234
10
6.6466882
20
0.5189243
11
6.6466882
21
0.392826
0
LINE
8
DEFAULT_255_1_234
10
6.6466882
20
0.392826
11
6.6193803
21
0.392826
0
LINE
8
DEFAULT_255_1_234
10
6.0724189
20
-0.2063417
11
6.0724189
21
-0.1493164
0
LINE
8
DEFAULT_255_1_234
10
6.2218093
20
-0.1685925
11
6.2218093
21
-0.2232083
0
ARC
8
DEFAULT_255_1_234
10
6.6246151
20
-0.1069545
40
0.4998079
50
90.6001036
51
104.514704
0
ARC
8
DEFAULT_255_1_234
10
6.5857667
20
0.0375131
40
0.3502176
50
104.2855254
51
133.862935
0
ARC
8
DEFAULT_255_1_234
10
6.6021424
20
0.026683
40
0.3693984
50
134.5302688
51
161.6210873
0
ARC
8
DEFAULT_255_1_234
10
6.7674613
20
-0.0316105
40
0.5446739
50
161.2849839
51
174.2076652
0
ARC
8
DEFAULT_255_1_234
10
6.908155
20
-0.0510213
40
0.6866274
50
173.7810589
51
174.9254635
0
ARC
8
DEFAULT_255_1_234
10
6.4531382
20
-0.1893161
40
0.3033419
50
95.8330959
51
138.9954921
0
ARC
8
DEFAULT_255_1_234
10
6.4754738
20
-0.3171625
40
0.4328947
50
89.8753725
51
97.0544009
0
ARC
8
DEFAULT_255_1_234
10
6.4802204
20
-0.2336252
40
0.3493769
50
71.6407809
51
90.6240094
0
ARC
8
DEFAULT_255_1_234
10
6.4952777
20
-0.1781918
40
0.2920396
50
39.6367836
51
71.019018
0
ARC
8
DEFAULT_255_1_234
10
6.431625
20
-0.2332002
40
0.3761538
50
10.658731
51
39.9043955
0
ARC
8
DEFAULT_255_1_234
10
6.2768333
20
-0.2668314
40
0.5345136
50
359.682601
51
11.132623
0
ARC
8
DEFAULT_255_1_234
10
6.2728464
20
-0.273899
40
0.5385081
50
347.2486944
51
0.4369317
0
ARC
8
DEFAULT_255_1_234
10
6.4395941
20
-0.3140193
40
0.3670249
50
318.1409698
51
347.6118597
0
ARC
8
DEFAULT_255_1_234
10
6.4720934
20
-0.3407298
40
0.3250007
50
275.6342139
51
317.8248465
0
ARC
8
DEFAULT_255_1_234
10
6.4500045
20
-0.2107781
40
0.4565864
50
269.8874292
51
276.7917694
0
ARC
8
DEFAULT_255_1_234
10
6.4445116
20
-0.3133257
40
0.3540676
50
246.9140195
51
270.7437342
0
ARC
8
DEFAULT_255_1_234
10
6.4451506
20
-0.3275616
40
0.3412781
50
218.1665114
51
245.878116
0
ARC
8
DEFAULT_255_1_234
10
6.5330967
20
-0.2539721
40
0.455911
50
191.4115814
51
218.6077802
0
ARC
8
DEFAULT_255_1_234
10
6.7269056
20
-0.2105167
40
0.6545001
50
179.6345085
51
191.7836486
0
ARC
8
DEFAULT_255_1_234
10
7.2851393
20
-0.1426303
40
1.2127388
50
171.4525249
51
180.3158839
0
ARC
8
DEFAULT_255_1_234
10
6.8456269
20
-0.0742392
40
0.7679464
50
157.9802646
51
171.6246686
0
ARC
8
DEFAULT_255_1_234
10
6.624229
20
0.0140421
40
0.5296008
50
141.4298019
51
157.854097
0
ARC
8
DEFAULT_255_1_234
10
6.560061
20
0.0594381
40
0.4511509
50
102.8715806
51
140.8564722
0
ARC
8
DEFAULT_255_1_234
10
6.6248226
20
-0.1845448
40
0.7034845
50
90.3778349
51
103.5869322
0
ARC
8
DEFAULT_255_1_234
10
6.4510002
20
-0.245027
40
0.2370698
50
89.8751008
51
126.2071704
0
ARC
8
DEFAULT_255_1_234
10
6.4555792
20
-0.2604697
40
0.2522934
50
124.9745049
51
144.895901
0
ARC
8
DEFAULT_255_1_234
10
6.4379982
20
-0.246144
40
0.2296779
50
145.2974905
51
160.2660252
0
ARC
8
DEFAULT_255_1_234
10
6.7452521
20
-0.2263929
40
0.5234525
50
179.6514266
51
190.2855912
0
ARC
8
DEFAULT_255_1_234
10
6.5758658
20
-0.2583214
40
0.3510893
50
190.0945431
51
207.5098196
0
ARC
8
DEFAULT_255_1_234
10
6.5192928
20
-0.2852377
40
0.288489
50
207.9583163
51
216.3251085
0
ARC
8
DEFAULT_255_1_234
10
6.4853036
20
-0.3131895
40
0.2445587
50
215.7661442
51
232.5456785
0
ARC
8
DEFAULT_255_1_234
10
6.4470019
20
-0.3618518
40
0.1826382
50
232.8005391
51
270.6605633
0
ARC
8
DEFAULT_255_1_234
10
6.451572
20
-0.3254388
40
0.2190529
50
269.35537
51
288.4744281
0
ARC
8
DEFAULT_255_1_234
10
6.4608617
20
-0.3603882
40
0.1829749
50
289.1833337
51
322.9683818
0
ARC
8
DEFAULT_255_1_234
10
6.3997139
20
-0.3121609
40
0.2608399
50
322.6007884
51
346.5182367
0
ARC
8
DEFAULT_255_1_234
10
6.2839735
20
-0.2826384
40
0.3802777
50
346.2582162
51
358.7741648
0
ARC
8
DEFAULT_255_1_234
10
6.1821404
20
-0.2771035
40
0.4822176
50
358.3755224
51
0.0098023
0
ARC
8
DEFAULT_255_1_234
10
6.2577591
20
-0.2743343
40
0.4066078
50
359.6214041
51
11.2839074
0
ARC
8
DEFAULT_255_1_234
10
6.3854738
20
-0.2476934
40
0.2761514
50
11.0482309
51
31.8146458
0
ARC
8
DEFAULT_255_1_234
10
6.4163781
20
-0.2309416
40
0.2410679
50
32.3035391
51
38.082671
0
ARC
8
DEFAULT_255_1_234
10
6.4584441
20
-0.1928338
40
0.1844966
50
36.825067
51
85.7415724
0
ARC
8
DEFAULT_255_1_234
10
6.4517274
20
-0.2428699
40
0.2349122
50
85.0140713
51
90.0513278
0
LINE
8
DEFAULT_255_1_234
10
7.3494653
20
-0.6513
11
7.0257863
21
-0.6513
0
LINE
8
DEFAULT_255_1_234
10
7.0257863
20
-0.6513
11
7.0257863
21
0.5181211
0
LINE
8
DEFAULT_255_1_234
10
7.0257863
20
0.5181211
11
7.3558907
21
0.5181211
0
LINE
8
DEFAULT_255_1_234
10
7.8715283
20
-0.0272339
11
7.8715283
21
-0.1019291
0
LINE
8
DEFAULT_255_1_234
10
7.3599066
20
0.3912196
11
7.1799957
21
0.3912196
0
LINE
8
DEFAULT_255_1_234
10
7.1799957
20
0.3912196
11
7.1799957
21
-0.5252017
0
LINE
8
DEFAULT_255_1_234
10
7.1799957
20
-0.5252017
11
7.3422368
21
-0.5252017
0
LINE
8
DEFAULT_255_1_234
10
7.7189253
20
-0.0987164
11
7.7189253
21
-0.0304466
0
ARC
8
DEFAULT_255_1_234
10
7.359785
20
-0.0684106
40
0.5865446
50
75.4101064
51
90.3804066
0
ARC
8
DEFAULT_255_1_234
10
7.3827363
20
0.0272492
40
0.4881916
50
60.145586
51
75.1888407
0
ARC
8
DEFAULT_255_1_234
10
7.3986139
20
0.0549199
40
0.4562893
50
26.5253612
51
60.1450928
0
ARC
8
DEFAULT_255_1_234
10
7.2865888
20
-0.0044842
40
0.5830602
50
7.4030428
51
26.8320788
0
ARC
8
DEFAULT_255_1_234
10
7.1271645
20
-0.0293196
40
0.7443669
50
0.1605367
51
7.7176192
0
ARC
8
DEFAULT_255_1_234
10
7.1435549
20
-0.1057566
40
0.7279835
50
348.7289388
51
0.3012466
0
ARC
8
DEFAULT_255_1_234
10
7.309198
20
-0.1386614
40
0.559104
50
333.0706509
51
348.7181832
0
ARC
8
DEFAULT_255_1_234
10
7.4058737
20
-0.1911681
40
0.4491417
50
299.2531685
51
333.4571258
0
ARC
8
DEFAULT_255_1_234
10
7.3697877
20
-0.1226172
40
0.5265881
50
278.107187
51
299.0339503
0
ARC
8
DEFAULT_255_1_234
10
7.3441956
20
0.0281216
40
0.679442
50
270.4443897
51
278.4511052
0
ARC
8
DEFAULT_255_1_234
10
7.3462786
20
-0.0647787
40
0.4604407
50
269.4970433
51
284.0205042
0
ARC
8
DEFAULT_255_1_234
10
7.3818087
20
-0.2013022
40
0.3193797
50
283.7700273
51
318.1555492
0
ARC
8
DEFAULT_255_1_234
10
7.3480845
20
-0.1760633
40
0.3613588
50
318.7415601
51
343.6873628
0
ARC
8
DEFAULT_255_1_234
10
7.1676868
20
-0.1197168
40
0.5503313
50
343.3325091
51
355.8548958
0
ARC
8
DEFAULT_255_1_234
10
6.9578553
20
-0.0997681
40
0.7610708
50
355.4988528
51
0.0791727
0
ARC
8
DEFAULT_255_1_234
10
7.0361175
20
-0.026222
40
0.6828208
50
359.6455037
51
9.8607896
0
ARC
8
DEFAULT_255_1_234
10
7.2721873
20
0.0164099
40
0.4429406
50
9.6571907
51
26.1932807
0
ARC
8
DEFAULT_255_1_234
10
7.3649862
20
0.0595118
40
0.3406537
50
26.5777228
51
40.1532208
0
ARC
8
DEFAULT_255_1_234
10
7.3905588
20
0.0794619
40
0.308246
50
40.3840491
51
80.1431104
0
ARC
8
DEFAULT_255_1_234
10
7.3578706
20
-0.0654667
40
0.4566909
50
79.2152159
51
89.7445637
0
LINE
8
DEFAULT_255_1_234
10
8.2594613
20
0.5181211
11
8.2594613
21
-0.5252017
0
LINE
8
DEFAULT_255_1_234
10
8.2594613
20
-0.5252017
11
8.8136512
21
-0.5252017
0
LINE
8
DEFAULT_255_1_234
10
8.8136512
20
-0.5252017
11
8.8136512
21
-0.6513
0
LINE
8
DEFAULT_255_1_234
10
8.8136512
20
-0.6513
11
8.1044487
21
-0.6513
0
LINE
8
DEFAULT_255_1_234
10
8.1044487
20
-0.6513
11
8.1044487
21
0.5181211
0
LINE
8
DEFAULT_255_1_234
10
8.1044487
20
0.5181211
11
8.2594613
21
0.5181211
0
LINE
8
DEFAULT_255_1_234
10
9.4393236
20
0.5237433
11
9.4393236
21
-0.6513
0
LINE
8
DEFAULT_255_1_234
10
9.4393236
20
-0.6513
11
9.2899333
21
-0.6513
0
LINE
8
DEFAULT_255_1_234
10
9.2899333
20
-0.6513
11
9.2899333
21
0.3390133
0
LINE
8
DEFAULT_255_1_234
10
9.2899333
20
0.3390133
11
8.9903495
21
0.2289785
0
LINE
8
DEFAULT_255_1_234
10
8.9903495
20
0.2289785
11
8.9903495
21
0.3639117
0
LINE
8
DEFAULT_255_1_234
10
8.9903495
20
0.3639117
11
9.4160316
21
0.5237433
0
LINE
8
DEFAULT_255_1_234
10
9.4160316
20
0.5237433
11
9.4393236
21
0.5237433
0
LINE
8
DEFAULT_255_1_234
10
10.3629735
20
0.5237433
11
10.3629735
21
-0.6513
0
LINE
8
DEFAULT_255_1_234
10
10.3629735
20
-0.6513
11
10.2135832
21
-0.6513
0
LINE
8
DEFAULT_255_1_234
10
10.2135832
20
-0.6513
11
10.2135832
21
0.3390133
0
LINE
8
DEFAULT_255_1_234
10
10.2135832
20
0.3390133
11
9.9139994
21
0.2289785
0
LINE
8
DEFAULT_255_1_234
10
9.9139994
20
0.2289785
11
9.9139994
21
0.3639117
0
LINE
8
DEFAULT_255_1_234
10
9.9139994
20
0.3639117
11
10.3396815
21
0.5237433
0
LINE
8
DEFAULT_255_1_234
10
10.3396815
20
0.5237433
11
10.3629735
21
0.5237433
0
LINE
8
DEFAULT_255_1_234
10
11.0143475
20
-0.1155831
11
11.0143475
21
0.0056962
0
LINE
8
DEFAULT_255_1_234
10
11.0143475
20
0.0056962
11
11.1259887
21
0.0056962
0
LINE
8
DEFAULT_255_1_234
10
10.9356365
20
0.2113087
11
10.7870493
21
0.2113087
0
LINE
8
DEFAULT_255_1_234
10
10.7766081
20
-0.3428812
11
10.9259984
21
-0.3428812
0
LINE
8
DEFAULT_255_1_234
10
11.1259887
20
-0.1155831
11
11.0143475
21
-0.1155831
0
ARC
8
DEFAULT_255_1_234
10
11.1230753
20
0.3449713
40
0.3392876
50
270.4919872
51
281.8951556
0
ARC
8
DEFAULT_255_1_234
10
11.1472015
20
0.2347702
40
0.2264817
50
281.6691735
51
301.2943132
0
ARC
8
DEFAULT_255_1_234
10
11.1642225
20
0.2036304
40
0.1910381
50
301.7833094
51
311.7545298
0
ARC
8
DEFAULT_255_1_234
10
11.1733801
20
0.1934748
40
0.1773635
50
311.7323931
51
354.2802411
0
ARC
8
DEFAULT_255_1_234
10
11.1007426
20
0.2059722
40
0.2509385
50
353.0937916
51
0.1181479
0
ARC
8
DEFAULT_255_1_234
10
11.0546211
20
0.2107386
40
0.2970898
50
359.1805295
51
15.0453146
0
ARC
8
DEFAULT_255_1_234
10
11.1892048
20
0.2499992
40
0.1569564
50
13.9577229
51
77.6713066
0
ARC
8
DEFAULT_255_1_234
10
11.1505577
20
0.1114949
40
0.3006298
50
76.1116566
51
90.7026153
0
ARC
8
DEFAULT_255_1_234
10
11.1446415
20
0.1388545
40
0.2732568
50
89.5324876
51
103.531937
0
ARC
8
DEFAULT_255_1_234
10
11.124586
20
0.2187884
40
0.1908508
50
103.2931773
51
133.5619022
0
ARC
8
DEFAULT_255_1_234
10
11.1201348
20
0.2247375
40
0.1834746
50
133.8349307
51
173.5344437
0
ARC
8
DEFAULT_255_1_234
10
11.1924391
20
0.2119213
40
0.2568033
50
172.5096846
51
180.1366907
0
ARC
8
DEFAULT_255_1_234
10
11.0973285
20
0.2153622
40
0.3103056
50
155.3484492
51
180.7484736
0
ARC
8
DEFAULT_255_1_234
10
11.0924374
20
0.2124846
40
0.3070957
50
131.5744599
51
154.4798489
0
ARC
8
DEFAULT_255_1_234
10
11.1237521
20
0.180831
40
0.3515643
50
96.9875458
51
131.9690667
0
ARC
8
DEFAULT_255_1_234
10
11.1457001
20
0.0562636
40
0.4779224
50
89.8596053
51
97.7825159
0
ARC
8
DEFAULT_255_1_234
10
11.1505064
20
0.0300616
40
0.5041361
50
78.3655447
51
90.4131539
0
ARC
8
DEFAULT_255_1_234
10
11.1862982
20
0.1959887
40
0.3344039
50
56.6229102
51
78.638727
0
ARC
8
DEFAULT_255_1_234
10
11.2077926
20
0.2335805
40
0.2912001
50
47.0253525
51
56.0854072
0
ARC
8
DEFAULT_255_1_234
10
11.2097706
20
0.2375223
40
0.2869704
50
10.9208013
51
46.7778124
0
ARC
8
DEFAULT_255_1_234
10
11.0733773
20
0.2059857
40
0.426899
50
359.6364486
51
11.6087304
0
ARC
8
DEFAULT_255_1_234
10
11.2568617
20
0.2044752
40
0.243409
50
332.3549906
51
359.7179418
0
ARC
8
DEFAULT_255_1_234
10
11.1918218
20
0.2353142
40
0.3153459
50
325.2333722
51
332.8745602
0
ARC
8
DEFAULT_255_1_234
10
11.2070842
20
0.2246828
40
0.2967456
50
292.9802137
51
325.2392345
0
ARC
8
DEFAULT_255_1_234
10
11.1796216
20
0.2780863
40
0.3566604
50
292.5402179
51
293.6924929
0
ARC
8
DEFAULT_255_1_234
10
11.2188812
20
-0.3673909
40
0.3307468
50
57.6435486
51
72.8625112
0
ARC
8
DEFAULT_255_1_234
10
11.2543311
20
-0.3099451
40
0.2632492
50
36.7248896
51
57.4697979
0
ARC
8
DEFAULT_255_1_234
10
11.2531944
20
-0.308678
40
0.2634081
50
8.0545065
51
36.356114
0
ARC
8
DEFAULT_255_1_234
10
11.1669129
20
-0.3241826
40
0.3510261
50
359.8320645
51
8.5869982
0
ARC
8
DEFAULT_255_1_234
10
11.1293905
20
-0.3289899
40
0.3885653
50
343.9829931
51
0.5571613
0
ARC
8
DEFAULT_255_1_234
10
11.2180103
20
-0.3532562
40
0.2966924
50
311.6359546
51
343.7651759
0
ARC
8
DEFAULT_255_1_234
10
11.1801672
20
-0.3105898
40
0.3537231
50
279.7829875
51
311.6255694
0
ARC
8
DEFAULT_255_1_234
10
11.1500448
20
-0.166872
40
0.5004971
50
269.7286406
51
280.3856417
0
ARC
8
DEFAULT_255_1_234
10
11.1438521
20
-0.1710004
40
0.4963778
50
256.6828919
51
270.4412052
0
ARC
8
DEFAULT_255_1_234
10
11.1099816
20
-0.3094606
40
0.3538406
50
229.4223008
51
256.8556159
0
ARC
8
DEFAULT_255_1_234
10
11.0685209
20
-0.3561264
40
0.2914296
50
181.818294
51
229.6455059
0
ARC
8
DEFAULT_255_1_234
10
11.1725165
20
-0.3430504
40
0.3959084
50
179.9755256
51
183.2323064
0
ARC
8
DEFAULT_255_1_234
10
11.1552911
20
-0.3450963
40
0.2293034
50
179.4465117
51
196.2869258
0
ARC
8
DEFAULT_255_1_234
10
11.1065319
20
-0.3584349
40
0.1787621
50
196.5661473
51
227.705904
0
ARC
8
DEFAULT_255_1_234
10
11.1229414
20
-0.3400845
40
0.2033784
50
227.7652068
51
257.8762805
0
ARC
8
DEFAULT_255_1_234
10
11.1454384
20
-0.2457844
40
0.3003081
50
257.4584385
51
270.426602
0
ARC
8
DEFAULT_255_1_234
10
11.149995
20
-0.2168004
40
0.329292
50
269.5962073
51
280.8789248
0
ARC
8
DEFAULT_255_1_234
10
11.1729479
20
-0.3314315
40
0.2123908
50
280.6346389
51
299.8595945
0
ARC
8
DEFAULT_255_1_234
10
11.1920386
20
-0.3676788
40
0.171457
50
300.3576302
51
314.5517981
0
ARC
8
DEFAULT_255_1_234
10
11.1837446
20
-0.3616081
40
0.1816095
50
315.0728369
51
345.0431014
0
ARC
8
DEFAULT_255_1_234
10
11.091426
20
-0.3347159
40
0.2777492
50
344.5986631
51
357.9269593
0
ARC
8
DEFAULT_255_1_234
10
11.0018587
20
-0.3285724
40
0.3674917
50
357.4748886
51
0.0231117
0
ARC
8
DEFAULT_255_1_234
10
11.1041696
20
-0.3261321
40
0.2651907
50
359.5047933
51
13.4239635
0
ARC
8
DEFAULT_255_1_234
10
11.190834
20
-0.3039522
40
0.1757509
50
12.9498199
51
48.7551375
0
ARC
8
DEFAULT_255_1_234
10
11.1726074
20
-0.32886
40
0.2065134
50
49.5088623
51
72.1836453
0
ARC
8
DEFAULT_255_1_234
10
11.1368226
20
-0.4350709
40
0.3185836
50
71.9010081
51
84.3554254
0
ARC
8
DEFAULT_255_1_234
10
11.1206858
20
-0.5711674
40
0.4556151
50
84.0193428
51
89.333121
0
LINE
8
DEFAULT_255_1_234
10
12.3492224
20
0.5181211
11
12.3492224
21
-0.258548
0
LINE
8
DEFAULT_255_1_234
10
12.3492224
20
-0.258548
11
12.5114635
21
-0.258548
0
LINE
8
DEFAULT_255_1_234
10
12.5114635
20
-0.258548
11
12.5114635
21
-0.3798272
0
LINE
8
DEFAULT_255_1_234
10
12.5114635
20
-0.3798272
11
12.3492224
21
-0.3798272
0
LINE
8
DEFAULT_255_1_234
10
12.3492224
20
-0.3798272
11
12.3492224
21
-0.6513
0
LINE
8
DEFAULT_255_1_234
10
12.3492224
20
-0.6513
11
12.1998321
21
-0.6513
0
LINE
8
DEFAULT_255_1_234
10
12.1998321
20
-0.6513
11
12.1998321
21
-0.3798272
0
LINE
8
DEFAULT_255_1_234
10
12.1998321
20
-0.3798272
11
11.6673278
21
-0.3798272
0
LINE
8
DEFAULT_255_1_234
10
11.6673278
20
-0.3798272
11
11.6673278
21
-0.2922813
0
LINE
8
DEFAULT_255_1_234
10
11.6673278
20
-0.2922813
11
12.1909972
21
0.5181211
0
LINE
8
DEFAULT_255_1_234
10
12.1909972
20
0.5181211
11
12.3492224
21
0.5181211
0
LINE
8
DEFAULT_255_1_234
10
12.1821623
20
0.2827912
11
11.8359943
21
-0.258548
0
LINE
8
DEFAULT_255_1_234
10
11.8359943
20
-0.258548
11
12.1998321
21
-0.258548
0
LINE
8
DEFAULT_255_1_234
10
12.1998321
20
-0.258548
11
12.1998321
21
0.3149181
0
LINE
8
DEFAULT_255_1_234
10
12.1998321
20
0.3149181
11
12.1821623
21
0.2827912
0
LINE
8
DEFAULT_255_1_234
10
12.9700758
20
-0.0938974
11
12.9700758
21
-0.2151766
0
LINE
8
DEFAULT_255_1_234
10
12.9700758
20
-0.2151766
11
12.578127
21
-0.2151766
0
LINE
8
DEFAULT_255_1_234
10
12.578127
20
-0.2151766
11
12.578127
21
-0.0938974
0
LINE
8
DEFAULT_255_1_234
10
12.578127
20
-0.0938974
11
12.9700758
21
-0.0938974
0
LINE
8
DEFAULT_255_1_234
10
13.6559862
20
0.5189243
11
13.682491
21
0.5189243
0
LINE
8
DEFAULT_255_1_234
10
13.682491
20
0.5189243
11
13.682491
21
0.392826
0
LINE
8
DEFAULT_255_1_234
10
13.682491
20
0.392826
11
13.6551831
21
0.392826
0
LINE
8
DEFAULT_255_1_234
10
13.1082217
20
-0.2063417
11
13.1082217
21
-0.1493164
0
LINE
8
DEFAULT_255_1_234
10
13.257612
20
-0.1685925
11
13.257612
21
-0.2232083
0
ARC
8
DEFAULT_255_1_234
10
13.6604178
20
-0.1069545
40
0.4998079
50
90.6001036
51
104.514704
0
ARC
8
DEFAULT_255_1_234
10
13.6215694
20
0.0375131
40
0.3502176
50
104.2855254
51
133.862935
0
ARC
8
DEFAULT_255_1_234
10
13.6379451
20
0.026683
40
0.3693984
50
134.5302688
51
161.6210873
0
ARC
8
DEFAULT_255_1_234
10
13.803264
20
-0.0316105
40
0.5446739
50
161.2849839
51
174.2076652
0
ARC
8
DEFAULT_255_1_234
10
13.9439577
20
-0.0510213
40
0.6866274
50
173.7810589
51
174.9254635
0
ARC
8
DEFAULT_255_1_234
10
13.4889409
20
-0.1893161
40
0.3033419
50
95.8330959
51
138.9954921
0
ARC
8
DEFAULT_255_1_234
10
13.5112765
20
-0.3171625
40
0.4328947
50
89.8753725
51
97.0544009
0
ARC
8
DEFAULT_255_1_234
10
13.5160231
20
-0.2336252
40
0.3493769
50
71.6407809
51
90.6240094
0
ARC
8
DEFAULT_255_1_234
10
13.5310805
20
-0.1781918
40
0.2920396
50
39.6367836
51
71.019018
0
ARC
8
DEFAULT_255_1_234
10
13.4674278
20
-0.2332002
40
0.3761538
50
10.658731
51
39.9043955
0
ARC
8
DEFAULT_255_1_234
10
13.312636
20
-0.2668314
40
0.5345136
50
359.682601
51
11.132623
0
ARC
8
DEFAULT_255_1_234
10
13.3086491
20
-0.273899
40
0.5385081
50
347.2486944
51
0.4369317
0
ARC
8
DEFAULT_255_1_234
10
13.4753968
20
-0.3140193
40
0.3670249
50
318.1409698
51
347.6118597
0
ARC
8
DEFAULT_255_1_234
10
13.5078961
20
-0.3407298
40
0.3250007
50
275.6342139
51
317.8248465
0
ARC
8
DEFAULT_255_1_234
10
13.4858073
20
-0.2107781
40
0.4565864
50
269.8874292
51
276.7917694
0
ARC
8
DEFAULT_255_1_234
10
13.4803143
20
-0.3133257
40
0.3540676
50
246.9140195
51
270.7437342
0
ARC
8
DEFAULT_255_1_234
10
13.4809534
20
-0.3275616
40
0.3412781
50
218.1665114
51
245.878116
0
ARC
8
DEFAULT_255_1_234
10
13.5688994
20
-0.2539721
40
0.455911
50
191.4115814
51
218.6077802
0
ARC
8
DEFAULT_255_1_234
10
13.7627084
20
-0.2105167
40
0.6545001
50
179.6345085
51
191.7836486
0
ARC
8
DEFAULT_255_1_234
10
14.320942
20
-0.1426303
40
1.2127388
50
171.4525249
51
180.3158839
0
ARC
8
DEFAULT_255_1_234
10
13.8814296
20
-0.0742392
40
0.7679464
50
157.9802646
51
171.6246686
0
ARC
8
DEFAULT_255_1_234
10
13.6600317
20
0.0140421
40
0.5296008
50
141.4298019
51
157.854097
0
ARC
8
DEFAULT_255_1_234
10
13.5958638
20
0.0594381
40
0.4511509
50
102.8715806
51
140.8564722
0
ARC
8
DEFAULT_255_1_234
10
13.6606253
20
-0.1845448
40
0.7034845
50
90.3778349
51
103.5869322
0
ARC
8
DEFAULT_255_1_234
10
13.4868029
20
-0.245027
40
0.2370698
50
89.8751008
51
126.2071704
0
ARC
8
DEFAULT_255_1_234
10
13.4913819
20
-0.2604697
40
0.2522934
50
124.9745049
51
144.895901
0
ARC
8
DEFAULT_255_1_234
10
13.473801
20
-0.246144
40
0.2296779
50
145.2974905
51
160.2660252
0
ARC
8
DEFAULT_255_1_234
10
13.7810548
20
-0.2263929
40
0.5234525
50
179.6514266
51
190.2855912
0
ARC
8
DEFAULT_255_1_234
10
13.6116686
20
-0.2583214
40
0.3510893
50
190.0945431
51
207.5098196
0
ARC
8
DEFAULT_255_1_234
10
13.5550955
20
-0.2852377
40
0.288489
50
207.9583163
51
216.3251085
0
ARC
8
DEFAULT_255_1_234
10
13.5211063
20
-0.3131895
40
0.2445587
50
215.7661442
51
232.5456785
0
ARC
8
DEFAULT_255_1_234
10
13.4828046
20
-0.3618518
40
0.1826382
50
232.8005391
51
270.6605633
0
ARC
8
DEFAULT_255_1_234
10
13.4873747
20
-0.3254388
40
0.2190529
50
269.35537
51
288.4744281
0
ARC
8
DEFAULT_255_1_234
10
13.4966644
20
-0.3603882
40
0.1829749
50
289.1833337
51
322.9683818
0
ARC
8
DEFAULT_255_1_234
10
13.4355167
20
-0.3121609
40
0.2608399
50
322.6007884
51
346.5182367
0
ARC
8
DEFAULT_255_1_234
10
13.3197762
20
-0.2826384
40
0.3802777
50
346.2582162
51
358.7741648
0
ARC
8
DEFAULT_255_1_234
10
13.2179431
20
-0.2771035
40
0.4822176
50
358.3755224
51
0.0098023
0
ARC
8
DEFAULT_255_1_234
10
13.2935619
20
-0.2743343
40
0.4066078
50
359.6214041
51
11.2839074
0
ARC
8
DEFAULT_255_1_234
10
13.4212765
20
-0.2476934
40
0.2761514
50
11.0482309
51
31.8146458
0
ARC
8
DEFAULT_255_1_234
10
13.4521808
20
-0.2309416
40
0.2410679
50
32.3035391
51
38.082671
0
ARC
8
DEFAULT_255_1_234
10
13.4942468
20
-0.1928338
40
0.1844966
50
36.825067
51
85.7415724
0
ARC
8
DEFAULT_255_1_234
10
13.4875302
20
-0.2428699
40
0.2349122
50
85.0140713
51
90.0513278
0
LINE
8
DEFAULT_255_1_234
10
14.551525
20
-0.3123606
11
14.551525
21
0.5181211
0
LINE
8
DEFAULT_255_1_234
10
14.551525
20
0.5181211
11
14.7065376
21
0.5181211
0
LINE
8
DEFAULT_255_1_234
10
14.7065376
20
0.5181211
11
14.7065376
21
-0.3099511
0
LINE
8
DEFAULT_255_1_234
10
13.9684208
20
-0.3284241
11
14.1226302
21
-0.3284241
0
ARC
8
DEFAULT_255_1_234
10
14.2574561
20
-0.3137911
40
0.4490979
50
346.3129415
51
0.4899112
0
ARC
8
DEFAULT_255_1_234
10
14.394291
20
-0.3488271
40
0.3078632
50
313.3793358
51
346.6225026
0
ARC
8
DEFAULT_255_1_234
10
14.3742097
20
-0.3235478
40
0.3400404
50
281.1587967
51
312.9131091
0
ARC
8
DEFAULT_255_1_234
10
14.3401561
20
-0.1740815
40
0.4932916
50
269.6424364
51
281.6795951
0
ARC
8
DEFAULT_255_1_234
10
14.3332926
20
-0.1191618
40
0.5482147
50
258.9990078
51
270.3955952
0
ARC
8
DEFAULT_255_1_234
10
14.2958229
20
-0.3040254
40
0.359601
50
239.6256123
51
259.238693
0
ARC
8
DEFAULT_255_1_234
10
14.2669312
20
-0.3585331
40
0.2979777
50
227.4959765
51
239.1188186
0
ARC
8
DEFAULT_255_1_234
10
14.2631878
20
-0.3646311
40
0.2909561
50
191.339631
51
227.2280909
0
ARC
8
DEFAULT_255_1_234
10
14.4036519
20
-0.3313969
40
0.4352412
50
179.6086538
51
191.9934722
0
ARC
8
DEFAULT_255_1_234
10
14.4170541
20
-0.3306573
40
0.2944324
50
179.5654258
51
192.070398
0
ARC
8
DEFAULT_255_1_234
10
14.3199031
20
-0.3524921
40
0.194866
50
191.7656467
51
215.6461951
0
ARC
8
DEFAULT_255_1_234
10
14.3020532
20
-0.3632454
40
0.1741017
50
216.1938368
51
224.3931108
0
ARC
8
DEFAULT_255_1_234
10
14.3027418
20
-0.3605527
40
0.1764834
50
224.8613677
51
254.362656
0
ARC
8
DEFAULT_255_1_234
10
14.3298132
20
-0.271099
40
0.2699302
50
253.9471729
51
267.3949949
0
ARC
8
DEFAULT_255_1_234
10
14.3368639
20
-0.1786933
40
0.362572
50
266.9456419
51
270.0337791
0
ARC
8
DEFAULT_255_1_234
10
14.339402
20
-0.294877
40
0.2463991
50
269.4595111
51
286.1822844
0
ARC
8
DEFAULT_255_1_234
10
14.3535309
20
-0.3466953
40
0.1926982
50
286.4416479
51
315.8044008
0
ARC
8
DEFAULT_255_1_234
10
14.3481116
20
-0.3424793
40
0.1995241
50
316.0212565
51
345.4794351
0
ARC
8
DEFAULT_255_1_234
10
14.2510623
20
-0.3151425
40
0.3003349
50
345.0729543
51
358.325089
0
ARC
8
DEFAULT_255_1_234
10
14.1634594
20
-0.3095432
40
0.3880759
50
357.8767804
51
359.5840246
0
LINE
8
DEFAULT_255_1_234
10
15.867927
20
0.5181211
11
15.867927
21
-0.6513
0
LINE
8
DEFAULT_255_1_234
10
15.867927
20
-0.6513
11
15.7129144
21
-0.6513
0
LINE
8
DEFAULT_255_1_234
10
15.7129144
20
-0.6513
11
15.7129144
21
-0.110764
0
LINE
8
DEFAULT_255_1_234
10
15.7129144
20
-0.110764
11
15.1233848
21
-0.110764
0
LINE
8
DEFAULT_255_1_234
10
15.1233848
20
-0.110764
11
15.1233848
21
-0.6513
0
LINE
8
DEFAULT_255_1_234
10
15.1233848
20
-0.6513
11
14.9691754
21
-0.6513
0
LINE
8
DEFAULT_255_1_234
10
14.9691754
20
-0.6513
11
14.9691754
21
0.5181211
0
LINE
8
DEFAULT_255_1_234
10
14.9691754
20
0.5181211
11
15.1233848
21
0.5181211
0
LINE
8
DEFAULT_255_1_234
10
15.1233848
20
0.5181211
11
15.1233848
21
0.0153343
0
LINE
8
DEFAULT_255_1_234
10
15.1233848
20
0.0153343
11
15.7129144
21
0.0153343
0
LINE
8
DEFAULT_255_1_234
10
15.7129144
20
0.0153343
11
15.7129144
21
0.5181211
0
LINE
8
DEFAULT_255_1_234
10
15.7129144
20
0.5181211
11
15.867927
21
0.5181211
0
LINE
8
DEFAULT_255_1_234
10
16.8365546
20
0.0402327
11
16.8365546
21
-0.1525291
0
LINE
8
DEFAULT_255_1_234
10
16.0984378
20
-0.1726084
11
16.0984378
21
0.0257755
0
LINE
8
DEFAULT_255_1_234
10
16.6879674
20
-0.1926877
11
16.6879674
21
0.0506739
0
LINE
8
DEFAULT_255_1_234
10
16.247025
20
0.0619184
11
16.247025
21
-0.1758211
0
ARC
8
DEFAULT_255_1_234
10
15.6118435
20
-0.1574195
40
1.2247208
50
353.8441951
51
0.2287902
0
ARC
8
DEFAULT_255_1_234
10
16.0757939
20
-0.2092194
40
0.7578929
50
344.4934747
51
353.9765454
0
ARC
8
DEFAULT_255_1_234
10
16.3750529
20
-0.2943019
40
0.4467846
50
329.2803592
51
344.7472793
0
ARC
8
DEFAULT_255_1_234
10
16.4743354
20
-0.3487982
40
0.3336173
50
324.9352394
51
328.6160465
0
ARC
8
DEFAULT_255_1_234
10
16.5120463
20
-0.3751573
40
0.2876076
50
280.580143
51
324.9173126
0
ARC
8
DEFAULT_255_1_234
10
16.4719255
20
-0.2080901
40
0.4592847
50
269.5977311
51
281.6734359
0
ARC
8
DEFAULT_255_1_234
10
16.4647161
20
-0.2200827
40
0.4472986
50
256.6228859
51
270.51044
0
ARC
8
DEFAULT_255_1_234
10
16.4245139
20
-0.3749123
40
0.2873874
50
215.8618325
51
257.2788573
0
ARC
8
DEFAULT_255_1_234
10
16.5266171
20
-0.3064023
40
0.4102928
50
197.9693508
51
215.2623606
0
ARC
8
DEFAULT_255_1_234
10
16.7751286
20
-0.2225291
40
0.6725652
50
187.8816417
51
198.2346507
0
ARC
8
DEFAULT_255_1_234
10
17.1709494
20
-0.1653921
40
1.0724845
50
180.8976217
51
188.0055519
0
ARC
8
DEFAULT_255_1_234
10
17.4509683
20
-0.1550223
40
1.3526448
50
180.7449369
51
181.1510016
0
ARC
8
DEFAULT_255_1_234
10
17.2932412
20
0.0306042
40
1.1948131
50
173.7675579
51
180.231553
0
ARC
8
DEFAULT_255_1_234
10
16.8414558
20
0.0816666
40
0.7401564
50
164.3058563
51
173.9002247
0
ARC
8
DEFAULT_255_1_234
10
16.5502627
20
0.1655656
40
0.4371288
50
148.7922025
51
164.568378
0
ARC
8
DEFAULT_255_1_234
10
16.4551079
20
0.2186929
40
0.3282386
50
144.5883898
51
148.1176286
0
ARC
8
DEFAULT_255_1_234
10
16.4207977
20
0.2426315
40
0.2864044
50
101.6440918
51
144.514236
0
ARC
8
DEFAULT_255_1_234
10
16.4633044
20
0.0737069
40
0.4604934
50
89.5284041
51
102.5819763
0
ARC
8
DEFAULT_255_1_234
10
16.4712132
20
0.0698018
40
0.464401
50
77.0437873
51
90.5081339
0
ARC
8
DEFAULT_255_1_234
10
16.5114133
20
0.2340615
40
0.2953195
50
48.2778575
51
77.4994676
0
ARC
8
DEFAULT_255_1_234
10
16.5186765
20
0.2469746
40
0.2808655
50
36.3142134
51
47.6305865
0
ARC
8
DEFAULT_255_1_234
10
16.4318072
20
0.1884515
40
0.3855453
50
18.2931786
51
35.6769206
0
ARC
8
DEFAULT_255_1_234
10
16.177483
20
0.1011593
40
0.654423
50
8.024666
51
18.5605216
0
ARC
8
DEFAULT_255_1_234
10
15.7611751
20
0.0396792
40
1.0752407
50
1.1274072
51
8.1718305
0
ARC
8
DEFAULT_255_1_234
10
15.4375941
20
0.0269885
40
1.3990231
50
0.5424119
51
1.3863029
0
ARC
8
DEFAULT_255_1_234
10
15.6197319
20
0.0542342
40
1.0682415
50
359.8090433
51
4.9407866
0
ARC
8
DEFAULT_255_1_234
10
16.0407333
20
0.0918113
40
0.6455691
50
4.8362157
51
12.2904523
0
ARC
8
DEFAULT_255_1_234
10
16.3162448
20
0.1531965
40
0.3633074
50
12.0805627
51
23.8173984
0
ARC
8
DEFAULT_255_1_234
10
16.4336153
20
0.2028919
40
0.2358723
50
24.2871213
51
31.3935614
0
ARC
8
DEFAULT_255_1_234
10
16.486085
20
0.2372233
40
0.1732111
50
30.7407893
51
82.4657128
0
ARC
8
DEFAULT_255_1_234
10
16.4680985
20
0.1488691
40
0.263235
50
81.1060089
51
90.2184952
0
ARC
8
DEFAULT_255_1_234
10
16.4645283
20
0.1746924
40
0.2374236
50
89.3806855
51
105.6762551
0
ARC
8
DEFAULT_255_1_234
10
16.4461914
20
0.2413567
40
0.1682847
50
105.7981136
51
149.7388061
0
ARC
8
DEFAULT_255_1_234
10
16.5525992
20
0.177395
40
0.2924306
50
149.4208916
51
163.6286378
0
ARC
8
DEFAULT_255_1_234
10
16.761688
20
0.113625
40
0.5110213
50
163.3763315
51
172.1410975
0
ARC
8
DEFAULT_255_1_234
10
17.0917599
20
0.0663518
40
0.8444586
50
172.0259487
51
178.0703232
0
ARC
8
DEFAULT_255_1_234
10
17.3947689
20
0.0519906
40
1.1477868
50
177.8631668
51
179.5044149
0
ARC
8
DEFAULT_255_1_234
10
17.2875093
20
-0.1794611
40
1.0404907
50
179.7995573
51
185.2460446
0
ARC
8
DEFAULT_255_1_234
10
16.8832133
20
-0.2177487
40
0.6343885
50
185.1411642
51
193.0079639
0
ARC
8
DEFAULT_255_1_234
10
16.6188605
20
-0.2802359
40
0.3627568
50
192.7897626
51
205.2507664
0
ARC
8
DEFAULT_255_1_234
10
16.5142152
20
-0.3269585
40
0.2481908
50
205.8005384
51
211.2537509
0
ARC
8
DEFAULT_255_1_234
10
16.4618593
20
-0.362042
40
0.1852521
50
210.3789793
51
238.4008143
0
ARC
8
DEFAULT_255_1_234
10
16.4599115
20
-0.3573624
40
0.1882621
50
239.6520629
51
265.9793761
0
ARC
8
DEFAULT_255_1_234
10
16.4684315
20
-0.2901573
40
0.2559272
50
265.1315437
51
270.060332
0
ARC
8
DEFAULT_255_1_234
10
16.4713094
20
-0.3225466
40
0.2235528
50
269.3314664
51
287.2178029
0
ARC
8
DEFAULT_255_1_234
10
16.4850946
20
-0.3728721
40
0.1714108
50
287.7958004
51
329.080874
0
ARC
8
DEFAULT_255_1_234
10
16.3893402
20
-0.313107
40
0.2842745
50
328.6634704
51
343.3325132
0
ARC
8
DEFAULT_255_1_234
10
16.1720422
20
-0.2454137
40
0.5118644
50
343.0499468
51
351.9393422
0
ARC
8
DEFAULT_255_1_234
10
15.8253722
20
-0.1943051
40
0.8622784
50
351.8069023
51
357.7959224
0
ARC
8
DEFAULT_255_1_234
10
15.5018278
20
-0.1775279
40
1.1862365
50
357.5871873
51
359.2677531
0
LINE
8
DEFAULT_255_1_234
10
17.7602045
20
0.0402327
11
17.7602045
21
-0.1525291
0
LINE
8
DEFAULT_255_1_234
10
17.0220877
20
-0.1726084
11
17.0220877
21
0.0257755
0
LINE
8
DEFAULT_255_1_234
10
17.6116173
20
-0.1926877
11
17.6116173
21
0.0506739
0
LINE
8
DEFAULT_255_1_234
10
17.1706749
20
0.0619184
11
17.1706749
21
-0.1758211
0
ARC
8
DEFAULT_255_1_234
10
16.5354934
20
-0.1574195
40
1.2247208
50
353.8441951
51
0.2287902
0
ARC
8
DEFAULT_255_1_234
10
16.9994438
20
-0.2092194
40
0.7578929
50
344.4934747
51
353.9765454
0
ARC
8
DEFAULT_255_1_234
10
17.2987028
20
-0.2943019
40
0.4467846
50
329.2803592
51
344.7472793
0
ARC
8
DEFAULT_255_1_234
10
17.3979853
20
-0.3487982
40
0.3336173
50
324.9352394
51
328.6160465
0
ARC
8
DEFAULT_255_1_234
10
17.4356962
20
-0.3751573
40
0.2876076
50
280.580143
51
324.9173126
0
ARC
8
DEFAULT_255_1_234
10
17.3955755
20
-0.2080901
40
0.4592847
50
269.5977311
51
281.6734359
0
ARC
8
DEFAULT_255_1_234
10
17.388366
20
-0.2200827
40
0.4472986
50
256.6228859
51
270.51044
0
ARC
8
DEFAULT_255_1_234
10
17.3481638
20
-0.3749123
40
0.2873874
50
215.8618325
51
257.2788573
0
ARC
8
DEFAULT_255_1_234
10
17.450267
20
-0.3064023
40
0.4102928
50
197.9693508
51
215.2623606
0
ARC
8
DEFAULT_255_1_234
10
17.6987785
20
-0.2225291
40
0.6725652
50
187.8816417
51
198.2346507
0
ARC
8
DEFAULT_255_1_234
10
18.0945993
20
-0.1653921
40
1.0724845
50
180.8976217
51
188.0055519
0
ARC
8
DEFAULT_255_1_234
10
18.3746182
20
-0.1550223
40
1.3526448
50
180.7449369
51
181.1510016
0
ARC
8
DEFAULT_255_1_234
10
18.2168911
20
0.0306042
40
1.1948131
50
173.7675579
51
180.231553
0
ARC
8
DEFAULT_255_1_234
10
17.7651057
20
0.0816666
40
0.7401564
50
164.3058563
51
173.9002247
0
ARC
8
DEFAULT_255_1_234
10
17.4739126
20
0.1655656
40
0.4371288
50
148.7922025
51
164.568378
0
ARC
8
DEFAULT_255_1_234
10
17.3787578
20
0.2186929
40
0.3282386
50
144.5883898
51
148.1176286
0
ARC
8
DEFAULT_255_1_234
10
17.3444476
20
0.2426315
40
0.2864044
50
101.6440918
51
144.514236
0
ARC
8
DEFAULT_255_1_234
10
17.3869543
20
0.0737069
40
0.4604934
50
89.5284041
51
102.5819763
0
ARC
8
DEFAULT_255_1_234
10
17.3948631
20
0.0698018
40
0.464401
50
77.0437873
51
90.5081339
0
ARC
8
DEFAULT_255_1_234
10
17.4350632
20
0.2340615
40
0.2953195
50
48.2778575
51
77.4994676
0
ARC
8
DEFAULT_255_1_234
10
17.4423264
20
0.2469746
40
0.2808655
50
36.3142134
51
47.6305865
0
ARC
8
DEFAULT_255_1_234
10
17.3554571
20
0.1884515
40
0.3855453
50
18.2931786
51
35.6769206
0
ARC
8
DEFAULT_255_1_234
10
17.1011329
20
0.1011593
40
0.654423
50
8.024666
51
18.5605216
0
ARC
8
DEFAULT_255_1_234
10
16.684825
20
0.0396792
40
1.0752407
50
1.1274072
51
8.1718305
0
ARC
8
DEFAULT_255_1_234
10
16.361244
20
0.0269885
40
1.3990231
50
0.5424119
51
1.3863029
0
ARC
8
DEFAULT_255_1_234
10
16.5433818
20
0.0542342
40
1.0682415
50
359.8090433
51
4.9407866
0
ARC
8
DEFAULT_255_1_234
10
16.9643832
20
0.0918113
40
0.6455691
50
4.8362157
51
12.2904523
0
ARC
8
DEFAULT_255_1_234
10
17.2398947
20
0.1531965
40
0.3633074
50
12.0805627
51
23.8173984
0
ARC
8
DEFAULT_255_1_234
10
17.3572652
20
0.2028919
40
0.2358723
50
24.2871213
51
31.3935614
0
ARC
8
DEFAULT_255_1_234
10
17.4097349
20
0.2372233
40
0.1732111
50
30.7407893
51
82.4657128
0
ARC
8
DEFAULT_255_1_234
10
17.3917484
20
0.1488691
40
0.263235
50
81.1060089
51
90.2184952
0
ARC
8
DEFAULT_255_1_234
10
17.3881783
20
0.1746924
40
0.2374236
50
89.3806855
51
105.6762551
0
ARC
8
DEFAULT_255_1_234
10
17.3698413
20
0.2413567
40
0.1682847
50
105.7981136
51
149.7388061
0
ARC
8
DEFAULT_255_1_234
10
17.4762491
20
0.177395
40
0.2924306
50
149.4208916
51
163.6286378
0
ARC
8
DEFAULT_255_1_234
10
17.6853379
20
0.113625
40
0.5110213
50
163.3763315
51
172.1410975
0
ARC
8
DEFAULT_255_1_234
10
18.0154098
20
0.0663518
40
0.8444586
50
172.0259487
51
178.0703232
0
ARC
8
DEFAULT_255_1_234
10
18.3184188
20
0.0519906
40
1.1477868
50
177.8631668
51
179.5044149
0
ARC
8
DEFAULT_255_1_234
10
18.2111592
20
-0.1794611
40
1.0404907
50
179.7995573
51
185.2460446
0
ARC
8
DEFAULT_255_1_234
10
17.8068632
20
-0.2177487
40
0.6343885
50
185.1411642
51
193.0079639
0
ARC
8
DEFAULT_255_1_234
10
17.5425104
20
-0.2802359
40
0.3627568
50
192.7897626
51
205.2507664
0
ARC
8
DEFAULT_255_1_234
10
17.4378651
20
-0.3269585
40
0.2481908
50
205.8005384
51
211.2537509
0
ARC
8
DEFAULT_255_1_234
10
17.3855092
20
-0.362042
40
0.1852521
50
210.3789793
51
238.4008143
0
ARC
8
DEFAULT_255_1_234
10
17.3835614
20
-0.3573624
40
0.1882621
50
239.6520629
51
265.9793761
0
ARC
8
DEFAULT_255_1_234
10
17.3920814
20
-0.2901573
40
0.2559272
50
265.1315437
51
270.060332
0
ARC
8
DEFAULT_255_1_234
10
17.3949593
20
-0.3225466
40
0.2235528
50
269.3314664
51
287.2178029
0
ARC
8
DEFAULT_255_1_234
10
17.4087445
20
-0.3728721
40
0.1714108
50
287.7958004
51
329.080874
0
ARC
8
DEFAULT_255_1_234
10
17.3129901
20
-0.313107
40
0.2842745
50
328.6634704
51
343.3325132
0
ARC
8
DEFAULT_255_1_234
10
17.0956921
20
-0.2454137
40
0.5118644
50
343.0499468
51
351.9393422
0
ARC
8
DEFAULT_255_1_234
10
16.7490221
20
-0.1943051
40
0.8622784
50
351.8069023
51
357.7959224
0
ARC
8
DEFAULT_255_1_234
10
16.4254777
20
-0.1775279
40
1.1862365
50
357.5871873
51
359.2677531
0
LINE
8
DEFAULT_255_1_234
10
18.2750389
20
-0.0938974
11
18.2750389
21
-0.2151766
0
LINE
8
DEFAULT_255_1_234
10
18.2750389
20
-0.2151766
11
17.8830901
21
-0.2151766
0
LINE
8
DEFAULT_255_1_234
10
17.8830901
20
-0.2151766
11
17.8830901
21
-0.0938974
0
LINE
8
DEFAULT_255_1_234
10
17.8830901
20
-0.0938974
11
18.2750389
21
-0.0938974
0
LINE
8
DEFAULT_255_1_234
10
19.1376476
20
0.0402327
11
19.1376476
21
-0.1525291
0
LINE
8
DEFAULT_255_1_234
10
18.3995309
20
-0.1726084
11
18.3995309
21
0.0257755
0
LINE
8
DEFAULT_255_1_234
10
18.9890604
20
-0.1926877
11
18.9890604
21
0.0506739
0
LINE
8
DEFAULT_255_1_234
10
18.548118
20
0.0619184
11
18.548118
21
-0.1758211
0
ARC
8
DEFAULT_255_1_234
10
17.9129366
20
-0.1574195
40
1.2247208
50
353.8441951
51
0.2287902
0
ARC
8
DEFAULT_255_1_234
10
18.3768869
20
-0.2092194
40
0.7578929
50
344.4934747
51
353.9765454
0
ARC
8
DEFAULT_255_1_234
10
18.6761459
20
-0.2943019
40
0.4467846
50
329.2803592
51
344.7472793
0
ARC
8
DEFAULT_255_1_234
10
18.7754284
20
-0.3487982
40
0.3336173
50
324.9352394
51
328.6160465
0
ARC
8
DEFAULT_255_1_234
10
18.8131393
20
-0.3751573
40
0.2876076
50
280.580143
51
324.9173126
0
ARC
8
DEFAULT_255_1_234
10
18.7730186
20
-0.2080901
40
0.4592847
50
269.5977311
51
281.6734359
0
ARC
8
DEFAULT_255_1_234
10
18.7658091
20
-0.2200827
40
0.4472986
50
256.6228859
51
270.51044
0
ARC
8
DEFAULT_255_1_234
10
18.7256069
20
-0.3749123
40
0.2873874
50
215.8618325
51
257.2788573
0
ARC
8
DEFAULT_255_1_234
10
18.8277101
20
-0.3064023
40
0.4102928
50
197.9693508
51
215.2623606
0
ARC
8
DEFAULT_255_1_234
10
19.0762216
20
-0.2225291
40
0.6725652
50
187.8816417
51
198.2346507
0
ARC
8
DEFAULT_255_1_234
10
19.4720425
20
-0.1653921
40
1.0724845
50
180.8976217
51
188.0055519
0
ARC
8
DEFAULT_255_1_234
10
19.7520613
20
-0.1550223
40
1.3526448
50
180.7449369
51
181.1510016
0
ARC
8
DEFAULT_255_1_234
10
19.5943342
20
0.0306042
40
1.1948131
50
173.7675579
51
180.231553
0
ARC
8
DEFAULT_255_1_234
10
19.1425488
20
0.0816666
40
0.7401564
50
164.3058563
51
173.9002247
0
ARC
8
DEFAULT_255_1_234
10
18.8513557
20
0.1655656
40
0.4371288
50
148.7922025
51
164.568378
0
ARC
8
DEFAULT_255_1_234
10
18.7562009
20
0.2186929
40
0.3282386
50
144.5883898
51
148.1176286
0
ARC
8
DEFAULT_255_1_234
10
18.7218907
20
0.2426315
40
0.2864044
50
101.6440918
51
144.514236
0
ARC
8
DEFAULT_255_1_234
10
18.7643974
20
0.0737069
40
0.4604934
50
89.5284041
51
102.5819763
0
ARC
8
DEFAULT_255_1_234
10
18.7723062
20
0.0698018
40
0.464401
50
77.0437873
51
90.5081339
0
ARC
8
DEFAULT_255_1_234
10
18.8125064
20
0.2340615
40
0.2953195
50
48.2778575
51
77.4994676
0
ARC
8
DEFAULT_255_1_234
10
18.8197695
20
0.2469746
40
0.2808655
50
36.3142134
51
47.6305865
0
ARC
8
DEFAULT_255_1_234
10
18.7329002
20
0.1884515
40
0.3855453
50
18.2931786
51
35.6769206
0
ARC
8
DEFAULT_255_1_234
10
18.4785761
20
0.1011593
40
0.654423
50
8.024666
51
18.5605216
0
ARC
8
DEFAULT_255_1_234
10
18.0622681
20
0.0396792
40
1.0752407
50
1.1274072
51
8.1718305
0
ARC
8
DEFAULT_255_1_234
10
17.7386871
20
0.0269885
40
1.3990231
50
0.5424119
51
1.3863029
0
ARC
8
DEFAULT_255_1_234
10
17.9208249
20
0.0542342
40
1.0682415
50
359.8090433
51
4.9407866
0
ARC
8
DEFAULT_255_1_234
10
18.3418263
20
0.0918113
40
0.6455691
50
4.8362157
51
12.2904523
0
ARC
8
DEFAULT_255_1_234
10
18.6173378
20
0.1531965
40
0.3633074
50
12.0805627
51
23.8173984
0
ARC
8
DEFAULT_255_1_234
10
18.7347083
20
0.2028919
40
0.2358723
50
24.2871213
51
31.3935614
0
ARC
8
DEFAULT_255_1_234
10
18.787178
20
0.2372233
40
0.1732111
50
30.7407893
51
82.4657128
0
ARC
8
DEFAULT_255_1_234
10
18.7691915
20
0.1488691
40
0.263235
50
81.1060089
51
90.2184952
0
ARC
8
DEFAULT_255_1_234
10
18.7656214
20
0.1746924
40
0.2374236
50
89.3806855
51
105.6762551
0
ARC
8
DEFAULT_255_1_234
10
18.7472844
20
0.2413567
40
0.1682847
50
105.7981136
51
149.7388061
0
ARC
8
DEFAULT_255_1_234
10
18.8536923
20
0.177395
40
0.2924306
50
149.4208916
51
163.6286378
0
ARC
8
DEFAULT_255_1_234
10
19.0627811
20
0.113625
40
0.5110213
50
163.3763315
51
172.1410975
0
ARC
8
DEFAULT_255_1_234
10
19.392853
20
0.0663518
40
0.8444586
50
172.0259487
51
178.0703232
0
ARC
8
DEFAULT_255_1_234
10
19.6958619
20
0.0519906
40
1.1477868
50
177.8631668
51
179.5044149
0
ARC
8
DEFAULT_255_1_234
10
19.5886024
20
-0.1794611
40
1.0404907
50
179.7995573
51
185.2460446
0
ARC
8
DEFAULT_255_1_234
10
19.1843063
20
-0.2177487
40
0.6343885
50
185.1411642
51
193.0079639
0
ARC
8
DEFAULT_255_1_234
10
18.9199535
20
-0.2802359
40
0.3627568
50
192.7897626
51
205.2507664
0
ARC
8
DEFAULT_255_1_234
10
18.8153082
20
-0.3269585
40
0.2481908
50
205.8005384
51
211.2537509
0
ARC
8
DEFAULT_255_1_234
10
18.7629523
20
-0.362042
40
0.1852521
50
210.3789793
51
238.4008143
0
ARC
8
DEFAULT_255_1_234
10
18.7610045
20
-0.3573624
40
0.1882621
50
239.6520629
51
265.9793761
0
ARC
8
DEFAULT_255_1_234
10
18.7695245
20
-0.2901573
40
0.2559272
50
265.1315437
51
270.060332
0
ARC
8
DEFAULT_255_1_234
10
18.7724024
20
-0.3225466
40
0.2235528
50
269.3314664
51
287.2178029
0
ARC
8
DEFAULT_255_1_234
10
18.7861876
20
-0.3728721
40
0.1714108
50
287.7958004
51
329.080874
0
ARC
8
DEFAULT_255_1_234
10
18.6904332
20
-0.313107
40
0.2842745
50
328.6634704
51
343.3325132
0
ARC
8
DEFAULT_255_1_234
10
18.4731353
20
-0.2454137
40
0.5118644
50
343.0499468
51
351.9393422
0
ARC
8
DEFAULT_255_1_234
10
18.1264653
20
-0.1943051
40
0.8622784
50
351.8069023
51
357.7959224
0
ARC
8
DEFAULT_255_1_234
10
17.8029209
20
-0.1775279
40
1.1862365
50
357.5871873
51
359.2677531
0
LINE
8
DEFAULT_255_1_234
10
19.7962501
20
-0.1934909
11
19.5207615
21
-0.1934909
0
LINE
8
DEFAULT_255_1_234
10
19.5207615
20
-0.1934909
11
19.5207615
21
-0.6513
0
LINE
8
DEFAULT_255_1_234
10
19.5207615
20
-0.6513
11
19.3665521
21
-0.6513
0
LINE
8
DEFAULT_255_1_234
10
19.3665521
20
-0.6513
11
19.3665521
21
0.5181211
0
LINE
8
DEFAULT_255_1_234
10
19.3665521
20
0.5181211
11
19.7978565
21
0.5181211
0
LINE
8
DEFAULT_255_1_234
10
19.5207615
20
0.3912196
11
19.5207615
21
-0.0673926
0
LINE
8
DEFAULT_255_1_234
10
19.5207615
20
-0.0673926
11
19.7978565
21
-0.0673926
0
LINE
8
DEFAULT_255_1_234
10
19.8066914
20
0.3912196
11
19.5207615
21
0.3912196
0
ARC
8
DEFAULT_255_1_234
10
19.8020692
20
-0.0877805
40
0.6059162
50
78.8378113
51
90.3983573
0
ARC
8
DEFAULT_255_1_234
10
19.8436705
20
0.1142879
40
0.3996205
50
58.9632738
51
79.0810598
0
ARC
8
DEFAULT_255_1_234
10
19.8738248
20
0.1702721
40
0.3361177
50
48.0197965
51
58.447194
0
ARC
8
DEFAULT_255_1_234
10
19.8827108
20
0.1788225
40
0.3238191
50
3.3375044
51
48.1766626
0
ARC
8
DEFAULT_255_1_234
10
19.7596948
20
0.1611171
40
0.4477806
50
359.9477528
51
4.6829065
0
ARC
8
DEFAULT_255_1_234
10
19.7720265
20
0.1568628
40
0.4354656
50
346.1877825
51
0.5060252
0
ARC
8
DEFAULT_255_1_234
10
19.9079132
20
0.1215731
40
0.295089
50
310.8831995
51
346.5426355
0
ARC
8
DEFAULT_255_1_234
10
19.8770553
20
0.1632695
40
0.3468331
50
286.6925341
51
310.2288297
0
ARC
8
DEFAULT_255_1_234
10
19.8201383
20
0.3422882
40
0.5346654
50
274.6850312
51
287.0245141
0
ARC
8
DEFAULT_255_1_234
10
19.7976106
20
0.5631932
40
0.7566852
50
269.8969846
51
275.018904
0
ARC
8
DEFAULT_255_1_234
10
19.8003698
20
0.3552707
40
0.4226708
50
269.6593078
51
279.4153575
0
ARC
8
DEFAULT_255_1_234
10
19.8260973
20
0.2062133
40
0.2714146
50
279.2049762
51
294.9900808
0
ARC
8
DEFAULT_255_1_234
10
19.8551299
20
0.1414508
40
0.2004525
50
295.2888114
51
311.2911209
0
ARC
8
DEFAULT_255_1_234
10
19.8622193
20
0.130922
40
0.1878703
50
311.7854996
51
347.2861051
0
ARC
8
DEFAULT_255_1_234
10
19.7638351
20
0.1562092
40
0.2894234
50
346.6893224
51
0.1059443
0
ARC
8
DEFAULT_255_1_234
10
19.6883247
20
0.1590685
40
0.3649409
50
359.6350983
51
0.0053152
0
ARC
8
DEFAULT_255_1_234
10
19.7853575
20
0.1615937
40
0.2679199
50
359.4672059
51
15.5933957
0
ARC
8
DEFAULT_255_1_234
10
19.8478464
20
0.1784779
40
0.2031932
50
15.7442113
51
46.6203375
0
ARC
8
DEFAULT_255_1_234
10
19.8330684
20
0.1614484
40
0.2257226
50
46.8628658
51
75.6676503
0
ARC
8
DEFAULT_255_1_234
10
19.8036505
20
0.0555718
40
0.3355939
50
75.276167
51
88.2915297
0
ARC
8
DEFAULT_255_1_234
10
19.7978211
20
-0.0322476
40
0.4235602
50
87.8575022
51
88.8000139
0
LINE
8
DEFAULT_255_1_234
10
21.3030042
20
0.5181211
11
21.3030042
21
-0.6513
0
LINE
8
DEFAULT_255_1_234
10
21.3030042
20
-0.6513
11
21.1479917
21
-0.6513
0
LINE
8
DEFAULT_255_1_234
10
21.1479917
20
-0.6513
11
21.1479917
21
-0.110764
0
LINE
8
DEFAULT_255_1_234
10
21.1479917
20
-0.110764
11
20.5584621
21
-0.110764
0
LINE
8
DEFAULT_255_1_234
10
20.5584621
20
-0.110764
11
20.5584621
21
-0.6513
0
LINE
8
DEFAULT_255_1_234
10
20.5584621
20
-0.6513
11
20.4042527
21
-0.6513
0
LINE
8
DEFAULT_255_1_234
10
20.4042527
20
-0.6513
11
20.4042527
21
0.5181211
0
LINE
8
DEFAULT_255_1_234
10
20.4042527
20
0.5181211
11
20.5584621
21
0.5181211
0
LINE
8
DEFAULT_255_1_234
10
20.5584621
20
0.5181211
11
20.5584621
21
0.0153343
0
LINE
8
DEFAULT_255_1_234
10
20.5584621
20
0.0153343
11
21.1479917
21
0.0153343
0
LINE
8
DEFAULT_255_1_234
10
21.1479917
20
0.0153343
11
21.1479917
21
0.5181211
0
LINE
8
DEFAULT_255_1_234
10
21.1479917
20
0.5181211
11
21.3030042
21
0.5181211
0
LINE
8
DEFAULT_255_1_234
10
22.0266639
20
0.5237433
11
22.0266639
21
-0.6513
0
LINE
8
DEFAULT_255_1_234
10
22.0266639
20
-0.6513
11
21.8772735
21
-0.6513
0
LINE
8
DEFAULT_255_1_234
10
21.8772735
20
-0.6513
11
21.8772735
21
0.3390133
0
LINE
8
DEFAULT_255_1_234
10
21.8772735
20
0.3390133
11
21.5776897
21
0.2289785
0
LINE
8
DEFAULT_255_1_234
10
21.5776897
20
0.2289785
11
21.5776897
21
0.3639117
0
LINE
8
DEFAULT_255_1_234
10
21.5776897
20
0.3639117
11
22.0033718
21
0.5237433
0
LINE
8
DEFAULT_255_1_234
10
22.0033718
20
0.5237433
11
22.0266639
21
0.5237433
0
ARC
8
DEFAULT_255_2_778
10
7.7537338
20
181.9845992
40
3.0484709
50
251.6854144
51
258.6071955
0
ARC
8
DEFAULT_255_2_778
10
7.539521
20
180.9029738
40
1.9458471
50
258.4992492
51
268.3986479
0
ARC
8
DEFAULT_255_2_778
10
7.5172314
20
180.4727206
40
1.5151737
50
268.7865272
51
269.9950384
0
ARC
8
DEFAULT_255_2_778
10
7.5277432
20
180.0215355
40
1.0640417
50
269.426895
51
279.6711067
0
ARC
8
DEFAULT_255_2_778
10
7.6417753
20
179.3919746
40
0.4243233
50
278.7731084
51
300.3324923
0
ARC
8
DEFAULT_255_2_778
10
7.760746
20
179.1893552
40
0.1893587
50
300.2240287
51
1.9041213
0
ARC
8
DEFAULT_255_2_778
10
7.7452705
20
179.1985089
40
0.2047497
50
359.1991369
51
359.99965
0
ARC
8
DEFAULT_255_2_778
10
7.7523233
20
179.1993378
40
0.1976988
50
359.7594145
51
47.1793976
0
ARC
8
DEFAULT_255_2_778
10
7.6187277
20
179.050731
40
0.3975169
50
47.6144502
51
60.8366176
0
ARC
8
DEFAULT_255_2_778
10
7.0190958
20
178.0347865
40
1.5771337
50
59.799464
51
64.8885807
0
ARC
8
DEFAULT_255_2_778
10
6.0948833
20
176.1057682
40
3.7160912
50
64.6076081
51
66.8386974
0
ARC
8
DEFAULT_255_2_778
10
9.6419609
20
184.4688052
40
5.368109
50
244.3032309
51
247.1393781
0
ARC
8
DEFAULT_255_2_778
10
8.5507088
20
182.208818
40
2.8584574
50
240.2323579
51
244.3709759
0
ARC
8
DEFAULT_255_2_778
10
7.7800475
20
180.8719591
40
1.315392
50
233.2209971
51
240.4606284
0
ARC
8
DEFAULT_255_2_778
10
7.3561477
20
180.3008187
40
0.6041399
50
225.6990744
51
232.9899679
0
ARC
8
DEFAULT_255_2_778
10
7.3965073
20
180.3252214
40
0.6499005
50
178.2783416
51
224.6550883
0
ARC
8
DEFAULT_255_2_778
10
7.5059624
20
180.3585974
40
0.7591885
50
157.033673
51
181.0453383
0
ARC
8
DEFAULT_255_2_778
10
7.378439
20
180.3994396
40
0.6259551
50
124.9113017
51
155.9211516
0
ARC
8
DEFAULT_255_2_778
10
7.5960466
20
180.0908681
40
1.0035357
50
100.4079723
51
125.0168617
0
ARC
8
DEFAULT_255_2_778
10
7.6991199
20
179.5968046
40
1.5081396
50
89.6483922
51
100.8684975
0
ARC
8
DEFAULT_255_2_778
10
7.7083242
20
179.2445988
40
1.8603169
50
89.5079487
51
89.9984402
0
ARC
8
DEFAULT_255_2_778
10
7.7099573
20
179.1793694
40
1.9255311
50
83.9170631
51
89.5732113
0
ARC
8
DEFAULT_255_2_778
10
7.5071517
20
177.1717957
40
3.9433074
50
80.7325723
51
84.0779772
0
ARC
8
DEFAULT_255_2_778
10
7.0208457
20
174.148882
40
7.0050837
50
78.5086351
51
80.7886813
0
ARC
8
DEFAULT_255_2_778
10
7.6620177
20
178.7483544
40
1.9415426
50
67.135818
51
78.0934208
0
ARC
8
DEFAULT_255_2_778
10
7.7851814
20
179.3187809
40
1.3579807
50
78.2126325
51
89.7333975
0
ARC
8
DEFAULT_255_2_778
10
7.7793853
20
179.7339211
40
0.9429038
50
89.2638155
51
100.5666868
0
ARC
8
DEFAULT_255_2_778
10
7.6660949
20
180.3037419
40
0.362036
50
99.4784875
51
124.329414
0
ARC
8
DEFAULT_255_2_778
10
7.5705593
20
180.451851
40
0.1859067
50
125.7571195
51
182.2824883
0
ARC
8
DEFAULT_255_2_778
10
7.5493239
20
180.4451629
40
0.1645253
50
180.2492993
51
239.8144161
0
ARC
8
DEFAULT_255_2_778
10
7.932718
20
181.0452128
40
0.876484
50
237.8725734
51
242.8068846
0
ARC
8
DEFAULT_255_2_778
10
9.4175857
20
183.8617958
40
4.0604642
50
242.3328458
51
244.031083
0
ARC
8
DEFAULT_255_2_778
10
12.3804066
20
189.9102314
40
10.7955807
50
243.950624
51
244.8024316
0
ARC
8
DEFAULT_255_2_778
10
15.4009918
20
196.2942175
40
17.8580926
50
244.7535425
51
244.9563234
0
ARC
8
DEFAULT_255_2_778
10
5.8652927
20
175.7926264
40
4.7527588
50
62.2505456
51
65.4301556
0
ARC
8
DEFAULT_255_2_778
10
6.9275435
20
177.8007172
40
2.4810291
50
57.2951304
51
62.3684211
0
ARC
8
DEFAULT_255_2_778
10
7.6807233
20
178.9640235
40
1.0952081
50
48.7345704
51
57.5685367
0
ARC
8
DEFAULT_255_2_778
10
8.0117486
20
179.3515722
40
0.5856147
50
44.3236031
51
48.0704418
0
ARC
8
DEFAULT_255_2_778
10
7.9783002
20
179.3315468
40
0.6236013
50
1.3523843
51
43.4925744
0
ARC
8
DEFAULT_255_2_778
10
7.7103531
20
179.2986151
40
0.8926473
50
359.9763756
51
3.0599076
0
ARC
8
DEFAULT_255_2_778
10
7.8645343
20
179.2835407
40
0.7386124
50
333.0361889
51
1.1408766
0
ARC
8
DEFAULT_255_2_778
10
7.8947908
20
179.2904919
40
0.7150741
50
300.8430083
51
331.4403095
0
ARC
8
DEFAULT_255_2_778
10
7.694568
20
179.6040162
40
1.0869673
50
281.4258583
51
301.4316118
0
ARC
8
DEFAULT_255_2_778
10
7.5632666
20
180.2122414
40
1.7091691
50
270.2273513
51
281.7010805
0
ARC
8
DEFAULT_255_2_778
10
7.5453797
20
180.6889043
40
2.1859577
50
269.9983113
51
270.6466065
0
LINE
8
DEFAULT_255_2_778
10
7.5453153
20
178.5029465
11
7.5438002
21
178.502947
0
ARC
8
DEFAULT_255_2_778
10
7.5509161
20
181.6858969
40
3.1829579
50
256.2431122
51
269.871909
0
ARC
8
DEFAULT_255_2_778
10
21.7538511
20
181.9104629
40
2.9720345
50
251.5709223
51
258.7508181
0
ARC
8
DEFAULT_255_2_778
10
21.5538128
20
180.8872385
40
1.9294488
50
258.6495077
51
268.8281511
0
ARC
8
DEFAULT_255_2_778
10
21.5355488
20
180.4924193
40
1.5343723
50
269.2085037
51
269.9981866
0
ARC
8
DEFAULT_255_2_778
10
21.5473849
20
180.0240184
40
1.0660376
50
269.3612297
51
279.5899087
0
ARC
8
DEFAULT_255_2_778
10
21.6608439
20
179.3925324
40
0.424527
50
278.6895227
51
300.2363944
0
ARC
8
DEFAULT_255_2_778
10
21.7799083
20
179.1890793
40
0.188796
50
300.1108484
51
1.9024905
0
ARC
8
DEFAULT_255_2_778
10
21.7439577
20
179.1997221
40
0.2246851
50
358.8842611
51
0.0019649
0
ARC
8
DEFAULT_255_2_778
10
21.7769791
20
179.2036385
40
0.1917038
50
358.831716
51
47.0900458
0
ARC
8
DEFAULT_255_2_778
10
21.6364654
20
179.044284
40
0.4041259
50
47.8812665
51
61.174665
0
ARC
8
DEFAULT_255_2_778
10
21.0418848
20
178.0243117
40
1.5846568
50
60.1210877
51
65.1917015
0
ARC
8
DEFAULT_255_2_778
10
20.1415278
20
176.1187122
40
3.6922188
50
64.9168629
51
67.1565628
0
ARC
8
DEFAULT_255_2_778
10
23.6275467
20
184.3902888
40
5.2839333
50
244.2656926
51
247.1407051
0
ARC
8
DEFAULT_255_2_778
10
22.5594997
20
182.182065
40
2.8309849
50
240.1545061
51
244.3326325
0
ARC
8
DEFAULT_255_2_778
10
21.7856548
20
180.8460346
40
1.2870531
50
232.697515
51
240.4357497
0
ARC
8
DEFAULT_255_2_778
10
21.3705506
20
180.2950218
40
0.5972006
50
225.5850892
51
232.3393736
0
ARC
8
DEFAULT_255_2_778
10
21.4133941
20
180.3245933
40
0.6483829
50
178.7795739
51
224.7095916
0
ARC
8
DEFAULT_255_2_778
10
21.6669319
20
180.3486135
40
0.9018316
50
179.997867
51
180.6487041
0
ARC
8
DEFAULT_255_2_778
10
21.5167738
20
180.3624249
40
0.7517998
50
156.9195758
51
181.050088
0
ARC
8
DEFAULT_255_2_778
10
21.3928482
20
180.4018712
40
0.6224513
50
124.7111133
51
155.7879672
0
ARC
8
DEFAULT_255_2_778
10
21.6055459
20
180.1099942
40
0.9835402
50
101.7934503
51
125.2143527
0
ARC
8
DEFAULT_255_2_778
10
21.729848
20
179.5574326
40
1.5498677
50
89.5248728
51
102.1166783
0
ARC
8
DEFAULT_255_2_778
10
21.7283109
20
179.0038834
40
2.1034129
50
83.2889725
51
89.6080411
0
ARC
8
DEFAULT_255_2_778
10
21.529975
20
177.2360668
40
3.8823067
50
79.4764054
51
83.4308492
0
ARC
8
DEFAULT_255_2_778
10
21.2186357
20
175.4828673
40
5.6628977
50
78.2224868
51
79.6190915
0
ARC
8
DEFAULT_255_2_778
10
21.6838473
20
178.7603715
40
1.9311543
50
67.1323814
51
78.3148813
0
ARC
8
DEFAULT_255_2_778
10
21.801359
20
179.3118614
40
1.3672981
50
78.4565774
51
89.7552271
0
ARC
8
DEFAULT_255_2_778
10
21.7951366
20
179.742747
40
0.9364778
50
89.2619009
51
100.5950934
0
ARC
8
DEFAULT_255_2_778
10
21.6824182
20
180.3082169
40
0.3599879
50
99.5087086
51
124.406715
0
ARC
8
DEFAULT_255_2_778
10
21.5878565
20
180.454643
40
0.1858061
50
125.8630185
51
182.2986975
0
ARC
8
DEFAULT_255_2_778
10
21.5497296
20
180.4471047
40
0.1475296
50
179.9666559
51
180.100057
0
ARC
8
DEFAULT_255_2_778
10
21.566185
20
180.447093
40
0.163985
50
180.0859454
51
239.8819968
0
ARC
8
DEFAULT_255_2_778
10
21.9379018
20
181.0338619
40
0.8584853
50
238.072871
51
243.0442008
0
ARC
8
DEFAULT_255_2_778
10
23.4872034
20
183.9988845
40
4.2038426
50
242.5409111
51
244.1884903
0
ARC
8
DEFAULT_255_2_778
10
26.6463384
20
190.493496
40
11.4260319
50
244.1076525
51
244.9219574
0
ARC
8
DEFAULT_255_2_778
10
29.9038827
20
197.417155
40
19.0777309
50
244.8743531
51
245.066969
0
ARC
8
DEFAULT_255_2_778
10
19.8865272
20
175.8249274
40
4.7250654
50
62.0340028
51
65.293009
0
ARC
8
DEFAULT_255_2_778
10
20.9507744
20
177.8198758
40
2.464003
50
57.1127289
51
62.13736
0
ARC
8
DEFAULT_255_2_778
10
21.7037139
20
178.9735906
40
1.0863604
50
48.3695509
51
57.4197129
0
ARC
8
DEFAULT_255_2_778
10
22.0286268
20
179.3503419
40
0.5889589
50
44.472493
51
47.6467012
0
ARC
8
DEFAULT_255_2_778
10
21.9979457
20
179.3332032
40
0.6229283
50
1.2061613
51
43.6203607
0
ARC
8
DEFAULT_255_2_778
10
21.7312413
20
179.3007903
40
0.890659
50
359.9779196
51
2.9299178
0
ARC
8
DEFAULT_255_2_778
10
21.8802547
20
179.2856837
40
0.7417924
50
333.172934
51
1.140392
0
ARC
8
DEFAULT_255_2_778
10
21.9146167
20
179.2903736
40
0.7135172
50
300.9808035
51
331.5913995
0
ARC
8
DEFAULT_255_2_778
10
21.7182603
20
179.6002862
40
1.0803281
50
281.9040909
51
301.4483918
0
ARC
8
DEFAULT_255_2_778
10
21.5848425
20
180.1988518
40
1.6935565
50
270.5796874
51
282.1436175
0
ARC
8
DEFAULT_255_2_778
10
21.5636722
20
180.6937735
40
2.1887267
50
269.9959074
51
271.0027751
0
LINE
8
DEFAULT_255_2_778
10
21.5635158
20
178.5050468
11
21.5625002
21
178.505047
0
ARC
8
DEFAULT_255_2_778
10
21.5700221
20
181.6938174
40
3.1887792
50
256.2556596
51
269.8648469
0
LINE
8
DEFAULT_255_2_778
10
6.7958002
20
178.595847
11
6.7958002
21
179.090547
0
LINE
8
DEFAULT_255_2_778
10
8.4164002
20
181.013547
11
8.4164002
21
180.537347
0
LINE
8
DEFAULT_255_2_778
10
6.7940002
20
178.594247
11
6.7958002
21
178.595847
0
LINE
8
DEFAULT_255_2_778
10
8.9866002
20
181.063047
11
9.6629002
21
181.063047
0
LINE
8
DEFAULT_255_2_778
10
9.6629002
20
181.063047
11
9.6629002
21
178.555647
0
LINE
8
DEFAULT_255_2_778
10
9.6629002
20
178.555647
11
8.9866002
21
178.555647
0
LINE
8
DEFAULT_255_2_778
10
8.9866002
20
178.555647
11
8.9866002
21
181.063047
0
LINE
8
DEFAULT_255_2_778
10
10.2809002
20
178.555647
11
10.2809002
21
181.063047
0
LINE
8
DEFAULT_255_2_778
10
10.2809002
20
181.063047
11
12.0132002
21
181.063047
0
LINE
8
DEFAULT_255_2_778
10
12.0132002
20
181.063047
11
12.0132002
21
180.609347
0
LINE
8
DEFAULT_255_2_778
10
12.0132002
20
180.609347
11
10.9321002
21
180.609347
0
LINE
8
DEFAULT_255_2_778
10
10.9321002
20
180.609347
11
10.9321002
21
180.043047
0
LINE
8
DEFAULT_255_2_778
10
10.9321002
20
180.043047
11
11.8735002
21
180.043047
0
LINE
8
DEFAULT_255_2_778
10
11.8735002
20
180.043047
11
11.8735002
21
179.629547
0
LINE
8
DEFAULT_255_2_778
10
11.8735002
20
179.629547
11
10.9321002
21
179.629547
0
LINE
8
DEFAULT_255_2_778
10
10.9321002
20
179.629547
11
10.9321002
21
179.034247
0
LINE
8
DEFAULT_255_2_778
10
10.9321002
20
179.034247
11
12.0412002
21
179.034247
0
LINE
8
DEFAULT_255_2_778
10
12.0412002
20
179.034247
11
12.0412002
21
178.554047
0
LINE
8
DEFAULT_255_2_778
10
12.0412002
20
178.554047
11
10.2809002
21
178.555647
0
LINE
8
DEFAULT_255_2_778
10
12.4817002
20
178.555647
11
12.4817002
21
181.063047
0
LINE
8
DEFAULT_255_2_778
10
12.4817002
20
181.063047
11
13.3575002
21
181.063047
0
LINE
8
DEFAULT_255_2_778
10
13.3575002
20
181.063047
11
13.9671002
21
179.460747
0
LINE
8
DEFAULT_255_2_778
10
13.9671002
20
179.460747
11
14.5897002
21
181.063047
0
LINE
8
DEFAULT_255_2_778
10
14.5897002
20
181.063047
11
15.4215002
21
181.063047
0
LINE
8
DEFAULT_255_2_778
10
15.4215002
20
181.063047
11
15.4215002
21
178.555647
0
LINE
8
DEFAULT_255_2_778
10
15.4215002
20
178.555647
11
14.7812002
21
178.555647
0
LINE
8
DEFAULT_255_2_778
10
14.7812002
20
178.555647
11
14.7812002
21
180.331447
0
LINE
8
DEFAULT_255_2_778
10
14.7812002
20
180.331447
11
14.0724002
21
178.531247
0
LINE
8
DEFAULT_255_2_778
10
14.0724002
20
178.531247
11
13.6515002
21
178.531247
0
LINE
8
DEFAULT_255_2_778
10
13.6515002
20
178.531247
11
12.9559002
21
180.331447
0
LINE
8
DEFAULT_255_2_778
10
12.9559002
20
180.331447
11
12.9559002
21
178.555347
0
LINE
8
DEFAULT_255_2_778
10
12.9559002
20
178.555347
11
12.4817002
21
178.555647
0
LINE
8
DEFAULT_255_2_778
10
16.0409002
20
178.555647
11
16.0409002
21
181.063047
0
LINE
8
DEFAULT_255_2_778
10
16.0409002
20
181.063047
11
17.7731002
21
181.063047
0
LINE
8
DEFAULT_255_2_778
10
17.7731002
20
181.063047
11
17.7731002
21
180.609347
0
LINE
8
DEFAULT_255_2_778
10
17.7731002
20
180.609347
11
16.6921002
21
180.609347
0
LINE
8
DEFAULT_255_2_778
10
16.6921002
20
180.609347
11
16.6921002
21
180.043047
0
LINE
8
DEFAULT_255_2_778
10
16.6921002
20
180.043047
11
17.6334002
21
180.043047
0
LINE
8
DEFAULT_255_2_778
10
17.6334002
20
180.043047
11
17.6334002
21
179.629547
0
LINE
8
DEFAULT_255_2_778
10
17.6334002
20
179.629547
11
16.6921002
21
179.629547
0
LINE
8
DEFAULT_255_2_778
10
16.6921002
20
179.629547
11
16.6921002
21
179.034247
0
LINE
8
DEFAULT_255_2_778
10
16.6921002
20
179.034247
11
17.8030002
21
179.034247
0
LINE
8
DEFAULT_255_2_778
10
17.8030002
20
179.034247
11
17.8030002
21
178.554047
0
LINE
8
DEFAULT_255_2_778
10
17.8030002
20
178.554047
11
16.0409002
21
178.555647
0
LINE
8
DEFAULT_255_2_778
10
18.2454002
20
178.555647
11
18.2454002
21
181.063047
0
LINE
8
DEFAULT_255_2_778
10
18.2454002
20
181.063047
11
19.0283002
21
181.063047
0
LINE
8
DEFAULT_255_2_778
10
19.0283002
20
181.063047
11
19.8586002
21
179.384247
0
LINE
8
DEFAULT_255_2_778
10
19.8586002
20
179.384247
11
19.8586002
21
181.063047
0
LINE
8
DEFAULT_255_2_778
10
19.8586002
20
181.063047
11
20.3343002
21
181.063047
0
LINE
8
DEFAULT_255_2_778
10
20.3343002
20
181.063047
11
20.3343002
21
178.555647
0
LINE
8
DEFAULT_255_2_778
10
20.3343002
20
178.555647
11
19.5739002
21
178.555647
0
LINE
8
DEFAULT_255_2_778
10
19.5739002
20
178.555647
11
18.7214002
21
180.256847
0
LINE
8
DEFAULT_255_2_778
10
18.7214002
20
180.256847
11
18.7214002
21
178.555647
0
LINE
8
DEFAULT_255_2_778
10
18.7214002
20
178.555647
11
18.2454002
21
178.555647
0
LINE
8
DEFAULT_255_2_778
10
20.8143002
20
178.596047
11
20.8143002
21
179.090847
0
LINE
8
DEFAULT_255_2_778
10
22.3745002
20
181.026547
11
22.4343002
21
181.015947
0
LINE
8
DEFAULT_255_2_778
10
22.4343002
20
181.015947
11
22.4343002
21
180.539747
0
LINE
8
DEFAULT_255_2_778
10
20.8124002
20
178.596347
11
20.8143002
21
178.596047
0
LINE
8
DEFAULT_255_1_234
10
7.0102023
20
176.7892849
11
6.8551897
21
176.7892849
0
LINE
8
DEFAULT_255_1_234
10
6.1628539
20
176.2969394
11
6.3178665
21
176.2969394
0
ARC
8
DEFAULT_255_1_234
10
6.921071
20
177.6839768
40
1.252368
50
248.9199003
51
254.1439814
0
ARC
8
DEFAULT_255_1_234
10
6.7530205
20
177.2513234
40
0.788226
50
241.633709
51
249.0064503
0
ARC
8
DEFAULT_255_1_234
10
6.60016
20
176.9712317
40
0.4691427
50
230.498225
51
241.8087113
0
ARC
8
DEFAULT_255_1_234
10
6.5217174
20
176.8712906
40
0.3421437
50
227.4064532
51
229.9881192
0
ARC
8
DEFAULT_255_1_234
10
6.4729694
20
176.8237088
40
0.2741476
50
200.6781896
51
228.1763934
0
ARC
8
DEFAULT_255_1_234
10
6.4802005
20
176.8222077
40
0.2804109
50
179.5061581
51
199.8694617
0
ARC
8
DEFAULT_255_1_234
10
6.4792757
20
176.829621
40
0.2795204
50
132.4834203
51
181.0242172
0
ARC
8
DEFAULT_255_1_234
10
6.5388339
20
176.7733704
40
0.3612768
50
129.2532479
51
133.4242687
0
ARC
8
DEFAULT_255_1_234
10
6.5534789
20
176.7513965
40
0.3875675
50
101.98776
51
128.8742646
0
ARC
8
DEFAULT_255_1_234
10
6.5933399
20
176.5792741
40
0.5642249
50
89.5906553
51
102.3169264
0
ARC
8
DEFAULT_255_1_234
10
6.6003891
20
176.6111148
40
0.5323783
50
77.2360837
51
90.3248275
0
ARC
8
DEFAULT_255_1_234
10
6.6210971
20
176.70784
40
0.4334697
50
63.837784
51
77.0809408
0
ARC
8
DEFAULT_255_1_234
10
6.6488732
20
176.7595911
40
0.3747796
50
45.9864267
51
64.1607727
0
ARC
8
DEFAULT_255_1_234
10
6.6749614
20
176.7893866
40
0.3352302
50
32.2747395
51
45.6547121
0
ARC
8
DEFAULT_255_1_234
10
6.6816054
20
176.791288
40
0.328603
50
359.6507365
51
32.6130309
0
ARC
8
DEFAULT_255_1_234
10
6.587315
20
176.791766
40
0.2678863
50
359.469343
51
14.9832209
0
ARC
8
DEFAULT_255_1_234
10
6.6578212
20
176.8106539
40
0.1948938
50
14.9781179
51
48.2004265
0
ARC
8
DEFAULT_255_1_234
10
6.6413856
20
176.7899983
40
0.2212521
50
48.5927837
51
74.1241538
0
ARC
8
DEFAULT_255_1_234
10
6.6080346
20
176.6799248
40
0.3362561
50
73.7888341
51
86.6652678
0
ARC
8
DEFAULT_255_1_234
10
6.5977911
20
176.5591881
40
0.4573953
50
86.2640471
51
90.0526343
0
ARC
8
DEFAULT_255_1_234
10
6.5949624
20
176.5987192
40
0.4178709
50
89.6697524
51
99.2309573
0
ARC
8
DEFAULT_255_1_234
10
6.5707075
20
176.7431964
40
0.2713749
50
99.069534
51
113.7658566
0
ARC
8
DEFAULT_255_1_234
10
6.5433266
20
176.8077677
40
0.2012469
50
114.0401004
51
127.9850673
0
ARC
8
DEFAULT_255_1_234
10
6.519283
20
176.837373
40
0.1631167
50
127.7287463
51
176.7105154
0
ARC
8
DEFAULT_255_1_234
10
6.5871547
20
176.8272693
40
0.2315392
50
175.1779447
51
180.0581938
0
ARC
8
DEFAULT_255_1_234
10
6.5028394
20
176.8260428
40
0.1472271
50
179.6142195
51
228.1246017
0
ARC
8
DEFAULT_255_1_234
10
6.5470063
20
176.8669308
40
0.2072299
50
226.5779593
51
230.8800004
0
ARC
8
DEFAULT_255_1_234
10
6.5941141
20
176.9294636
40
0.2854818
50
231.4635071
51
241.9260842
0
ARC
8
DEFAULT_255_1_234
10
6.7138319
20
177.14978
40
0.53622
50
241.7178533
51
248.3259551
0
ARC
8
DEFAULT_255_1_234
10
6.8523691
20
177.4930064
40
0.9063478
50
248.2007737
51
252.4528373
0
ARC
8
DEFAULT_255_1_234
10
6.9727416
20
177.8651441
40
1.2974635
50
252.3391078
51
254.3469452
0
ARC
8
DEFAULT_255_1_234
10
6.2185119
20
175.1674148
40
1.5037162
50
71.0197183
51
74.4087047
0
ARC
8
DEFAULT_255_1_234
10
6.3879804
20
175.6566111
40
0.9859993
50
66.1847285
51
71.086374
0
ARC
8
DEFAULT_255_1_234
10
6.5436116
20
176.00702
40
0.6025855
50
59.3536294
51
66.2691831
0
ARC
8
DEFAULT_255_1_234
10
6.6324769
20
176.1573609
40
0.4279449
50
49.1020879
51
59.3293958
0
ARC
8
DEFAULT_255_1_234
10
6.7143509
20
176.2506834
40
0.3038015
50
32.7919921
51
49.2505539
0
ARC
8
DEFAULT_255_1_234
10
6.7464599
20
176.2735191
40
0.264448
50
31.1181161
51
32.4005348
0
ARC
8
DEFAULT_255_1_234
10
6.7376136
20
176.2699779
40
0.2738556
50
8.1116974
51
30.7958831
0
ARC
8
DEFAULT_255_1_234
10
6.6565804
20
176.2561753
40
0.3560327
50
359.8389159
51
8.4706516
0
ARC
8
DEFAULT_255_1_234
10
6.7191596
20
176.2513137
40
0.2934776
50
337.4731098
51
0.7537279
0
ARC
8
DEFAULT_255_1_234
10
6.7370291
20
176.2493387
40
0.2762607
50
307.5917067
51
336.4315538
0
ARC
8
DEFAULT_255_1_234
10
6.6910119
20
176.3006102
40
0.3449979
50
307.6551545
51
308.4529766
0
ARC
8
DEFAULT_255_1_234
10
6.6679838
20
176.336125
40
0.3871988
50
284.3734338
51
307.1424381
0
ARC
8
DEFAULT_255_1_234
10
6.6184668
20
176.5182932
40
0.5759636
50
272.4382747
51
284.646547
0
ARC
8
DEFAULT_255_1_234
10
6.6057876
20
176.6982893
40
0.7563528
50
269.9708387
51
272.8178037
0
ARC
8
DEFAULT_255_1_234
10
6.6014916
20
176.4944716
40
0.5525489
50
248.2707594
51
270.4055579
0
ARC
8
DEFAULT_255_1_234
10
6.5960657
20
176.4754192
40
0.5328452
50
246.1383403
51
248.0542782
0
ARC
8
DEFAULT_255_1_234
10
6.5542036
20
176.3874843
40
0.4355005
50
233.1670131
51
246.4950969
0
ARC
8
DEFAULT_255_1_234
10
6.4987941
20
176.3126812
40
0.3424126
50
215.3403242
51
233.0843104
0
ARC
8
DEFAULT_255_1_234
10
6.4715372
20
176.2928549
40
0.3087104
50
179.2419209
51
215.2648451
0
ARC
8
DEFAULT_255_1_234
10
6.5482966
20
176.2942666
40
0.2304457
50
179.335461
51
199.1045811
0
ARC
8
DEFAULT_255_1_234
10
6.5150643
20
176.2855766
40
0.1962176
50
199.8828939
51
232.7063202
0
ARC
8
DEFAULT_255_1_234
10
6.5622911
20
176.3449788
40
0.2720938
50
232.3738199
51
255.5136649
0
ARC
8
DEFAULT_255_1_234
10
6.5963778
20
176.4693835
40
0.4010747
50
255.2446292
51
267.5320849
0
ARC
8
DEFAULT_255_1_234
10
6.6051401
20
176.5926702
40
0.5246356
50
267.1557994
51
270.0286766
0
ARC
8
DEFAULT_255_1_234
10
6.6079173
20
176.548295
40
0.4802668
50
269.7000017
51
278.1660162
0
ARC
8
DEFAULT_255_1_234
10
6.6335178
20
176.3752515
40
0.3053425
50
278.0231263
51
290.625471
0
ARC
8
DEFAULT_255_1_234
10
6.6682865
20
176.2825025
40
0.206291
50
290.6619762
51
307.0370976
0
ARC
8
DEFAULT_255_1_234
10
6.6983254
20
176.2456504
40
0.1587906
50
306.3943566
51
355.3030547
0
ARC
8
DEFAULT_255_1_234
10
6.6471186
20
176.2533113
40
0.2104809
50
354.3660432
51
0.0698737
0
ARC
8
DEFAULT_255_1_234
10
6.6613531
20
176.2555617
40
0.1962563
50
359.417946
51
16.1971788
0
ARC
8
DEFAULT_255_1_234
10
6.7068841
20
176.2680418
40
0.149053
50
16.4723299
51
52.6262157
0
ARC
8
DEFAULT_255_1_234
10
6.6247895
20
176.1596433
40
0.2850296
50
52.7386432
51
62.4979148
0
ARC
8
DEFAULT_255_1_234
10
6.4862972
20
175.8990283
40
0.5801521
50
62.2515216
51
68.1220564
0
ARC
8
DEFAULT_255_1_234
10
6.3142883
20
175.4762872
40
1.0365451
50
68.0062803
51
71.8053402
0
ARC
8
DEFAULT_255_1_234
10
6.1347255
20
174.9377758
40
1.6042013
50
71.7183119
51
73.9258742
0
LINE
8
DEFAULT_255_1_234
10
7.3756464
20
177.1274211
11
7.3756464
21
175.958
0
LINE
8
DEFAULT_255_1_234
10
7.3756464
20
175.958
11
7.221437
21
175.958
0
LINE
8
DEFAULT_255_1_234
10
7.221437
20
175.958
11
7.221437
21
177.1274211
0
LINE
8
DEFAULT_255_1_234
10
7.221437
20
177.1274211
11
7.3756464
21
177.1274211
0
LINE
8
DEFAULT_255_1_234
10
7.6575604
20
177.1274211
11
7.8567475
21
177.1274211
0
LINE
8
DEFAULT_255_1_234
10
7.8567475
20
177.1274211
11
8.2390583
21
176.1732506
0
LINE
8
DEFAULT_255_1_234
10
8.2390583
20
176.1732506
11
8.621369
21
177.1274211
0
LINE
8
DEFAULT_255_1_234
10
8.621369
20
177.1274211
11
8.8213593
21
177.1274211
0
LINE
8
DEFAULT_255_1_234
10
8.8213593
20
177.1274211
11
8.8213593
21
175.958
0
LINE
8
DEFAULT_255_1_234
10
8.8213593
20
175.958
11
8.6671499
21
175.958
0
LINE
8
DEFAULT_255_1_234
10
8.6671499
20
175.958
11
8.6671499
21
176.4133996
0
LINE
8
DEFAULT_255_1_234
10
8.6671499
20
176.4133996
11
8.681607
21
176.9049419
0
LINE
8
DEFAULT_255_1_234
10
8.681607
20
176.9049419
11
8.2976899
21
175.958
0
LINE
8
DEFAULT_255_1_234
10
8.2976899
20
175.958
11
8.1796234
21
175.958
0
LINE
8
DEFAULT_255_1_234
10
8.1796234
20
175.958
11
7.7965095
21
176.9025324
0
LINE
8
DEFAULT_255_1_234
10
7.7965095
20
176.9025324
11
7.8117698
21
176.4133996
0
LINE
8
DEFAULT_255_1_234
10
7.8117698
20
176.4133996
11
7.8117698
21
175.958
0
LINE
8
DEFAULT_255_1_234
10
7.8117698
20
175.958
11
7.6575604
21
175.958
0
LINE
8
DEFAULT_255_1_234
10
7.6575604
20
175.958
11
7.6575604
21
177.1274211
0
LINE
8
DEFAULT_255_1_234
10
9.8654853
20
175.958
11
9.7538441
21
176.2632061
0
LINE
8
DEFAULT_255_1_234
10
9.7538441
20
176.2632061
11
9.2639081
21
176.2632061
0
LINE
8
DEFAULT_255_1_234
10
9.2639081
20
176.2632061
11
9.1538732
21
175.958
0
LINE
8
DEFAULT_255_1_234
10
9.1538732
20
175.958
11
8.9948448
21
175.958
0
LINE
8
DEFAULT_255_1_234
10
8.9948448
20
175.958
11
9.4414095
21
177.1274211
0
LINE
8
DEFAULT_255_1_234
10
9.4414095
20
177.1274211
11
9.5763427
21
177.1274211
0
LINE
8
DEFAULT_255_1_234
10
9.5763427
20
177.1274211
11
10.0237105
21
175.958
0
LINE
8
DEFAULT_255_1_234
10
10.0237105
20
175.958
11
9.8654853
21
175.958
0
LINE
8
DEFAULT_255_1_234
10
9.5088761
20
176.9370689
11
9.3104921
21
176.3901075
0
LINE
8
DEFAULT_255_1_234
10
9.3104921
20
176.3901075
11
9.7080632
21
176.3901075
0
LINE
8
DEFAULT_255_1_234
10
9.7080632
20
176.3901075
11
9.5088761
21
176.9370689
0
LINE
8
DEFAULT_255_1_234
10
10.885516
20
177.1274211
11
10.885516
21
177.0005196
0
LINE
8
DEFAULT_255_1_234
10
10.885516
20
177.0005196
11
10.5096307
21
177.0005196
0
LINE
8
DEFAULT_255_1_234
10
10.5096307
20
177.0005196
11
10.5096307
21
175.958
0
LINE
8
DEFAULT_255_1_234
10
10.5096307
20
175.958
11
10.3562245
21
175.958
0
LINE
8
DEFAULT_255_1_234
10
10.3562245
20
175.958
11
10.3562245
21
177.0005196
0
LINE
8
DEFAULT_255_1_234
10
10.3562245
20
177.0005196
11
9.9811423
21
177.0005196
0
LINE
8
DEFAULT_255_1_234
10
9.9811423
20
177.0005196
11
9.9811423
21
177.1274211
0
LINE
8
DEFAULT_255_1_234
10
9.9811423
20
177.1274211
11
10.885516
21
177.1274211
0
LINE
8
DEFAULT_255_1_234
10
11.2244554
20
177.1274211
11
11.2244554
21
175.958
0
LINE
8
DEFAULT_255_1_234
10
11.2244554
20
175.958
11
11.070246
21
175.958
0
LINE
8
DEFAULT_255_1_234
10
11.070246
20
175.958
11
11.070246
21
177.1274211
0
LINE
8
DEFAULT_255_1_234
10
11.070246
20
177.1274211
11
11.2244554
21
177.1274211
0
LINE
8
DEFAULT_255_1_234
10
12.211556
20
176.3290663
11
12.3665686
21
176.3290663
0
LINE
8
DEFAULT_255_1_234
10
11.4662107
20
176.4880947
11
11.4662107
21
176.6005391
0
LINE
8
DEFAULT_255_1_234
10
12.3665686
20
176.7515357
11
12.211556
21
176.7515357
0
LINE
8
DEFAULT_255_1_234
10
11.6212232
20
176.5965232
11
11.6212232
21
176.4832757
0
ARC
8
DEFAULT_255_1_234
10
11.8185072
20
176.3887846
40
0.5513052
50
340.1774281
51
353.7814284
0
ARC
8
DEFAULT_255_1_234
10
11.9756425
20
176.3302582
40
0.3836379
50
311.4558989
51
340.4421614
0
ARC
8
DEFAULT_255_1_234
10
11.9723093
20
176.3413528
40
0.3941894
50
282.4333181
51
310.7513653
0
ARC
8
DEFAULT_255_1_234
10
11.9283832
20
176.5228679
40
0.5809175
50
269.9358511
51
282.809604
0
ARC
8
DEFAULT_255_1_234
10
11.9231899
20
176.6686212
40
0.7266847
50
270.0021091
51
270.3581957
0
ARC
8
DEFAULT_255_1_234
10
11.9179315
20
176.4085585
40
0.4666519
50
250.7884749
51
270.6489167
0
ARC
8
DEFAULT_255_1_234
10
11.901115
20
176.3448319
40
0.4009729
50
219.3627325
51
250.0611886
0
ARC
8
DEFAULT_255_1_234
10
11.9840361
20
176.4153042
40
0.5097822
50
193.5479632
51
219.5756669
0
ARC
8
DEFAULT_255_1_234
10
12.2211982
20
176.4768919
40
0.7547848
50
181.1218675
51
193.87563
0
ARC
8
DEFAULT_255_1_234
10
12.4282163
20
176.487958
40
0.9620055
50
179.9918545
51
181.5394234
0
ARC
8
DEFAULT_255_1_234
10
12.2431265
20
176.6042788
40
0.7769248
50
169.5837241
51
180.2757934
0
ARC
8
DEFAULT_255_1_234
10
12.0594203
20
176.6382229
40
0.590109
50
155.0365899
51
169.6003176
0
ARC
8
DEFAULT_255_1_234
10
11.9458667
20
176.6929677
40
0.4640625
50
136.783148
51
155.2472683
0
ARC
8
DEFAULT_255_1_234
10
11.9069144
20
176.7260562
40
0.4130255
50
121.7633186
51
136.428115
0
ARC
8
DEFAULT_255_1_234
10
11.9204106
20
176.7011227
40
0.4413323
50
95.6459699
51
121.5490577
0
ARC
8
DEFAULT_255_1_234
10
11.9361388
20
176.5902949
40
0.55319
50
89.924208
51
96.1377933
0
ARC
8
DEFAULT_255_1_234
10
11.9411821
20
176.6021542
40
0.5413475
50
76.6779277
51
90.4563316
0
ARC
8
DEFAULT_255_1_234
10
11.9805444
20
176.7612114
40
0.3775041
50
47.485847
51
76.9287264
0
ARC
8
DEFAULT_255_1_234
10
11.9658417
20
176.7512159
40
0.3948286
50
16.5424086
51
46.8933463
0
ARC
8
DEFAULT_255_1_234
10
11.8050574
20
176.6983861
40
0.564021
50
5.4072051
51
17.0365086
0
ARC
8
DEFAULT_255_1_234
10
11.6611591
20
176.6752679
40
0.5556559
50
7.8891745
51
15.9239216
0
ARC
8
DEFAULT_255_1_234
10
11.8598605
20
176.7329631
40
0.3487515
50
15.7653144
51
27.9410532
0
ARC
8
DEFAULT_255_1_234
10
11.9702822
20
176.792079
40
0.2235026
50
27.8166557
51
46.4008329
0
ARC
8
DEFAULT_255_1_234
10
11.9752465
20
176.7915082
40
0.2205286
50
47.4371857
51
75.0698205
0
ARC
8
DEFAULT_255_1_234
10
11.944386
20
176.6840765
40
0.3322915
50
74.7008593
51
87.8124495
0
ARC
8
DEFAULT_255_1_234
10
11.9370547
20
176.5784844
40
0.4380987
50
87.3814673
51
90.0240855
0
ARC
8
DEFAULT_255_1_234
10
11.9332091
20
176.6962291
40
0.3203749
50
89.3451631
51
108.5745436
0
ARC
8
DEFAULT_255_1_234
10
11.9195196
20
176.7475908
40
0.2673494
50
109.2998449
51
143.3037509
0
ARC
8
DEFAULT_255_1_234
10
11.9957268
20
176.6889881
40
0.3634757
50
143.0753173
51
163.1916937
0
ARC
8
DEFAULT_255_1_234
10
12.1908996
20
176.6273967
40
0.5681262
50
162.9373603
51
174.6208611
0
ARC
8
DEFAULT_255_1_234
10
12.4535038
20
176.598601
40
0.8322832
50
174.3419979
51
180.1430411
0
ARC
8
DEFAULT_255_1_234
10
12.3604194
20
176.4791698
40
0.7392076
50
179.6817502
51
189.150529
0
ARC
8
DEFAULT_255_1_234
10
12.1103443
20
176.437519
40
0.4856932
50
188.9910863
51
203.5773039
0
ARC
8
DEFAULT_255_1_234
10
12.0023775
20
176.3927211
40
0.3688271
50
203.9077269
51
215.1312379
0
ARC
8
DEFAULT_255_1_234
10
11.9100869
20
176.3211941
40
0.2522457
50
213.9071664
51
263.8849284
0
ARC
8
DEFAULT_255_1_234
10
11.9226198
20
176.3996518
40
0.3316174
50
263.1758525
51
270.1031083
0
ARC
8
DEFAULT_255_1_234
10
11.925829
20
176.5243365
40
0.4563091
50
269.6719807
51
279.0609165
0
ARC
8
DEFAULT_255_1_234
10
11.9525058
20
176.3630907
40
0.2928759
50
278.8750225
51
293.6346586
0
ARC
8
DEFAULT_255_1_234
10
11.9845266
20
176.28789
40
0.2111472
50
293.8553404
51
310.0518804
0
ARC
8
DEFAULT_255_1_234
10
11.985012
20
176.2816516
40
0.2060917
50
311.0646779
51
332.0108348
0
ARC
8
DEFAULT_255_1_234
10
11.8657847
20
176.3473978
40
0.3422352
50
331.6588543
51
343.2878891
0
ARC
8
DEFAULT_255_1_234
10
11.6595362
20
176.4107798
40
0.5580003
50
343.1446044
51
351.010618
0
ARC
8
DEFAULT_255_1_234
10
11.5054008
20
176.4388871
40
0.7146438
50
350.7157277
51
351.1602153
0
LINE
8
DEFAULT_255_1_234
10
13.6452213
20
176.6246343
11
13.6452213
21
176.498536
0
LINE
8
DEFAULT_255_1_234
10
13.6452213
20
176.498536
11
13.1384186
21
176.498536
0
LINE
8
DEFAULT_255_1_234
10
13.1384186
20
176.498536
11
13.1384186
21
176.0840983
0
LINE
8
DEFAULT_255_1_234
10
13.1384186
20
176.0840983
11
13.727145
21
176.0840983
0
LINE
8
DEFAULT_255_1_234
10
13.727145
20
176.0840983
11
13.727145
21
175.958
0
LINE
8
DEFAULT_255_1_234
10
13.727145
20
175.958
11
12.9842092
21
175.958
0
LINE
8
DEFAULT_255_1_234
10
12.9842092
20
175.958
11
12.9842092
21
177.1274211
0
LINE
8
DEFAULT_255_1_234
10
12.9842092
20
177.1274211
11
13.7191133
21
177.1274211
0
LINE
8
DEFAULT_255_1_234
10
13.7191133
20
177.1274211
11
13.7191133
21
177.0005196
0
LINE
8
DEFAULT_255_1_234
10
13.7191133
20
177.0005196
11
13.1384186
21
177.0005196
0
LINE
8
DEFAULT_255_1_234
10
13.1384186
20
177.0005196
11
13.1384186
21
176.6246343
0
LINE
8
DEFAULT_255_1_234
10
13.1384186
20
176.6246343
11
13.6452213
21
176.6246343
0
LINE
8
DEFAULT_255_1_234
10
14.7431599
20
177.1274211
11
14.7431599
21
177.0005196
0
LINE
8
DEFAULT_255_1_234
10
14.7431599
20
177.0005196
11
14.3672746
21
177.0005196
0
LINE
8
DEFAULT_255_1_234
10
14.3672746
20
177.0005196
11
14.3672746
21
175.958
0
LINE
8
DEFAULT_255_1_234
10
14.3672746
20
175.958
11
14.2138684
21
175.958
0
LINE
8
DEFAULT_255_1_234
10
14.2138684
20
175.958
11
14.2138684
21
177.0005196
0
LINE
8
DEFAULT_255_1_234
10
14.2138684
20
177.0005196
11
13.8387862
21
177.0005196
0
LINE
8
DEFAULT_255_1_234
10
13.8387862
20
177.0005196
11
13.8387862
21
177.1274211
0
LINE
8
DEFAULT_255_1_234
10
13.8387862
20
177.1274211
11
14.7431599
21
177.1274211
0
LINE
8
DEFAULT_255_1_234
10
15.6443209
20
176.0792792
11
15.6443209
21
175.958
0
LINE
8
DEFAULT_255_1_234
10
15.6443209
20
175.958
11
14.8780931
21
175.958
0
LINE
8
DEFAULT_255_1_234
10
14.8780931
20
175.958
11
14.8780931
21
176.0648221
0
LINE
8
DEFAULT_255_1_234
10
14.8780931
20
176.0648221
11
15.2828927
21
176.5145995
0
LINE
8
DEFAULT_255_1_234
10
15.0041914
20
176.7828595
11
14.8556042
21
176.7828595
0
LINE
8
DEFAULT_255_1_234
10
15.3704387
20
176.4190218
11
15.0572009
21
176.0792792
0
LINE
8
DEFAULT_255_1_234
10
15.0572009
20
176.0792792
11
15.6443209
21
176.0792792
0
ARC
8
DEFAULT_255_1_234
10
13.9338761
20
177.7075527
40
1.8008286
50
318.5132453
51
320.7828378
0
ARC
8
DEFAULT_255_1_234
10
14.4625735
20
177.2772426
40
1.1191493
50
320.7372736
51
323.9737074
0
ARC
8
DEFAULT_255_1_234
10
14.8545591
20
176.9932361
40
0.6350923
50
323.8961724
51
328.6421089
0
ARC
8
DEFAULT_255_1_234
10
15.0592187
20
176.8670031
40
0.3946393
50
328.8299013
51
331.789948
0
ARC
8
DEFAULT_255_1_234
10
15.1589365
20
176.8155509
40
0.2824501
50
331.4255242
51
352.9364833
0
ARC
8
DEFAULT_255_1_234
10
15.1725866
20
176.8124976
40
0.2685315
50
353.2248685
51
0.0169286
0
ARC
8
DEFAULT_255_1_234
10
15.1935743
20
176.814795
40
0.2475536
50
359.4866256
51
15.9339782
0
ARC
8
DEFAULT_255_1_234
10
15.2442728
20
176.8284286
40
0.1950618
50
16.1714718
51
43.5284424
0
ARC
8
DEFAULT_255_1_234
10
15.2520037
20
176.8361573
40
0.184134
50
43.4415429
51
83.1661404
0
ARC
8
DEFAULT_255_1_234
10
15.2385955
20
176.7624771
40
0.258926
50
82.160215
51
90.1505798
0
ARC
8
DEFAULT_255_1_234
10
15.2354382
20
176.7087865
40
0.3126255
50
89.5460705
51
102.5418777
0
ARC
8
DEFAULT_255_1_234
10
15.2111468
20
176.8118665
40
0.2067346
50
102.1739365
51
129.2061916
0
ARC
8
DEFAULT_255_1_234
10
15.203254
20
176.8243094
40
0.1921118
50
129.7279328
51
135.7542026
0
ARC
8
DEFAULT_255_1_234
10
15.2154068
20
176.8146045
40
0.2075944
50
136.175737
51
166.3674722
0
ARC
8
DEFAULT_255_1_234
10
15.3160987
20
176.7876182
40
0.3118201
50
165.9092917
51
178.8683903
0
ARC
8
DEFAULT_255_1_234
10
15.4025848
20
176.7829179
40
0.3983935
50
178.438168
51
180.0083905
0
ARC
8
DEFAULT_255_1_234
10
15.262445
20
176.7868231
40
0.4068601
50
163.2878735
51
180.5581814
0
ARC
8
DEFAULT_255_1_234
10
15.1822712
20
176.808884
40
0.3237344
50
133.454115
51
162.9470031
0
ARC
8
DEFAULT_255_1_234
10
15.2001253
20
176.7899
40
0.349795
50
100.7869394
51
133.4384016
0
ARC
8
DEFAULT_255_1_234
10
15.2349024
20
176.6350319
40
0.5084616
50
89.6605301
51
101.3704185
0
ARC
8
DEFAULT_255_1_234
10
15.2415363
20
176.6411496
40
0.502348
50
78.2171172
51
90.4130393
0
ARC
8
DEFAULT_255_1_234
10
15.2770442
20
176.8035637
40
0.3361092
50
55.9268222
51
78.4888551
0
ARC
8
DEFAULT_255_1_234
10
15.2966882
20
176.8374324
40
0.2970617
50
47.9292255
51
55.4054003
0
ARC
8
DEFAULT_255_1_234
10
15.3068442
20
176.8477502
40
0.2825983
50
4.3347696
51
48.0560701
0
ARC
8
DEFAULT_255_1_234
10
15.1972836
20
176.8307601
40
0.393225
50
359.925209
51
5.5967654
0
ARC
8
DEFAULT_255_1_234
10
15.2401728
20
176.8363816
40
0.3503892
50
337.8914096
51
358.9967724
0
ARC
8
DEFAULT_255_1_234
10
14.968814
20
176.9410706
40
0.6412172
50
326.9135351
51
338.3505194
0
ARC
8
DEFAULT_255_1_234
10
14.5702444
20
177.1965284
40
1.1146189
50
319.6472867
51
327.095818
0
ARC
8
DEFAULT_255_1_234
10
14.1869447
20
177.5127
40
1.6114559
50
317.2586784
51
319.9046139
0
LINE
8
DEFAULT_255_1_234
10
16.5350407
20
176.6495327
11
16.5350407
21
176.4567709
0
LINE
8
DEFAULT_255_1_234
10
15.796924
20
176.4366916
11
15.796924
21
176.6350755
0
LINE
8
DEFAULT_255_1_234
10
16.3864536
20
176.4166123
11
16.3864536
21
176.6599739
0
LINE
8
DEFAULT_255_1_234
10
15.9455111
20
176.6712184
11
15.9455111
21
176.4334789
0
ARC
8
DEFAULT_255_1_234
10
15.3103297
20
176.4518805
40
1.2247208
50
353.8441951
51
0.2287902
0
ARC
8
DEFAULT_255_1_234
10
15.77428
20
176.4000806
40
0.7578929
50
344.4934747
51
353.9765454
0
ARC
8
DEFAULT_255_1_234
10
16.0735391
20
176.3149981
40
0.4467846
50
329.2803592
51
344.7472793
0
ARC
8
DEFAULT_255_1_234
10
16.1728216
20
176.2605018
40
0.3336173
50
324.9352394
51
328.6160465
0
ARC
8
DEFAULT_255_1_234
10
16.2105324
20
176.2341427
40
0.2876076
50
280.580143
51
324.9173126
0
ARC
8
DEFAULT_255_1_234
10
16.1704117
20
176.4012099
40
0.4592847
50
269.5977311
51
281.6734359
0
ARC
8
DEFAULT_255_1_234
10
16.1632022
20
176.3892173
40
0.4472986
50
256.6228859
51
270.51044
0
ARC
8
DEFAULT_255_1_234
10
16.123
20
176.2343877
40
0.2873874
50
215.8618325
51
257.2788573
0
ARC
8
DEFAULT_255_1_234
10
16.2251032
20
176.3028977
40
0.4102928
50
197.9693508
51
215.2623606
0
ARC
8
DEFAULT_255_1_234
10
16.4736147
20
176.3867709
40
0.6725652
50
187.8816417
51
198.2346507
0
ARC
8
DEFAULT_255_1_234
10
16.8694356
20
176.4439079
40
1.0724845
50
180.8976217
51
188.0055519
0
ARC
8
DEFAULT_255_1_234
10
17.1494544
20
176.4542777
40
1.3526448
50
180.7449369
51
181.1510016
0
ARC
8
DEFAULT_255_1_234
10
16.9917273
20
176.6399042
40
1.1948131
50
173.7675579
51
180.231553
0
ARC
8
DEFAULT_255_1_234
10
16.539942
20
176.6909666
40
0.7401564
50
164.3058563
51
173.9002247
0
ARC
8
DEFAULT_255_1_234
10
16.2487488
20
176.7748656
40
0.4371288
50
148.7922025
51
164.568378
0
ARC
8
DEFAULT_255_1_234
10
16.1535941
20
176.8279929
40
0.3282386
50
144.5883898
51
148.1176286
0
ARC
8
DEFAULT_255_1_234
10
16.1192838
20
176.8519315
40
0.2864044
50
101.6440918
51
144.514236
0
ARC
8
DEFAULT_255_1_234
10
16.1617905
20
176.6830069
40
0.4604934
50
89.5284041
51
102.5819763
0
ARC
8
DEFAULT_255_1_234
10
16.1696993
20
176.6791018
40
0.464401
50
77.0437873
51
90.5081339
0
ARC
8
DEFAULT_255_1_234
10
16.2098995
20
176.8433615
40
0.2953195
50
48.2778575
51
77.4994676
0
ARC
8
DEFAULT_255_1_234
10
16.2171626
20
176.8562746
40
0.2808655
50
36.3142134
51
47.6305865
0
ARC
8
DEFAULT_255_1_234
10
16.1302933
20
176.7977515
40
0.3855453
50
18.2931786
51
35.6769206
0
ARC
8
DEFAULT_255_1_234
10
15.8759692
20
176.7104593
40
0.654423
50
8.024666
51
18.5605216
0
ARC
8
DEFAULT_255_1_234
10
15.4596612
20
176.6489792
40
1.0752407
50
1.1274072
51
8.1718305
0
ARC
8
DEFAULT_255_1_234
10
15.1360802
20
176.6362885
40
1.3990231
50
0.5424119
51
1.3863029
0
ARC
8
DEFAULT_255_1_234
10
15.318218
20
176.6635342
40
1.0682415
50
359.8090433
51
4.9407866
0
ARC
8
DEFAULT_255_1_234
10
15.7392194
20
176.7011113
40
0.6455691
50
4.8362157
51
12.2904523
0
ARC
8
DEFAULT_255_1_234
10
16.0147309
20
176.7624965
40
0.3633074
50
12.0805627
51
23.8173984
0
ARC
8
DEFAULT_255_1_234
10
16.1321014
20
176.8121919
40
0.2358723
50
24.2871213
51
31.3935614
0
ARC
8
DEFAULT_255_1_234
10
16.1845712
20
176.8465233
40
0.1732111
50
30.7407893
51
82.4657128
0
ARC
8
DEFAULT_255_1_234
10
16.1665846
20
176.7581691
40
0.263235
50
81.1060089
51
90.2184952
0
ARC
8
DEFAULT_255_1_234
10
16.1630145
20
176.7839924
40
0.2374236
50
89.3806855
51
105.6762551
0
ARC
8
DEFAULT_255_1_234
10
16.1446775
20
176.8506567
40
0.1682847
50
105.7981136
51
149.7388061
0
ARC
8
DEFAULT_255_1_234
10
16.2510854
20
176.786695
40
0.2924306
50
149.4208916
51
163.6286378
0
ARC
8
DEFAULT_255_1_234
10
16.4601742
20
176.722925
40
0.5110213
50
163.3763315
51
172.1410975
0
ARC
8
DEFAULT_255_1_234
10
16.7902461
20
176.6756518
40
0.8444586
50
172.0259487
51
178.0703232
0
ARC
8
DEFAULT_255_1_234
10
17.093255
20
176.6612906
40
1.1477868
50
177.8631668
51
179.5044149
0
ARC
8
DEFAULT_255_1_234
10
16.9859955
20
176.4298389
40
1.0404907
50
179.7995573
51
185.2460446
0
ARC
8
DEFAULT_255_1_234
10
16.5816994
20
176.3915513
40
0.6343885
50
185.1411642
51
193.0079639
0
ARC
8
DEFAULT_255_1_234
10
16.3173467
20
176.3290641
40
0.3627568
50
192.7897626
51
205.2507664
0
ARC
8
DEFAULT_255_1_234
10
16.2127014
20
176.2823415
40
0.2481908
50
205.8005384
51
211.2537509
0
ARC
8
DEFAULT_255_1_234
10
16.1603454
20
176.247258
40
0.1852521
50
210.3789793
51
238.4008143
0
ARC
8
DEFAULT_255_1_234
10
16.1583976
20
176.2519376
40
0.1882621
50
239.6520629
51
265.9793761
0
ARC
8
DEFAULT_255_1_234
10
16.1669176
20
176.3191427
40
0.2559272
50
265.1315437
51
270.060332
0
ARC
8
DEFAULT_255_1_234
10
16.1697955
20
176.2867534
40
0.2235528
50
269.3314664
51
287.2178029
0
ARC
8
DEFAULT_255_1_234
10
16.1835807
20
176.2364279
40
0.1714108
50
287.7958004
51
329.080874
0
ARC
8
DEFAULT_255_1_234
10
16.0878264
20
176.296193
40
0.2842745
50
328.6634704
51
343.3325132
0
ARC
8
DEFAULT_255_1_234
10
15.8705284
20
176.3638863
40
0.5118644
50
343.0499468
51
351.9393422
0
ARC
8
DEFAULT_255_1_234
10
15.5238584
20
176.4149949
40
0.8622784
50
351.8069023
51
357.7959224
0
ARC
8
DEFAULT_255_1_234
10
15.200314
20
176.4317721
40
1.1862365
50
357.5871873
51
359.2677531
0
LINE
8
DEFAULT_255_1_234
10
17.4586906
20
176.6495327
11
17.4586906
21
176.4567709
0
LINE
8
DEFAULT_255_1_234
10
16.7205739
20
176.4366916
11
16.7205739
21
176.6350755
0
LINE
8
DEFAULT_255_1_234
10
17.3101035
20
176.4166123
11
17.3101035
21
176.6599739
0
LINE
8
DEFAULT_255_1_234
10
16.869161
20
176.6712184
11
16.869161
21
176.4334789
0
ARC
8
DEFAULT_255_1_234
10
16.2339796
20
176.4518805
40
1.2247208
50
353.8441951
51
0.2287902
0
ARC
8
DEFAULT_255_1_234
10
16.6979299
20
176.4000806
40
0.7578929
50
344.4934747
51
353.9765454
0
ARC
8
DEFAULT_255_1_234
10
16.997189
20
176.3149981
40
0.4467846
50
329.2803592
51
344.7472793
0
ARC
8
DEFAULT_255_1_234
10
17.0964715
20
176.2605018
40
0.3336173
50
324.9352394
51
328.6160465
0
ARC
8
DEFAULT_255_1_234
10
17.1341823
20
176.2341427
40
0.2876076
50
280.580143
51
324.9173126
0
ARC
8
DEFAULT_255_1_234
10
17.0940616
20
176.4012099
40
0.4592847
50
269.5977311
51
281.6734359
0
ARC
8
DEFAULT_255_1_234
10
17.0868521
20
176.3892173
40
0.4472986
50
256.6228859
51
270.51044
0
ARC
8
DEFAULT_255_1_234
10
17.0466499
20
176.2343877
40
0.2873874
50
215.8618325
51
257.2788573
0
ARC
8
DEFAULT_255_1_234
10
17.1487531
20
176.3028977
40
0.4102928
50
197.9693508
51
215.2623606
0
ARC
8
DEFAULT_255_1_234
10
17.3972647
20
176.3867709
40
0.6725652
50
187.8816417
51
198.2346507
0
ARC
8
DEFAULT_255_1_234
10
17.7930855
20
176.4439079
40
1.0724845
50
180.8976217
51
188.0055519
0
ARC
8
DEFAULT_255_1_234
10
18.0731043
20
176.4542777
40
1.3526448
50
180.7449369
51
181.1510016
0
ARC
8
DEFAULT_255_1_234
10
17.9153772
20
176.6399042
40
1.1948131
50
173.7675579
51
180.231553
0
ARC
8
DEFAULT_255_1_234
10
17.4635919
20
176.6909666
40
0.7401564
50
164.3058563
51
173.9002247
0
ARC
8
DEFAULT_255_1_234
10
17.1723987
20
176.7748656
40
0.4371288
50
148.7922025
51
164.568378
0
ARC
8
DEFAULT_255_1_234
10
17.077244
20
176.8279929
40
0.3282386
50
144.5883898
51
148.1176286
0
ARC
8
DEFAULT_255_1_234
10
17.0429337
20
176.8519315
40
0.2864044
50
101.6440918
51
144.514236
0
ARC
8
DEFAULT_255_1_234
10
17.0854404
20
176.6830069
40
0.4604934
50
89.5284041
51
102.5819763
0
ARC
8
DEFAULT_255_1_234
10
17.0933492
20
176.6791018
40
0.464401
50
77.0437873
51
90.5081339
0
ARC
8
DEFAULT_255_1_234
10
17.1335494
20
176.8433615
40
0.2953195
50
48.2778575
51
77.4994676
0
ARC
8
DEFAULT_255_1_234
10
17.1408125
20
176.8562746
40
0.2808655
50
36.3142134
51
47.6305865
0
ARC
8
DEFAULT_255_1_234
10
17.0539432
20
176.7977515
40
0.3855453
50
18.2931786
51
35.6769206
0
ARC
8
DEFAULT_255_1_234
10
16.7996191
20
176.7104593
40
0.654423
50
8.024666
51
18.5605216
0
ARC
8
DEFAULT_255_1_234
10
16.3833111
20
176.6489792
40
1.0752407
50
1.1274072
51
8.1718305
0
ARC
8
DEFAULT_255_1_234
10
16.0597301
20
176.6362885
40
1.3990231
50
0.5424119
51
1.3863029
0
ARC
8
DEFAULT_255_1_234
10
16.2418679
20
176.6635342
40
1.0682415
50
359.8090433
51
4.9407866
0
ARC
8
DEFAULT_255_1_234
10
16.6628693
20
176.7011113
40
0.6455691
50
4.8362157
51
12.2904523
0
ARC
8
DEFAULT_255_1_234
10
16.9383808
20
176.7624965
40
0.3633074
50
12.0805627
51
23.8173984
0
ARC
8
DEFAULT_255_1_234
10
17.0557513
20
176.8121919
40
0.2358723
50
24.2871213
51
31.3935614
0
ARC
8
DEFAULT_255_1_234
10
17.1082211
20
176.8465233
40
0.1732111
50
30.7407893
51
82.4657128
0
ARC
8
DEFAULT_255_1_234
10
17.0902345
20
176.7581691
40
0.263235
50
81.1060089
51
90.2184952
0
ARC
8
DEFAULT_255_1_234
10
17.0866644
20
176.7839924
40
0.2374236
50
89.3806855
51
105.6762551
0
ARC
8
DEFAULT_255_1_234
10
17.0683274
20
176.8506567
40
0.1682847
50
105.7981136
51
149.7388061
0
ARC
8
DEFAULT_255_1_234
10
17.1747353
20
176.786695
40
0.2924306
50
149.4208916
51
163.6286378
0
ARC
8
DEFAULT_255_1_234
10
17.3838241
20
176.722925
40
0.5110213
50
163.3763315
51
172.1410975
0
ARC
8
DEFAULT_255_1_234
10
17.713896
20
176.6756518
40
0.8444586
50
172.0259487
51
178.0703232
0
ARC
8
DEFAULT_255_1_234
10
18.0169049
20
176.6612906
40
1.1477868
50
177.8631668
51
179.5044149
0
ARC
8
DEFAULT_255_1_234
10
17.9096454
20
176.4298389
40
1.0404907
50
179.7995573
51
185.2460446
0
ARC
8
DEFAULT_255_1_234
10
17.5053493
20
176.3915513
40
0.6343885
50
185.1411642
51
193.0079639
0
ARC
8
DEFAULT_255_1_234
10
17.2409966
20
176.3290641
40
0.3627568
50
192.7897626
51
205.2507664
0
ARC
8
DEFAULT_255_1_234
10
17.1363513
20
176.2823415
40
0.2481908
50
205.8005384
51
211.2537509
0
ARC
8
DEFAULT_255_1_234
10
17.0839953
20
176.247258
40
0.1852521
50
210.3789793
51
238.4008143
0
ARC
8
DEFAULT_255_1_234
10
17.0820475
20
176.2519376
40
0.1882621
50
239.6520629
51
265.9793761
0
ARC
8
DEFAULT_255_1_234
10
17.0905675
20
176.3191427
40
0.2559272
50
265.1315437
51
270.060332
0
ARC
8
DEFAULT_255_1_234
10
17.0934454
20
176.2867534
40
0.2235528
50
269.3314664
51
287.2178029
0
ARC
8
DEFAULT_255_1_234
10
17.1072306
20
176.2364279
40
0.1714108
50
287.7958004
51
329.080874
0
ARC
8
DEFAULT_255_1_234
10
17.0114763
20
176.296193
40
0.2842745
50
328.6634704
51
343.3325132
0
ARC
8
DEFAULT_255_1_234
10
16.7941783
20
176.3638863
40
0.5118644
50
343.0499468
51
351.9393422
0
ARC
8
DEFAULT_255_1_234
10
16.4475083
20
176.4149949
40
0.8622784
50
351.8069023
51
357.7959224
0
ARC
8
DEFAULT_255_1_234
10
16.1239639
20
176.4317721
40
1.1862365
50
357.5871873
51
359.2677531
0
LINE
8
DEFAULT_255_1_234
10
18.4634611
20
176.7892849
11
18.3084485
21
176.7892849
0
LINE
8
DEFAULT_255_1_234
10
17.6161127
20
176.2969394
11
17.7711252
21
176.2969394
0
ARC
8
DEFAULT_255_1_234
10
18.3743298
20
177.6839768
40
1.252368
50
248.9199003
51
254.1439814
0
ARC
8
DEFAULT_255_1_234
10
18.2062793
20
177.2513234
40
0.788226
50
241.633709
51
249.0064503
0
ARC
8
DEFAULT_255_1_234
10
18.0534187
20
176.9712317
40
0.4691427
50
230.498225
51
241.8087113
0
ARC
8
DEFAULT_255_1_234
10
17.9749762
20
176.8712906
40
0.3421437
50
227.4064532
51
229.9881192
0
ARC
8
DEFAULT_255_1_234
10
17.9262282
20
176.8237088
40
0.2741476
50
200.6781896
51
228.1763934
0
ARC
8
DEFAULT_255_1_234
10
17.9334593
20
176.8222077
40
0.2804109
50
179.5061581
51
199.8694617
0
ARC
8
DEFAULT_255_1_234
10
17.9325345
20
176.829621
40
0.2795204
50
132.4834203
51
181.0242172
0
ARC
8
DEFAULT_255_1_234
10
17.9920927
20
176.7733704
40
0.3612768
50
129.2532479
51
133.4242687
0
ARC
8
DEFAULT_255_1_234
10
18.0067377
20
176.7513965
40
0.3875675
50
101.98776
51
128.8742646
0
ARC
8
DEFAULT_255_1_234
10
18.0465987
20
176.5792741
40
0.5642249
50
89.5906553
51
102.3169264
0
ARC
8
DEFAULT_255_1_234
10
18.0536479
20
176.6111148
40
0.5323783
50
77.2360837
51
90.3248275
0
ARC
8
DEFAULT_255_1_234
10
18.0743558
20
176.70784
40
0.4334697
50
63.837784
51
77.0809408
0
ARC
8
DEFAULT_255_1_234
10
18.102132
20
176.7595911
40
0.3747796
50
45.9864267
51
64.1607727
0
ARC
8
DEFAULT_255_1_234
10
18.1282201
20
176.7893866
40
0.3352302
50
32.2747395
51
45.6547121
0
ARC
8
DEFAULT_255_1_234
10
18.1348642
20
176.791288
40
0.328603
50
359.6507365
51
32.6130309
0
ARC
8
DEFAULT_255_1_234
10
18.0405737
20
176.791766
40
0.2678863
50
359.469343
51
14.9832209
0
ARC
8
DEFAULT_255_1_234
10
18.11108
20
176.8106539
40
0.1948938
50
14.9781179
51
48.2004265
0
ARC
8
DEFAULT_255_1_234
10
18.0946444
20
176.7899983
40
0.2212521
50
48.5927837
51
74.1241538
0
ARC
8
DEFAULT_255_1_234
10
18.0612934
20
176.6799248
40
0.3362561
50
73.7888341
51
86.6652678
0
ARC
8
DEFAULT_255_1_234
10
18.0510499
20
176.5591881
40
0.4573953
50
86.2640471
51
90.0526343
0
ARC
8
DEFAULT_255_1_234
10
18.0482212
20
176.5987192
40
0.4178709
50
89.6697524
51
99.2309573
0
ARC
8
DEFAULT_255_1_234
10
18.0239663
20
176.7431964
40
0.2713749
50
99.069534
51
113.7658566
0
ARC
8
DEFAULT_255_1_234
10
17.9965854
20
176.8077677
40
0.2012469
50
114.0401004
51
127.9850673
0
ARC
8
DEFAULT_255_1_234
10
17.9725418
20
176.837373
40
0.1631167
50
127.7287463
51
176.7105154
0
ARC
8
DEFAULT_255_1_234
10
18.0404135
20
176.8272693
40
0.2315392
50
175.1779447
51
180.0581938
0
ARC
8
DEFAULT_255_1_234
10
17.9560982
20
176.8260428
40
0.1472271
50
179.6142195
51
228.1246017
0
ARC
8
DEFAULT_255_1_234
10
18.0002651
20
176.8669308
40
0.2072299
50
226.5779593
51
230.8800004
0
ARC
8
DEFAULT_255_1_234
10
18.0473729
20
176.9294636
40
0.2854818
50
231.4635071
51
241.9260842
0
ARC
8
DEFAULT_255_1_234
10
18.1670907
20
177.14978
40
0.53622
50
241.7178533
51
248.3259551
0
ARC
8
DEFAULT_255_1_234
10
18.3056279
20
177.4930064
40
0.9063478
50
248.2007737
51
252.4528373
0
ARC
8
DEFAULT_255_1_234
10
18.4260004
20
177.8651441
40
1.2974635
50
252.3391078
51
254.3469452
0
ARC
8
DEFAULT_255_1_234
10
17.6717707
20
175.1674148
40
1.5037162
50
71.0197183
51
74.4087047
0
ARC
8
DEFAULT_255_1_234
10
17.8412392
20
175.6566111
40
0.9859993
50
66.1847285
51
71.086374
0
ARC
8
DEFAULT_255_1_234
10
17.9968704
20
176.00702
40
0.6025855
50
59.3536294
51
66.2691831
0
ARC
8
DEFAULT_255_1_234
10
18.0857357
20
176.1573609
40
0.4279449
50
49.1020879
51
59.3293958
0
ARC
8
DEFAULT_255_1_234
10
18.1676097
20
176.2506834
40
0.3038015
50
32.7919921
51
49.2505539
0
ARC
8
DEFAULT_255_1_234
10
18.1997186
20
176.2735191
40
0.264448
50
31.1181161
51
32.4005348
0
ARC
8
DEFAULT_255_1_234
10
18.1908724
20
176.2699779
40
0.2738556
50
8.1116974
51
30.7958831
0
ARC
8
DEFAULT_255_1_234
10
18.1098392
20
176.2561753
40
0.3560327
50
359.8389159
51
8.4706516
0
ARC
8
DEFAULT_255_1_234
10
18.1724184
20
176.2513137
40
0.2934776
50
337.4731098
51
0.7537279
0
ARC
8
DEFAULT_255_1_234
10
18.1902879
20
176.2493387
40
0.2762607
50
307.5917067
51
336.4315538
0
ARC
8
DEFAULT_255_1_234
10
18.1442707
20
176.3006102
40
0.3449979
50
307.6551545
51
308.4529766
0
ARC
8
DEFAULT_255_1_234
10
18.1212425
20
176.336125
40
0.3871988
50
284.3734338
51
307.1424381
0
ARC
8
DEFAULT_255_1_234
10
18.0717256
20
176.5182932
40
0.5759636
50
272.4382747
51
284.646547
0
ARC
8
DEFAULT_255_1_234
10
18.0590464
20
176.6982893
40
0.7563528
50
269.9708387
51
272.8178037
0
ARC
8
DEFAULT_255_1_234
10
18.0547504
20
176.4944716
40
0.5525489
50
248.2707594
51
270.4055579
0
ARC
8
DEFAULT_255_1_234
10
18.0493245
20
176.4754192
40
0.5328452
50
246.1383403
51
248.0542782
0
ARC
8
DEFAULT_255_1_234
10
18.0074624
20
176.3874843
40
0.4355005
50
233.1670131
51
246.4950969
0
ARC
8
DEFAULT_255_1_234
10
17.9520529
20
176.3126812
40
0.3424126
50
215.3403242
51
233.0843104
0
ARC
8
DEFAULT_255_1_234
10
17.924796
20
176.2928549
40
0.3087104
50
179.2419209
51
215.2648451
0
ARC
8
DEFAULT_255_1_234
10
18.0015554
20
176.2942666
40
0.2304457
50
179.335461
51
199.1045811
0
ARC
8
DEFAULT_255_1_234
10
17.9683231
20
176.2855766
40
0.1962176
50
199.8828939
51
232.7063202
0
ARC
8
DEFAULT_255_1_234
10
18.0155499
20
176.3449788
40
0.2720938
50
232.3738199
51
255.5136649
0
ARC
8
DEFAULT_255_1_234
10
18.0496366
20
176.4693835
40
0.4010747
50
255.2446292
51
267.5320849
0
ARC
8
DEFAULT_255_1_234
10
18.0583989
20
176.5926702
40
0.5246356
50
267.1557994
51
270.0286766
0
ARC
8
DEFAULT_255_1_234
10
18.0611761
20
176.548295
40
0.4802668
50
269.7000017
51
278.1660162
0
ARC
8
DEFAULT_255_1_234
10
18.0867766
20
176.3752515
40
0.3053425
50
278.0231263
51
290.625471
0
ARC
8
DEFAULT_255_1_234
10
18.1215453
20
176.2825025
40
0.206291
50
290.6619762
51
307.0370976
0
ARC
8
DEFAULT_255_1_234
10
18.1515842
20
176.2456504
40
0.1587906
50
306.3943566
51
355.3030547
0
ARC
8
DEFAULT_255_1_234
10
18.1003774
20
176.2533113
40
0.2104809
50
354.3660432
51
0.0698737
0
ARC
8
DEFAULT_255_1_234
10
18.1146119
20
176.2555617
40
0.1962563
50
359.417946
51
16.1971788
0
ARC
8
DEFAULT_255_1_234
10
18.1601429
20
176.2680418
40
0.149053
50
16.4723299
51
52.6262157
0
ARC
8
DEFAULT_255_1_234
10
18.0780483
20
176.1596433
40
0.2850296
50
52.7386432
51
62.4979148
0
ARC
8
DEFAULT_255_1_234
10
17.939556
20
175.8990283
40
0.5801521
50
62.2515216
51
68.1220564
0
ARC
8
DEFAULT_255_1_234
10
17.7675471
20
175.4762872
40
1.0365451
50
68.0062803
51
71.8053402
0
ARC
8
DEFAULT_255_1_234
10
17.5879843
20
174.9377758
40
1.6042013
50
71.7183119
51
73.9258742
0
LINE
8
DEFAULT_255_1_234
10
19.0931494
20
176.4158091
11
18.8176607
21
176.4158091
0
LINE
8
DEFAULT_255_1_234
10
18.8176607
20
176.4158091
11
18.8176607
21
175.958
0
LINE
8
DEFAULT_255_1_234
10
18.8176607
20
175.958
11
18.6634514
21
175.958
0
LINE
8
DEFAULT_255_1_234
10
18.6634514
20
175.958
11
18.6634514
21
177.1274211
0
LINE
8
DEFAULT_255_1_234
10
18.6634514
20
177.1274211
11
19.0947557
21
177.1274211
0
LINE
8
DEFAULT_255_1_234
10
18.8176607
20
177.0005196
11
18.8176607
21
176.5419074
0
LINE
8
DEFAULT_255_1_234
10
18.8176607
20
176.5419074
11
19.0947557
21
176.5419074
0
LINE
8
DEFAULT_255_1_234
10
19.1035906
20
177.0005196
11
18.8176607
21
177.0005196
0
ARC
8
DEFAULT_255_1_234
10
19.0989684
20
176.5215195
40
0.6059162
50
78.8378113
51
90.3983573
0
ARC
8
DEFAULT_255_1_234
10
19.1405697
20
176.7235879
40
0.3996205
50
58.9632738
51
79.0810598
0
ARC
8
DEFAULT_255_1_234
10
19.170724
20
176.7795721
40
0.3361177
50
48.0197965
51
58.447194
0
ARC
8
DEFAULT_255_1_234
10
19.1796101
20
176.7881225
40
0.3238191
50
3.3375044
51
48.1766626
0
ARC
8
DEFAULT_255_1_234
10
19.056594
20
176.7704171
40
0.4477806
50
359.9477528
51
4.6829065
0
ARC
8
DEFAULT_255_1_234
10
19.0689257
20
176.7661628
40
0.4354656
50
346.1877825
51
0.5060252
0
ARC
8
DEFAULT_255_1_234
10
19.2048125
20
176.7308731
40
0.295089
50
310.8831995
51
346.5426355
0
ARC
8
DEFAULT_255_1_234
10
19.1739545
20
176.7725695
40
0.3468331
50
286.6925341
51
310.2288297
0
ARC
8
DEFAULT_255_1_234
10
19.1170375
20
176.9515882
40
0.5346654
50
274.6850312
51
287.0245141
0
ARC
8
DEFAULT_255_1_234
10
19.0945099
20
177.1724932
40
0.7566852
50
269.8969846
51
275.018904
0
ARC
8
DEFAULT_255_1_234
10
19.097269
20
176.9645707
40
0.4226708
50
269.6593078
51
279.4153575
0
ARC
8
DEFAULT_255_1_234
10
19.1229965
20
176.8155133
40
0.2714146
50
279.2049762
51
294.9900808
0
ARC
8
DEFAULT_255_1_234
10
19.1520291
20
176.7507508
40
0.2004525
50
295.2888114
51
311.2911209
0
ARC
8
DEFAULT_255_1_234
10
19.1591185
20
176.740222
40
0.1878703
50
311.7854996
51
347.2861051
0
ARC
8
DEFAULT_255_1_234
10
19.0607344
20
176.7655092
40
0.2894234
50
346.6893224
51
0.1059443
0
ARC
8
DEFAULT_255_1_234
10
18.9852239
20
176.7683685
40
0.3649409
50
359.6350983
51
0.0053152
0
ARC
8
DEFAULT_255_1_234
10
19.0822567
20
176.7708937
40
0.2679199
50
359.4672059
51
15.5933957
0
ARC
8
DEFAULT_255_1_234
10
19.1447456
20
176.7877779
40
0.2031932
50
15.7442113
51
46.6203375
0
ARC
8
DEFAULT_255_1_234
10
19.1299676
20
176.7707484
40
0.2257226
50
46.8628658
51
75.6676503
0
ARC
8
DEFAULT_255_1_234
10
19.1005497
20
176.6648718
40
0.3355939
50
75.276167
51
88.2915297
0
ARC
8
DEFAULT_255_1_234
10
19.0947204
20
176.5770524
40
0.4235602
50
87.8575022
51
88.8000139
0
LINE
8
DEFAULT_255_1_234
10
21.0071126
20
177.1274211
11
21.0071126
21
175.958
0
LINE
8
DEFAULT_255_1_234
10
21.0071126
20
175.958
11
20.8521
21
175.958
0
LINE
8
DEFAULT_255_1_234
10
20.8521
20
175.958
11
20.8521
21
176.498536
0
LINE
8
DEFAULT_255_1_234
10
20.8521
20
176.498536
11
20.2625705
21
176.498536
0
LINE
8
DEFAULT_255_1_234
10
20.2625705
20
176.498536
11
20.2625705
21
175.958
0
LINE
8
DEFAULT_255_1_234
10
20.2625705
20
175.958
11
20.1083611
21
175.958
0
LINE
8
DEFAULT_255_1_234
10
20.1083611
20
175.958
11
20.1083611
21
177.1274211
0
LINE
8
DEFAULT_255_1_234
10
20.1083611
20
177.1274211
11
20.2625705
21
177.1274211
0
LINE
8
DEFAULT_255_1_234
10
20.2625705
20
177.1274211
11
20.2625705
21
176.6246343
0
LINE
8
DEFAULT_255_1_234
10
20.2625705
20
176.6246343
11
20.8521
21
176.6246343
0
LINE
8
DEFAULT_255_1_234
10
20.8521
20
176.6246343
11
20.8521
21
177.1274211
0
LINE
8
DEFAULT_255_1_234
10
20.8521
20
177.1274211
11
21.0071126
21
177.1274211
0
LINE
8
DEFAULT_255_1_234
10
22.0528449
20
175.958
11
21.9412038
21
176.2632061
0
LINE
8
DEFAULT_255_1_234
10
21.9412038
20
176.2632061
11
21.4512677
21
176.2632061
0
LINE
8
DEFAULT_255_1_234
10
21.4512677
20
176.2632061
11
21.3412329
21
175.958
0
LINE
8
DEFAULT_255_1_234
10
21.3412329
20
175.958
11
21.1822045
21
175.958
0
LINE
8
DEFAULT_255_1_234
10
21.1822045
20
175.958
11
21.6287691
21
177.1274211
0
LINE
8
DEFAULT_255_1_234
10
21.6287691
20
177.1274211
11
21.7637023
21
177.1274211
0
LINE
8
DEFAULT_255_1_234
10
21.7637023
20
177.1274211
11
22.2110702
21
175.958
0
LINE
8
DEFAULT_255_1_234
10
22.2110702
20
175.958
11
22.0528449
21
175.958
0
LINE
8
DEFAULT_255_1_234
10
21.6962357
20
176.9370689
11
21.4978518
21
176.3901075
0
LINE
8
DEFAULT_255_1_234
10
21.4978518
20
176.3901075
11
21.8954229
21
176.3901075
0
LINE
8
DEFAULT_255_1_234
10
21.8954229
20
176.3901075
11
21.6962357
21
176.9370689
0
LINE
8
DEFAULT_255_2_778
10
9.3927417
20
169.2009989
11
10.7156417
21
169.2009989
0
LINE
8
DEFAULT_255_2_778
10
10.7156417
20
169.2009989
11
10.7156417
21
89.8259989
0
LINE
8
DEFAULT_255_2_778
10
9.3926834
20
89.8260333
11
12.0384834
21
89.8260333
0
LINE
8
DEFAULT_255_2_778
10
12.0384834
20
89.8260333
11
12.0384834
21
84.5343333
0
LINE
8
DEFAULT_255_2_778
10
12.0384834
20
84.5343333
11
9.3926834
21
84.5343333
0
LINE
8
DEFAULT_255_2_778
10
9.3926834
20
84.5343333
11
9.3926834
21
89.8260333
0
ARC
8
DEFAULT_255_2_778_1
10
13.1922591
20
84.636777
40
4.816461
50
120.9442904
51
122.351755
0
ARC
8
DEFAULT_255_2_778_1
10
12.7456523
20
85.3404039
40
3.9830657
50
122.3407904
51
124.1946752
0
ARC
8
DEFAULT_255_2_778_1
10
12.3057464
20
85.9869306
40
3.2010724
50
124.1855758
51
126.4338849
0
ARC
8
DEFAULT_255_2_778_1
10
11.9198129
20
86.5096611
40
2.5513094
50
126.4326926
51
128.8877368
0
ARC
8
DEFAULT_255_2_778_1
10
11.5849968
20
86.9240658
40
2.0185498
50
128.8749205
51
131.8726567
0
ARC
8
DEFAULT_255_2_778_1
10
11.2878677
20
87.2550854
40
1.5737356
50
131.8616166
51
135.4168838
0
ARC
8
DEFAULT_255_2_778_1
10
11.025068
20
87.5132765
40
1.2053256
50
135.3893975
51
139.9687014
0
ARC
8
DEFAULT_255_2_778_1
10
10.7921889
20
87.7081102
40
0.9016937
50
139.9301659
51
145.9260426
0
ARC
8
DEFAULT_255_2_778_1
10
10.596054
20
87.8401104
40
0.6652776
50
145.8787362
51
153.8146208
0
ARC
8
DEFAULT_255_2_778_1
10
10.4439553
20
87.9144797
40
0.4959714
50
153.770634
51
164.3484794
0
ARC
8
DEFAULT_255_2_778_1
10
10.3426387
20
87.9426786
40
0.3908039
50
164.3220276
51
179.8083066
0
ARC
8
DEFAULT_255_2_778_1
10
10.3636789
20
87.950815
40
0.4118985
50
180.9499449
51
213.8111542
0
ARC
8
DEFAULT_255_2_778_1
10
10.6395828
20
88.1203896
40
0.73561
50
212.8271214
51
224.258472
0
ARC
8
DEFAULT_255_2_778_1
10
11.0224335
20
88.4897236
40
1.267567
50
224.1376218
51
231.4508261
0
ARC
8
DEFAULT_255_2_778_1
10
11.6651195
20
89.2927168
40
2.2960809
50
231.3955893
51
236.1256478
0
ARC
8
DEFAULT_255_2_778_1
10
13.4974223
20
92.0392293
40
5.5976905
50
236.2233172
51
239.1314682
0
ARC
8
DEFAULT_255_2_778_1
10
25.447327
20
111.7669568
40
28.6623793
50
238.8606853
51
239.0711101
0
ARC
8
DEFAULT_255_2_778_1
10
6.2751281
20
79.6698653
40
8.7248518
50
57.2420924
51
59.4062964
0
ARC
8
DEFAULT_255_2_778_1
10
9.5028241
20
84.7008102
40
2.747542
50
52.8289294
51
57.079028
0
ARC
8
DEFAULT_255_2_778_1
10
10.2774783
20
85.7211488
40
1.466457
50
46.3041868
51
52.8596521
0
ARC
8
DEFAULT_255_2_778_1
10
10.7097073
20
86.1712842
40
0.8424061
50
36.2174211
51
46.4090895
0
ARC
8
DEFAULT_255_2_778_1
10
10.9942088
20
86.3761128
40
0.4918609
50
17.400375
51
36.5489745
0
ARC
8
DEFAULT_255_2_778_1
10
11.1082994
20
86.4159754
40
0.3710912
50
0.0676858
51
16.7951297
0
ARC
8
DEFAULT_255_2_778_1
10
11.0872613
20
86.4178428
40
0.3921317
50
343.8035191
51
359.7912046
0
ARC
8
DEFAULT_255_2_778_1
10
10.9809912
20
86.4483167
40
0.5026844
50
333.2506233
51
343.8465691
0
ARC
8
DEFAULT_255_2_778_1
10
10.8271757
20
86.5250313
40
0.6745679
50
325.6600948
51
333.3122657
0
ARC
8
DEFAULT_255_2_778_1
10
10.6317344
20
86.6578296
40
0.9108568
50
319.7560915
51
325.6976089
0
ARC
8
DEFAULT_255_2_778_1
10
10.403599
20
86.8496002
40
1.2088854
50
315.4577584
51
319.8037947
0
ARC
8
DEFAULT_255_2_778_1
10
10.1402127
20
87.1084507
40
1.5781764
50
311.7298824
51
315.4670864
0
ARC
8
DEFAULT_255_2_778_1
10
9.8311879
20
87.4540074
40
2.0417554
50
308.723055
51
311.7470879
0
ARC
8
DEFAULT_255_2_778_1
10
9.476989
20
87.8952492
40
2.6075745
50
306.1165163
51
308.7300151
0
ARC
8
DEFAULT_255_2_778_1
10
9.0740091
20
88.4465523
40
3.2904564
50
303.9559446
51
306.1266333
0
ARC
8
DEFAULT_255_2_778_1
10
8.6624432
20
89.055815
40
4.0257023
50
302.3733397
51
303.9712246
0
ARC
8
DEFAULT_255_2_778_1
10
8.2428347
20
89.7173058
40
4.8090549
50
300.9434827
51
302.3758078
0
LINE
8
DEFAULT_255_2_778
10
10.7156417
20
84.5342989
11
10.7156417
21
5.1592989
0
LINE
8
DEFAULT_255_2_778
10
10.7156417
20
5.1592989
11
9.3927417
21
5.1592989
0
LINE
8
DEFAULT_255_1_234
10
4.2454489
20
175.1431211
11
4.2454489
21
174.0997983
0
LINE
8
DEFAULT_255_1_234
10
4.2454489
20
174.0997983
11
4.7996389
21
174.0997983
0
LINE
8
DEFAULT_255_1_234
10
4.7996389
20
174.0997983
11
4.7996389
21
173.9737
0
LINE
8
DEFAULT_255_1_234
10
4.7996389
20
173.9737
11
4.0904364
21
173.9737
0
LINE
8
DEFAULT_255_1_234
10
4.0904364
20
173.9737
11
4.0904364
21
175.1431211
0
LINE
8
DEFAULT_255_1_234
10
4.0904364
20
175.1431211
11
4.2454489
21
175.1431211
0
LINE
8
DEFAULT_255_1_234
10
5.377924
20
174.9423276
11
5.377924
21
174.6009788
0
LINE
8
DEFAULT_255_1_234
10
5.377924
20
174.6009788
11
5.7040126
21
174.6009788
0
LINE
8
DEFAULT_255_1_234
10
5.7040126
20
174.6009788
11
5.7040126
21
174.4604233
0
LINE
8
DEFAULT_255_1_234
10
5.7040126
20
174.4604233
11
5.377924
21
174.4604233
0
LINE
8
DEFAULT_255_1_234
10
5.377924
20
174.4604233
11
5.377924
21
174.0909634
0
LINE
8
DEFAULT_255_1_234
10
5.377924
20
174.0909634
11
5.2285337
21
174.0909634
0
LINE
8
DEFAULT_255_1_234
10
5.2285337
20
174.0909634
11
5.2285337
21
174.4604233
0
LINE
8
DEFAULT_255_1_234
10
5.2285337
20
174.4604233
11
4.9024451
21
174.4604233
0
LINE
8
DEFAULT_255_1_234
10
4.9024451
20
174.4604233
11
4.9024451
21
174.6009788
0
LINE
8
DEFAULT_255_1_234
10
4.9024451
20
174.6009788
11
5.2285337
21
174.6009788
0
LINE
8
DEFAULT_255_1_234
10
5.2285337
20
174.6009788
11
5.2285337
21
174.9423276
0
LINE
8
DEFAULT_255_1_234
10
5.2285337
20
174.9423276
11
5.377924
21
174.9423276
0
LINE
8
DEFAULT_255_1_234
10
4.799285
20
5.2828391
11
4.799285
21
5.1567408
0
LINE
8
DEFAULT_255_1_234
10
4.799285
20
5.1567408
11
4.3085458
21
5.1567408
0
LINE
8
DEFAULT_255_1_234
10
4.3085458
20
5.1567408
11
4.3085458
21
4.6403
0
LINE
8
DEFAULT_255_1_234
10
4.3085458
20
4.6403
11
4.1543364
21
4.6403
0
LINE
8
DEFAULT_255_1_234
10
4.1543364
20
4.6403
11
4.1543364
21
5.8097211
0
LINE
8
DEFAULT_255_1_234
10
4.1543364
20
5.8097211
11
4.8787992
21
5.8097211
0
LINE
8
DEFAULT_255_1_234
10
4.8787992
20
5.8097211
11
4.8787992
21
5.6828196
0
LINE
8
DEFAULT_255_1_234
10
4.8787992
20
5.6828196
11
4.3085458
21
5.6828196
0
LINE
8
DEFAULT_255_1_234
10
4.3085458
20
5.6828196
11
4.3085458
21
5.2828391
0
LINE
8
DEFAULT_255_1_234
10
4.3085458
20
5.2828391
11
4.799285
21
5.2828391
0
LINE
8
DEFAULT_255_1_234
10
5.5133065
20
5.8153433
11
5.5133065
21
4.6403
0
LINE
8
DEFAULT_255_1_234
10
5.5133065
20
4.6403
11
5.3639162
21
4.6403
0
LINE
8
DEFAULT_255_1_234
10
5.3639162
20
4.6403
11
5.3639162
21
5.6306133
0
LINE
8
DEFAULT_255_1_234
10
5.3639162
20
5.6306133
11
5.0643323
21
5.5205785
0
LINE
8
DEFAULT_255_1_234
10
5.0643323
20
5.5205785
11
5.0643323
21
5.6555117
0
LINE
8
DEFAULT_255_1_234
10
5.0643323
20
5.6555117
11
5.4900145
21
5.8153433
0
LINE
8
DEFAULT_255_1_234
10
5.4900145
20
5.8153433
11
5.5133065
21
5.8153433
0
LINE
8
DEFAULT_255_1_234
10
6.1357662
20
5.1960963
11
6.0168965
21
5.2266169
0
LINE
8
DEFAULT_255_1_234
10
6.0168965
20
5.2266169
11
6.0763313
21
5.8097211
0
LINE
8
DEFAULT_255_1_234
10
6.0763313
20
5.8097211
11
6.675499
21
5.8097211
0
LINE
8
DEFAULT_255_1_234
10
6.675499
20
5.8097211
11
6.675499
21
5.6723784
0
LINE
8
DEFAULT_255_1_234
10
6.675499
20
5.6723784
11
6.2024296
21
5.6723784
0
LINE
8
DEFAULT_255_1_234
10
6.2024296
20
5.6723784
11
6.16709
21
5.3535184
0
LINE
8
DEFAULT_255_1_234
10
5.9751314
20
4.9479156
11
6.1156869
21
4.9479156
0
LINE
8
DEFAULT_255_1_234
10
6.1751217
20
5.2282232
11
6.1357662
21
5.1960963
0
ARC
8
DEFAULT_255_1_234
10
6.3525684
20
5.035523
40
0.3681349
50
93.7182161
51
120.2538958
0
ARC
8
DEFAULT_255_1_234
10
6.3619947
20
4.9547394
40
0.449379
50
89.9660152
51
94.2496022
0
ARC
8
DEFAULT_255_1_234
10
6.3660681
20
5.0136549
40
0.390482
50
73.8043271
51
90.5585896
0
ARC
8
DEFAULT_255_1_234
10
6.3895578
20
5.0994602
40
0.3015334
50
41.3071453
51
73.5430202
0
ARC
8
DEFAULT_255_1_234
10
6.3479405
20
5.0636324
40
0.3564457
50
13.5075983
51
41.2174222
0
ARC
8
DEFAULT_255_1_234
10
6.1837609
20
5.0206486
40
0.5261351
50
1.1331335
51
13.8829381
0
ARC
8
DEFAULT_255_1_234
10
6.0425978
20
5.0130665
40
0.6674378
50
359.9919444
51
1.544251
0
ARC
8
DEFAULT_255_1_234
10
6.1702804
20
5.008928
40
0.5397702
50
347.8572367
51
0.4293338
0
ARC
8
DEFAULT_255_1_234
10
6.3453122
20
4.9692736
40
0.3603188
50
323.673004
51
348.1672506
0
ARC
8
DEFAULT_255_1_234
10
6.374763
20
4.9513168
40
0.3259678
50
316.8171152
51
323.1492751
0
ARC
8
DEFAULT_255_1_234
10
6.3808819
20
4.947646
40
0.3189975
50
281.8396411
51
316.5457803
0
ARC
8
DEFAULT_255_1_234
10
6.3433082
20
5.1031762
40
0.4789527
50
269.5770101
51
282.4214771
0
ARC
8
DEFAULT_255_1_234
10
6.3361894
20
5.0818125
40
0.45759
50
256.2427136
51
270.4486331
0
ARC
8
DEFAULT_255_1_234
10
6.3062796
20
4.9618229
40
0.3339303
50
228.9023911
51
256.3314342
0
ARC
8
DEFAULT_255_1_234
10
6.2989029
20
4.9501746
40
0.32031
50
193.753695
51
228.5271154
0
ARC
8
DEFAULT_255_1_234
10
6.4226983
20
4.98648
40
0.4492253
50
184.924711
51
194.497588
0
ARC
8
DEFAULT_255_1_234
10
6.441955
20
4.9900591
40
0.3289787
50
187.3600538
51
198.6732863
0
ARC
8
DEFAULT_255_1_234
10
6.3369844
20
4.9536674
40
0.217884
50
198.4451669
51
217.794479
0
ARC
8
DEFAULT_255_1_234
10
6.3074019
20
4.9327085
40
0.1816698
50
218.2887171
51
228.5612368
0
ARC
8
DEFAULT_255_1_234
10
6.3171806
20
4.9458963
40
0.1980329
50
228.9654866
51
258.1234728
0
ARC
8
DEFAULT_255_1_234
10
6.3377516
20
5.0339833
40
0.2884748
50
257.7258293
51
270.401361
0
ARC
8
DEFAULT_255_1_234
10
6.3422402
20
4.9894821
40
0.2439788
50
269.4204404
51
286.4209037
0
ARC
8
DEFAULT_255_1_234
10
6.357089
20
4.9355657
40
0.1880666
50
286.7251356
51
320.600362
0
ARC
8
DEFAULT_255_1_234
10
6.3187715
20
4.9666595
40
0.2374121
50
320.6712579
51
344.5441685
0
ARC
8
DEFAULT_255_1_234
10
6.2031041
20
5.0006045
40
0.3579479
50
344.2412205
51
356.7357071
0
ARC
8
DEFAULT_255_1_234
10
6.078219
20
5.0109444
40
0.4832297
50
356.3548756
51
0.0500261
0
ARC
8
DEFAULT_255_1_234
10
6.2118699
20
5.014065
40
0.3495889
50
359.5576869
51
12.953486
0
ARC
8
DEFAULT_255_1_234
10
6.3173596
20
5.0396434
40
0.2410532
50
12.6490276
51
41.6081334
0
ARC
8
DEFAULT_255_1_234
10
6.3403967
20
5.0592321
40
0.2108218
50
41.7850273
51
85.9892764
0
ARC
8
DEFAULT_255_1_234
10
6.3280704
20
4.9779462
40
0.2928454
50
84.6957577
51
90.0676183
0
ARC
8
DEFAULT_255_1_234
10
6.3257188
20
4.9110716
40
0.3597255
50
89.6804936
51
99.1614436
0
ARC
8
DEFAULT_255_1_234
10
6.3051819
20
5.0338131
40
0.235281
50
98.9830931
51
113.8908934
0
ARC
8
DEFAULT_255_1_234
10
6.2822229
20
5.0879587
40
0.176479
50
114.1950727
51
127.3641004
0
LINE
8
DEFAULT_255_1_234
10
5.0574293
20
9.932
11
4.9457881
21
10.2372061
0
LINE
8
DEFAULT_255_1_234
10
4.9457881
20
10.2372061
11
4.4558521
21
10.2372061
0
LINE
8
DEFAULT_255_1_234
10
4.4558521
20
10.2372061
11
4.3458173
21
9.932
0
LINE
8
DEFAULT_255_1_234
10
4.3458173
20
9.932
11
4.1867889
21
9.932
0
LINE
8
DEFAULT_255_1_234
10
4.1867889
20
9.932
11
4.6333535
21
11.1014211
0
LINE
8
DEFAULT_255_1_234
10
4.6333535
20
11.1014211
11
4.7682867
21
11.1014211
0
LINE
8
DEFAULT_255_1_234
10
4.7682867
20
11.1014211
11
5.2156545
21
9.932
0
LINE
8
DEFAULT_255_1_234
10
5.2156545
20
9.932
11
5.0574293
21
9.932
0
LINE
8
DEFAULT_255_1_234
10
4.7008201
20
10.9110689
11
4.5024362
21
10.3641075
0
LINE
8
DEFAULT_255_1_234
10
4.5024362
20
10.3641075
11
4.9000072
21
10.3641075
0
LINE
8
DEFAULT_255_1_234
10
4.9000072
20
10.3641075
11
4.7008201
21
10.9110689
0
LINE
8
DEFAULT_255_1_234
10
5.5385304
20
11.1014211
11
5.5385304
21
9.932
0
LINE
8
DEFAULT_255_1_234
10
5.5385304
20
9.932
11
5.384321
21
9.932
0
LINE
8
DEFAULT_255_1_234
10
5.384321
20
9.932
11
5.384321
21
11.1014211
0
LINE
8
DEFAULT_255_1_234
10
5.384321
20
11.1014211
11
5.5385304
21
11.1014211
0
LINE
8
DEFAULT_255_1_234
10
6.2702218
20
11.1070433
11
6.2702218
21
9.932
0
LINE
8
DEFAULT_255_1_234
10
6.2702218
20
9.932
11
6.1208314
21
9.932
0
LINE
8
DEFAULT_255_1_234
10
6.1208314
20
9.932
11
6.1208314
21
10.9223133
0
LINE
8
DEFAULT_255_1_234
10
6.1208314
20
10.9223133
11
5.8212476
21
10.8122785
0
LINE
8
DEFAULT_255_1_234
10
5.8212476
20
10.8122785
11
5.8212476
21
10.9472117
0
LINE
8
DEFAULT_255_1_234
10
5.8212476
20
10.9472117
11
6.2469297
21
11.1070433
0
LINE
8
DEFAULT_255_1_234
10
6.2469297
20
11.1070433
11
6.2702218
21
11.1070433
0
LINE
8
DEFAULT_255_1_234
10
6.8926815
20
10.4877963
11
6.7738118
21
10.5183169
0
LINE
8
DEFAULT_255_1_234
10
6.7738118
20
10.5183169
11
6.8332466
21
11.1014211
0
LINE
8
DEFAULT_255_1_234
10
6.8332466
20
11.1014211
11
7.4324143
21
11.1014211
0
LINE
8
DEFAULT_255_1_234
10
7.4324143
20
11.1014211
11
7.4324143
21
10.9640784
0
LINE
8
DEFAULT_255_1_234
10
7.4324143
20
10.9640784
11
6.9593449
21
10.9640784
0
LINE
8
DEFAULT_255_1_234
10
6.9593449
20
10.9640784
11
6.9240053
21
10.6452184
0
LINE
8
DEFAULT_255_1_234
10
6.7320467
20
10.2396156
11
6.8726021
21
10.2396156
0
LINE
8
DEFAULT_255_1_234
10
6.932037
20
10.5199232
11
6.8926815
21
10.4877963
0
ARC
8
DEFAULT_255_1_234
10
7.1094837
20
10.327223
40
0.3681349
50
93.7182161
51
120.2538958
0
ARC
8
DEFAULT_255_1_234
10
7.11891
20
10.2464394
40
0.449379
50
89.9660152
51
94.2496022
0
ARC
8
DEFAULT_255_1_234
10
7.1229834
20
10.3053549
40
0.390482
50
73.8043271
51
90.5585896
0
ARC
8
DEFAULT_255_1_234
10
7.146473
20
10.3911602
40
0.3015334
50
41.3071453
51
73.5430202
0
ARC
8
DEFAULT_255_1_234
10
7.1048558
20
10.3553324
40
0.3564457
50
13.5075983
51
41.2174222
0
ARC
8
DEFAULT_255_1_234
10
6.9406762
20
10.3123486
40
0.5261351
50
1.1331335
51
13.8829381
0
ARC
8
DEFAULT_255_1_234
10
6.7995131
20
10.3047665
40
0.6674378
50
359.9919444
51
1.544251
0
ARC
8
DEFAULT_255_1_234
10
6.9271957
20
10.300628
40
0.5397702
50
347.8572367
51
0.4293338
0
ARC
8
DEFAULT_255_1_234
10
7.1022275
20
10.2609736
40
0.3603188
50
323.673004
51
348.1672506
0
ARC
8
DEFAULT_255_1_234
10
7.1316783
20
10.2430168
40
0.3259678
50
316.8171152
51
323.1492751
0
ARC
8
DEFAULT_255_1_234
10
7.1377972
20
10.239346
40
0.3189975
50
281.8396411
51
316.5457803
0
ARC
8
DEFAULT_255_1_234
10
7.1002235
20
10.3948762
40
0.4789527
50
269.5770101
51
282.4214771
0
ARC
8
DEFAULT_255_1_234
10
7.0931047
20
10.3735125
40
0.45759
50
256.2427136
51
270.4486331
0
ARC
8
DEFAULT_255_1_234
10
7.0631949
20
10.2535229
40
0.3339303
50
228.9023911
51
256.3314342
0
ARC
8
DEFAULT_255_1_234
10
7.0558182
20
10.2418746
40
0.32031
50
193.753695
51
228.5271154
0
ARC
8
DEFAULT_255_1_234
10
7.1796136
20
10.27818
40
0.4492253
50
184.924711
51
194.497588
0
ARC
8
DEFAULT_255_1_234
10
7.1988703
20
10.2817591
40
0.3289787
50
187.3600538
51
198.6732863
0
ARC
8
DEFAULT_255_1_234
10
7.0938997
20
10.2453674
40
0.217884
50
198.4451669
51
217.794479
0
ARC
8
DEFAULT_255_1_234
10
7.0643172
20
10.2244085
40
0.1816698
50
218.2887171
51
228.5612368
0
ARC
8
DEFAULT_255_1_234
10
7.0740959
20
10.2375963
40
0.1980329
50
228.9654866
51
258.1234728
0
ARC
8
DEFAULT_255_1_234
10
7.0946669
20
10.3256833
40
0.2884748
50
257.7258293
51
270.401361
0
ARC
8
DEFAULT_255_1_234
10
7.0991555
20
10.2811821
40
0.2439788
50
269.4204404
51
286.4209037
0
ARC
8
DEFAULT_255_1_234
10
7.1140043
20
10.2272657
40
0.1880666
50
286.7251356
51
320.600362
0
ARC
8
DEFAULT_255_1_234
10
7.0756868
20
10.2583595
40
0.2374121
50
320.6712579
51
344.5441685
0
ARC
8
DEFAULT_255_1_234
10
6.9600194
20
10.2923045
40
0.3579479
50
344.2412205
51
356.7357071
0
ARC
8
DEFAULT_255_1_234
10
6.8351342
20
10.3026444
40
0.4832297
50
356.3548756
51
0.0500261
0
ARC
8
DEFAULT_255_1_234
10
6.9687852
20
10.305765
40
0.3495889
50
359.5576869
51
12.953486
0
ARC
8
DEFAULT_255_1_234
10
7.0742749
20
10.3313434
40
0.2410532
50
12.6490276
51
41.6081334
0
ARC
8
DEFAULT_255_1_234
10
7.097312
20
10.3509321
40
0.2108218
50
41.7850273
51
85.9892764
0
ARC
8
DEFAULT_255_1_234
10
7.0849856
20
10.2696462
40
0.2928454
50
84.6957577
51
90.0676183
0
ARC
8
DEFAULT_255_1_234
10
7.0826341
20
10.2027716
40
0.3597255
50
89.6804936
51
99.1614436
0
ARC
8
DEFAULT_255_1_234
10
7.0620972
20
10.3255131
40
0.235281
50
98.9830931
51
113.8908934
0
ARC
8
DEFAULT_255_1_234
10
7.0391382
20
10.3796587
40
0.176479
50
114.1950727
51
127.3641004
0
LINE
8
DEFAULT_255_1_234
10
4.905085
20
15.8662391
11
4.905085
21
15.7401408
0
LINE
8
DEFAULT_255_1_234
10
4.905085
20
15.7401408
11
4.4143458
21
15.7401408
0
LINE
8
DEFAULT_255_1_234
10
4.4143458
20
15.7401408
11
4.4143458
21
15.2237
0
LINE
8
DEFAULT_255_1_234
10
4.4143458
20
15.2237
11
4.2601364
21
15.2237
0
LINE
8
DEFAULT_255_1_234
10
4.2601364
20
15.2237
11
4.2601364
21
16.3931211
0
LINE
8
DEFAULT_255_1_234
10
4.2601364
20
16.3931211
11
4.9845992
21
16.3931211
0
LINE
8
DEFAULT_255_1_234
10
4.9845992
20
16.3931211
11
4.9845992
21
16.2662196
0
LINE
8
DEFAULT_255_1_234
10
4.9845992
20
16.2662196
11
4.4143458
21
16.2662196
0
LINE
8
DEFAULT_255_1_234
10
4.4143458
20
16.2662196
11
4.4143458
21
15.8662391
0
LINE
8
DEFAULT_255_1_234
10
4.4143458
20
15.8662391
11
4.905085
21
15.8662391
0
LINE
8
DEFAULT_255_1_234
10
5.6191065
20
16.3987433
11
5.6191065
21
15.2237
0
LINE
8
DEFAULT_255_1_234
10
5.6191065
20
15.2237
11
5.4697162
21
15.2237
0
LINE
8
DEFAULT_255_1_234
10
5.4697162
20
15.2237
11
5.4697162
21
16.2140133
0
LINE
8
DEFAULT_255_1_234
10
5.4697162
20
16.2140133
11
5.1701323
21
16.1039785
0
LINE
8
DEFAULT_255_1_234
10
5.1701323
20
16.1039785
11
5.1701323
21
16.2389117
0
LINE
8
DEFAULT_255_1_234
10
5.1701323
20
16.2389117
11
5.5958145
21
16.3987433
0
LINE
8
DEFAULT_255_1_234
10
5.5958145
20
16.3987433
11
5.6191065
21
16.3987433
0
LINE
8
DEFAULT_255_1_234
10
6.6817055
20
16.3931211
11
6.6817055
21
15.616452
0
LINE
8
DEFAULT_255_1_234
10
6.6817055
20
15.616452
11
6.8439466
21
15.616452
0
LINE
8
DEFAULT_255_1_234
10
6.8439466
20
15.616452
11
6.8439466
21
15.4951728
0
LINE
8
DEFAULT_255_1_234
10
6.8439466
20
15.4951728
11
6.6817055
21
15.4951728
0
LINE
8
DEFAULT_255_1_234
10
6.6817055
20
15.4951728
11
6.6817055
21
15.2237
0
LINE
8
DEFAULT_255_1_234
10
6.6817055
20
15.2237
11
6.5323151
21
15.2237
0
LINE
8
DEFAULT_255_1_234
10
6.5323151
20
15.2237
11
6.5323151
21
15.4951728
0
LINE
8
DEFAULT_255_1_234
10
6.5323151
20
15.4951728
11
5.9998109
21
15.4951728
0
LINE
8
DEFAULT_255_1_234
10
5.9998109
20
15.4951728
11
5.9998109
21
15.5827187
0
LINE
8
DEFAULT_255_1_234
10
5.9998109
20
15.5827187
11
6.5234802
21
16.3931211
0
LINE
8
DEFAULT_255_1_234
10
6.5234802
20
16.3931211
11
6.6817055
21
16.3931211
0
LINE
8
DEFAULT_255_1_234
10
6.5146453
20
16.1577912
11
6.1684774
21
15.616452
0
LINE
8
DEFAULT_255_1_234
10
6.1684774
20
15.616452
11
6.5323151
21
15.616452
0
LINE
8
DEFAULT_255_1_234
10
6.5323151
20
15.616452
11
6.5323151
21
16.1899181
0
LINE
8
DEFAULT_255_1_234
10
6.5323151
20
16.1899181
11
6.5146453
21
16.1577912
0
LINE
8
DEFAULT_255_1_234
10
5.1632293
20
20.5153
11
5.0515881
21
20.8205061
0
LINE
8
DEFAULT_255_1_234
10
5.0515881
20
20.8205061
11
4.5616521
21
20.8205061
0
LINE
8
DEFAULT_255_1_234
10
4.5616521
20
20.8205061
11
4.4516173
21
20.5153
0
LINE
8
DEFAULT_255_1_234
10
4.4516173
20
20.5153
11
4.2925889
21
20.5153
0
LINE
8
DEFAULT_255_1_234
10
4.2925889
20
20.5153
11
4.7391535
21
21.6847211
0
LINE
8
DEFAULT_255_1_234
10
4.7391535
20
21.6847211
11
4.8740867
21
21.6847211
0
LINE
8
DEFAULT_255_1_234
10
4.8740867
20
21.6847211
11
5.3214545
21
20.5153
0
LINE
8
DEFAULT_255_1_234
10
5.3214545
20
20.5153
11
5.1632293
21
20.5153
0
LINE
8
DEFAULT_255_1_234
10
4.8066201
20
21.4943689
11
4.6082362
21
20.9474075
0
LINE
8
DEFAULT_255_1_234
10
4.6082362
20
20.9474075
11
5.0058072
21
20.9474075
0
LINE
8
DEFAULT_255_1_234
10
5.0058072
20
20.9474075
11
4.8066201
21
21.4943689
0
LINE
8
DEFAULT_255_1_234
10
5.6443304
20
21.6847211
11
5.6443304
21
20.5153
0
LINE
8
DEFAULT_255_1_234
10
5.6443304
20
20.5153
11
5.490121
21
20.5153
0
LINE
8
DEFAULT_255_1_234
10
5.490121
20
20.5153
11
5.490121
21
21.6847211
0
LINE
8
DEFAULT_255_1_234
10
5.490121
20
21.6847211
11
5.6443304
21
21.6847211
0
LINE
8
DEFAULT_255_1_234
10
6.3760218
20
21.6903433
11
6.3760218
21
20.5153
0
LINE
8
DEFAULT_255_1_234
10
6.3760218
20
20.5153
11
6.2266314
21
20.5153
0
LINE
8
DEFAULT_255_1_234
10
6.2266314
20
20.5153
11
6.2266314
21
21.5056133
0
LINE
8
DEFAULT_255_1_234
10
6.2266314
20
21.5056133
11
5.9270476
21
21.3955785
0
LINE
8
DEFAULT_255_1_234
10
5.9270476
20
21.3955785
11
5.9270476
21
21.5305117
0
LINE
8
DEFAULT_255_1_234
10
5.9270476
20
21.5305117
11
6.3527297
21
21.6903433
0
LINE
8
DEFAULT_255_1_234
10
6.3527297
20
21.6903433
11
6.3760218
21
21.6903433
0
LINE
8
DEFAULT_255_1_234
10
7.4386208
20
21.6847211
11
7.4386208
21
20.908052
0
LINE
8
DEFAULT_255_1_234
10
7.4386208
20
20.908052
11
7.6008619
21
20.908052
0
LINE
8
DEFAULT_255_1_234
10
7.6008619
20
20.908052
11
7.6008619
21
20.7867728
0
LINE
8
DEFAULT_255_1_234
10
7.6008619
20
20.7867728
11
7.4386208
21
20.7867728
0
LINE
8
DEFAULT_255_1_234
10
7.4386208
20
20.7867728
11
7.4386208
21
20.5153
0
LINE
8
DEFAULT_255_1_234
10
7.4386208
20
20.5153
11
7.2892304
21
20.5153
0
LINE
8
DEFAULT_255_1_234
10
7.2892304
20
20.5153
11
7.2892304
21
20.7867728
0
LINE
8
DEFAULT_255_1_234
10
7.2892304
20
20.7867728
11
6.7567262
21
20.7867728
0
LINE
8
DEFAULT_255_1_234
10
6.7567262
20
20.7867728
11
6.7567262
21
20.8743187
0
LINE
8
DEFAULT_255_1_234
10
6.7567262
20
20.8743187
11
7.2803955
21
21.6847211
0
LINE
8
DEFAULT_255_1_234
10
7.2803955
20
21.6847211
11
7.4386208
21
21.6847211
0
LINE
8
DEFAULT_255_1_234
10
7.2715606
20
21.4493912
11
6.9253927
21
20.908052
0
LINE
8
DEFAULT_255_1_234
10
6.9253927
20
20.908052
11
7.2892304
21
20.908052
0
LINE
8
DEFAULT_255_1_234
10
7.2892304
20
20.908052
11
7.2892304
21
21.4815181
0
LINE
8
DEFAULT_255_1_234
10
7.2892304
20
21.4815181
11
7.2715606
21
21.4493912
0
LINE
8
DEFAULT_255_1_234
10
4.799285
20
26.4495391
11
4.799285
21
26.3234408
0
LINE
8
DEFAULT_255_1_234
10
4.799285
20
26.3234408
11
4.3085458
21
26.3234408
0
LINE
8
DEFAULT_255_1_234
10
4.3085458
20
26.3234408
11
4.3085458
21
25.807
0
LINE
8
DEFAULT_255_1_234
10
4.3085458
20
25.807
11
4.1543364
21
25.807
0
LINE
8
DEFAULT_255_1_234
10
4.1543364
20
25.807
11
4.1543364
21
26.9764211
0
LINE
8
DEFAULT_255_1_234
10
4.1543364
20
26.9764211
11
4.8787992
21
26.9764211
0
LINE
8
DEFAULT_255_1_234
10
4.8787992
20
26.9764211
11
4.8787992
21
26.8495196
0
LINE
8
DEFAULT_255_1_234
10
4.8787992
20
26.8495196
11
4.3085458
21
26.8495196
0
LINE
8
DEFAULT_255_1_234
10
4.3085458
20
26.8495196
11
4.3085458
21
26.4495391
0
LINE
8
DEFAULT_255_1_234
10
4.3085458
20
26.4495391
11
4.799285
21
26.4495391
0
LINE
8
DEFAULT_255_1_234
10
5.5133065
20
26.9820433
11
5.5133065
21
25.807
0
LINE
8
DEFAULT_255_1_234
10
5.5133065
20
25.807
11
5.3639162
21
25.807
0
LINE
8
DEFAULT_255_1_234
10
5.3639162
20
25.807
11
5.3639162
21
26.7973133
0
LINE
8
DEFAULT_255_1_234
10
5.3639162
20
26.7973133
11
5.0643323
21
26.6872785
0
LINE
8
DEFAULT_255_1_234
10
5.0643323
20
26.6872785
11
5.0643323
21
26.8222117
0
LINE
8
DEFAULT_255_1_234
10
5.0643323
20
26.8222117
11
5.4900145
21
26.9820433
0
LINE
8
DEFAULT_255_1_234
10
5.4900145
20
26.9820433
11
5.5133065
21
26.9820433
0
LINE
8
DEFAULT_255_1_234
10
6.1646805
20
26.3427169
11
6.1646805
21
26.4639962
0
LINE
8
DEFAULT_255_1_234
10
6.1646805
20
26.4639962
11
6.2763216
21
26.4639962
0
LINE
8
DEFAULT_255_1_234
10
6.0859694
20
26.6696087
11
5.9373823
21
26.6696087
0
LINE
8
DEFAULT_255_1_234
10
5.926941
20
26.1154188
11
6.0763313
21
26.1154188
0
LINE
8
DEFAULT_255_1_234
10
6.2763216
20
26.3427169
11
6.1646805
21
26.3427169
0
ARC
8
DEFAULT_255_1_234
10
6.2734083
20
26.8032713
40
0.3392876
50
270.4919872
51
281.8951556
0
ARC
8
DEFAULT_255_1_234
10
6.2975344
20
26.6930702
40
0.2264817
50
281.6691735
51
301.2943132
0
ARC
8
DEFAULT_255_1_234
10
6.3145555
20
26.6619304
40
0.1910381
50
301.7833094
51
311.7545298
0
ARC
8
DEFAULT_255_1_234
10
6.323713
20
26.6517748
40
0.1773635
50
311.7323931
51
354.2802411
0
ARC
8
DEFAULT_255_1_234
10
6.2510756
20
26.6642722
40
0.2509385
50
353.0937916
51
0.1181479
0
ARC
8
DEFAULT_255_1_234
10
6.2049541
20
26.6690386
40
0.2970898
50
359.1805295
51
15.0453146
0
ARC
8
DEFAULT_255_1_234
10
6.3395378
20
26.7082992
40
0.1569564
50
13.9577229
51
77.6713066
0
ARC
8
DEFAULT_255_1_234
10
6.3008907
20
26.5697949
40
0.3006298
50
76.1116566
51
90.7026153
0
ARC
8
DEFAULT_255_1_234
10
6.2949745
20
26.5971545
40
0.2732568
50
89.5324876
51
103.531937
0
ARC
8
DEFAULT_255_1_234
10
6.2749189
20
26.6770884
40
0.1908508
50
103.2931773
51
133.5619022
0
ARC
8
DEFAULT_255_1_234
10
6.2704677
20
26.6830375
40
0.1834746
50
133.8349307
51
173.5344437
0
ARC
8
DEFAULT_255_1_234
10
6.3427721
20
26.6702213
40
0.2568033
50
172.5096846
51
180.1366907
0
ARC
8
DEFAULT_255_1_234
10
6.2476614
20
26.6736622
40
0.3103056
50
155.3484492
51
180.7484736
0
ARC
8
DEFAULT_255_1_234
10
6.2427703
20
26.6707846
40
0.3070957
50
131.5744599
51
154.4798489
0
ARC
8
DEFAULT_255_1_234
10
6.2740851
20
26.639131
40
0.3515643
50
96.9875458
51
131.9690667
0
ARC
8
DEFAULT_255_1_234
10
6.2960331
20
26.5145636
40
0.4779224
50
89.8596053
51
97.7825159
0
ARC
8
DEFAULT_255_1_234
10
6.3008394
20
26.4883616
40
0.5041361
50
78.3655447
51
90.4131539
0
ARC
8
DEFAULT_255_1_234
10
6.3366312
20
26.6542887
40
0.3344039
50
56.6229102
51
78.638727
0
ARC
8
DEFAULT_255_1_234
10
6.3581255
20
26.6918805
40
0.2912001
50
47.0253525
51
56.0854072
0
ARC
8
DEFAULT_255_1_234
10
6.3601035
20
26.6958223
40
0.2869704
50
10.9208013
51
46.7778124
0
ARC
8
DEFAULT_255_1_234
10
6.2237102
20
26.6642857
40
0.426899
50
359.6364486
51
11.6087304
0
ARC
8
DEFAULT_255_1_234
10
6.4071946
20
26.6627752
40
0.243409
50
332.3549906
51
359.7179418
0
ARC
8
DEFAULT_255_1_234
10
6.3421547
20
26.6936142
40
0.3153459
50
325.2333722
51
332.8745602
0
ARC
8
DEFAULT_255_1_234
10
6.3574171
20
26.6829828
40
0.2967456
50
292.9802137
51
325.2392345
0
ARC
8
DEFAULT_255_1_234
10
6.3299545
20
26.7363863
40
0.3566604
50
292.5402179
51
293.6924929
0
ARC
8
DEFAULT_255_1_234
10
6.3692141
20
26.0909091
40
0.3307468
50
57.6435486
51
72.8625112
0
ARC
8
DEFAULT_255_1_234
10
6.4046641
20
26.1483549
40
0.2632492
50
36.7248896
51
57.4697979
0
ARC
8
DEFAULT_255_1_234
10
6.4035273
20
26.149622
40
0.2634081
50
8.0545065
51
36.356114
0
ARC
8
DEFAULT_255_1_234
10
6.3172459
20
26.1341174
40
0.3510261
50
359.8320645
51
8.5869982
0
ARC
8
DEFAULT_255_1_234
10
6.2797235
20
26.1293101
40
0.3885653
50
343.9829931
51
0.5571613
0
ARC
8
DEFAULT_255_1_234
10
6.3683432
20
26.1050438
40
0.2966924
50
311.6359546
51
343.7651759
0
ARC
8
DEFAULT_255_1_234
10
6.3305001
20
26.1477102
40
0.3537231
50
279.7829875
51
311.6255694
0
ARC
8
DEFAULT_255_1_234
10
6.3003777
20
26.291428
40
0.5004971
50
269.7286406
51
280.3856417
0
ARC
8
DEFAULT_255_1_234
10
6.294185
20
26.2872996
40
0.4963778
50
256.6828919
51
270.4412052
0
ARC
8
DEFAULT_255_1_234
10
6.2603146
20
26.1488394
40
0.3538406
50
229.4223008
51
256.8556159
0
ARC
8
DEFAULT_255_1_234
10
6.2188539
20
26.1021736
40
0.2914296
50
181.818294
51
229.6455059
0
ARC
8
DEFAULT_255_1_234
10
6.3228495
20
26.1152496
40
0.3959084
50
179.9755256
51
183.2323064
0
ARC
8
DEFAULT_255_1_234
10
6.3056241
20
26.1132037
40
0.2293034
50
179.4465117
51
196.2869258
0
ARC
8
DEFAULT_255_1_234
10
6.2568649
20
26.0998651
40
0.1787621
50
196.5661473
51
227.705904
0
ARC
8
DEFAULT_255_1_234
10
6.2732743
20
26.1182155
40
0.2033784
50
227.7652068
51
257.8762805
0
ARC
8
DEFAULT_255_1_234
10
6.2957714
20
26.2125156
40
0.3003081
50
257.4584385
51
270.426602
0
ARC
8
DEFAULT_255_1_234
10
6.300328
20
26.2414996
40
0.329292
50
269.5962073
51
280.8789248
0
ARC
8
DEFAULT_255_1_234
10
6.3232809
20
26.1268685
40
0.2123908
50
280.6346389
51
299.8595945
0
ARC
8
DEFAULT_255_1_234
10
6.3423715
20
26.0906212
40
0.171457
50
300.3576302
51
314.5517981
0
ARC
8
DEFAULT_255_1_234
10
6.3340775
20
26.0966919
40
0.1816095
50
315.0728369
51
345.0431014
0
ARC
8
DEFAULT_255_1_234
10
6.241759
20
26.1235841
40
0.2777492
50
344.5986631
51
357.9269593
0
ARC
8
DEFAULT_255_1_234
10
6.1521916
20
26.1297276
40
0.3674917
50
357.4748886
51
0.0231117
0
ARC
8
DEFAULT_255_1_234
10
6.2545025
20
26.1321679
40
0.2651907
50
359.5047933
51
13.4239635
0
ARC
8
DEFAULT_255_1_234
10
6.3411669
20
26.1543478
40
0.1757509
50
12.9498199
51
48.7551375
0
ARC
8
DEFAULT_255_1_234
10
6.3229403
20
26.12944
40
0.2065134
50
49.5088623
51
72.1836453
0
ARC
8
DEFAULT_255_1_234
10
6.2871555
20
26.0232291
40
0.3185836
50
71.9010081
51
84.3554254
0
ARC
8
DEFAULT_255_1_234
10
6.2710187
20
25.8871326
40
0.4556151
50
84.0193428
51
89.333121
0
LINE
8
DEFAULT_255_1_234
10
5.0574293
20
31.0987
11
4.9457881
21
31.4039061
0
LINE
8
DEFAULT_255_1_234
10
4.9457881
20
31.4039061
11
4.4558521
21
31.4039061
0
LINE
8
DEFAULT_255_1_234
10
4.4558521
20
31.4039061
11
4.3458173
21
31.0987
0
LINE
8
DEFAULT_255_1_234
10
4.3458173
20
31.0987
11
4.1867889
21
31.0987
0
LINE
8
DEFAULT_255_1_234
10
4.1867889
20
31.0987
11
4.6333535
21
32.2681211
0
LINE
8
DEFAULT_255_1_234
10
4.6333535
20
32.2681211
11
4.7682867
21
32.2681211
0
LINE
8
DEFAULT_255_1_234
10
4.7682867
20
32.2681211
11
5.2156545
21
31.0987
0
LINE
8
DEFAULT_255_1_234
10
5.2156545
20
31.0987
11
5.0574293
21
31.0987
0
LINE
8
DEFAULT_255_1_234
10
4.7008201
20
32.0777689
11
4.5024362
21
31.5308075
0
LINE
8
DEFAULT_255_1_234
10
4.5024362
20
31.5308075
11
4.9000072
21
31.5308075
0
LINE
8
DEFAULT_255_1_234
10
4.9000072
20
31.5308075
11
4.7008201
21
32.0777689
0
LINE
8
DEFAULT_255_1_234
10
5.5385304
20
32.2681211
11
5.5385304
21
31.0987
0
LINE
8
DEFAULT_255_1_234
10
5.5385304
20
31.0987
11
5.384321
21
31.0987
0
LINE
8
DEFAULT_255_1_234
10
5.384321
20
31.0987
11
5.384321
21
32.2681211
0
LINE
8
DEFAULT_255_1_234
10
5.384321
20
32.2681211
11
5.5385304
21
32.2681211
0
LINE
8
DEFAULT_255_1_234
10
6.2702218
20
32.2737433
11
6.2702218
21
31.0987
0
LINE
8
DEFAULT_255_1_234
10
6.2702218
20
31.0987
11
6.1208314
21
31.0987
0
LINE
8
DEFAULT_255_1_234
10
6.1208314
20
31.0987
11
6.1208314
21
32.0890133
0
LINE
8
DEFAULT_255_1_234
10
6.1208314
20
32.0890133
11
5.8212476
21
31.9789785
0
LINE
8
DEFAULT_255_1_234
10
5.8212476
20
31.9789785
11
5.8212476
21
32.1139117
0
LINE
8
DEFAULT_255_1_234
10
5.8212476
20
32.1139117
11
6.2469297
21
32.2737433
0
LINE
8
DEFAULT_255_1_234
10
6.2469297
20
32.2737433
11
6.2702218
21
32.2737433
0
LINE
8
DEFAULT_255_1_234
10
6.9215958
20
31.6344169
11
6.9215958
21
31.7556962
0
LINE
8
DEFAULT_255_1_234
10
6.9215958
20
31.7556962
11
7.0332369
21
31.7556962
0
LINE
8
DEFAULT_255_1_234
10
6.8428847
20
31.9613087
11
6.6942976
21
31.9613087
0
LINE
8
DEFAULT_255_1_234
10
6.6838563
20
31.4071188
11
6.8332466
21
31.4071188
0
LINE
8
DEFAULT_255_1_234
10
7.0332369
20
31.6344169
11
6.9215958
21
31.6344169
0
ARC
8
DEFAULT_255_1_234
10
7.0303236
20
32.0949713
40
0.3392876
50
270.4919872
51
281.8951556
0
ARC
8
DEFAULT_255_1_234
10
7.0544497
20
31.9847702
40
0.2264817
50
281.6691735
51
301.2943132
0
ARC
8
DEFAULT_255_1_234
10
7.0714708
20
31.9536304
40
0.1910381
50
301.7833094
51
311.7545298
0
ARC
8
DEFAULT_255_1_234
10
7.0806283
20
31.9434748
40
0.1773635
50
311.7323931
51
354.2802411
0
ARC
8
DEFAULT_255_1_234
10
7.0079909
20
31.9559722
40
0.2509385
50
353.0937916
51
0.1181479
0
ARC
8
DEFAULT_255_1_234
10
6.9618693
20
31.9607386
40
0.2970898
50
359.1805295
51
15.0453146
0
ARC
8
DEFAULT_255_1_234
10
7.096453
20
31.9999992
40
0.1569564
50
13.9577229
51
77.6713066
0
ARC
8
DEFAULT_255_1_234
10
7.0578059
20
31.8614949
40
0.3006298
50
76.1116566
51
90.7026153
0
ARC
8
DEFAULT_255_1_234
10
7.0518898
20
31.8888545
40
0.2732568
50
89.5324876
51
103.531937
0
ARC
8
DEFAULT_255_1_234
10
7.0318342
20
31.9687884
40
0.1908508
50
103.2931773
51
133.5619022
0
ARC
8
DEFAULT_255_1_234
10
7.027383
20
31.9747375
40
0.1834746
50
133.8349307
51
173.5344437
0
ARC
8
DEFAULT_255_1_234
10
7.0996873
20
31.9619213
40
0.2568033
50
172.5096846
51
180.1366907
0
ARC
8
DEFAULT_255_1_234
10
7.0045767
20
31.9653622
40
0.3103056
50
155.3484492
51
180.7484736
0
ARC
8
DEFAULT_255_1_234
10
6.9996856
20
31.9624846
40
0.3070957
50
131.5744599
51
154.4798489
0
ARC
8
DEFAULT_255_1_234
10
7.0310004
20
31.930831
40
0.3515643
50
96.9875458
51
131.9690667
0
ARC
8
DEFAULT_255_1_234
10
7.0529484
20
31.8062636
40
0.4779224
50
89.8596053
51
97.7825159
0
ARC
8
DEFAULT_255_1_234
10
7.0577547
20
31.7800616
40
0.5041361
50
78.3655447
51
90.4131539
0
ARC
8
DEFAULT_255_1_234
10
7.0935465
20
31.9459887
40
0.3344039
50
56.6229102
51
78.638727
0
ARC
8
DEFAULT_255_1_234
10
7.1150408
20
31.9835805
40
0.2912001
50
47.0253525
51
56.0854072
0
ARC
8
DEFAULT_255_1_234
10
7.1170188
20
31.9875223
40
0.2869704
50
10.9208013
51
46.7778124
0
ARC
8
DEFAULT_255_1_234
10
6.9806255
20
31.9559857
40
0.426899
50
359.6364486
51
11.6087304
0
ARC
8
DEFAULT_255_1_234
10
7.1641099
20
31.9544752
40
0.243409
50
332.3549906
51
359.7179418
0
ARC
8
DEFAULT_255_1_234
10
7.09907
20
31.9853142
40
0.3153459
50
325.2333722
51
332.8745602
0
ARC
8
DEFAULT_255_1_234
10
7.1143324
20
31.9746828
40
0.2967456
50
292.9802137
51
325.2392345
0
ARC
8
DEFAULT_255_1_234
10
7.0868698
20
32.0280863
40
0.3566604
50
292.5402179
51
293.6924929
0
ARC
8
DEFAULT_255_1_234
10
7.1261294
20
31.3826091
40
0.3307468
50
57.6435486
51
72.8625112
0
ARC
8
DEFAULT_255_1_234
10
7.1615794
20
31.4400549
40
0.2632492
50
36.7248896
51
57.4697979
0
ARC
8
DEFAULT_255_1_234
10
7.1604426
20
31.441322
40
0.2634081
50
8.0545065
51
36.356114
0
ARC
8
DEFAULT_255_1_234
10
7.0741611
20
31.4258174
40
0.3510261
50
359.8320645
51
8.5869982
0
ARC
8
DEFAULT_255_1_234
10
7.0366388
20
31.4210101
40
0.3885653
50
343.9829931
51
0.5571613
0
ARC
8
DEFAULT_255_1_234
10
7.1252585
20
31.3967438
40
0.2966924
50
311.6359546
51
343.7651759
0
ARC
8
DEFAULT_255_1_234
10
7.0874154
20
31.4394102
40
0.3537231
50
279.7829875
51
311.6255694
0
ARC
8
DEFAULT_255_1_234
10
7.057293
20
31.583128
40
0.5004971
50
269.7286406
51
280.3856417
0
ARC
8
DEFAULT_255_1_234
10
7.0511003
20
31.5789996
40
0.4963778
50
256.6828919
51
270.4412052
0
ARC
8
DEFAULT_255_1_234
10
7.0172299
20
31.4405394
40
0.3538406
50
229.4223008
51
256.8556159
0
ARC
8
DEFAULT_255_1_234
10
6.9757691
20
31.3938736
40
0.2914296
50
181.818294
51
229.6455059
0
ARC
8
DEFAULT_255_1_234
10
7.0797648
20
31.4069496
40
0.3959084
50
179.9755256
51
183.2323064
0
ARC
8
DEFAULT_255_1_234
10
7.0625393
20
31.4049037
40
0.2293034
50
179.4465117
51
196.2869258
0
ARC
8
DEFAULT_255_1_234
10
7.0137802
20
31.3915651
40
0.1787621
50
196.5661473
51
227.705904
0
ARC
8
DEFAULT_255_1_234
10
7.0301896
20
31.4099155
40
0.2033784
50
227.7652068
51
257.8762805
0
ARC
8
DEFAULT_255_1_234
10
7.0526867
20
31.5042156
40
0.3003081
50
257.4584385
51
270.426602
0
ARC
8
DEFAULT_255_1_234
10
7.0572433
20
31.5331996
40
0.329292
50
269.5962073
51
280.8789248
0
ARC
8
DEFAULT_255_1_234
10
7.0801961
20
31.4185685
40
0.2123908
50
280.6346389
51
299.8595945
0
ARC
8
DEFAULT_255_1_234
10
7.0992868
20
31.3823212
40
0.171457
50
300.3576302
51
314.5517981
0
ARC
8
DEFAULT_255_1_234
10
7.0909928
20
31.3883919
40
0.1816095
50
315.0728369
51
345.0431014
0
ARC
8
DEFAULT_255_1_234
10
6.9986743
20
31.4152841
40
0.2777492
50
344.5986631
51
357.9269593
0
ARC
8
DEFAULT_255_1_234
10
6.9091069
20
31.4214276
40
0.3674917
50
357.4748886
51
0.0231117
0
ARC
8
DEFAULT_255_1_234
10
7.0114178
20
31.4238679
40
0.2651907
50
359.5047933
51
13.4239635
0
ARC
8
DEFAULT_255_1_234
10
7.0980822
20
31.4460478
40
0.1757509
50
12.9498199
51
48.7551375
0
ARC
8
DEFAULT_255_1_234
10
7.0798556
20
31.42114
40
0.2065134
50
49.5088623
51
72.1836453
0
ARC
8
DEFAULT_255_1_234
10
7.0440708
20
31.3149291
40
0.3185836
50
71.9010081
51
84.3554254
0
ARC
8
DEFAULT_255_1_234
10
7.027934
20
31.1788326
40
0.4556151
50
84.0193428
51
89.333121
0
LINE
8
DEFAULT_255_1_234
10
4.799285
20
37.0328391
11
4.799285
21
36.9067408
0
LINE
8
DEFAULT_255_1_234
10
4.799285
20
36.9067408
11
4.3085458
21
36.9067408
0
LINE
8
DEFAULT_255_1_234
10
4.3085458
20
36.9067408
11
4.3085458
21
36.3903
0
LINE
8
DEFAULT_255_1_234
10
4.3085458
20
36.3903
11
4.1543364
21
36.3903
0
LINE
8
DEFAULT_255_1_234
10
4.1543364
20
36.3903
11
4.1543364
21
37.5597211
0
LINE
8
DEFAULT_255_1_234
10
4.1543364
20
37.5597211
11
4.8787992
21
37.5597211
0
LINE
8
DEFAULT_255_1_234
10
4.8787992
20
37.5597211
11
4.8787992
21
37.4328196
0
LINE
8
DEFAULT_255_1_234
10
4.8787992
20
37.4328196
11
4.3085458
21
37.4328196
0
LINE
8
DEFAULT_255_1_234
10
4.3085458
20
37.4328196
11
4.3085458
21
37.0328391
0
LINE
8
DEFAULT_255_1_234
10
4.3085458
20
37.0328391
11
4.799285
21
37.0328391
0
LINE
8
DEFAULT_255_1_234
10
5.5133065
20
37.5653433
11
5.5133065
21
36.3903
0
LINE
8
DEFAULT_255_1_234
10
5.5133065
20
36.3903
11
5.3639162
21
36.3903
0
LINE
8
DEFAULT_255_1_234
10
5.3639162
20
36.3903
11
5.3639162
21
37.3806133
0
LINE
8
DEFAULT_255_1_234
10
5.3639162
20
37.3806133
11
5.0643323
21
37.2705785
0
LINE
8
DEFAULT_255_1_234
10
5.0643323
20
37.2705785
11
5.0643323
21
37.4055117
0
LINE
8
DEFAULT_255_1_234
10
5.0643323
20
37.4055117
11
5.4900145
21
37.5653433
0
LINE
8
DEFAULT_255_1_234
10
5.4900145
20
37.5653433
11
5.5133065
21
37.5653433
0
LINE
8
DEFAULT_255_1_234
10
6.7148545
20
36.5115792
11
6.7148545
21
36.3903
0
LINE
8
DEFAULT_255_1_234
10
6.7148545
20
36.3903
11
5.9486267
21
36.3903
0
LINE
8
DEFAULT_255_1_234
10
5.9486267
20
36.3903
11
5.9486267
21
36.4971221
0
LINE
8
DEFAULT_255_1_234
10
5.9486267
20
36.4971221
11
6.3534263
21
36.9468995
0
LINE
8
DEFAULT_255_1_234
10
6.074725
20
37.2151595
11
5.9261378
21
37.2151595
0
LINE
8
DEFAULT_255_1_234
10
6.4409723
20
36.8513218
11
6.1277345
21
36.5115792
0
LINE
8
DEFAULT_255_1_234
10
6.1277345
20
36.5115792
11
6.7148545
21
36.5115792
0
ARC
8
DEFAULT_255_1_234
10
5.0044096
20
38.1398527
40
1.8008286
50
318.5132453
51
320.7828378
0
ARC
8
DEFAULT_255_1_234
10
5.5331071
20
37.7095426
40
1.1191493
50
320.7372736
51
323.9737074
0
ARC
8
DEFAULT_255_1_234
10
5.9250927
20
37.4255361
40
0.6350923
50
323.8961724
51
328.6421089
0
ARC
8
DEFAULT_255_1_234
10
6.1297523
20
37.2993031
40
0.3946393
50
328.8299013
51
331.789948
0
ARC
8
DEFAULT_255_1_234
10
6.2294701
20
37.2478509
40
0.2824501
50
331.4255242
51
352.9364833
0
ARC
8
DEFAULT_255_1_234
10
6.2431202
20
37.2447976
40
0.2685315
50
353.2248685
51
0.0169286
0
ARC
8
DEFAULT_255_1_234
10
6.2641079
20
37.247095
40
0.2475536
50
359.4866256
51
15.9339782
0
ARC
8
DEFAULT_255_1_234
10
6.3148064
20
37.2607286
40
0.1950618
50
16.1714718
51
43.5284424
0
ARC
8
DEFAULT_255_1_234
10
6.3225372
20
37.2684573
40
0.184134
50
43.4415429
51
83.1661404
0
ARC
8
DEFAULT_255_1_234
10
6.3091291
20
37.1947771
40
0.258926
50
82.160215
51
90.1505798
0
ARC
8
DEFAULT_255_1_234
10
6.3059718
20
37.1410865
40
0.3126255
50
89.5460705
51
102.5418777
0
ARC
8
DEFAULT_255_1_234
10
6.2816804
20
37.2441665
40
0.2067346
50
102.1739365
51
129.2061916
0
ARC
8
DEFAULT_255_1_234
10
6.2737876
20
37.2566094
40
0.1921118
50
129.7279328
51
135.7542026
0
ARC
8
DEFAULT_255_1_234
10
6.2859403
20
37.2469045
40
0.2075944
50
136.175737
51
166.3674722
0
ARC
8
DEFAULT_255_1_234
10
6.3866323
20
37.2199182
40
0.3118201
50
165.9092917
51
178.8683903
0
ARC
8
DEFAULT_255_1_234
10
6.4731184
20
37.2152179
40
0.3983935
50
178.438168
51
180.0083905
0
ARC
8
DEFAULT_255_1_234
10
6.3329786
20
37.2191231
40
0.4068601
50
163.2878735
51
180.5581814
0
ARC
8
DEFAULT_255_1_234
10
6.2528047
20
37.241184
40
0.3237344
50
133.454115
51
162.9470031
0
ARC
8
DEFAULT_255_1_234
10
6.2706589
20
37.2222
40
0.349795
50
100.7869394
51
133.4384016
0
ARC
8
DEFAULT_255_1_234
10
6.305436
20
37.0673319
40
0.5084616
50
89.6605301
51
101.3704185
0
ARC
8
DEFAULT_255_1_234
10
6.3120699
20
37.0734496
40
0.502348
50
78.2171172
51
90.4130393
0
ARC
8
DEFAULT_255_1_234
10
6.3475778
20
37.2358637
40
0.3361092
50
55.9268222
51
78.4888551
0
ARC
8
DEFAULT_255_1_234
10
6.3672218
20
37.2697324
40
0.2970617
50
47.9292255
51
55.4054003
0
ARC
8
DEFAULT_255_1_234
10
6.3773778
20
37.2800502
40
0.2825983
50
4.3347696
51
48.0560701
0
ARC
8
DEFAULT_255_1_234
10
6.2678172
20
37.2630601
40
0.393225
50
359.925209
51
5.5967654
0
ARC
8
DEFAULT_255_1_234
10
6.3107064
20
37.2686816
40
0.3503892
50
337.8914096
51
358.9967724
0
ARC
8
DEFAULT_255_1_234
10
6.0393476
20
37.3733706
40
0.6412172
50
326.9135351
51
338.3505194
0
ARC
8
DEFAULT_255_1_234
10
5.640778
20
37.6288284
40
1.1146189
50
319.6472867
51
327.095818
0
ARC
8
DEFAULT_255_1_234
10
5.2574783
20
37.945
40
1.6114559
50
317.2586784
51
319.9046139
0
LINE
8
DEFAULT_255_1_234
10
5.0574293
20
41.682
11
4.9457881
21
41.9872061
0
LINE
8
DEFAULT_255_1_234
10
4.9457881
20
41.9872061
11
4.4558521
21
41.9872061
0
LINE
8
DEFAULT_255_1_234
10
4.4558521
20
41.9872061
11
4.3458173
21
41.682
0
LINE
8
DEFAULT_255_1_234
10
4.3458173
20
41.682
11
4.1867889
21
41.682
0
LINE
8
DEFAULT_255_1_234
10
4.1867889
20
41.682
11
4.6333535
21
42.8514211
0
LINE
8
DEFAULT_255_1_234
10
4.6333535
20
42.8514211
11
4.7682867
21
42.8514211
0
LINE
8
DEFAULT_255_1_234
10
4.7682867
20
42.8514211
11
5.2156545
21
41.682
0
LINE
8
DEFAULT_255_1_234
10
5.2156545
20
41.682
11
5.0574293
21
41.682
0
LINE
8
DEFAULT_255_1_234
10
4.7008201
20
42.6610689
11
4.5024362
21
42.1141075
0
LINE
8
DEFAULT_255_1_234
10
4.5024362
20
42.1141075
11
4.9000072
21
42.1141075
0
LINE
8
DEFAULT_255_1_234
10
4.9000072
20
42.1141075
11
4.7008201
21
42.6610689
0
LINE
8
DEFAULT_255_1_234
10
5.5385304
20
42.8514211
11
5.5385304
21
41.682
0
LINE
8
DEFAULT_255_1_234
10
5.5385304
20
41.682
11
5.384321
21
41.682
0
LINE
8
DEFAULT_255_1_234
10
5.384321
20
41.682
11
5.384321
21
42.8514211
0
LINE
8
DEFAULT_255_1_234
10
5.384321
20
42.8514211
11
5.5385304
21
42.8514211
0
LINE
8
DEFAULT_255_1_234
10
6.2702218
20
42.8570433
11
6.2702218
21
41.682
0
LINE
8
DEFAULT_255_1_234
10
6.2702218
20
41.682
11
6.1208314
21
41.682
0
LINE
8
DEFAULT_255_1_234
10
6.1208314
20
41.682
11
6.1208314
21
42.6723133
0
LINE
8
DEFAULT_255_1_234
10
6.1208314
20
42.6723133
11
5.8212476
21
42.5622785
0
LINE
8
DEFAULT_255_1_234
10
5.8212476
20
42.5622785
11
5.8212476
21
42.6972117
0
LINE
8
DEFAULT_255_1_234
10
5.8212476
20
42.6972117
11
6.2469297
21
42.8570433
0
LINE
8
DEFAULT_255_1_234
10
6.2469297
20
42.8570433
11
6.2702218
21
42.8570433
0
LINE
8
DEFAULT_255_1_234
10
7.4717698
20
41.8032792
11
7.4717698
21
41.682
0
LINE
8
DEFAULT_255_1_234
10
7.4717698
20
41.682
11
6.705542
21
41.682
0
LINE
8
DEFAULT_255_1_234
10
6.705542
20
41.682
11
6.705542
21
41.7888221
0
LINE
8
DEFAULT_255_1_234
10
6.705542
20
41.7888221
11
7.1103416
21
42.2385995
0
LINE
8
DEFAULT_255_1_234
10
6.8316403
20
42.5068595
11
6.6830531
21
42.5068595
0
LINE
8
DEFAULT_255_1_234
10
7.1978875
20
42.1430218
11
6.8846498
21
41.8032792
0
LINE
8
DEFAULT_255_1_234
10
6.8846498
20
41.8032792
11
7.4717698
21
41.8032792
0
ARC
8
DEFAULT_255_1_234
10
5.7613249
20
43.4315527
40
1.8008286
50
318.5132453
51
320.7828378
0
ARC
8
DEFAULT_255_1_234
10
6.2900224
20
43.0012426
40
1.1191493
50
320.7372736
51
323.9737074
0
ARC
8
DEFAULT_255_1_234
10
6.682008
20
42.7172361
40
0.6350923
50
323.8961724
51
328.6421089
0
ARC
8
DEFAULT_255_1_234
10
6.8866676
20
42.5910031
40
0.3946393
50
328.8299013
51
331.789948
0
ARC
8
DEFAULT_255_1_234
10
6.9863854
20
42.5395509
40
0.2824501
50
331.4255242
51
352.9364833
0
ARC
8
DEFAULT_255_1_234
10
7.0000355
20
42.5364976
40
0.2685315
50
353.2248685
51
0.0169286
0
ARC
8
DEFAULT_255_1_234
10
7.0210231
20
42.538795
40
0.2475536
50
359.4866256
51
15.9339782
0
ARC
8
DEFAULT_255_1_234
10
7.0717217
20
42.5524286
40
0.1950618
50
16.1714718
51
43.5284424
0
ARC
8
DEFAULT_255_1_234
10
7.0794525
20
42.5601573
40
0.184134
50
43.4415429
51
83.1661404
0
ARC
8
DEFAULT_255_1_234
10
7.0660444
20
42.4864771
40
0.258926
50
82.160215
51
90.1505798
0
ARC
8
DEFAULT_255_1_234
10
7.0628871
20
42.4327865
40
0.3126255
50
89.5460705
51
102.5418777
0
ARC
8
DEFAULT_255_1_234
10
7.0385957
20
42.5358665
40
0.2067346
50
102.1739365
51
129.2061916
0
ARC
8
DEFAULT_255_1_234
10
7.0307029
20
42.5483094
40
0.1921118
50
129.7279328
51
135.7542026
0
ARC
8
DEFAULT_255_1_234
10
7.0428556
20
42.5386045
40
0.2075944
50
136.175737
51
166.3674722
0
ARC
8
DEFAULT_255_1_234
10
7.1435476
20
42.5116182
40
0.3118201
50
165.9092917
51
178.8683903
0
ARC
8
DEFAULT_255_1_234
10
7.2300337
20
42.5069179
40
0.3983935
50
178.438168
51
180.0083905
0
ARC
8
DEFAULT_255_1_234
10
7.0898939
20
42.5108231
40
0.4068601
50
163.2878735
51
180.5581814
0
ARC
8
DEFAULT_255_1_234
10
7.00972
20
42.532884
40
0.3237344
50
133.454115
51
162.9470031
0
ARC
8
DEFAULT_255_1_234
10
7.0275742
20
42.5139
40
0.349795
50
100.7869394
51
133.4384016
0
ARC
8
DEFAULT_255_1_234
10
7.0623513
20
42.3590319
40
0.5084616
50
89.6605301
51
101.3704185
0
ARC
8
DEFAULT_255_1_234
10
7.0689852
20
42.3651496
40
0.502348
50
78.2171172
51
90.4130393
0
ARC
8
DEFAULT_255_1_234
10
7.104493
20
42.5275637
40
0.3361092
50
55.9268222
51
78.4888551
0
ARC
8
DEFAULT_255_1_234
10
7.1241371
20
42.5614324
40
0.2970617
50
47.9292255
51
55.4054003
0
ARC
8
DEFAULT_255_1_234
10
7.1342931
20
42.5717502
40
0.2825983
50
4.3347696
51
48.0560701
0
ARC
8
DEFAULT_255_1_234
10
7.0247325
20
42.5547601
40
0.393225
50
359.925209
51
5.5967654
0
ARC
8
DEFAULT_255_1_234
10
7.0676217
20
42.5603816
40
0.3503892
50
337.8914096
51
358.9967724
0
ARC
8
DEFAULT_255_1_234
10
6.7962629
20
42.6650706
40
0.6412172
50
326.9135351
51
338.3505194
0
ARC
8
DEFAULT_255_1_234
10
6.3976932
20
42.9205284
40
1.1146189
50
319.6472867
51
327.095818
0
ARC
8
DEFAULT_255_1_234
10
6.0143936
20
43.2367
40
1.6114559
50
317.2586784
51
319.9046139
0
LINE
8
DEFAULT_255_1_234
10
4.791085
20
47.6162391
11
4.791085
21
47.4901408
0
LINE
8
DEFAULT_255_1_234
10
4.791085
20
47.4901408
11
4.3003458
21
47.4901408
0
LINE
8
DEFAULT_255_1_234
10
4.3003458
20
47.4901408
11
4.3003458
21
46.9737
0
LINE
8
DEFAULT_255_1_234
10
4.3003458
20
46.9737
11
4.1461364
21
46.9737
0
LINE
8
DEFAULT_255_1_234
10
4.1461364
20
46.9737
11
4.1461364
21
48.1431211
0
LINE
8
DEFAULT_255_1_234
10
4.1461364
20
48.1431211
11
4.8705992
21
48.1431211
0
LINE
8
DEFAULT_255_1_234
10
4.8705992
20
48.1431211
11
4.8705992
21
48.0162196
0
LINE
8
DEFAULT_255_1_234
10
4.8705992
20
48.0162196
11
4.3003458
21
48.0162196
0
LINE
8
DEFAULT_255_1_234
10
4.3003458
20
48.0162196
11
4.3003458
21
47.6162391
0
LINE
8
DEFAULT_255_1_234
10
4.3003458
20
47.6162391
11
4.791085
21
47.6162391
0
LINE
8
DEFAULT_255_1_234
10
5.5051065
20
48.1487433
11
5.5051065
21
46.9737
0
LINE
8
DEFAULT_255_1_234
10
5.5051065
20
46.9737
11
5.3557162
21
46.9737
0
LINE
8
DEFAULT_255_1_234
10
5.3557162
20
46.9737
11
5.3557162
21
47.9640133
0
LINE
8
DEFAULT_255_1_234
10
5.3557162
20
47.9640133
11
5.0561323
21
47.8539785
0
LINE
8
DEFAULT_255_1_234
10
5.0561323
20
47.8539785
11
5.0561323
21
47.9889117
0
LINE
8
DEFAULT_255_1_234
10
5.0561323
20
47.9889117
11
5.4818145
21
48.1487433
0
LINE
8
DEFAULT_255_1_234
10
5.4818145
20
48.1487433
11
5.5051065
21
48.1487433
0
LINE
8
DEFAULT_255_1_234
10
6.4287564
20
48.1487433
11
6.4287564
21
46.9737
0
LINE
8
DEFAULT_255_1_234
10
6.4287564
20
46.9737
11
6.2793661
21
46.9737
0
LINE
8
DEFAULT_255_1_234
10
6.2793661
20
46.9737
11
6.2793661
21
47.9640133
0
LINE
8
DEFAULT_255_1_234
10
6.2793661
20
47.9640133
11
5.9797822
21
47.8539785
0
LINE
8
DEFAULT_255_1_234
10
5.9797822
20
47.8539785
11
5.9797822
21
47.9889117
0
LINE
8
DEFAULT_255_1_234
10
5.9797822
20
47.9889117
11
6.4054644
21
48.1487433
0
LINE
8
DEFAULT_255_1_234
10
6.4054644
20
48.1487433
11
6.4287564
21
48.1487433
0
LINE
8
DEFAULT_255_1_234
10
5.0490293
20
52.2653
11
4.9373881
21
52.5705061
0
LINE
8
DEFAULT_255_1_234
10
4.9373881
20
52.5705061
11
4.4474521
21
52.5705061
0
LINE
8
DEFAULT_255_1_234
10
4.4474521
20
52.5705061
11
4.3374173
21
52.2653
0
LINE
8
DEFAULT_255_1_234
10
4.3374173
20
52.2653
11
4.1783889
21
52.2653
0
LINE
8
DEFAULT_255_1_234
10
4.1783889
20
52.2653
11
4.6249535
21
53.4347211
0
LINE
8
DEFAULT_255_1_234
10
4.6249535
20
53.4347211
11
4.7598867
21
53.4347211
0
LINE
8
DEFAULT_255_1_234
10
4.7598867
20
53.4347211
11
5.2072545
21
52.2653
0
LINE
8
DEFAULT_255_1_234
10
5.2072545
20
52.2653
11
5.0490293
21
52.2653
0
LINE
8
DEFAULT_255_1_234
10
4.6924201
20
53.2443689
11
4.4940362
21
52.6974075
0
LINE
8
DEFAULT_255_1_234
10
4.4940362
20
52.6974075
11
4.8916072
21
52.6974075
0
LINE
8
DEFAULT_255_1_234
10
4.8916072
20
52.6974075
11
4.6924201
21
53.2443689
0
LINE
8
DEFAULT_255_1_234
10
5.5301304
20
53.4347211
11
5.5301304
21
52.2653
0
LINE
8
DEFAULT_255_1_234
10
5.5301304
20
52.2653
11
5.375921
21
52.2653
0
LINE
8
DEFAULT_255_1_234
10
5.375921
20
52.2653
11
5.375921
21
53.4347211
0
LINE
8
DEFAULT_255_1_234
10
5.375921
20
53.4347211
11
5.5301304
21
53.4347211
0
LINE
8
DEFAULT_255_1_234
10
6.2618218
20
53.4403433
11
6.2618218
21
52.2653
0
LINE
8
DEFAULT_255_1_234
10
6.2618218
20
52.2653
11
6.1124314
21
52.2653
0
LINE
8
DEFAULT_255_1_234
10
6.1124314
20
52.2653
11
6.1124314
21
53.2556133
0
LINE
8
DEFAULT_255_1_234
10
6.1124314
20
53.2556133
11
5.8128476
21
53.1455785
0
LINE
8
DEFAULT_255_1_234
10
5.8128476
20
53.1455785
11
5.8128476
21
53.2805117
0
LINE
8
DEFAULT_255_1_234
10
5.8128476
20
53.2805117
11
6.2385297
21
53.4403433
0
LINE
8
DEFAULT_255_1_234
10
6.2385297
20
53.4403433
11
6.2618218
21
53.4403433
0
LINE
8
DEFAULT_255_1_234
10
7.1854717
20
53.4403433
11
7.1854717
21
52.2653
0
LINE
8
DEFAULT_255_1_234
10
7.1854717
20
52.2653
11
7.0360813
21
52.2653
0
LINE
8
DEFAULT_255_1_234
10
7.0360813
20
52.2653
11
7.0360813
21
53.2556133
0
LINE
8
DEFAULT_255_1_234
10
7.0360813
20
53.2556133
11
6.7364975
21
53.1455785
0
LINE
8
DEFAULT_255_1_234
10
6.7364975
20
53.1455785
11
6.7364975
21
53.2805117
0
LINE
8
DEFAULT_255_1_234
10
6.7364975
20
53.2805117
11
7.1621796
21
53.4403433
0
LINE
8
DEFAULT_255_1_234
10
7.1621796
20
53.4403433
11
7.1854717
21
53.4403433
0
LINE
8
DEFAULT_255_1_234
10
4.799285
20
58.1995391
11
4.799285
21
58.0734408
0
LINE
8
DEFAULT_255_1_234
10
4.799285
20
58.0734408
11
4.3085458
21
58.0734408
0
LINE
8
DEFAULT_255_1_234
10
4.3085458
20
58.0734408
11
4.3085458
21
57.557
0
LINE
8
DEFAULT_255_1_234
10
4.3085458
20
57.557
11
4.1543364
21
57.557
0
LINE
8
DEFAULT_255_1_234
10
4.1543364
20
57.557
11
4.1543364
21
58.7264211
0
LINE
8
DEFAULT_255_1_234
10
4.1543364
20
58.7264211
11
4.8787992
21
58.7264211
0
LINE
8
DEFAULT_255_1_234
10
4.8787992
20
58.7264211
11
4.8787992
21
58.5995196
0
LINE
8
DEFAULT_255_1_234
10
4.8787992
20
58.5995196
11
4.3085458
21
58.5995196
0
LINE
8
DEFAULT_255_1_234
10
4.3085458
20
58.5995196
11
4.3085458
21
58.1995391
0
LINE
8
DEFAULT_255_1_234
10
4.3085458
20
58.1995391
11
4.799285
21
58.1995391
0
LINE
8
DEFAULT_255_1_234
10
5.5133065
20
58.7320433
11
5.5133065
21
57.557
0
LINE
8
DEFAULT_255_1_234
10
5.5133065
20
57.557
11
5.3639162
21
57.557
0
LINE
8
DEFAULT_255_1_234
10
5.3639162
20
57.557
11
5.3639162
21
58.5473133
0
LINE
8
DEFAULT_255_1_234
10
5.3639162
20
58.5473133
11
5.0643323
21
58.4372785
0
LINE
8
DEFAULT_255_1_234
10
5.0643323
20
58.4372785
11
5.0643323
21
58.5722117
0
LINE
8
DEFAULT_255_1_234
10
5.0643323
20
58.5722117
11
5.4900145
21
58.7320433
0
LINE
8
DEFAULT_255_1_234
10
5.4900145
20
58.7320433
11
5.5133065
21
58.7320433
0
LINE
8
DEFAULT_255_1_234
10
6.6819244
20
58.2485327
11
6.6819244
21
58.0557709
0
LINE
8
DEFAULT_255_1_234
10
5.9438077
20
58.0356916
11
5.9438077
21
58.2340755
0
LINE
8
DEFAULT_255_1_234
10
6.5333373
20
58.0156123
11
6.5333373
21
58.2589739
0
LINE
8
DEFAULT_255_1_234
10
6.0923948
20
58.2702184
11
6.0923948
21
58.0324789
0
ARC
8
DEFAULT_255_1_234
10
5.4572134
20
58.0508805
40
1.2247208
50
353.8441951
51
0.2287902
0
ARC
8
DEFAULT_255_1_234
10
5.9211637
20
57.9990806
40
0.7578929
50
344.4934747
51
353.9765454
0
ARC
8
DEFAULT_255_1_234
10
6.2204228
20
57.9139981
40
0.4467846
50
329.2803592
51
344.7472793
0
ARC
8
DEFAULT_255_1_234
10
6.3197052
20
57.8595018
40
0.3336173
50
324.9352394
51
328.6160465
0
ARC
8
DEFAULT_255_1_234
10
6.3574161
20
57.8331427
40
0.2876076
50
280.580143
51
324.9173126
0
ARC
8
DEFAULT_255_1_234
10
6.3172954
20
58.0002099
40
0.4592847
50
269.5977311
51
281.6734359
0
ARC
8
DEFAULT_255_1_234
10
6.3100859
20
57.9882173
40
0.4472986
50
256.6228859
51
270.51044
0
ARC
8
DEFAULT_255_1_234
10
6.2698837
20
57.8333877
40
0.2873874
50
215.8618325
51
257.2788573
0
ARC
8
DEFAULT_255_1_234
10
6.3719869
20
57.9018977
40
0.4102928
50
197.9693508
51
215.2623606
0
ARC
8
DEFAULT_255_1_234
10
6.6204984
20
57.9857709
40
0.6725652
50
187.8816417
51
198.2346507
0
ARC
8
DEFAULT_255_1_234
10
7.0163193
20
58.0429079
40
1.0724845
50
180.8976217
51
188.0055519
0
ARC
8
DEFAULT_255_1_234
10
7.2963381
20
58.0532777
40
1.3526448
50
180.7449369
51
181.1510016
0
ARC
8
DEFAULT_255_1_234
10
7.138611
20
58.2389042
40
1.1948131
50
173.7675579
51
180.231553
0
ARC
8
DEFAULT_255_1_234
10
6.6868256
20
58.2899666
40
0.7401564
50
164.3058563
51
173.9002247
0
ARC
8
DEFAULT_255_1_234
10
6.3956325
20
58.3738656
40
0.4371288
50
148.7922025
51
164.568378
0
ARC
8
DEFAULT_255_1_234
10
6.3004777
20
58.4269929
40
0.3282386
50
144.5883898
51
148.1176286
0
ARC
8
DEFAULT_255_1_234
10
6.2661675
20
58.4509315
40
0.2864044
50
101.6440918
51
144.514236
0
ARC
8
DEFAULT_255_1_234
10
6.3086742
20
58.2820069
40
0.4604934
50
89.5284041
51
102.5819763
0
ARC
8
DEFAULT_255_1_234
10
6.316583
20
58.2781018
40
0.464401
50
77.0437873
51
90.5081339
0
ARC
8
DEFAULT_255_1_234
10
6.3567832
20
58.4423615
40
0.2953195
50
48.2778575
51
77.4994676
0
ARC
8
DEFAULT_255_1_234
10
6.3640463
20
58.4552746
40
0.2808655
50
36.3142134
51
47.6305865
0
ARC
8
DEFAULT_255_1_234
10
6.277177
20
58.3967515
40
0.3855453
50
18.2931786
51
35.6769206
0
ARC
8
DEFAULT_255_1_234
10
6.0228529
20
58.3094593
40
0.654423
50
8.024666
51
18.5605216
0
ARC
8
DEFAULT_255_1_234
10
5.6065449
20
58.2479792
40
1.0752407
50
1.1274072
51
8.1718305
0
ARC
8
DEFAULT_255_1_234
10
5.2829639
20
58.2352885
40
1.3990231
50
0.5424119
51
1.3863029
0
ARC
8
DEFAULT_255_1_234
10
5.4651017
20
58.2625342
40
1.0682415
50
359.8090433
51
4.9407866
0
ARC
8
DEFAULT_255_1_234
10
5.8861031
20
58.3001113
40
0.6455691
50
4.8362157
51
12.2904523
0
ARC
8
DEFAULT_255_1_234
10
6.1616146
20
58.3614965
40
0.3633074
50
12.0805627
51
23.8173984
0
ARC
8
DEFAULT_255_1_234
10
6.2789851
20
58.4111919
40
0.2358723
50
24.2871213
51
31.3935614
0
ARC
8
DEFAULT_255_1_234
10
6.3314549
20
58.4455233
40
0.1732111
50
30.7407893
51
82.4657128
0
ARC
8
DEFAULT_255_1_234
10
6.3134683
20
58.3571691
40
0.263235
50
81.1060089
51
90.2184952
0
ARC
8
DEFAULT_255_1_234
10
6.3098982
20
58.3829924
40
0.2374236
50
89.3806855
51
105.6762551
0
ARC
8
DEFAULT_255_1_234
10
6.2915612
20
58.4496567
40
0.1682847
50
105.7981136
51
149.7388061
0
ARC
8
DEFAULT_255_1_234
10
6.3979691
20
58.385695
40
0.2924306
50
149.4208916
51
163.6286378
0
ARC
8
DEFAULT_255_1_234
10
6.6070579
20
58.321925
40
0.5110213
50
163.3763315
51
172.1410975
0
ARC
8
DEFAULT_255_1_234
10
6.9371298
20
58.2746518
40
0.8444586
50
172.0259487
51
178.0703232
0
ARC
8
DEFAULT_255_1_234
10
7.2401387
20
58.2602906
40
1.1477868
50
177.8631668
51
179.5044149
0
ARC
8
DEFAULT_255_1_234
10
7.1328792
20
58.0288389
40
1.0404907
50
179.7995573
51
185.2460446
0
ARC
8
DEFAULT_255_1_234
10
6.7285831
20
57.9905513
40
0.6343885
50
185.1411642
51
193.0079639
0
ARC
8
DEFAULT_255_1_234
10
6.4642303
20
57.9280641
40
0.3627568
50
192.7897626
51
205.2507664
0
ARC
8
DEFAULT_255_1_234
10
6.359585
20
57.8813415
40
0.2481908
50
205.8005384
51
211.2537509
0
ARC
8
DEFAULT_255_1_234
10
6.3072291
20
57.846258
40
0.1852521
50
210.3789793
51
238.4008143
0
ARC
8
DEFAULT_255_1_234
10
6.3052813
20
57.8509376
40
0.1882621
50
239.6520629
51
265.9793761
0
ARC
8
DEFAULT_255_1_234
10
6.3138013
20
57.9181427
40
0.2559272
50
265.1315437
51
270.060332
0
ARC
8
DEFAULT_255_1_234
10
6.3166792
20
57.8857534
40
0.2235528
50
269.3314664
51
287.2178029
0
ARC
8
DEFAULT_255_1_234
10
6.3304644
20
57.8354279
40
0.1714108
50
287.7958004
51
329.080874
0
ARC
8
DEFAULT_255_1_234
10
6.2347101
20
57.895193
40
0.2842745
50
328.6634704
51
343.3325132
0
ARC
8
DEFAULT_255_1_234
10
6.0174121
20
57.9628863
40
0.5118644
50
343.0499468
51
351.9393422
0
ARC
8
DEFAULT_255_1_234
10
5.6707421
20
58.0139949
40
0.8622784
50
351.8069023
51
357.7959224
0
ARC
8
DEFAULT_255_1_234
10
5.3471977
20
58.0307721
40
1.1862365
50
357.5871873
51
359.2677531
0
LINE
8
DEFAULT_255_1_234
10
5.0574293
20
62.8487
11
4.9457881
21
63.1539061
0
LINE
8
DEFAULT_255_1_234
10
4.9457881
20
63.1539061
11
4.4558521
21
63.1539061
0
LINE
8
DEFAULT_255_1_234
10
4.4558521
20
63.1539061
11
4.3458173
21
62.8487
0
LINE
8
DEFAULT_255_1_234
10
4.3458173
20
62.8487
11
4.1867889
21
62.8487
0
LINE
8
DEFAULT_255_1_234
10
4.1867889
20
62.8487
11
4.6333535
21
64.0181211
0
LINE
8
DEFAULT_255_1_234
10
4.6333535
20
64.0181211
11
4.7682867
21
64.0181211
0
LINE
8
DEFAULT_255_1_234
10
4.7682867
20
64.0181211
11
5.2156545
21
62.8487
0
LINE
8
DEFAULT_255_1_234
10
5.2156545
20
62.8487
11
5.0574293
21
62.8487
0
LINE
8
DEFAULT_255_1_234
10
4.7008201
20
63.8277689
11
4.5024362
21
63.2808075
0
LINE
8
DEFAULT_255_1_234
10
4.5024362
20
63.2808075
11
4.9000072
21
63.2808075
0
LINE
8
DEFAULT_255_1_234
10
4.9000072
20
63.2808075
11
4.7008201
21
63.8277689
0
LINE
8
DEFAULT_255_1_234
10
5.5385304
20
64.0181211
11
5.5385304
21
62.8487
0
LINE
8
DEFAULT_255_1_234
10
5.5385304
20
62.8487
11
5.384321
21
62.8487
0
LINE
8
DEFAULT_255_1_234
10
5.384321
20
62.8487
11
5.384321
21
64.0181211
0
LINE
8
DEFAULT_255_1_234
10
5.384321
20
64.0181211
11
5.5385304
21
64.0181211
0
LINE
8
DEFAULT_255_1_234
10
6.2702218
20
64.0237433
11
6.2702218
21
62.8487
0
LINE
8
DEFAULT_255_1_234
10
6.2702218
20
62.8487
11
6.1208314
21
62.8487
0
LINE
8
DEFAULT_255_1_234
10
6.1208314
20
62.8487
11
6.1208314
21
63.8390133
0
LINE
8
DEFAULT_255_1_234
10
6.1208314
20
63.8390133
11
5.8212476
21
63.7289785
0
LINE
8
DEFAULT_255_1_234
10
5.8212476
20
63.7289785
11
5.8212476
21
63.8639117
0
LINE
8
DEFAULT_255_1_234
10
5.8212476
20
63.8639117
11
6.2469297
21
64.0237433
0
LINE
8
DEFAULT_255_1_234
10
6.2469297
20
64.0237433
11
6.2702218
21
64.0237433
0
LINE
8
DEFAULT_255_1_234
10
7.4388397
20
63.5402327
11
7.4388397
21
63.3474709
0
LINE
8
DEFAULT_255_1_234
10
6.7007229
20
63.3273916
11
6.7007229
21
63.5257755
0
LINE
8
DEFAULT_255_1_234
10
7.2902525
20
63.3073123
11
7.2902525
21
63.5506739
0
LINE
8
DEFAULT_255_1_234
10
6.8493101
20
63.5619184
11
6.8493101
21
63.3241789
0
ARC
8
DEFAULT_255_1_234
10
6.2141287
20
63.3425805
40
1.2247208
50
353.8441951
51
0.2287902
0
ARC
8
DEFAULT_255_1_234
10
6.678079
20
63.2907806
40
0.7578929
50
344.4934747
51
353.9765454
0
ARC
8
DEFAULT_255_1_234
10
6.977338
20
63.2056981
40
0.4467846
50
329.2803592
51
344.7472793
0
ARC
8
DEFAULT_255_1_234
10
7.0766205
20
63.1512018
40
0.3336173
50
324.9352394
51
328.6160465
0
ARC
8
DEFAULT_255_1_234
10
7.1143314
20
63.1248427
40
0.2876076
50
280.580143
51
324.9173126
0
ARC
8
DEFAULT_255_1_234
10
7.0742107
20
63.2919099
40
0.4592847
50
269.5977311
51
281.6734359
0
ARC
8
DEFAULT_255_1_234
10
7.0670012
20
63.2799173
40
0.4472986
50
256.6228859
51
270.51044
0
ARC
8
DEFAULT_255_1_234
10
7.026799
20
63.1250877
40
0.2873874
50
215.8618325
51
257.2788573
0
ARC
8
DEFAULT_255_1_234
10
7.1289022
20
63.1935977
40
0.4102928
50
197.9693508
51
215.2623606
0
ARC
8
DEFAULT_255_1_234
10
7.3774137
20
63.2774709
40
0.6725652
50
187.8816417
51
198.2346507
0
ARC
8
DEFAULT_255_1_234
10
7.7732345
20
63.3346079
40
1.0724845
50
180.8976217
51
188.0055519
0
ARC
8
DEFAULT_255_1_234
10
8.0532534
20
63.3449777
40
1.3526448
50
180.7449369
51
181.1510016
0
ARC
8
DEFAULT_255_1_234
10
7.8955263
20
63.5306042
40
1.1948131
50
173.7675579
51
180.231553
0
ARC
8
DEFAULT_255_1_234
10
7.4437409
20
63.5816666
40
0.7401564
50
164.3058563
51
173.9002247
0
ARC
8
DEFAULT_255_1_234
10
7.1525478
20
63.6655656
40
0.4371288
50
148.7922025
51
164.568378
0
ARC
8
DEFAULT_255_1_234
10
7.057393
20
63.7186929
40
0.3282386
50
144.5883898
51
148.1176286
0
ARC
8
DEFAULT_255_1_234
10
7.0230828
20
63.7426315
40
0.2864044
50
101.6440918
51
144.514236
0
ARC
8
DEFAULT_255_1_234
10
7.0655895
20
63.5737069
40
0.4604934
50
89.5284041
51
102.5819763
0
ARC
8
DEFAULT_255_1_234
10
7.0734983
20
63.5698018
40
0.464401
50
77.0437873
51
90.5081339
0
ARC
8
DEFAULT_255_1_234
10
7.1136984
20
63.7340615
40
0.2953195
50
48.2778575
51
77.4994676
0
ARC
8
DEFAULT_255_1_234
10
7.1209616
20
63.7469746
40
0.2808655
50
36.3142134
51
47.6305865
0
ARC
8
DEFAULT_255_1_234
10
7.0340923
20
63.6884515
40
0.3855453
50
18.2931786
51
35.6769206
0
ARC
8
DEFAULT_255_1_234
10
6.7797682
20
63.6011593
40
0.654423
50
8.024666
51
18.5605216
0
ARC
8
DEFAULT_255_1_234
10
6.3634602
20
63.5396792
40
1.0752407
50
1.1274072
51
8.1718305
0
ARC
8
DEFAULT_255_1_234
10
6.0398792
20
63.5269885
40
1.3990231
50
0.5424119
51
1.3863029
0
ARC
8
DEFAULT_255_1_234
10
6.222017
20
63.5542342
40
1.0682415
50
359.8090433
51
4.9407866
0
ARC
8
DEFAULT_255_1_234
10
6.6430184
20
63.5918113
40
0.6455691
50
4.8362157
51
12.2904523
0
ARC
8
DEFAULT_255_1_234
10
6.9185299
20
63.6531965
40
0.3633074
50
12.0805627
51
23.8173984
0
ARC
8
DEFAULT_255_1_234
10
7.0359004
20
63.7028919
40
0.2358723
50
24.2871213
51
31.3935614
0
ARC
8
DEFAULT_255_1_234
10
7.0883701
20
63.7372233
40
0.1732111
50
30.7407893
51
82.4657128
0
ARC
8
DEFAULT_255_1_234
10
7.0703836
20
63.6488691
40
0.263235
50
81.1060089
51
90.2184952
0
ARC
8
DEFAULT_255_1_234
10
7.0668135
20
63.6746924
40
0.2374236
50
89.3806855
51
105.6762551
0
ARC
8
DEFAULT_255_1_234
10
7.0484765
20
63.7413567
40
0.1682847
50
105.7981136
51
149.7388061
0
ARC
8
DEFAULT_255_1_234
10
7.1548844
20
63.677395
40
0.2924306
50
149.4208916
51
163.6286378
0
ARC
8
DEFAULT_255_1_234
10
7.3639732
20
63.613625
40
0.5110213
50
163.3763315
51
172.1410975
0
ARC
8
DEFAULT_255_1_234
10
7.694045
20
63.5663518
40
0.8444586
50
172.0259487
51
178.0703232
0
ARC
8
DEFAULT_255_1_234
10
7.997054
20
63.5519906
40
1.1477868
50
177.8631668
51
179.5044149
0
ARC
8
DEFAULT_255_1_234
10
7.8897944
20
63.3205389
40
1.0404907
50
179.7995573
51
185.2460446
0
ARC
8
DEFAULT_255_1_234
10
7.4854984
20
63.2822513
40
0.6343885
50
185.1411642
51
193.0079639
0
ARC
8
DEFAULT_255_1_234
10
7.2211456
20
63.2197641
40
0.3627568
50
192.7897626
51
205.2507664
0
ARC
8
DEFAULT_255_1_234
10
7.1165003
20
63.1730415
40
0.2481908
50
205.8005384
51
211.2537509
0
ARC
8
DEFAULT_255_1_234
10
7.0641444
20
63.137958
40
0.1852521
50
210.3789793
51
238.4008143
0
ARC
8
DEFAULT_255_1_234
10
7.0621966
20
63.1426376
40
0.1882621
50
239.6520629
51
265.9793761
0
ARC
8
DEFAULT_255_1_234
10
7.0707166
20
63.2098427
40
0.2559272
50
265.1315437
51
270.060332
0
ARC
8
DEFAULT_255_1_234
10
7.0735945
20
63.1774534
40
0.2235528
50
269.3314664
51
287.2178029
0
ARC
8
DEFAULT_255_1_234
10
7.0873797
20
63.1271279
40
0.1714108
50
287.7958004
51
329.080874
0
ARC
8
DEFAULT_255_1_234
10
6.9916253
20
63.186893
40
0.2842745
50
328.6634704
51
343.3325132
0
ARC
8
DEFAULT_255_1_234
10
6.7743273
20
63.2545863
40
0.5118644
50
343.0499468
51
351.9393422
0
ARC
8
DEFAULT_255_1_234
10
6.4276573
20
63.3056949
40
0.8622784
50
351.8069023
51
357.7959224
0
ARC
8
DEFAULT_255_1_234
10
6.1041129
20
63.3224721
40
1.1862365
50
357.5871873
51
359.2677531
0
LINE
8
DEFAULT_255_1_234
10
4.742285
20
68.7828391
11
4.742285
21
68.6567408
0
LINE
8
DEFAULT_255_1_234
10
4.742285
20
68.6567408
11
4.2515458
21
68.6567408
0
LINE
8
DEFAULT_255_1_234
10
4.2515458
20
68.6567408
11
4.2515458
21
68.1403
0
LINE
8
DEFAULT_255_1_234
10
4.2515458
20
68.1403
11
4.0973364
21
68.1403
0
LINE
8
DEFAULT_255_1_234
10
4.0973364
20
68.1403
11
4.0973364
21
69.3097211
0
LINE
8
DEFAULT_255_1_234
10
4.0973364
20
69.3097211
11
4.8217992
21
69.3097211
0
LINE
8
DEFAULT_255_1_234
10
4.8217992
20
69.3097211
11
4.8217992
21
69.1828196
0
LINE
8
DEFAULT_255_1_234
10
4.8217992
20
69.1828196
11
4.2515458
21
69.1828196
0
LINE
8
DEFAULT_255_1_234
10
4.2515458
20
69.1828196
11
4.2515458
21
68.7828391
0
LINE
8
DEFAULT_255_1_234
10
4.2515458
20
68.7828391
11
4.742285
21
68.7828391
0
LINE
8
DEFAULT_255_1_234
10
5.6868174
20
68.8422739
11
5.6868174
21
68.7989025
0
LINE
8
DEFAULT_255_1_234
10
5.144675
20
68.1394968
11
5.1157608
21
68.1394968
0
LINE
8
DEFAULT_255_1_234
10
5.1157608
20
68.1394968
11
5.1157608
21
68.2647919
0
LINE
8
DEFAULT_255_1_234
10
5.1157608
20
68.2647919
11
5.1470846
21
68.2647919
0
LINE
8
DEFAULT_255_1_234
10
5.5382302
20
68.8133597
11
5.5382302
21
68.8727945
0
ARC
8
DEFAULT_255_1_234
10
5.2588572
20
68.8879403
40
0.3635579
50
297.4037347
51
320.016758
0
ARC
8
DEFAULT_255_1_234
10
5.2878521
20
68.832224
40
0.3007486
50
270.2633101
51
297.3851877
0
ARC
8
DEFAULT_255_1_234
10
5.2844476
20
68.8785904
40
0.3471448
50
269.9966443
51
270.7900392
0
ARC
8
DEFAULT_255_1_234
10
5.2818957
20
68.8784143
40
0.3469779
50
254.5999133
51
270.4180344
0
ARC
8
DEFAULT_255_1_234
10
5.2676317
20
68.8219647
40
0.2887697
50
236.4717942
51
254.3541279
0
ARC
8
DEFAULT_255_1_234
10
5.2832535
20
68.8429711
40
0.3149125
50
208.4727207
51
236.2134933
0
ARC
8
DEFAULT_255_1_234
10
5.347131
20
68.8820455
40
0.3897115
50
204.3447514
51
209.0453999
0
ARC
8
DEFAULT_255_1_234
10
5.4150885
20
68.9108656
40
0.4635101
50
183.9375985
51
204.1276318
0
ARC
8
DEFAULT_255_1_234
10
5.5059137
20
68.9206482
40
0.5548037
50
179.9652252
51
184.3013875
0
ARC
8
DEFAULT_255_1_234
10
5.4819183
20
68.9239507
40
0.5308164
50
166.7585989
51
180.3201225
0
ARC
8
DEFAULT_255_1_234
10
5.3972796
20
68.9423488
40
0.4442163
50
154.6955053
51
166.5679793
0
ARC
8
DEFAULT_255_1_234
10
5.3119667
20
68.985321
40
0.3487299
50
136.3324195
51
155.0871442
0
ARC
8
DEFAULT_255_1_234
10
5.2838739
20
69.0093954
40
0.3117924
50
121.236733
51
135.9680508
0
ARC
8
DEFAULT_255_1_234
10
5.2979237
20
68.9833743
40
0.3413302
50
96.845628
51
120.9881519
0
ARC
8
DEFAULT_255_1_234
10
5.3124819
20
68.8898515
40
0.4359341
50
89.8870174
51
97.2802754
0
ARC
8
DEFAULT_255_1_234
10
5.3177258
20
68.9536095
40
0.3722009
50
70.6505584
51
90.6749113
0
ARC
8
DEFAULT_255_1_234
10
5.3308537
20
69.0049361
40
0.3194571
50
36.7492984
51
69.8219918
0
ARC
8
DEFAULT_255_1_234
10
5.2309701
20
68.9270993
40
0.4460685
50
15.39587
51
37.0840084
0
ARC
8
DEFAULT_255_1_234
10
5.0180135
20
68.8650242
40
0.6678714
50
3.9488873
51
15.6798563
0
ARC
8
DEFAULT_255_1_234
10
4.7778763
20
68.8433964
40
0.9089418
50
359.929245
51
4.2665314
0
ARC
8
DEFAULT_255_1_234
10
4.31732
20
68.7922513
40
1.3695135
50
352.8366322
51
0.2782669
0
ARC
8
DEFAULT_255_1_234
10
4.8460879
20
68.7235629
40
0.8363105
50
341.8359505
51
352.9884176
0
ARC
8
DEFAULT_255_1_234
10
5.1679598
20
68.61507
40
0.4966642
50
322.8578092
51
342.1527901
0
ARC
8
DEFAULT_255_1_234
10
5.2543554
20
68.5561384
40
0.3922466
50
319.334325
51
322.0998941
0
ARC
8
DEFAULT_255_1_234
10
5.223389
20
68.5872209
40
0.4360033
50
285.9541367
51
318.8878087
0
ARC
8
DEFAULT_255_1_234
10
5.1507152
20
68.81826
40
0.678149
50
272.9281676
51
286.4922826
0
ARC
8
DEFAULT_255_1_234
10
5.131727
20
69.0433587
40
0.9039547
50
270.8207226
51
273.4012994
0
ARC
8
DEFAULT_255_1_234
10
5.1406121
20
68.8614666
40
0.5967098
50
270.6214993
51
281.4062806
0
ARC
8
DEFAULT_255_1_234
10
5.1836101
20
68.6558833
40
0.3866861
50
281.1852553
51
299.0621114
0
ARC
8
DEFAULT_255_1_234
10
5.2209673
20
68.5837798
40
0.3055236
50
299.5067782
51
313.1200873
0
ARC
8
DEFAULT_255_1_234
10
5.2231639
20
68.5758554
40
0.2982623
50
313.8526205
51
338.5989322
0
ARC
8
DEFAULT_255_1_234
10
5.0607714
20
68.6425781
40
0.4738131
50
338.2523585
51
351.2430902
0
ARC
8
DEFAULT_255_1_234
10
4.8197009
20
68.6835447
40
0.7183203
50
350.9409515
51
357.6691871
0
ARC
8
DEFAULT_255_1_234
10
5.308744
20
68.8837764
40
0.2294452
50
269.9447023
51
306.8248917
0
ARC
8
DEFAULT_255_1_234
10
5.2850354
20
68.9260898
40
0.2775994
50
305.5072438
51
327.0773448
0
ARC
8
DEFAULT_255_1_234
10
5.2968796
20
68.9166025
40
0.2625056
50
327.4104943
51
336.840169
0
ARC
8
DEFAULT_255_1_234
10
4.987486
20
68.8760302
40
0.5507537
50
359.6633817
51
10.117533
0
ARC
8
DEFAULT_255_1_234
10
5.1628658
20
68.9084777
40
0.372403
50
9.9430141
51
26.7700076
0
ARC
8
DEFAULT_255_1_234
10
5.2225871
20
68.9360187
40
0.3066865
50
27.2015464
51
34.6829435
0
ARC
8
DEFAULT_255_1_234
10
5.2715351
20
68.9727977
40
0.245519
50
34.1250343
51
50.3070065
0
ARC
8
DEFAULT_255_1_234
10
5.3162031
20
69.0262385
40
0.1758693
50
50.3851167
51
90.6705993
0
ARC
8
DEFAULT_255_1_234
10
5.3115264
20
68.9957799
40
0.2063326
50
89.272901
51
111.9140407
0
ARC
8
DEFAULT_255_1_234
10
5.3095791
20
69.009844
40
0.1925887
50
112.9382311
51
142.5320782
0
ARC
8
DEFAULT_255_1_234
10
5.3641972
20
68.9654969
40
0.2629232
50
142.1021256
51
166.3835592
0
ARC
8
DEFAULT_255_1_234
10
5.4823277
20
68.9349915
40
0.3849193
50
166.1100289
51
178.665427
0
ARC
8
DEFAULT_255_1_234
10
5.5870866
20
68.9291117
40
0.4897989
50
178.2632126
51
180.0111093
0
ARC
8
DEFAULT_255_1_234
10
5.5068986
20
68.9262728
40
0.40962
50
179.6161962
51
191.8787166
0
ARC
8
DEFAULT_255_1_234
10
5.3848825
20
68.8992896
40
0.2846655
50
191.6191692
51
215.2972286
0
ARC
8
DEFAULT_255_1_234
10
5.3652017
20
68.8877918
40
0.2619665
50
215.7320102
51
216.5355409
0
ARC
8
DEFAULT_255_1_234
10
5.3113103
20
68.8445647
40
0.1929497
50
215.7486685
51
239.9727502
0
ARC
8
DEFAULT_255_1_234
10
5.3043018
20
68.8394894
40
0.1850822
50
241.0650169
51
269.2810483
0
ARC
8
DEFAULT_255_1_234
10
5.3084933
20
68.8885371
40
0.2342059
50
268.4062526
51
270.0071348
0
LINE
8
DEFAULT_255_1_234
10
5.0004293
20
73.432
11
4.8887881
21
73.7372061
0
LINE
8
DEFAULT_255_1_234
10
4.8887881
20
73.7372061
11
4.3988521
21
73.7372061
0
LINE
8
DEFAULT_255_1_234
10
4.3988521
20
73.7372061
11
4.2888173
21
73.432
0
LINE
8
DEFAULT_255_1_234
10
4.2888173
20
73.432
11
4.1297889
21
73.432
0
LINE
8
DEFAULT_255_1_234
10
4.1297889
20
73.432
11
4.5763535
21
74.6014211
0
LINE
8
DEFAULT_255_1_234
10
4.5763535
20
74.6014211
11
4.7112867
21
74.6014211
0
LINE
8
DEFAULT_255_1_234
10
4.7112867
20
74.6014211
11
5.1586545
21
73.432
0
LINE
8
DEFAULT_255_1_234
10
5.1586545
20
73.432
11
5.0004293
21
73.432
0
LINE
8
DEFAULT_255_1_234
10
4.6438201
20
74.4110689
11
4.4454362
21
73.8641075
0
LINE
8
DEFAULT_255_1_234
10
4.4454362
20
73.8641075
11
4.8430072
21
73.8641075
0
LINE
8
DEFAULT_255_1_234
10
4.8430072
20
73.8641075
11
4.6438201
21
74.4110689
0
LINE
8
DEFAULT_255_1_234
10
5.4815304
20
74.6014211
11
5.4815304
21
73.432
0
LINE
8
DEFAULT_255_1_234
10
5.4815304
20
73.432
11
5.327321
21
73.432
0
LINE
8
DEFAULT_255_1_234
10
5.327321
20
73.432
11
5.327321
21
74.6014211
0
LINE
8
DEFAULT_255_1_234
10
5.327321
20
74.6014211
11
5.4815304
21
74.6014211
0
LINE
8
DEFAULT_255_1_234
10
6.4437327
20
74.1339739
11
6.4437327
21
74.0906025
0
LINE
8
DEFAULT_255_1_234
10
5.9015903
20
73.4311968
11
5.8726761
21
73.4311968
0
LINE
8
DEFAULT_255_1_234
10
5.8726761
20
73.4311968
11
5.8726761
21
73.5564919
0
LINE
8
DEFAULT_255_1_234
10
5.8726761
20
73.5564919
11
5.9039999
21
73.5564919
0
LINE
8
DEFAULT_255_1_234
10
6.2951455
20
74.1050597
11
6.2951455
21
74.1644945
0
ARC
8
DEFAULT_255_1_234
10
6.0157725
20
74.1796403
40
0.3635579
50
297.4037347
51
320.016758
0
ARC
8
DEFAULT_255_1_234
10
6.0447673
20
74.123924
40
0.3007486
50
270.2633101
51
297.3851877
0
ARC
8
DEFAULT_255_1_234
10
6.0413629
20
74.1702904
40
0.3471448
50
269.9966443
51
270.7900392
0
ARC
8
DEFAULT_255_1_234
10
6.038811
20
74.1701143
40
0.3469779
50
254.5999133
51
270.4180344
0
ARC
8
DEFAULT_255_1_234
10
6.024547
20
74.1136647
40
0.2887697
50
236.4717942
51
254.3541279
0
ARC
8
DEFAULT_255_1_234
10
6.0401687
20
74.1346711
40
0.3149125
50
208.4727207
51
236.2134933
0
ARC
8
DEFAULT_255_1_234
10
6.1040463
20
74.1737455
40
0.3897115
50
204.3447514
51
209.0453999
0
ARC
8
DEFAULT_255_1_234
10
6.1720038
20
74.2025656
40
0.4635101
50
183.9375985
51
204.1276318
0
ARC
8
DEFAULT_255_1_234
10
6.262829
20
74.2123482
40
0.5548037
50
179.9652252
51
184.3013875
0
ARC
8
DEFAULT_255_1_234
10
6.2388336
20
74.2156507
40
0.5308164
50
166.7585989
51
180.3201225
0
ARC
8
DEFAULT_255_1_234
10
6.1541949
20
74.2340488
40
0.4442163
50
154.6955053
51
166.5679793
0
ARC
8
DEFAULT_255_1_234
10
6.068882
20
74.277021
40
0.3487299
50
136.3324195
51
155.0871442
0
ARC
8
DEFAULT_255_1_234
10
6.0407892
20
74.3010954
40
0.3117924
50
121.236733
51
135.9680508
0
ARC
8
DEFAULT_255_1_234
10
6.054839
20
74.2750743
40
0.3413302
50
96.845628
51
120.9881519
0
ARC
8
DEFAULT_255_1_234
10
6.0693972
20
74.1815515
40
0.4359341
50
89.8870174
51
97.2802754
0
ARC
8
DEFAULT_255_1_234
10
6.074641
20
74.2453095
40
0.3722009
50
70.6505584
51
90.6749113
0
ARC
8
DEFAULT_255_1_234
10
6.087769
20
74.2966361
40
0.3194571
50
36.7492984
51
69.8219918
0
ARC
8
DEFAULT_255_1_234
10
5.9878854
20
74.2187993
40
0.4460685
50
15.39587
51
37.0840084
0
ARC
8
DEFAULT_255_1_234
10
5.7749288
20
74.1567242
40
0.6678714
50
3.9488873
51
15.6798563
0
ARC
8
DEFAULT_255_1_234
10
5.5347916
20
74.1350964
40
0.9089418
50
359.929245
51
4.2665314
0
ARC
8
DEFAULT_255_1_234
10
5.0742353
20
74.0839513
40
1.3695135
50
352.8366322
51
0.2782669
0
ARC
8
DEFAULT_255_1_234
10
5.6030031
20
74.0152629
40
0.8363105
50
341.8359505
51
352.9884176
0
ARC
8
DEFAULT_255_1_234
10
5.924875
20
73.90677
40
0.4966642
50
322.8578092
51
342.1527901
0
ARC
8
DEFAULT_255_1_234
10
6.0112706
20
73.8478384
40
0.3922466
50
319.334325
51
322.0998941
0
ARC
8
DEFAULT_255_1_234
10
5.9803043
20
73.8789209
40
0.4360033
50
285.9541367
51
318.8878087
0
ARC
8
DEFAULT_255_1_234
10
5.9076305
20
74.10996
40
0.678149
50
272.9281676
51
286.4922826
0
ARC
8
DEFAULT_255_1_234
10
5.8886422
20
74.3350587
40
0.9039547
50
270.8207226
51
273.4012994
0
ARC
8
DEFAULT_255_1_234
10
5.8975273
20
74.1531666
40
0.5967098
50
270.6214993
51
281.4062806
0
ARC
8
DEFAULT_255_1_234
10
5.9405254
20
73.9475833
40
0.3866861
50
281.1852553
51
299.0621114
0
ARC
8
DEFAULT_255_1_234
10
5.9778826
20
73.8754798
40
0.3055236
50
299.5067782
51
313.1200873
0
ARC
8
DEFAULT_255_1_234
10
5.9800792
20
73.8675554
40
0.2982623
50
313.8526205
51
338.5989322
0
ARC
8
DEFAULT_255_1_234
10
5.8176866
20
73.9342781
40
0.4738131
50
338.2523585
51
351.2430902
0
ARC
8
DEFAULT_255_1_234
10
5.5766162
20
73.9752447
40
0.7183203
50
350.9409515
51
357.6691871
0
ARC
8
DEFAULT_255_1_234
10
6.0656592
20
74.1754764
40
0.2294452
50
269.9447023
51
306.8248917
0
ARC
8
DEFAULT_255_1_234
10
6.0419507
20
74.2177898
40
0.2775994
50
305.5072438
51
327.0773448
0
ARC
8
DEFAULT_255_1_234
10
6.0537948
20
74.2083025
40
0.2625056
50
327.4104943
51
336.840169
0
ARC
8
DEFAULT_255_1_234
10
5.7444013
20
74.1677302
40
0.5507537
50
359.6633817
51
10.117533
0
ARC
8
DEFAULT_255_1_234
10
5.9197811
20
74.2001777
40
0.372403
50
9.9430141
51
26.7700076
0
ARC
8
DEFAULT_255_1_234
10
5.9795024
20
74.2277187
40
0.3066865
50
27.2015464
51
34.6829435
0
ARC
8
DEFAULT_255_1_234
10
6.0284504
20
74.2644977
40
0.245519
50
34.1250343
51
50.3070065
0
ARC
8
DEFAULT_255_1_234
10
6.0731184
20
74.3179385
40
0.1758693
50
50.3851167
51
90.6705993
0
ARC
8
DEFAULT_255_1_234
10
6.0684417
20
74.2874799
40
0.2063326
50
89.272901
51
111.9140407
0
ARC
8
DEFAULT_255_1_234
10
6.0664944
20
74.301544
40
0.1925887
50
112.9382311
51
142.5320782
0
ARC
8
DEFAULT_255_1_234
10
6.1211124
20
74.2571969
40
0.2629232
50
142.1021256
51
166.3835592
0
ARC
8
DEFAULT_255_1_234
10
6.239243
20
74.2266915
40
0.3849193
50
166.1100289
51
178.665427
0
ARC
8
DEFAULT_255_1_234
10
6.3440019
20
74.2208117
40
0.4897989
50
178.2632126
51
180.0111093
0
ARC
8
DEFAULT_255_1_234
10
6.2638139
20
74.2179728
40
0.40962
50
179.6161962
51
191.8787166
0
ARC
8
DEFAULT_255_1_234
10
6.1417978
20
74.1909896
40
0.2846655
50
191.6191692
51
215.2972286
0
ARC
8
DEFAULT_255_1_234
10
6.1221169
20
74.1794918
40
0.2619665
50
215.7320102
51
216.5355409
0
ARC
8
DEFAULT_255_1_234
10
6.0682256
20
74.1362647
40
0.1929497
50
215.7486685
51
239.9727502
0
ARC
8
DEFAULT_255_1_234
10
6.0612171
20
74.1311894
40
0.1850822
50
241.0650169
51
269.2810483
0
ARC
8
DEFAULT_255_1_234
10
6.0654086
20
74.1802371
40
0.2342059
50
268.4062526
51
270.0071348
0
LINE
8
DEFAULT_255_1_234
10
4.742285
20
79.3662391
11
4.742285
21
79.2401408
0
LINE
8
DEFAULT_255_1_234
10
4.742285
20
79.2401408
11
4.2515458
21
79.2401408
0
LINE
8
DEFAULT_255_1_234
10
4.2515458
20
79.2401408
11
4.2515458
21
78.7237
0
LINE
8
DEFAULT_255_1_234
10
4.2515458
20
78.7237
11
4.0973364
21
78.7237
0
LINE
8
DEFAULT_255_1_234
10
4.0973364
20
78.7237
11
4.0973364
21
79.8931211
0
LINE
8
DEFAULT_255_1_234
10
4.0973364
20
79.8931211
11
4.8217992
21
79.8931211
0
LINE
8
DEFAULT_255_1_234
10
4.8217992
20
79.8931211
11
4.8217992
21
79.7662196
0
LINE
8
DEFAULT_255_1_234
10
4.8217992
20
79.7662196
11
4.2515458
21
79.7662196
0
LINE
8
DEFAULT_255_1_234
10
4.2515458
20
79.7662196
11
4.2515458
21
79.3662391
0
LINE
8
DEFAULT_255_1_234
10
4.2515458
20
79.3662391
11
4.742285
21
79.3662391
0
ARC
8
DEFAULT_255_1_234
10
5.3949551
20
79.5853703
40
0.2822356
50
338.8763615
51
0.5166041
0
ARC
8
DEFAULT_255_1_234
10
5.4118206
20
79.5808208
40
0.2648703
50
325.8412414
51
338.4795939
0
ARC
8
DEFAULT_255_1_234
10
5.3727574
20
79.6079042
40
0.3124019
50
296.7586019
51
325.753654
0
ARC
8
DEFAULT_255_1_234
10
5.3439682
20
79.6563789
40
0.368668
50
296.0902311
51
297.3618122
0
ARC
8
DEFAULT_255_1_234
10
5.369714
20
79.0009041
40
0.3518806
50
47.9009248
51
67.1946869
0
ARC
8
DEFAULT_255_1_234
10
5.3893382
20
79.0255395
40
0.320451
50
35.236241
51
47.551371
0
ARC
8
DEFAULT_255_1_234
10
5.4155
20
79.0429993
40
0.2890103
50
359.2759738
51
35.4014081
0
ARC
8
DEFAULT_255_1_234
10
5.3410031
20
79.0356826
40
0.3635026
50
343.1294516
51
0.5776525
0
ARC
8
DEFAULT_255_1_234
10
5.4134575
20
79.015733
40
0.2883832
50
310.8497458
51
342.744803
0
ARC
8
DEFAULT_255_1_234
10
5.3716689
20
79.0634294
40
0.3517954
50
281.5473923
51
310.9169905
0
ARC
8
DEFAULT_255_1_234
10
5.3360138
20
79.2187084
40
0.5110832
50
269.6192722
51
281.9789957
0
ARC
8
DEFAULT_255_1_234
10
5.3287927
20
79.2187828
40
0.5111606
50
257.4584469
51
270.4287458
0
ARC
8
DEFAULT_255_1_234
10
5.290707
20
79.0584344
40
0.3463762
50
228.7553743
51
257.8484423
0
ARC
8
DEFAULT_255_1_234
10
5.2597269
20
79.0211442
40
0.297916
50
184.0104442
51
228.5071787
0
ARC
8
DEFAULT_255_1_234
10
5.3760213
20
79.0388512
40
0.4152734
50
179.9315461
51
185.3254504
0
ARC
8
DEFAULT_255_1_234
10
5.2583858
20
79.0425992
40
0.2976554
50
145.6795913
51
180.6259649
0
ARC
8
DEFAULT_255_1_234
10
5.2747208
20
79.0311929
40
0.3175776
50
115.5537925
51
145.6416199
0
ARC
8
DEFAULT_255_1_234
10
5.3088138
20
78.9701028
40
0.3874232
50
113.2437915
51
116.2054627
0
ARC
8
DEFAULT_255_1_234
10
5.293535
20
79.609958
40
0.3154751
50
222.9548379
51
244.1372485
0
ARC
8
DEFAULT_255_1_234
10
5.2813426
20
79.5962834
40
0.2972382
50
213.3439227
51
222.6271327
0
ARC
8
DEFAULT_255_1_234
10
5.262136
20
79.5832308
40
0.274019
50
180.4316517
51
213.2713999
0
ARC
8
DEFAULT_255_1_234
10
5.3196362
20
79.587911
40
0.33158
50
179.9992944
51
181.1655061
0
ARC
8
DEFAULT_255_1_234
10
5.3605779
20
79.5913561
40
0.3725376
50
164.6186108
51
180.5292368
0
ARC
8
DEFAULT_255_1_234
10
5.2707642
20
79.6155101
40
0.2795349
50
132.2454369
51
164.5092287
0
ARC
8
DEFAULT_255_1_234
10
5.2994746
20
79.5830028
40
0.3229019
50
100.7052766
51
132.1387266
0
ARC
8
DEFAULT_255_1_234
10
5.3299718
20
79.4452086
40
0.4639835
50
89.6732617
51
101.2449487
0
ARC
8
DEFAULT_255_1_234
10
5.3361916
20
79.462699
40
0.4464999
50
76.2876631
51
90.4586123
0
ARC
8
DEFAULT_255_1_234
10
5.3668148
20
79.584922
40
0.3205023
50
47.8240157
51
76.4266918
0
ARC
8
DEFAULT_255_1_234
10
5.3890697
20
79.610959
40
0.2862661
50
6.9168658
51
47.6261438
0
ARC
8
DEFAULT_255_1_234
10
5.27041
20
79.589037
40
0.4067708
50
359.8419705
51
7.9694496
0
ARC
8
DEFAULT_255_1_234
10
5.3045997
20
79.0449925
40
0.2513121
50
359.4454068
51
16.9256425
0
ARC
8
DEFAULT_255_1_234
10
5.3514808
20
79.0579033
40
0.2027071
50
17.292259
51
45.462717
0
ARC
8
DEFAULT_255_1_234
10
5.3460745
20
79.0532434
40
0.2098212
50
45.3028762
51
83.1921472
0
ARC
8
DEFAULT_255_1_234
10
5.3317429
20
78.9730895
40
0.2911472
50
82.2614531
51
90.143954
0
ARC
8
DEFAULT_255_1_234
10
5.3286549
20
78.996395
40
0.2678513
50
89.4959189
51
104.8579811
0
ARC
8
DEFAULT_255_1_234
10
5.3109808
20
79.063389
40
0.1985654
50
104.8855873
51
135.2448349
0
ARC
8
DEFAULT_255_1_234
10
5.315958
20
79.0589336
40
0.2052373
50
135.3398955
51
172.104394
0
ARC
8
DEFAULT_255_1_234
10
5.3966638
20
79.0434925
40
0.2873299
50
171.2651929
51
180.1859362
0
ARC
8
DEFAULT_255_1_234
10
5.379734
20
79.0402733
40
0.2704083
50
179.515471
51
193.6466734
0
ARC
8
DEFAULT_255_1_234
10
5.2981109
20
79.0194777
40
0.1861855
50
193.3540587
51
225.8256931
0
ARC
8
DEFAULT_255_1_234
10
5.3021866
20
79.0265524
40
0.1941102
50
226.418029
51
255.8553723
0
ARC
8
DEFAULT_255_1_234
10
5.3278299
20
79.1201998
40
0.2911917
50
255.4655572
51
268.7985967
0
ARC
8
DEFAULT_255_1_234
10
5.3325491
20
79.2040491
40
0.3751331
50
268.3464808
51
270.0104874
0
ARC
8
DEFAULT_255_1_234
10
5.3348879
20
79.1356138
40
0.3067064
50
269.575914
51
282.0823146
0
ARC
8
DEFAULT_255_1_234
10
5.3573788
20
79.0361803
40
0.2047712
50
281.7522535
51
306.6056425
0
ARC
8
DEFAULT_255_1_234
10
5.3672214
20
79.0200487
40
0.1859604
50
307.1350025
51
314.0277951
0
ARC
8
DEFAULT_255_1_234
10
5.3636298
20
79.0226766
40
0.1903475
50
314.2553419
51
350.169324
0
ARC
8
DEFAULT_255_1_234
10
5.2784766
20
79.0411409
40
0.2774269
50
349.4145679
51
0.2930737
0
ARC
8
DEFAULT_255_1_234
10
5.33052
20
79.5570353
40
0.2300764
50
89.477591
51
105.729794
0
ARC
8
DEFAULT_255_1_234
10
5.3169113
20
79.6075637
40
0.1777519
50
105.922966
51
135.1662921
0
ARC
8
DEFAULT_255_1_234
10
5.3189616
20
79.6061419
40
0.1802087
50
135.3053131
51
168.9882338
0
ARC
8
DEFAULT_255_1_234
10
5.4017188
20
79.5871721
40
0.2650806
50
168.3802067
51
180.3602358
0
ARC
8
DEFAULT_255_1_234
10
5.3788767
20
79.5834041
40
0.2422425
50
179.5029707
51
194.9126783
0
ARC
8
DEFAULT_255_1_234
10
5.3203428
20
79.568011
40
0.1817188
50
194.9722181
51
224.1943972
0
ARC
8
DEFAULT_255_1_234
10
5.3175296
20
79.5657169
40
0.1781027
50
224.2961434
51
262.0157375
0
ARC
8
DEFAULT_255_1_234
10
5.3317539
20
79.6388661
40
0.2525492
50
261.1250369
51
270.1959853
0
ARC
8
DEFAULT_255_1_234
10
5.3347294
20
79.6201339
40
0.233825
50
269.4825617
51
285.0988277
0
ARC
8
DEFAULT_255_1_234
10
5.3501453
20
79.562299
40
0.1739712
50
285.1585659
51
315.9484648
0
ARC
8
DEFAULT_255_1_234
10
5.3412465
20
79.5704886
40
0.1860616
50
316.0412958
51
351.9162715
0
ARC
8
DEFAULT_255_1_234
10
5.2679419
20
79.5846245
40
0.2606517
50
351.1056823
51
0.1936567
0
ARC
8
DEFAULT_255_1_234
10
5.2942248
20
79.5876369
40
0.234377
50
359.4789506
51
16.0679113
0
ARC
8
DEFAULT_255_1_234
10
5.3418207
20
79.600481
40
0.1850875
50
16.3251951
51
44.791304
0
ARC
8
DEFAULT_255_1_234
10
5.3400489
20
79.6005339
40
0.186312
50
44.3958661
51
88.2498933
0
ARC
8
DEFAULT_255_1_234
10
5.3327042
20
79.5394154
40
0.2476868
50
86.9833827
51
90.0200148
0
LINE
8
DEFAULT_255_1_234
10
5.0004293
20
84.0153
11
4.8887881
21
84.3205061
0
LINE
8
DEFAULT_255_1_234
10
4.8887881
20
84.3205061
11
4.3988521
21
84.3205061
0
LINE
8
DEFAULT_255_1_234
10
4.3988521
20
84.3205061
11
4.2888173
21
84.0153
0
LINE
8
DEFAULT_255_1_234
10
4.2888173
20
84.0153
11
4.1297889
21
84.0153
0
LINE
8
DEFAULT_255_1_234
10
4.1297889
20
84.0153
11
4.5763535
21
85.1847211
0
LINE
8
DEFAULT_255_1_234
10
4.5763535
20
85.1847211
11
4.7112867
21
85.1847211
0
LINE
8
DEFAULT_255_1_234
10
4.7112867
20
85.1847211
11
5.1586545
21
84.0153
0
LINE
8
DEFAULT_255_1_234
10
5.1586545
20
84.0153
11
5.0004293
21
84.0153
0
LINE
8
DEFAULT_255_1_234
10
4.6438201
20
84.9943689
11
4.4454362
21
84.4474075
0
LINE
8
DEFAULT_255_1_234
10
4.4454362
20
84.4474075
11
4.8430072
21
84.4474075
0
LINE
8
DEFAULT_255_1_234
10
4.8430072
20
84.4474075
11
4.6438201
21
84.9943689
0
LINE
8
DEFAULT_255_1_234
10
5.4815304
20
85.1847211
11
5.4815304
21
84.0153
0
LINE
8
DEFAULT_255_1_234
10
5.4815304
20
84.0153
11
5.327321
21
84.0153
0
LINE
8
DEFAULT_255_1_234
10
5.327321
20
84.0153
11
5.327321
21
85.1847211
0
LINE
8
DEFAULT_255_1_234
10
5.327321
20
85.1847211
11
5.4815304
21
85.1847211
0
ARC
8
DEFAULT_255_1_234
10
6.1518704
20
84.8769703
40
0.2822356
50
338.8763615
51
0.5166041
0
ARC
8
DEFAULT_255_1_234
10
6.1687359
20
84.8724208
40
0.2648703
50
325.8412414
51
338.4795939
0
ARC
8
DEFAULT_255_1_234
10
6.1296726
20
84.8995042
40
0.3124019
50
296.7586019
51
325.753654
0
ARC
8
DEFAULT_255_1_234
10
6.1008835
20
84.9479789
40
0.368668
50
296.0902311
51
297.3618122
0
ARC
8
DEFAULT_255_1_234
10
6.1266293
20
84.2925041
40
0.3518806
50
47.9009248
51
67.1946869
0
ARC
8
DEFAULT_255_1_234
10
6.1462535
20
84.3171395
40
0.320451
50
35.236241
51
47.551371
0
ARC
8
DEFAULT_255_1_234
10
6.1724152
20
84.3345993
40
0.2890103
50
359.2759738
51
35.4014081
0
ARC
8
DEFAULT_255_1_234
10
6.0979184
20
84.3272826
40
0.3635026
50
343.1294516
51
0.5776525
0
ARC
8
DEFAULT_255_1_234
10
6.1703728
20
84.307333
40
0.2883832
50
310.8497458
51
342.744803
0
ARC
8
DEFAULT_255_1_234
10
6.1285842
20
84.3550294
40
0.3517954
50
281.5473923
51
310.9169905
0
ARC
8
DEFAULT_255_1_234
10
6.0929291
20
84.5103084
40
0.5110832
50
269.6192722
51
281.9789957
0
ARC
8
DEFAULT_255_1_234
10
6.085708
20
84.5103828
40
0.5111606
50
257.4584469
51
270.4287458
0
ARC
8
DEFAULT_255_1_234
10
6.0476223
20
84.3500344
40
0.3463762
50
228.7553743
51
257.8484423
0
ARC
8
DEFAULT_255_1_234
10
6.0166422
20
84.3127442
40
0.297916
50
184.0104442
51
228.5071787
0
ARC
8
DEFAULT_255_1_234
10
6.1329366
20
84.3304512
40
0.4152734
50
179.9315461
51
185.3254504
0
ARC
8
DEFAULT_255_1_234
10
6.0153011
20
84.3341992
40
0.2976554
50
145.6795913
51
180.6259649
0
ARC
8
DEFAULT_255_1_234
10
6.0316361
20
84.3227929
40
0.3175776
50
115.5537925
51
145.6416199
0
ARC
8
DEFAULT_255_1_234
10
6.0657291
20
84.2617028
40
0.3874232
50
113.2437915
51
116.2054627
0
ARC
8
DEFAULT_255_1_234
10
6.0504503
20
84.901558
40
0.3154751
50
222.9548379
51
244.1372485
0
ARC
8
DEFAULT_255_1_234
10
6.0382579
20
84.8878834
40
0.2972382
50
213.3439227
51
222.6271327
0
ARC
8
DEFAULT_255_1_234
10
6.0190513
20
84.8748308
40
0.274019
50
180.4316517
51
213.2713999
0
ARC
8
DEFAULT_255_1_234
10
6.0765515
20
84.879511
40
0.33158
50
179.9992944
51
181.1655061
0
ARC
8
DEFAULT_255_1_234
10
6.1174932
20
84.8829561
40
0.3725376
50
164.6186108
51
180.5292368
0
ARC
8
DEFAULT_255_1_234
10
6.0276794
20
84.9071101
40
0.2795349
50
132.2454369
51
164.5092287
0
ARC
8
DEFAULT_255_1_234
10
6.0563898
20
84.8746028
40
0.3229019
50
100.7052766
51
132.1387266
0
ARC
8
DEFAULT_255_1_234
10
6.0868871
20
84.7368086
40
0.4639835
50
89.6732617
51
101.2449487
0
ARC
8
DEFAULT_255_1_234
10
6.0931069
20
84.754299
40
0.4464999
50
76.2876631
51
90.4586123
0
ARC
8
DEFAULT_255_1_234
10
6.1237301
20
84.876522
40
0.3205023
50
47.8240157
51
76.4266918
0
ARC
8
DEFAULT_255_1_234
10
6.145985
20
84.902559
40
0.2862661
50
6.9168658
51
47.6261438
0
ARC
8
DEFAULT_255_1_234
10
6.0273253
20
84.880637
40
0.4067708
50
359.8419705
51
7.9694496
0
ARC
8
DEFAULT_255_1_234
10
6.061515
20
84.3365925
40
0.2513121
50
359.4454068
51
16.9256425
0
ARC
8
DEFAULT_255_1_234
10
6.1083961
20
84.3495033
40
0.2027071
50
17.292259
51
45.462717
0
ARC
8
DEFAULT_255_1_234
10
6.1029897
20
84.3448434
40
0.2098212
50
45.3028762
51
83.1921472
0
ARC
8
DEFAULT_255_1_234
10
6.0886582
20
84.2646895
40
0.2911472
50
82.2614531
51
90.143954
0
ARC
8
DEFAULT_255_1_234
10
6.0855702
20
84.287995
40
0.2678513
50
89.4959189
51
104.8579811
0
ARC
8
DEFAULT_255_1_234
10
6.067896
20
84.354989
40
0.1985654
50
104.8855873
51
135.2448349
0
ARC
8
DEFAULT_255_1_234
10
6.0728733
20
84.3505336
40
0.2052373
50
135.3398955
51
172.104394
0
ARC
8
DEFAULT_255_1_234
10
6.1535791
20
84.3350925
40
0.2873299
50
171.2651929
51
180.1859362
0
ARC
8
DEFAULT_255_1_234
10
6.1366493
20
84.3318733
40
0.2704083
50
179.515471
51
193.6466734
0
ARC
8
DEFAULT_255_1_234
10
6.0550262
20
84.3110777
40
0.1861855
50
193.3540587
51
225.8256931
0
ARC
8
DEFAULT_255_1_234
10
6.0591019
20
84.3181524
40
0.1941102
50
226.418029
51
255.8553723
0
ARC
8
DEFAULT_255_1_234
10
6.0847451
20
84.4117998
40
0.2911917
50
255.4655572
51
268.7985967
0
ARC
8
DEFAULT_255_1_234
10
6.0894643
20
84.4956491
40
0.3751331
50
268.3464808
51
270.0104874
0
ARC
8
DEFAULT_255_1_234
10
6.0918031
20
84.4272138
40
0.3067064
50
269.575914
51
282.0823146
0
ARC
8
DEFAULT_255_1_234
10
6.1142941
20
84.3277803
40
0.2047712
50
281.7522535
51
306.6056425
0
ARC
8
DEFAULT_255_1_234
10
6.1241367
20
84.3116487
40
0.1859604
50
307.1350025
51
314.0277951
0
ARC
8
DEFAULT_255_1_234
10
6.1205451
20
84.3142766
40
0.1903475
50
314.2553419
51
350.169324
0
ARC
8
DEFAULT_255_1_234
10
6.0353919
20
84.3327409
40
0.2774269
50
349.4145679
51
0.2930737
0
ARC
8
DEFAULT_255_1_234
10
6.0874353
20
84.8486353
40
0.2300764
50
89.477591
51
105.729794
0
ARC
8
DEFAULT_255_1_234
10
6.0738266
20
84.8991637
40
0.1777519
50
105.922966
51
135.1662921
0
ARC
8
DEFAULT_255_1_234
10
6.0758768
20
84.8977419
40
0.1802087
50
135.3053131
51
168.9882338
0
ARC
8
DEFAULT_255_1_234
10
6.1586341
20
84.8787721
40
0.2650806
50
168.3802067
51
180.3602358
0
ARC
8
DEFAULT_255_1_234
10
6.135792
20
84.8750041
40
0.2422425
50
179.5029707
51
194.9126783
0
ARC
8
DEFAULT_255_1_234
10
6.0772581
20
84.859611
40
0.1817188
50
194.9722181
51
224.1943972
0
ARC
8
DEFAULT_255_1_234
10
6.0744449
20
84.8573169
40
0.1781027
50
224.2961434
51
262.0157375
0
ARC
8
DEFAULT_255_1_234
10
6.0886691
20
84.9304661
40
0.2525492
50
261.1250369
51
270.1959853
0
ARC
8
DEFAULT_255_1_234
10
6.0916447
20
84.9117339
40
0.233825
50
269.4825617
51
285.0988277
0
ARC
8
DEFAULT_255_1_234
10
6.1070606
20
84.853899
40
0.1739712
50
285.1585659
51
315.9484648
0
ARC
8
DEFAULT_255_1_234
10
6.0981617
20
84.8620886
40
0.1860616
50
316.0412958
51
351.9162715
0
ARC
8
DEFAULT_255_1_234
10
6.0248572
20
84.8762245
40
0.2606517
50
351.1056823
51
0.1936567
0
ARC
8
DEFAULT_255_1_234
10
6.0511401
20
84.8792369
40
0.234377
50
359.4789506
51
16.0679113
0
ARC
8
DEFAULT_255_1_234
10
6.098736
20
84.892081
40
0.1850875
50
16.3251951
51
44.791304
0
ARC
8
DEFAULT_255_1_234
10
6.0969642
20
84.8921339
40
0.186312
50
44.3958661
51
88.2498933
0
ARC
8
DEFAULT_255_1_234
10
6.0896195
20
84.8310154
40
0.2476868
50
86.9833827
51
90.0200148
0
LINE
8
DEFAULT_255_1_234
10
4.742285
20
89.9495391
11
4.742285
21
89.8234408
0
LINE
8
DEFAULT_255_1_234
10
4.742285
20
89.8234408
11
4.2515458
21
89.8234408
0
LINE
8
DEFAULT_255_1_234
10
4.2515458
20
89.8234408
11
4.2515458
21
89.307
0
LINE
8
DEFAULT_255_1_234
10
4.2515458
20
89.307
11
4.0973364
21
89.307
0
LINE
8
DEFAULT_255_1_234
10
4.0973364
20
89.307
11
4.0973364
21
90.4764211
0
LINE
8
DEFAULT_255_1_234
10
4.0973364
20
90.4764211
11
4.8217992
21
90.4764211
0
LINE
8
DEFAULT_255_1_234
10
4.8217992
20
90.4764211
11
4.8217992
21
90.3495196
0
LINE
8
DEFAULT_255_1_234
10
4.8217992
20
90.3495196
11
4.2515458
21
90.3495196
0
LINE
8
DEFAULT_255_1_234
10
4.2515458
20
90.3495196
11
4.2515458
21
89.9495391
0
LINE
8
DEFAULT_255_1_234
10
4.2515458
20
89.9495391
11
4.742285
21
89.9495391
0
LINE
8
DEFAULT_255_1_234
10
5.7229602
20
90.4764211
11
5.7229602
21
90.392891
0
LINE
8
DEFAULT_255_1_234
10
5.7229602
20
90.392891
11
5.2386464
21
89.307
0
LINE
8
DEFAULT_255_1_234
10
5.2386464
20
89.307
11
5.0828307
21
89.307
0
LINE
8
DEFAULT_255_1_234
10
5.0828307
20
89.307
11
5.5655381
21
90.3543387
0
LINE
8
DEFAULT_255_1_234
10
5.5655381
20
90.3543387
11
4.9326372
21
90.3543387
0
LINE
8
DEFAULT_255_1_234
10
4.9326372
20
90.3543387
11
4.9326372
21
90.4764211
0
LINE
8
DEFAULT_255_1_234
10
4.9326372
20
90.4764211
11
5.7229602
21
90.4764211
0
LINE
8
DEFAULT_255_1_234
10
5.0004293
20
94.5987
11
4.8887881
21
94.9039061
0
LINE
8
DEFAULT_255_1_234
10
4.8887881
20
94.9039061
11
4.3988521
21
94.9039061
0
LINE
8
DEFAULT_255_1_234
10
4.3988521
20
94.9039061
11
4.2888173
21
94.5987
0
LINE
8
DEFAULT_255_1_234
10
4.2888173
20
94.5987
11
4.1297889
21
94.5987
0
LINE
8
DEFAULT_255_1_234
10
4.1297889
20
94.5987
11
4.5763535
21
95.7681211
0
LINE
8
DEFAULT_255_1_234
10
4.5763535
20
95.7681211
11
4.7112867
21
95.7681211
0
LINE
8
DEFAULT_255_1_234
10
4.7112867
20
95.7681211
11
5.1586545
21
94.5987
0
LINE
8
DEFAULT_255_1_234
10
5.1586545
20
94.5987
11
5.0004293
21
94.5987
0
LINE
8
DEFAULT_255_1_234
10
4.6438201
20
95.5777689
11
4.4454362
21
95.0308075
0
LINE
8
DEFAULT_255_1_234
10
4.4454362
20
95.0308075
11
4.8430072
21
95.0308075
0
LINE
8
DEFAULT_255_1_234
10
4.8430072
20
95.0308075
11
4.6438201
21
95.5777689
0
LINE
8
DEFAULT_255_1_234
10
5.4815304
20
95.7681211
11
5.4815304
21
94.5987
0
LINE
8
DEFAULT_255_1_234
10
5.4815304
20
94.5987
11
5.327321
21
94.5987
0
LINE
8
DEFAULT_255_1_234
10
5.327321
20
94.5987
11
5.327321
21
95.7681211
0
LINE
8
DEFAULT_255_1_234
10
5.327321
20
95.7681211
11
5.4815304
21
95.7681211
0
LINE
8
DEFAULT_255_1_234
10
6.4798755
20
95.7681211
11
6.4798755
21
95.684591
0
LINE
8
DEFAULT_255_1_234
10
6.4798755
20
95.684591
11
5.9955617
21
94.5987
0
LINE
8
DEFAULT_255_1_234
10
5.9955617
20
94.5987
11
5.8397459
21
94.5987
0
LINE
8
DEFAULT_255_1_234
10
5.8397459
20
94.5987
11
6.3224534
21
95.6460387
0
LINE
8
DEFAULT_255_1_234
10
6.3224534
20
95.6460387
11
5.6895524
21
95.6460387
0
LINE
8
DEFAULT_255_1_234
10
5.6895524
20
95.6460387
11
5.6895524
21
95.7681211
0
LINE
8
DEFAULT_255_1_234
10
5.6895524
20
95.7681211
11
6.4798755
21
95.7681211
0
LINE
8
DEFAULT_255_1_234
10
4.742285
20
100.5328391
11
4.742285
21
100.4067408
0
LINE
8
DEFAULT_255_1_234
10
4.742285
20
100.4067408
11
4.2515458
21
100.4067408
0
LINE
8
DEFAULT_255_1_234
10
4.2515458
20
100.4067408
11
4.2515458
21
99.8903
0
LINE
8
DEFAULT_255_1_234
10
4.2515458
20
99.8903
11
4.0973364
21
99.8903
0
LINE
8
DEFAULT_255_1_234
10
4.0973364
20
99.8903
11
4.0973364
21
101.0597211
0
LINE
8
DEFAULT_255_1_234
10
4.0973364
20
101.0597211
11
4.8217992
21
101.0597211
0
LINE
8
DEFAULT_255_1_234
10
4.8217992
20
101.0597211
11
4.8217992
21
100.9328196
0
LINE
8
DEFAULT_255_1_234
10
4.8217992
20
100.9328196
11
4.2515458
21
100.9328196
0
LINE
8
DEFAULT_255_1_234
10
4.2515458
20
100.9328196
11
4.2515458
21
100.5328391
0
LINE
8
DEFAULT_255_1_234
10
4.2515458
20
100.5328391
11
4.742285
21
100.5328391
0
LINE
8
DEFAULT_255_1_234
10
5.5245763
20
101.0605243
11
5.551081
21
101.0605243
0
LINE
8
DEFAULT_255_1_234
10
5.551081
20
101.0605243
11
5.551081
21
100.934426
0
LINE
8
DEFAULT_255_1_234
10
5.551081
20
100.934426
11
5.5237731
21
100.934426
0
LINE
8
DEFAULT_255_1_234
10
4.9768117
20
100.3352583
11
4.9768117
21
100.3922836
0
LINE
8
DEFAULT_255_1_234
10
5.1262021
20
100.3730075
11
5.1262021
21
100.3183917
0
ARC
8
DEFAULT_255_1_234
10
5.5290079
20
100.4346455
40
0.4998079
50
90.6001036
51
104.514704
0
ARC
8
DEFAULT_255_1_234
10
5.4901594
20
100.5791131
40
0.3502176
50
104.2855254
51
133.862935
0
ARC
8
DEFAULT_255_1_234
10
5.5065352
20
100.568283
40
0.3693984
50
134.5302688
51
161.6210873
0
ARC
8
DEFAULT_255_1_234
10
5.671854
20
100.5099895
40
0.5446739
50
161.2849839
51
174.2076652
0
ARC
8
DEFAULT_255_1_234
10
5.8125477
20
100.4905787
40
0.6866274
50
173.7810589
51
174.9254635
0
ARC
8
DEFAULT_255_1_234
10
5.3575309
20
100.3522839
40
0.3033419
50
95.8330959
51
138.9954921
0
ARC
8
DEFAULT_255_1_234
10
5.3798665
20
100.2244375
40
0.4328947
50
89.8753725
51
97.0544009
0
ARC
8
DEFAULT_255_1_234
10
5.3846131
20
100.3079748
40
0.3493769
50
71.6407809
51
90.6240094
0
ARC
8
DEFAULT_255_1_234
10
5.3996705
20
100.3634082
40
0.2920396
50
39.6367836
51
71.019018
0
ARC
8
DEFAULT_255_1_234
10
5.3360178
20
100.3083998
40
0.3761538
50
10.658731
51
39.9043955
0
ARC
8
DEFAULT_255_1_234
10
5.1812261
20
100.2747686
40
0.5345136
50
359.682601
51
11.132623
0
ARC
8
DEFAULT_255_1_234
10
5.1772392
20
100.267701
40
0.5385081
50
347.2486944
51
0.4369317
0
ARC
8
DEFAULT_255_1_234
10
5.3439869
20
100.2275807
40
0.3670249
50
318.1409698
51
347.6118597
0
ARC
8
DEFAULT_255_1_234
10
5.3764862
20
100.2008702
40
0.3250007
50
275.6342139
51
317.8248465
0
ARC
8
DEFAULT_255_1_234
10
5.3543973
20
100.3308219
40
0.4565864
50
269.8874292
51
276.7917694
0
ARC
8
DEFAULT_255_1_234
10
5.3489044
20
100.2282743
40
0.3540676
50
246.9140195
51
270.7437342
0
ARC
8
DEFAULT_255_1_234
10
5.3495434
20
100.2140384
40
0.3412781
50
218.1665114
51
245.878116
0
ARC
8
DEFAULT_255_1_234
10
5.4374895
20
100.2876279
40
0.455911
50
191.4115814
51
218.6077802
0
ARC
8
DEFAULT_255_1_234
10
5.6312984
20
100.3310833
40
0.6545001
50
179.6345085
51
191.7836486
0
ARC
8
DEFAULT_255_1_234
10
6.1895321
20
100.3989697
40
1.2127388
50
171.4525249
51
180.3158839
0
ARC
8
DEFAULT_255_1_234
10
5.7500196
20
100.4673608
40
0.7679464
50
157.9802646
51
171.6246686
0
ARC
8
DEFAULT_255_1_234
10
5.5286217
20
100.5556421
40
0.5296008
50
141.4298019
51
157.854097
0
ARC
8
DEFAULT_255_1_234
10
5.4644538
20
100.6010381
40
0.4511509
50
102.8715806
51
140.8564722
0
ARC
8
DEFAULT_255_1_234
10
5.5292153
20
100.3570552
40
0.7034845
50
90.3778349
51
103.5869322
0
ARC
8
DEFAULT_255_1_234
10
5.355393
20
100.296573
40
0.2370698
50
89.8751008
51
126.2071704
0
ARC
8
DEFAULT_255_1_234
10
5.3599719
20
100.2811303
40
0.2522934
50
124.9745049
51
144.895901
0
ARC
8
DEFAULT_255_1_234
10
5.342391
20
100.295456
40
0.2296779
50
145.2974905
51
160.2660252
0
ARC
8
DEFAULT_255_1_234
10
5.6496449
20
100.3152071
40
0.5234525
50
179.6514266
51
190.2855912
0
ARC
8
DEFAULT_255_1_234
10
5.4802586
20
100.2832786
40
0.3510893
50
190.0945431
51
207.5098196
0
ARC
8
DEFAULT_255_1_234
10
5.4236856
20
100.2563623
40
0.288489
50
207.9583163
51
216.3251085
0
ARC
8
DEFAULT_255_1_234
10
5.3896964
20
100.2284105
40
0.2445587
50
215.7661442
51
232.5456785
0
ARC
8
DEFAULT_255_1_234
10
5.3513947
20
100.1797482
40
0.1826382
50
232.8005391
51
270.6605633
0
ARC
8
DEFAULT_255_1_234
10
5.3559647
20
100.2161612
40
0.2190529
50
269.35537
51
288.4744281
0
ARC
8
DEFAULT_255_1_234
10
5.3652545
20
100.1812118
40
0.1829749
50
289.1833337
51
322.9683818
0
ARC
8
DEFAULT_255_1_234
10
5.3041067
20
100.2294391
40
0.2608399
50
322.6007884
51
346.5182367
0
ARC
8
DEFAULT_255_1_234
10
5.1883663
20
100.2589616
40
0.3802777
50
346.2582162
51
358.7741648
0
ARC
8
DEFAULT_255_1_234
10
5.0865332
20
100.2644965
40
0.4822176
50
358.3755224
51
0.0098023
0
ARC
8
DEFAULT_255_1_234
10
5.1621519
20
100.2672657
40
0.4066078
50
359.6214041
51
11.2839074
0
ARC
8
DEFAULT_255_1_234
10
5.2898666
20
100.2939066
40
0.2761514
50
11.0482309
51
31.8146458
0
ARC
8
DEFAULT_255_1_234
10
5.3207709
20
100.3106584
40
0.2410679
50
32.3035391
51
38.082671
0
ARC
8
DEFAULT_255_1_234
10
5.3628369
20
100.3487662
40
0.1844966
50
36.825067
51
85.7415724
0
ARC
8
DEFAULT_255_1_234
10
5.3561202
20
100.2987301
40
0.2349122
50
85.0140713
51
90.0513278
0
LINE
8
DEFAULT_255_1_234
10
5.0004293
20
105.182
11
4.8887881
21
105.4872061
0
LINE
8
DEFAULT_255_1_234
10
4.8887881
20
105.4872061
11
4.3988521
21
105.4872061
0
LINE
8
DEFAULT_255_1_234
10
4.3988521
20
105.4872061
11
4.2888173
21
105.182
0
LINE
8
DEFAULT_255_1_234
10
4.2888173
20
105.182
11
4.1297889
21
105.182
0
LINE
8
DEFAULT_255_1_234
10
4.1297889
20
105.182
11
4.5763535
21
106.3514211
0
LINE
8
DEFAULT_255_1_234
10
4.5763535
20
106.3514211
11
4.7112867
21
106.3514211
0
LINE
8
DEFAULT_255_1_234
10
4.7112867
20
106.3514211
11
5.1586545
21
105.182
0
LINE
8
DEFAULT_255_1_234
10
5.1586545
20
105.182
11
5.0004293
21
105.182
0
LINE
8
DEFAULT_255_1_234
10
4.6438201
20
106.1610689
11
4.4454362
21
105.6141075
0
LINE
8
DEFAULT_255_1_234
10
4.4454362
20
105.6141075
11
4.8430072
21
105.6141075
0
LINE
8
DEFAULT_255_1_234
10
4.8430072
20
105.6141075
11
4.6438201
21
106.1610689
0
LINE
8
DEFAULT_255_1_234
10
5.4815304
20
106.3514211
11
5.4815304
21
105.182
0
LINE
8
DEFAULT_255_1_234
10
5.4815304
20
105.182
11
5.327321
21
105.182
0
LINE
8
DEFAULT_255_1_234
10
5.327321
20
105.182
11
5.327321
21
106.3514211
0
LINE
8
DEFAULT_255_1_234
10
5.327321
20
106.3514211
11
5.4815304
21
106.3514211
0
LINE
8
DEFAULT_255_1_234
10
6.2814916
20
106.3522243
11
6.3079963
21
106.3522243
0
LINE
8
DEFAULT_255_1_234
10
6.3079963
20
106.3522243
11
6.3079963
21
106.226126
0
LINE
8
DEFAULT_255_1_234
10
6.3079963
20
106.226126
11
6.2806884
21
106.226126
0
LINE
8
DEFAULT_255_1_234
10
5.733727
20
105.6269583
11
5.733727
21
105.6839836
0
LINE
8
DEFAULT_255_1_234
10
5.8831173
20
105.6647075
11
5.8831173
21
105.6100917
0
ARC
8
DEFAULT_255_1_234
10
6.2859232
20
105.7263455
40
0.4998079
50
90.6001036
51
104.514704
0
ARC
8
DEFAULT_255_1_234
10
6.2470747
20
105.8708131
40
0.3502176
50
104.2855254
51
133.862935
0
ARC
8
DEFAULT_255_1_234
10
6.2634505
20
105.859983
40
0.3693984
50
134.5302688
51
161.6210873
0
ARC
8
DEFAULT_255_1_234
10
6.4287693
20
105.8016895
40
0.5446739
50
161.2849839
51
174.2076652
0
ARC
8
DEFAULT_255_1_234
10
6.569463
20
105.7822787
40
0.6866274
50
173.7810589
51
174.9254635
0
ARC
8
DEFAULT_255_1_234
10
6.1144462
20
105.6439839
40
0.3033419
50
95.8330959
51
138.9954921
0
ARC
8
DEFAULT_255_1_234
10
6.1367818
20
105.5161375
40
0.4328947
50
89.8753725
51
97.0544009
0
ARC
8
DEFAULT_255_1_234
10
6.1415284
20
105.5996748
40
0.3493769
50
71.6407809
51
90.6240094
0
ARC
8
DEFAULT_255_1_234
10
6.1565858
20
105.6551082
40
0.2920396
50
39.6367836
51
71.019018
0
ARC
8
DEFAULT_255_1_234
10
6.0929331
20
105.6000998
40
0.3761538
50
10.658731
51
39.9043955
0
ARC
8
DEFAULT_255_1_234
10
5.9381414
20
105.5664686
40
0.5345136
50
359.682601
51
11.132623
0
ARC
8
DEFAULT_255_1_234
10
5.9341545
20
105.559401
40
0.5385081
50
347.2486944
51
0.4369317
0
ARC
8
DEFAULT_255_1_234
10
6.1009021
20
105.5192807
40
0.3670249
50
318.1409698
51
347.6118597
0
ARC
8
DEFAULT_255_1_234
10
6.1334015
20
105.4925702
40
0.3250007
50
275.6342139
51
317.8248465
0
ARC
8
DEFAULT_255_1_234
10
6.1113126
20
105.6225219
40
0.4565864
50
269.8874292
51
276.7917694
0
ARC
8
DEFAULT_255_1_234
10
6.1058196
20
105.5199743
40
0.3540676
50
246.9140195
51
270.7437342
0
ARC
8
DEFAULT_255_1_234
10
6.1064587
20
105.5057384
40
0.3412781
50
218.1665114
51
245.878116
0
ARC
8
DEFAULT_255_1_234
10
6.1944048
20
105.5793279
40
0.455911
50
191.4115814
51
218.6077802
0
ARC
8
DEFAULT_255_1_234
10
6.3882137
20
105.6227833
40
0.6545001
50
179.6345085
51
191.7836486
0
ARC
8
DEFAULT_255_1_234
10
6.9464473
20
105.6906697
40
1.2127388
50
171.4525249
51
180.3158839
0
ARC
8
DEFAULT_255_1_234
10
6.5069349
20
105.7590608
40
0.7679464
50
157.9802646
51
171.6246686
0
ARC
8
DEFAULT_255_1_234
10
6.285537
20
105.8473421
40
0.5296008
50
141.4298019
51
157.854097
0
ARC
8
DEFAULT_255_1_234
10
6.2213691
20
105.8927381
40
0.4511509
50
102.8715806
51
140.8564722
0
ARC
8
DEFAULT_255_1_234
10
6.2861306
20
105.6487552
40
0.7034845
50
90.3778349
51
103.5869322
0
ARC
8
DEFAULT_255_1_234
10
6.1123083
20
105.588273
40
0.2370698
50
89.8751008
51
126.2071704
0
ARC
8
DEFAULT_255_1_234
10
6.1168872
20
105.5728303
40
0.2522934
50
124.9745049
51
144.895901
0
ARC
8
DEFAULT_255_1_234
10
6.0993063
20
105.587156
40
0.2296779
50
145.2974905
51
160.2660252
0
ARC
8
DEFAULT_255_1_234
10
6.4065602
20
105.6069071
40
0.5234525
50
179.6514266
51
190.2855912
0
ARC
8
DEFAULT_255_1_234
10
6.2371739
20
105.5749786
40
0.3510893
50
190.0945431
51
207.5098196
0
ARC
8
DEFAULT_255_1_234
10
6.1806009
20
105.5480623
40
0.288489
50
207.9583163
51
216.3251085
0
ARC
8
DEFAULT_255_1_234
10
6.1466117
20
105.5201105
40
0.2445587
50
215.7661442
51
232.5456785
0
ARC
8
DEFAULT_255_1_234
10
6.1083099
20
105.4714482
40
0.1826382
50
232.8005391
51
270.6605633
0
ARC
8
DEFAULT_255_1_234
10
6.11288
20
105.5078612
40
0.2190529
50
269.35537
51
288.4744281
0
ARC
8
DEFAULT_255_1_234
10
6.1221697
20
105.4729118
40
0.1829749
50
289.1833337
51
322.9683818
0
ARC
8
DEFAULT_255_1_234
10
6.061022
20
105.5211391
40
0.2608399
50
322.6007884
51
346.5182367
0
ARC
8
DEFAULT_255_1_234
10
5.9452816
20
105.5506616
40
0.3802777
50
346.2582162
51
358.7741648
0
ARC
8
DEFAULT_255_1_234
10
5.8434485
20
105.5561965
40
0.4822176
50
358.3755224
51
0.0098023
0
ARC
8
DEFAULT_255_1_234
10
5.9190672
20
105.5589657
40
0.4066078
50
359.6214041
51
11.2839074
0
ARC
8
DEFAULT_255_1_234
10
6.0467819
20
105.5856066
40
0.2761514
50
11.0482309
51
31.8146458
0
ARC
8
DEFAULT_255_1_234
10
6.0776862
20
105.6023584
40
0.2410679
50
32.3035391
51
38.082671
0
ARC
8
DEFAULT_255_1_234
10
6.1197521
20
105.6404662
40
0.1844966
50
36.825067
51
85.7415724
0
ARC
8
DEFAULT_255_1_234
10
6.1130355
20
105.5904301
40
0.2349122
50
85.0140713
51
90.0513278
0
LINE
8
DEFAULT_255_1_234
10
4.742285
20
111.1162391
11
4.742285
21
110.9901408
0
LINE
8
DEFAULT_255_1_234
10
4.742285
20
110.9901408
11
4.2515458
21
110.9901408
0
LINE
8
DEFAULT_255_1_234
10
4.2515458
20
110.9901408
11
4.2515458
21
110.4737
0
LINE
8
DEFAULT_255_1_234
10
4.2515458
20
110.4737
11
4.0973364
21
110.4737
0
LINE
8
DEFAULT_255_1_234
10
4.0973364
20
110.4737
11
4.0973364
21
111.6431211
0
LINE
8
DEFAULT_255_1_234
10
4.0973364
20
111.6431211
11
4.8217992
21
111.6431211
0
LINE
8
DEFAULT_255_1_234
10
4.8217992
20
111.6431211
11
4.8217992
21
111.5162196
0
LINE
8
DEFAULT_255_1_234
10
4.8217992
20
111.5162196
11
4.2515458
21
111.5162196
0
LINE
8
DEFAULT_255_1_234
10
4.2515458
20
111.5162196
11
4.2515458
21
111.1162391
0
LINE
8
DEFAULT_255_1_234
10
4.2515458
20
111.1162391
11
4.742285
21
111.1162391
0
LINE
8
DEFAULT_255_1_234
10
5.1551163
20
111.0294963
11
5.0362466
21
111.0600169
0
LINE
8
DEFAULT_255_1_234
10
5.0362466
20
111.0600169
11
5.0956814
21
111.6431211
0
LINE
8
DEFAULT_255_1_234
10
5.0956814
20
111.6431211
11
5.6948491
21
111.6431211
0
LINE
8
DEFAULT_255_1_234
10
5.6948491
20
111.6431211
11
5.6948491
21
111.5057784
0
LINE
8
DEFAULT_255_1_234
10
5.6948491
20
111.5057784
11
5.2217797
21
111.5057784
0
LINE
8
DEFAULT_255_1_234
10
5.2217797
20
111.5057784
11
5.1864401
21
111.1869184
0
LINE
8
DEFAULT_255_1_234
10
4.9944815
20
110.7813156
11
5.135037
21
110.7813156
0
LINE
8
DEFAULT_255_1_234
10
5.1944718
20
111.0616232
11
5.1551163
21
111.0294963
0
ARC
8
DEFAULT_255_1_234
10
5.3719185
20
110.868923
40
0.3681349
50
93.7182161
51
120.2538958
0
ARC
8
DEFAULT_255_1_234
10
5.3813448
20
110.7881394
40
0.449379
50
89.9660152
51
94.2496022
0
ARC
8
DEFAULT_255_1_234
10
5.3854182
20
110.8470549
40
0.390482
50
73.8043271
51
90.5585896
0
ARC
8
DEFAULT_255_1_234
10
5.4089079
20
110.9328602
40
0.3015334
50
41.3071453
51
73.5430202
0
ARC
8
DEFAULT_255_1_234
10
5.3672906
20
110.8970324
40
0.3564457
50
13.5075983
51
41.2174222
0
ARC
8
DEFAULT_255_1_234
10
5.203111
20
110.8540486
40
0.5261351
50
1.1331335
51
13.8829381
0
ARC
8
DEFAULT_255_1_234
10
5.0619479
20
110.8464665
40
0.6674378
50
359.9919444
51
1.544251
0
ARC
8
DEFAULT_255_1_234
10
5.1896305
20
110.842328
40
0.5397702
50
347.8572367
51
0.4293338
0
ARC
8
DEFAULT_255_1_234
10
5.3646623
20
110.8026736
40
0.3603188
50
323.673004
51
348.1672506
0
ARC
8
DEFAULT_255_1_234
10
5.3941131
20
110.7847168
40
0.3259678
50
316.8171152
51
323.1492751
0
ARC
8
DEFAULT_255_1_234
10
5.400232
20
110.781046
40
0.3189975
50
281.8396411
51
316.5457803
0
ARC
8
DEFAULT_255_1_234
10
5.3626583
20
110.9365762
40
0.4789527
50
269.5770101
51
282.4214771
0
ARC
8
DEFAULT_255_1_234
10
5.3555395
20
110.9152125
40
0.45759
50
256.2427136
51
270.4486331
0
ARC
8
DEFAULT_255_1_234
10
5.3256297
20
110.7952229
40
0.3339303
50
228.9023911
51
256.3314342
0
ARC
8
DEFAULT_255_1_234
10
5.318253
20
110.7835746
40
0.32031
50
193.753695
51
228.5271154
0
ARC
8
DEFAULT_255_1_234
10
5.4420484
20
110.81988
40
0.4492253
50
184.924711
51
194.497588
0
ARC
8
DEFAULT_255_1_234
10
5.4613051
20
110.8234591
40
0.3289787
50
187.3600538
51
198.6732863
0
ARC
8
DEFAULT_255_1_234
10
5.3563345
20
110.7870674
40
0.217884
50
198.4451669
51
217.794479
0
ARC
8
DEFAULT_255_1_234
10
5.326752
20
110.7661085
40
0.1816698
50
218.2887171
51
228.5612368
0
ARC
8
DEFAULT_255_1_234
10
5.3365307
20
110.7792963
40
0.1980329
50
228.9654866
51
258.1234728
0
ARC
8
DEFAULT_255_1_234
10
5.3571017
20
110.8673833
40
0.2884748
50
257.7258293
51
270.401361
0
ARC
8
DEFAULT_255_1_234
10
5.3615903
20
110.8228821
40
0.2439788
50
269.4204404
51
286.4209037
0
ARC
8
DEFAULT_255_1_234
10
5.3764391
20
110.7689657
40
0.1880666
50
286.7251356
51
320.600362
0
ARC
8
DEFAULT_255_1_234
10
5.3381216
20
110.8000595
40
0.2374121
50
320.6712579
51
344.5441685
0
ARC
8
DEFAULT_255_1_234
10
5.2224542
20
110.8340045
40
0.3579479
50
344.2412205
51
356.7357071
0
ARC
8
DEFAULT_255_1_234
10
5.097569
20
110.8443444
40
0.4832297
50
356.3548756
51
0.0500261
0
ARC
8
DEFAULT_255_1_234
10
5.23122
20
110.847465
40
0.3495889
50
359.5576869
51
12.953486
0
ARC
8
DEFAULT_255_1_234
10
5.3367097
20
110.8730434
40
0.2410532
50
12.6490276
51
41.6081334
0
ARC
8
DEFAULT_255_1_234
10
5.3597468
20
110.8926321
40
0.2108218
50
41.7850273
51
85.9892764
0
ARC
8
DEFAULT_255_1_234
10
5.3474205
20
110.8113462
40
0.2928454
50
84.6957577
51
90.0676183
0
ARC
8
DEFAULT_255_1_234
10
5.3450689
20
110.7444716
40
0.3597255
50
89.6804936
51
99.1614436
0
ARC
8
DEFAULT_255_1_234
10
5.324532
20
110.8672131
40
0.235281
50
98.9830931
51
113.8908934
0
ARC
8
DEFAULT_255_1_234
10
5.301573
20
110.9213587
40
0.176479
50
114.1950727
51
127.3641004
0
LINE
8
DEFAULT_255_1_234
10
5.0004293
20
115.7653
11
4.8887881
21
116.0705061
0
LINE
8
DEFAULT_255_1_234
10
4.8887881
20
116.0705061
11
4.3988521
21
116.0705061
0
LINE
8
DEFAULT_255_1_234
10
4.3988521
20
116.0705061
11
4.2888173
21
115.7653
0
LINE
8
DEFAULT_255_1_234
10
4.2888173
20
115.7653
11
4.1297889
21
115.7653
0
LINE
8
DEFAULT_255_1_234
10
4.1297889
20
115.7653
11
4.5763535
21
116.9347211
0
LINE
8
DEFAULT_255_1_234
10
4.5763535
20
116.9347211
11
4.7112867
21
116.9347211
0
LINE
8
DEFAULT_255_1_234
10
4.7112867
20
116.9347211
11
5.1586545
21
115.7653
0
LINE
8
DEFAULT_255_1_234
10
5.1586545
20
115.7653
11
5.0004293
21
115.7653
0
LINE
8
DEFAULT_255_1_234
10
4.6438201
20
116.7443689
11
4.4454362
21
116.1974075
0
LINE
8
DEFAULT_255_1_234
10
4.4454362
20
116.1974075
11
4.8430072
21
116.1974075
0
LINE
8
DEFAULT_255_1_234
10
4.8430072
20
116.1974075
11
4.6438201
21
116.7443689
0
LINE
8
DEFAULT_255_1_234
10
5.4815304
20
116.9347211
11
5.4815304
21
115.7653
0
LINE
8
DEFAULT_255_1_234
10
5.4815304
20
115.7653
11
5.327321
21
115.7653
0
LINE
8
DEFAULT_255_1_234
10
5.327321
20
115.7653
11
5.327321
21
116.9347211
0
LINE
8
DEFAULT_255_1_234
10
5.327321
20
116.9347211
11
5.4815304
21
116.9347211
0
LINE
8
DEFAULT_255_1_234
10
5.9120316
20
116.3210963
11
5.7931619
21
116.3516169
0
LINE
8
DEFAULT_255_1_234
10
5.7931619
20
116.3516169
11
5.8525967
21
116.9347211
0
LINE
8
DEFAULT_255_1_234
10
5.8525967
20
116.9347211
11
6.4517644
21
116.9347211
0
LINE
8
DEFAULT_255_1_234
10
6.4517644
20
116.9347211
11
6.4517644
21
116.7973784
0
LINE
8
DEFAULT_255_1_234
10
6.4517644
20
116.7973784
11
5.978695
21
116.7973784
0
LINE
8
DEFAULT_255_1_234
10
5.978695
20
116.7973784
11
5.9433554
21
116.4785184
0
LINE
8
DEFAULT_255_1_234
10
5.7513968
20
116.0729156
11
5.8919522
21
116.0729156
0
LINE
8
DEFAULT_255_1_234
10
5.9513871
20
116.3532232
11
5.9120316
21
116.3210963
0
ARC
8
DEFAULT_255_1_234
10
6.1288338
20
116.160523
40
0.3681349
50
93.7182161
51
120.2538958
0
ARC
8
DEFAULT_255_1_234
10
6.1382601
20
116.0797394
40
0.449379
50
89.9660152
51
94.2496022
0
ARC
8
DEFAULT_255_1_234
10
6.1423334
20
116.1386549
40
0.390482
50
73.8043271
51
90.5585896
0
ARC
8
DEFAULT_255_1_234
10
6.1658231
20
116.2244602
40
0.3015334
50
41.3071453
51
73.5430202
0
ARC
8
DEFAULT_255_1_234
10
6.1242059
20
116.1886324
40
0.3564457
50
13.5075983
51
41.2174222
0
ARC
8
DEFAULT_255_1_234
10
5.9600263
20
116.1456486
40
0.5261351
50
1.1331335
51
13.8829381
0
ARC
8
DEFAULT_255_1_234
10
5.8188632
20
116.1380665
40
0.6674378
50
359.9919444
51
1.544251
0
ARC
8
DEFAULT_255_1_234
10
5.9465458
20
116.133928
40
0.5397702
50
347.8572367
51
0.4293338
0
ARC
8
DEFAULT_255_1_234
10
6.1215776
20
116.0942736
40
0.3603188
50
323.673004
51
348.1672506
0
ARC
8
DEFAULT_255_1_234
10
6.1510284
20
116.0763168
40
0.3259678
50
316.8171152
51
323.1492751
0
ARC
8
DEFAULT_255_1_234
10
6.1571473
20
116.072646
40
0.3189975
50
281.8396411
51
316.5457803
0
ARC
8
DEFAULT_255_1_234
10
6.1195736
20
116.2281762
40
0.4789527
50
269.5770101
51
282.4214771
0
ARC
8
DEFAULT_255_1_234
10
6.1124548
20
116.2068125
40
0.45759
50
256.2427136
51
270.4486331
0
ARC
8
DEFAULT_255_1_234
10
6.082545
20
116.0868229
40
0.3339303
50
228.9023911
51
256.3314342
0
ARC
8
DEFAULT_255_1_234
10
6.0751683
20
116.0751746
40
0.32031
50
193.753695
51
228.5271154
0
ARC
8
DEFAULT_255_1_234
10
6.1989637
20
116.11148
40
0.4492253
50
184.924711
51
194.497588
0
ARC
8
DEFAULT_255_1_234
10
6.2182204
20
116.1150591
40
0.3289787
50
187.3600538
51
198.6732863
0
ARC
8
DEFAULT_255_1_234
10
6.1132498
20
116.0786674
40
0.217884
50
198.4451669
51
217.794479
0
ARC
8
DEFAULT_255_1_234
10
6.0836673
20
116.0577085
40
0.1816698
50
218.2887171
51
228.5612368
0
ARC
8
DEFAULT_255_1_234
10
6.093446
20
116.0708963
40
0.1980329
50
228.9654866
51
258.1234728
0
ARC
8
DEFAULT_255_1_234
10
6.114017
20
116.1589833
40
0.2884748
50
257.7258293
51
270.401361
0
ARC
8
DEFAULT_255_1_234
10
6.1185056
20
116.1144821
40
0.2439788
50
269.4204404
51
286.4209037
0
ARC
8
DEFAULT_255_1_234
10
6.1333544
20
116.0605657
40
0.1880666
50
286.7251356
51
320.600362
0
ARC
8
DEFAULT_255_1_234
10
6.0950369
20
116.0916595
40
0.2374121
50
320.6712579
51
344.5441685
0
ARC
8
DEFAULT_255_1_234
10
5.9793695
20
116.1256045
40
0.3579479
50
344.2412205
51
356.7357071
0
ARC
8
DEFAULT_255_1_234
10
5.8544843
20
116.1359444
40
0.4832297
50
356.3548756
51
0.0500261
0
ARC
8
DEFAULT_255_1_234
10
5.9881353
20
116.139065
40
0.3495889
50
359.5576869
51
12.953486
0
ARC
8
DEFAULT_255_1_234
10
6.093625
20
116.1646434
40
0.2410532
50
12.6490276
51
41.6081334
0
ARC
8
DEFAULT_255_1_234
10
6.1166621
20
116.1842321
40
0.2108218
50
41.7850273
51
85.9892764
0
ARC
8
DEFAULT_255_1_234
10
6.1043357
20
116.1029462
40
0.2928454
50
84.6957577
51
90.0676183
0
ARC
8
DEFAULT_255_1_234
10
6.1019842
20
116.0360716
40
0.3597255
50
89.6804936
51
99.1614436
0
ARC
8
DEFAULT_255_1_234
10
6.0814473
20
116.1588131
40
0.235281
50
98.9830931
51
113.8908934
0
ARC
8
DEFAULT_255_1_234
10
6.0584883
20
116.2129587
40
0.176479
50
114.1950727
51
127.3641004
0
LINE
8
DEFAULT_255_1_234
10
4.848185
20
121.6995391
11
4.848185
21
121.5734408
0
LINE
8
DEFAULT_255_1_234
10
4.848185
20
121.5734408
11
4.3574458
21
121.5734408
0
LINE
8
DEFAULT_255_1_234
10
4.3574458
20
121.5734408
11
4.3574458
21
121.057
0
LINE
8
DEFAULT_255_1_234
10
4.3574458
20
121.057
11
4.2032364
21
121.057
0
LINE
8
DEFAULT_255_1_234
10
4.2032364
20
121.057
11
4.2032364
21
122.2264211
0
LINE
8
DEFAULT_255_1_234
10
4.2032364
20
122.2264211
11
4.9276992
21
122.2264211
0
LINE
8
DEFAULT_255_1_234
10
4.9276992
20
122.2264211
11
4.9276992
21
122.0995196
0
LINE
8
DEFAULT_255_1_234
10
4.9276992
20
122.0995196
11
4.3574458
21
122.0995196
0
LINE
8
DEFAULT_255_1_234
10
4.3574458
20
122.0995196
11
4.3574458
21
121.6995391
0
LINE
8
DEFAULT_255_1_234
10
4.3574458
20
121.6995391
11
4.848185
21
121.6995391
0
LINE
8
DEFAULT_255_1_234
10
5.7011556
20
122.2264211
11
5.7011556
21
121.449752
0
LINE
8
DEFAULT_255_1_234
10
5.7011556
20
121.449752
11
5.8633967
21
121.449752
0
LINE
8
DEFAULT_255_1_234
10
5.8633967
20
121.449752
11
5.8633967
21
121.3284728
0
LINE
8
DEFAULT_255_1_234
10
5.8633967
20
121.3284728
11
5.7011556
21
121.3284728
0
LINE
8
DEFAULT_255_1_234
10
5.7011556
20
121.3284728
11
5.7011556
21
121.057
0
LINE
8
DEFAULT_255_1_234
10
5.7011556
20
121.057
11
5.5517652
21
121.057
0
LINE
8
DEFAULT_255_1_234
10
5.5517652
20
121.057
11
5.5517652
21
121.3284728
0
LINE
8
DEFAULT_255_1_234
10
5.5517652
20
121.3284728
11
5.019261
21
121.3284728
0
LINE
8
DEFAULT_255_1_234
10
5.019261
20
121.3284728
11
5.019261
21
121.4160187
0
LINE
8
DEFAULT_255_1_234
10
5.019261
20
121.4160187
11
5.5429303
21
122.2264211
0
LINE
8
DEFAULT_255_1_234
10
5.5429303
20
122.2264211
11
5.7011556
21
122.2264211
0
LINE
8
DEFAULT_255_1_234
10
5.5340954
20
121.9910912
11
5.1879275
21
121.449752
0
LINE
8
DEFAULT_255_1_234
10
5.1879275
20
121.449752
11
5.5517652
21
121.449752
0
LINE
8
DEFAULT_255_1_234
10
5.5517652
20
121.449752
11
5.5517652
21
122.0232181
0
LINE
8
DEFAULT_255_1_234
10
5.5517652
20
122.0232181
11
5.5340954
21
121.9910912
0
LINE
8
DEFAULT_255_1_234
10
5.1062293
20
126.3487
11
4.9945881
21
126.6539061
0
LINE
8
DEFAULT_255_1_234
10
4.9945881
20
126.6539061
11
4.5046521
21
126.6539061
0
LINE
8
DEFAULT_255_1_234
10
4.5046521
20
126.6539061
11
4.3946173
21
126.3487
0
LINE
8
DEFAULT_255_1_234
10
4.3946173
20
126.3487
11
4.2355889
21
126.3487
0
LINE
8
DEFAULT_255_1_234
10
4.2355889
20
126.3487
11
4.6821535
21
127.5181211
0
LINE
8
DEFAULT_255_1_234
10
4.6821535
20
127.5181211
11
4.8170867
21
127.5181211
0
LINE
8
DEFAULT_255_1_234
10
4.8170867
20
127.5181211
11
5.2644545
21
126.3487
0
LINE
8
DEFAULT_255_1_234
10
5.2644545
20
126.3487
11
5.1062293
21
126.3487
0
LINE
8
DEFAULT_255_1_234
10
4.7496201
20
127.3277689
11
4.5512362
21
126.7808075
0
LINE
8
DEFAULT_255_1_234
10
4.5512362
20
126.7808075
11
4.9488072
21
126.7808075
0
LINE
8
DEFAULT_255_1_234
10
4.9488072
20
126.7808075
11
4.7496201
21
127.3277689
0
LINE
8
DEFAULT_255_1_234
10
5.5873304
20
127.5181211
11
5.5873304
21
126.3487
0
LINE
8
DEFAULT_255_1_234
10
5.5873304
20
126.3487
11
5.433121
21
126.3487
0
LINE
8
DEFAULT_255_1_234
10
5.433121
20
126.3487
11
5.433121
21
127.5181211
0
LINE
8
DEFAULT_255_1_234
10
5.433121
20
127.5181211
11
5.5873304
21
127.5181211
0
LINE
8
DEFAULT_255_1_234
10
6.4579708
20
127.5181211
11
6.4579708
21
126.741452
0
LINE
8
DEFAULT_255_1_234
10
6.4579708
20
126.741452
11
6.620212
21
126.741452
0
LINE
8
DEFAULT_255_1_234
10
6.620212
20
126.741452
11
6.620212
21
126.6201728
0
LINE
8
DEFAULT_255_1_234
10
6.620212
20
126.6201728
11
6.4579708
21
126.6201728
0
LINE
8
DEFAULT_255_1_234
10
6.4579708
20
126.6201728
11
6.4579708
21
126.3487
0
LINE
8
DEFAULT_255_1_234
10
6.4579708
20
126.3487
11
6.3085805
21
126.3487
0
LINE
8
DEFAULT_255_1_234
10
6.3085805
20
126.3487
11
6.3085805
21
126.6201728
0
LINE
8
DEFAULT_255_1_234
10
6.3085805
20
126.6201728
11
5.7760763
21
126.6201728
0
LINE
8
DEFAULT_255_1_234
10
5.7760763
20
126.6201728
11
5.7760763
21
126.7077187
0
LINE
8
DEFAULT_255_1_234
10
5.7760763
20
126.7077187
11
6.2997456
21
127.5181211
0
LINE
8
DEFAULT_255_1_234
10
6.2997456
20
127.5181211
11
6.4579708
21
127.5181211
0
LINE
8
DEFAULT_255_1_234
10
6.2909107
20
127.2827912
11
5.9447428
21
126.741452
0
LINE
8
DEFAULT_255_1_234
10
5.9447428
20
126.741452
11
6.3085805
21
126.741452
0
LINE
8
DEFAULT_255_1_234
10
6.3085805
20
126.741452
11
6.3085805
21
127.3149181
0
LINE
8
DEFAULT_255_1_234
10
6.3085805
20
127.3149181
11
6.2909107
21
127.2827912
0
LINE
8
DEFAULT_255_1_234
10
4.742285
20
132.2828391
11
4.742285
21
132.1567408
0
LINE
8
DEFAULT_255_1_234
10
4.742285
20
132.1567408
11
4.2515458
21
132.1567408
0
LINE
8
DEFAULT_255_1_234
10
4.2515458
20
132.1567408
11
4.2515458
21
131.6403
0
LINE
8
DEFAULT_255_1_234
10
4.2515458
20
131.6403
11
4.0973364
21
131.6403
0
LINE
8
DEFAULT_255_1_234
10
4.0973364
20
131.6403
11
4.0973364
21
132.8097211
0
LINE
8
DEFAULT_255_1_234
10
4.0973364
20
132.8097211
11
4.8217992
21
132.8097211
0
LINE
8
DEFAULT_255_1_234
10
4.8217992
20
132.8097211
11
4.8217992
21
132.6828196
0
LINE
8
DEFAULT_255_1_234
10
4.8217992
20
132.6828196
11
4.2515458
21
132.6828196
0
LINE
8
DEFAULT_255_1_234
10
4.2515458
20
132.6828196
11
4.2515458
21
132.2828391
0
LINE
8
DEFAULT_255_1_234
10
4.2515458
20
132.2828391
11
4.742285
21
132.2828391
0
LINE
8
DEFAULT_255_1_234
10
5.1840306
20
132.1760169
11
5.1840306
21
132.2972962
0
LINE
8
DEFAULT_255_1_234
10
5.1840306
20
132.2972962
11
5.2956717
21
132.2972962
0
LINE
8
DEFAULT_255_1_234
10
5.1053195
20
132.5029087
11
4.9567324
21
132.5029087
0
LINE
8
DEFAULT_255_1_234
10
4.9462911
20
131.9487188
11
5.0956814
21
131.9487188
0
LINE
8
DEFAULT_255_1_234
10
5.2956717
20
132.1760169
11
5.1840306
21
132.1760169
0
ARC
8
DEFAULT_255_1_234
10
5.2927584
20
132.6365713
40
0.3392876
50
270.4919872
51
281.8951556
0
ARC
8
DEFAULT_255_1_234
10
5.3168845
20
132.5263702
40
0.2264817
50
281.6691735
51
301.2943132
0
ARC
8
DEFAULT_255_1_234
10
5.3339056
20
132.4952304
40
0.1910381
50
301.7833094
51
311.7545298
0
ARC
8
DEFAULT_255_1_234
10
5.3430631
20
132.4850748
40
0.1773635
50
311.7323931
51
354.2802411
0
ARC
8
DEFAULT_255_1_234
10
5.2704257
20
132.4975722
40
0.2509385
50
353.0937916
51
0.1181479
0
ARC
8
DEFAULT_255_1_234
10
5.2243041
20
132.5023386
40
0.2970898
50
359.1805295
51
15.0453146
0
ARC
8
DEFAULT_255_1_234
10
5.3588878
20
132.5415992
40
0.1569564
50
13.9577229
51
77.6713066
0
ARC
8
DEFAULT_255_1_234
10
5.3202408
20
132.4030949
40
0.3006298
50
76.1116566
51
90.7026153
0
ARC
8
DEFAULT_255_1_234
10
5.3143246
20
132.4304545
40
0.2732568
50
89.5324876
51
103.531937
0
ARC
8
DEFAULT_255_1_234
10
5.294269
20
132.5103884
40
0.1908508
50
103.2931773
51
133.5619022
0
ARC
8
DEFAULT_255_1_234
10
5.2898178
20
132.5163375
40
0.1834746
50
133.8349307
51
173.5344437
0
ARC
8
DEFAULT_255_1_234
10
5.3621222
20
132.5035213
40
0.2568033
50
172.5096846
51
180.1366907
0
ARC
8
DEFAULT_255_1_234
10
5.2670115
20
132.5069622
40
0.3103056
50
155.3484492
51
180.7484736
0
ARC
8
DEFAULT_255_1_234
10
5.2621204
20
132.5040846
40
0.3070957
50
131.5744599
51
154.4798489
0
ARC
8
DEFAULT_255_1_234
10
5.2934352
20
132.472431
40
0.3515643
50
96.9875458
51
131.9690667
0
ARC
8
DEFAULT_255_1_234
10
5.3153832
20
132.3478636
40
0.4779224
50
89.8596053
51
97.7825159
0
ARC
8
DEFAULT_255_1_234
10
5.3201895
20
132.3216616
40
0.5041361
50
78.3655447
51
90.4131539
0
ARC
8
DEFAULT_255_1_234
10
5.3559813
20
132.4875887
40
0.3344039
50
56.6229102
51
78.638727
0
ARC
8
DEFAULT_255_1_234
10
5.3774756
20
132.5251805
40
0.2912001
50
47.0253525
51
56.0854072
0
ARC
8
DEFAULT_255_1_234
10
5.3794536
20
132.5291223
40
0.2869704
50
10.9208013
51
46.7778124
0
ARC
8
DEFAULT_255_1_234
10
5.2430603
20
132.4975857
40
0.426899
50
359.6364486
51
11.6087304
0
ARC
8
DEFAULT_255_1_234
10
5.4265447
20
132.4960752
40
0.243409
50
332.3549906
51
359.7179418
0
ARC
8
DEFAULT_255_1_234
10
5.3615048
20
132.5269142
40
0.3153459
50
325.2333722
51
332.8745602
0
ARC
8
DEFAULT_255_1_234
10
5.3767672
20
132.5162828
40
0.2967456
50
292.9802137
51
325.2392345
0
ARC
8
DEFAULT_255_1_234
10
5.3493046
20
132.5696863
40
0.3566604
50
292.5402179
51
293.6924929
0
ARC
8
DEFAULT_255_1_234
10
5.3885642
20
131.9242091
40
0.3307468
50
57.6435486
51
72.8625112
0
ARC
8
DEFAULT_255_1_234
10
5.4240142
20
131.9816549
40
0.2632492
50
36.7248896
51
57.4697979
0
ARC
8
DEFAULT_255_1_234
10
5.4228774
20
131.982922
40
0.2634081
50
8.0545065
51
36.356114
0
ARC
8
DEFAULT_255_1_234
10
5.336596
20
131.9674174
40
0.3510261
50
359.8320645
51
8.5869982
0
ARC
8
DEFAULT_255_1_234
10
5.2990736
20
131.9626101
40
0.3885653
50
343.9829931
51
0.5571613
0
ARC
8
DEFAULT_255_1_234
10
5.3876933
20
131.9383438
40
0.2966924
50
311.6359546
51
343.7651759
0
ARC
8
DEFAULT_255_1_234
10
5.3498502
20
131.9810102
40
0.3537231
50
279.7829875
51
311.6255694
0
ARC
8
DEFAULT_255_1_234
10
5.3197278
20
132.124728
40
0.5004971
50
269.7286406
51
280.3856417
0
ARC
8
DEFAULT_255_1_234
10
5.3135351
20
132.1205996
40
0.4963778
50
256.6828919
51
270.4412052
0
ARC
8
DEFAULT_255_1_234
10
5.2796647
20
131.9821394
40
0.3538406
50
229.4223008
51
256.8556159
0
ARC
8
DEFAULT_255_1_234
10
5.238204
20
131.9354736
40
0.2914296
50
181.818294
51
229.6455059
0
ARC
8
DEFAULT_255_1_234
10
5.3421996
20
131.9485496
40
0.3959084
50
179.9755256
51
183.2323064
0
ARC
8
DEFAULT_255_1_234
10
5.3249742
20
131.9465037
40
0.2293034
50
179.4465117
51
196.2869258
0
ARC
8
DEFAULT_255_1_234
10
5.276215
20
131.9331651
40
0.1787621
50
196.5661473
51
227.705904
0
ARC
8
DEFAULT_255_1_234
10
5.2926244
20
131.9515155
40
0.2033784
50
227.7652068
51
257.8762805
0
ARC
8
DEFAULT_255_1_234
10
5.3151215
20
132.0458156
40
0.3003081
50
257.4584385
51
270.426602
0
ARC
8
DEFAULT_255_1_234
10
5.3196781
20
132.0747996
40
0.329292
50
269.5962073
51
280.8789248
0
ARC
8
DEFAULT_255_1_234
10
5.342631
20
131.9601685
40
0.2123908
50
280.6346389
51
299.8595945
0
ARC
8
DEFAULT_255_1_234
10
5.3617216
20
131.9239212
40
0.171457
50
300.3576302
51
314.5517981
0
ARC
8
DEFAULT_255_1_234
10
5.3534276
20
131.9299919
40
0.1816095
50
315.0728369
51
345.0431014
0
ARC
8
DEFAULT_255_1_234
10
5.2611091
20
131.9568841
40
0.2777492
50
344.5986631
51
357.9269593
0
ARC
8
DEFAULT_255_1_234
10
5.1715417
20
131.9630276
40
0.3674917
50
357.4748886
51
0.0231117
0
ARC
8
DEFAULT_255_1_234
10
5.2738526
20
131.9654679
40
0.2651907
50
359.5047933
51
13.4239635
0
ARC
8
DEFAULT_255_1_234
10
5.360517
20
131.9876478
40
0.1757509
50
12.9498199
51
48.7551375
0
ARC
8
DEFAULT_255_1_234
10
5.3422904
20
131.96274
40
0.2065134
50
49.5088623
51
72.1836453
0
ARC
8
DEFAULT_255_1_234
10
5.3065056
20
131.8565291
40
0.3185836
50
71.9010081
51
84.3554254
0
ARC
8
DEFAULT_255_1_234
10
5.2903688
20
131.7204326
40
0.4556151
50
84.0193428
51
89.333121
0
LINE
8
DEFAULT_255_1_234
10
5.0004293
20
136.932
11
4.8887881
21
137.2372061
0
LINE
8
DEFAULT_255_1_234
10
4.8887881
20
137.2372061
11
4.3988521
21
137.2372061
0
LINE
8
DEFAULT_255_1_234
10
4.3988521
20
137.2372061
11
4.2888173
21
136.932
0
LINE
8
DEFAULT_255_1_234
10
4.2888173
20
136.932
11
4.1297889
21
136.932
0
LINE
8
DEFAULT_255_1_234
10
4.1297889
20
136.932
11
4.5763535
21
138.1014211
0
LINE
8
DEFAULT_255_1_234
10
4.5763535
20
138.1014211
11
4.7112867
21
138.1014211
0
LINE
8
DEFAULT_255_1_234
10
4.7112867
20
138.1014211
11
5.1586545
21
136.932
0
LINE
8
DEFAULT_255_1_234
10
5.1586545
20
136.932
11
5.0004293
21
136.932
0
LINE
8
DEFAULT_255_1_234
10
4.6438201
20
137.9110689
11
4.4454362
21
137.3641075
0
LINE
8
DEFAULT_255_1_234
10
4.4454362
20
137.3641075
11
4.8430072
21
137.3641075
0
LINE
8
DEFAULT_255_1_234
10
4.8430072
20
137.3641075
11
4.6438201
21
137.9110689
0
LINE
8
DEFAULT_255_1_234
10
5.4815304
20
138.1014211
11
5.4815304
21
136.932
0
LINE
8
DEFAULT_255_1_234
10
5.4815304
20
136.932
11
5.327321
21
136.932
0
LINE
8
DEFAULT_255_1_234
10
5.327321
20
136.932
11
5.327321
21
138.1014211
0
LINE
8
DEFAULT_255_1_234
10
5.327321
20
138.1014211
11
5.4815304
21
138.1014211
0
LINE
8
DEFAULT_255_1_234
10
5.9409458
20
137.4677169
11
5.9409458
21
137.5889962
0
LINE
8
DEFAULT_255_1_234
10
5.9409458
20
137.5889962
11
6.052587
21
137.5889962
0
LINE
8
DEFAULT_255_1_234
10
5.8622348
20
137.7946087
11
5.7136477
21
137.7946087
0
LINE
8
DEFAULT_255_1_234
10
5.7032064
20
137.2404188
11
5.8525967
21
137.2404188
0
LINE
8
DEFAULT_255_1_234
10
6.052587
20
137.4677169
11
5.9409458
21
137.4677169
0
ARC
8
DEFAULT_255_1_234
10
6.0496737
20
137.9282713
40
0.3392876
50
270.4919872
51
281.8951556
0
ARC
8
DEFAULT_255_1_234
10
6.0737998
20
137.8180702
40
0.2264817
50
281.6691735
51
301.2943132
0
ARC
8
DEFAULT_255_1_234
10
6.0908209
20
137.7869304
40
0.1910381
50
301.7833094
51
311.7545298
0
ARC
8
DEFAULT_255_1_234
10
6.0999784
20
137.7767748
40
0.1773635
50
311.7323931
51
354.2802411
0
ARC
8
DEFAULT_255_1_234
10
6.027341
20
137.7892722
40
0.2509385
50
353.0937916
51
0.1181479
0
ARC
8
DEFAULT_255_1_234
10
5.9812194
20
137.7940386
40
0.2970898
50
359.1805295
51
15.0453146
0
ARC
8
DEFAULT_255_1_234
10
6.1158031
20
137.8332992
40
0.1569564
50
13.9577229
51
77.6713066
0
ARC
8
DEFAULT_255_1_234
10
6.077156
20
137.6947949
40
0.3006298
50
76.1116566
51
90.7026153
0
ARC
8
DEFAULT_255_1_234
10
6.0712399
20
137.7221545
40
0.2732568
50
89.5324876
51
103.531937
0
ARC
8
DEFAULT_255_1_234
10
6.0511843
20
137.8020884
40
0.1908508
50
103.2931773
51
133.5619022
0
ARC
8
DEFAULT_255_1_234
10
6.0467331
20
137.8080375
40
0.1834746
50
133.8349307
51
173.5344437
0
ARC
8
DEFAULT_255_1_234
10
6.1190374
20
137.7952213
40
0.2568033
50
172.5096846
51
180.1366907
0
ARC
8
DEFAULT_255_1_234
10
6.0239268
20
137.7986622
40
0.3103056
50
155.3484492
51
180.7484736
0
ARC
8
DEFAULT_255_1_234
10
6.0190357
20
137.7957846
40
0.3070957
50
131.5744599
51
154.4798489
0
ARC
8
DEFAULT_255_1_234
10
6.0503505
20
137.764131
40
0.3515643
50
96.9875458
51
131.9690667
0
ARC
8
DEFAULT_255_1_234
10
6.0722985
20
137.6395636
40
0.4779224
50
89.8596053
51
97.7825159
0
ARC
8
DEFAULT_255_1_234
10
6.0771048
20
137.6133616
40
0.5041361
50
78.3655447
51
90.4131539
0
ARC
8
DEFAULT_255_1_234
10
6.1128966
20
137.7792887
40
0.3344039
50
56.6229102
51
78.638727
0
ARC
8
DEFAULT_255_1_234
10
6.1343909
20
137.8168805
40
0.2912001
50
47.0253525
51
56.0854072
0
ARC
8
DEFAULT_255_1_234
10
6.1363689
20
137.8208223
40
0.2869704
50
10.9208013
51
46.7778124
0
ARC
8
DEFAULT_255_1_234
10
5.9999756
20
137.7892857
40
0.426899
50
359.6364486
51
11.6087304
0
ARC
8
DEFAULT_255_1_234
10
6.18346
20
137.7877752
40
0.243409
50
332.3549906
51
359.7179418
0
ARC
8
DEFAULT_255_1_234
10
6.1184201
20
137.8186142
40
0.3153459
50
325.2333722
51
332.8745602
0
ARC
8
DEFAULT_255_1_234
10
6.1336825
20
137.8079828
40
0.2967456
50
292.9802137
51
325.2392345
0
ARC
8
DEFAULT_255_1_234
10
6.1062199
20
137.8613863
40
0.3566604
50
292.5402179
51
293.6924929
0
ARC
8
DEFAULT_255_1_234
10
6.1454795
20
137.2159091
40
0.3307468
50
57.6435486
51
72.8625112
0
ARC
8
DEFAULT_255_1_234
10
6.1809295
20
137.2733549
40
0.2632492
50
36.7248896
51
57.4697979
0
ARC
8
DEFAULT_255_1_234
10
6.1797927
20
137.274622
40
0.2634081
50
8.0545065
51
36.356114
0
ARC
8
DEFAULT_255_1_234
10
6.0935112
20
137.2591174
40
0.3510261
50
359.8320645
51
8.5869982
0
ARC
8
DEFAULT_255_1_234
10
6.0559889
20
137.2543101
40
0.3885653
50
343.9829931
51
0.5571613
0
ARC
8
DEFAULT_255_1_234
10
6.1446086
20
137.2300438
40
0.2966924
50
311.6359546
51
343.7651759
0
ARC
8
DEFAULT_255_1_234
10
6.1067655
20
137.2727102
40
0.3537231
50
279.7829875
51
311.6255694
0
ARC
8
DEFAULT_255_1_234
10
6.0766431
20
137.416428
40
0.5004971
50
269.7286406
51
280.3856417
0
ARC
8
DEFAULT_255_1_234
10
6.0704504
20
137.4122996
40
0.4963778
50
256.6828919
51
270.4412052
0
ARC
8
DEFAULT_255_1_234
10
6.03658
20
137.2738394
40
0.3538406
50
229.4223008
51
256.8556159
0
ARC
8
DEFAULT_255_1_234
10
5.9951192
20
137.2271736
40
0.2914296
50
181.818294
51
229.6455059
0
ARC
8
DEFAULT_255_1_234
10
6.0991149
20
137.2402496
40
0.3959084
50
179.9755256
51
183.2323064
0
ARC
8
DEFAULT_255_1_234
10
6.0818894
20
137.2382037
40
0.2293034
50
179.4465117
51
196.2869258
0
ARC
8
DEFAULT_255_1_234
10
6.0331302
20
137.2248651
40
0.1787621
50
196.5661473
51
227.705904
0
ARC
8
DEFAULT_255_1_234
10
6.0495397
20
137.2432155
40
0.2033784
50
227.7652068
51
257.8762805
0
ARC
8
DEFAULT_255_1_234
10
6.0720367
20
137.3375156
40
0.3003081
50
257.4584385
51
270.426602
0
ARC
8
DEFAULT_255_1_234
10
6.0765934
20
137.3664996
40
0.329292
50
269.5962073
51
280.8789248
0
ARC
8
DEFAULT_255_1_234
10
6.0995462
20
137.2518685
40
0.2123908
50
280.6346389
51
299.8595945
0
ARC
8
DEFAULT_255_1_234
10
6.1186369
20
137.2156212
40
0.171457
50
300.3576302
51
314.5517981
0
ARC
8
DEFAULT_255_1_234
10
6.1103429
20
137.2216919
40
0.1816095
50
315.0728369
51
345.0431014
0
ARC
8
DEFAULT_255_1_234
10
6.0180244
20
137.2485841
40
0.2777492
50
344.5986631
51
357.9269593
0
ARC
8
DEFAULT_255_1_234
10
5.928457
20
137.2547276
40
0.3674917
50
357.4748886
51
0.0231117
0
ARC
8
DEFAULT_255_1_234
10
6.0307679
20
137.2571679
40
0.2651907
50
359.5047933
51
13.4239635
0
ARC
8
DEFAULT_255_1_234
10
6.1174323
20
137.2793478
40
0.1757509
50
12.9498199
51
48.7551375
0
ARC
8
DEFAULT_255_1_234
10
6.0992057
20
137.25444
40
0.2065134
50
49.5088623
51
72.1836453
0
ARC
8
DEFAULT_255_1_234
10
6.0634209
20
137.1482291
40
0.3185836
50
71.9010081
51
84.3554254
0
ARC
8
DEFAULT_255_1_234
10
6.0472841
20
137.0121326
40
0.4556151
50
84.0193428
51
89.333121
0
LINE
8
DEFAULT_255_1_234
10
4.742285
20
142.8662391
11
4.742285
21
142.7401408
0
LINE
8
DEFAULT_255_1_234
10
4.742285
20
142.7401408
11
4.2515458
21
142.7401408
0
LINE
8
DEFAULT_255_1_234
10
4.2515458
20
142.7401408
11
4.2515458
21
142.2237
0
LINE
8
DEFAULT_255_1_234
10
4.2515458
20
142.2237
11
4.0973364
21
142.2237
0
LINE
8
DEFAULT_255_1_234
10
4.0973364
20
142.2237
11
4.0973364
21
143.3931211
0
LINE
8
DEFAULT_255_1_234
10
4.0973364
20
143.3931211
11
4.8217992
21
143.3931211
0
LINE
8
DEFAULT_255_1_234
10
4.8217992
20
143.3931211
11
4.8217992
21
143.2662196
0
LINE
8
DEFAULT_255_1_234
10
4.8217992
20
143.2662196
11
4.2515458
21
143.2662196
0
LINE
8
DEFAULT_255_1_234
10
4.2515458
20
143.2662196
11
4.2515458
21
142.8662391
0
LINE
8
DEFAULT_255_1_234
10
4.2515458
20
142.8662391
11
4.742285
21
142.8662391
0
LINE
8
DEFAULT_255_1_234
10
5.7342046
20
142.3449792
11
5.7342046
21
142.2237
0
LINE
8
DEFAULT_255_1_234
10
5.7342046
20
142.2237
11
4.9679768
21
142.2237
0
LINE
8
DEFAULT_255_1_234
10
4.9679768
20
142.2237
11
4.9679768
21
142.3305221
0
LINE
8
DEFAULT_255_1_234
10
4.9679768
20
142.3305221
11
5.3727764
21
142.7802995
0
LINE
8
DEFAULT_255_1_234
10
5.0940751
20
143.0485595
11
4.9454879
21
143.0485595
0
LINE
8
DEFAULT_255_1_234
10
5.4603224
20
142.6847218
11
5.1470846
21
142.3449792
0
LINE
8
DEFAULT_255_1_234
10
5.1470846
20
142.3449792
11
5.7342046
21
142.3449792
0
ARC
8
DEFAULT_255_1_234
10
4.0237597
20
143.9732527
40
1.8008286
50
318.5132453
51
320.7828378
0
ARC
8
DEFAULT_255_1_234
10
4.5524572
20
143.5429426
40
1.1191493
50
320.7372736
51
323.9737074
0
ARC
8
DEFAULT_255_1_234
10
4.9444428
20
143.2589361
40
0.6350923
50
323.8961724
51
328.6421089
0
ARC
8
DEFAULT_255_1_234
10
5.1491024
20
143.1327031
40
0.3946393
50
328.8299013
51
331.789948
0
ARC
8
DEFAULT_255_1_234
10
5.2488202
20
143.0812509
40
0.2824501
50
331.4255242
51
352.9364833
0
ARC
8
DEFAULT_255_1_234
10
5.2624703
20
143.0781976
40
0.2685315
50
353.2248685
51
0.0169286
0
ARC
8
DEFAULT_255_1_234
10
5.283458
20
143.080495
40
0.2475536
50
359.4866256
51
15.9339782
0
ARC
8
DEFAULT_255_1_234
10
5.3341565
20
143.0941286
40
0.1950618
50
16.1714718
51
43.5284424
0
ARC
8
DEFAULT_255_1_234
10
5.3418873
20
143.1018573
40
0.184134
50
43.4415429
51
83.1661404
0
ARC
8
DEFAULT_255_1_234
10
5.3284792
20
143.0281771
40
0.258926
50
82.160215
51
90.1505798
0
ARC
8
DEFAULT_255_1_234
10
5.3253219
20
142.9744865
40
0.3126255
50
89.5460705
51
102.5418777
0
ARC
8
DEFAULT_255_1_234
10
5.3010305
20
143.0775665
40
0.2067346
50
102.1739365
51
129.2061916
0
ARC
8
DEFAULT_255_1_234
10
5.2931377
20
143.0900094
40
0.1921118
50
129.7279328
51
135.7542026
0
ARC
8
DEFAULT_255_1_234
10
5.3052904
20
143.0803045
40
0.2075944
50
136.175737
51
166.3674722
0
ARC
8
DEFAULT_255_1_234
10
5.4059824
20
143.0533182
40
0.3118201
50
165.9092917
51
178.8683903
0
ARC
8
DEFAULT_255_1_234
10
5.4924685
20
143.0486179
40
0.3983935
50
178.438168
51
180.0083905
0
ARC
8
DEFAULT_255_1_234
10
5.3523287
20
143.0525231
40
0.4068601
50
163.2878735
51
180.5581814
0
ARC
8
DEFAULT_255_1_234
10
5.2721548
20
143.074584
40
0.3237344
50
133.454115
51
162.9470031
0
ARC
8
DEFAULT_255_1_234
10
5.290009
20
143.0556
40
0.349795
50
100.7869394
51
133.4384016
0
ARC
8
DEFAULT_255_1_234
10
5.3247861
20
142.9007319
40
0.5084616
50
89.6605301
51
101.3704185
0
ARC
8
DEFAULT_255_1_234
10
5.33142
20
142.9068496
40
0.502348
50
78.2171172
51
90.4130393
0
ARC
8
DEFAULT_255_1_234
10
5.3669278
20
143.0692637
40
0.3361092
50
55.9268222
51
78.4888551
0
ARC
8
DEFAULT_255_1_234
10
5.3865719
20
143.1031324
40
0.2970617
50
47.9292255
51
55.4054003
0
ARC
8
DEFAULT_255_1_234
10
5.3967279
20
143.1134502
40
0.2825983
50
4.3347696
51
48.0560701
0
ARC
8
DEFAULT_255_1_234
10
5.2871673
20
143.0964601
40
0.393225
50
359.925209
51
5.5967654
0
ARC
8
DEFAULT_255_1_234
10
5.3300565
20
143.1020816
40
0.3503892
50
337.8914096
51
358.9967724
0
ARC
8
DEFAULT_255_1_234
10
5.0586977
20
143.2067706
40
0.6412172
50
326.9135351
51
338.3505194
0
ARC
8
DEFAULT_255_1_234
10
4.6601281
20
143.4622284
40
1.1146189
50
319.6472867
51
327.095818
0
ARC
8
DEFAULT_255_1_234
10
4.2768284
20
143.7784
40
1.6114559
50
317.2586784
51
319.9046139
0
LINE
8
DEFAULT_255_1_234
10
5.0004293
20
147.5153
11
4.8887881
21
147.8205061
0
LINE
8
DEFAULT_255_1_234
10
4.8887881
20
147.8205061
11
4.3988521
21
147.8205061
0
LINE
8
DEFAULT_255_1_234
10
4.3988521
20
147.8205061
11
4.2888173
21
147.5153
0
LINE
8
DEFAULT_255_1_234
10
4.2888173
20
147.5153
11
4.1297889
21
147.5153
0
LINE
8
DEFAULT_255_1_234
10
4.1297889
20
147.5153
11
4.5763535
21
148.6847211
0
LINE
8
DEFAULT_255_1_234
10
4.5763535
20
148.6847211
11
4.7112867
21
148.6847211
0
LINE
8
DEFAULT_255_1_234
10
4.7112867
20
148.6847211
11
5.1586545
21
147.5153
0
LINE
8
DEFAULT_255_1_234
10
5.1586545
20
147.5153
11
5.0004293
21
147.5153
0
LINE
8
DEFAULT_255_1_234
10
4.6438201
20
148.4943689
11
4.4454362
21
147.9474075
0
LINE
8
DEFAULT_255_1_234
10
4.4454362
20
147.9474075
11
4.8430072
21
147.9474075
0
LINE
8
DEFAULT_255_1_234
10
4.8430072
20
147.9474075
11
4.6438201
21
148.4943689
0
LINE
8
DEFAULT_255_1_234
10
5.4815304
20
148.6847211
11
5.4815304
21
147.5153
0
LINE
8
DEFAULT_255_1_234
10
5.4815304
20
147.5153
11
5.327321
21
147.5153
0
LINE
8
DEFAULT_255_1_234
10
5.327321
20
147.5153
11
5.327321
21
148.6847211
0
LINE
8
DEFAULT_255_1_234
10
5.327321
20
148.6847211
11
5.4815304
21
148.6847211
0
LINE
8
DEFAULT_255_1_234
10
6.4911199
20
147.6365792
11
6.4911199
21
147.5153
0
LINE
8
DEFAULT_255_1_234
10
6.4911199
20
147.5153
11
5.7248921
21
147.5153
0
LINE
8
DEFAULT_255_1_234
10
5.7248921
20
147.5153
11
5.7248921
21
147.6221221
0
LINE
8
DEFAULT_255_1_234
10
5.7248921
20
147.6221221
11
6.1296917
21
148.0718995
0
LINE
8
DEFAULT_255_1_234
10
5.8509904
20
148.3401595
11
5.7024032
21
148.3401595
0
LINE
8
DEFAULT_255_1_234
10
6.2172376
20
147.9763218
11
5.9039999
21
147.6365792
0
LINE
8
DEFAULT_255_1_234
10
5.9039999
20
147.6365792
11
6.4911199
21
147.6365792
0
ARC
8
DEFAULT_255_1_234
10
4.780675
20
149.2648527
40
1.8008286
50
318.5132453
51
320.7828378
0
ARC
8
DEFAULT_255_1_234
10
5.3093725
20
148.8345426
40
1.1191493
50
320.7372736
51
323.9737074
0
ARC
8
DEFAULT_255_1_234
10
5.7013581
20
148.5505361
40
0.6350923
50
323.8961724
51
328.6421089
0
ARC
8
DEFAULT_255_1_234
10
5.9060177
20
148.4243031
40
0.3946393
50
328.8299013
51
331.789948
0
ARC
8
DEFAULT_255_1_234
10
6.0057355
20
148.3728509
40
0.2824501
50
331.4255242
51
352.9364833
0
ARC
8
DEFAULT_255_1_234
10
6.0193856
20
148.3697976
40
0.2685315
50
353.2248685
51
0.0169286
0
ARC
8
DEFAULT_255_1_234
10
6.0403732
20
148.372095
40
0.2475536
50
359.4866256
51
15.9339782
0
ARC
8
DEFAULT_255_1_234
10
6.0910718
20
148.3857286
40
0.1950618
50
16.1714718
51
43.5284424
0
ARC
8
DEFAULT_255_1_234
10
6.0988026
20
148.3934573
40
0.184134
50
43.4415429
51
83.1661404
0
ARC
8
DEFAULT_255_1_234
10
6.0853945
20
148.3197771
40
0.258926
50
82.160215
51
90.1505798
0
ARC
8
DEFAULT_255_1_234
10
6.0822372
20
148.2660865
40
0.3126255
50
89.5460705
51
102.5418777
0
ARC
8
DEFAULT_255_1_234
10
6.0579458
20
148.3691665
40
0.2067346
50
102.1739365
51
129.2061916
0
ARC
8
DEFAULT_255_1_234
10
6.050053
20
148.3816094
40
0.1921118
50
129.7279328
51
135.7542026
0
ARC
8
DEFAULT_255_1_234
10
6.0622057
20
148.3719045
40
0.2075944
50
136.175737
51
166.3674722
0
ARC
8
DEFAULT_255_1_234
10
6.1628977
20
148.3449182
40
0.3118201
50
165.9092917
51
178.8683903
0
ARC
8
DEFAULT_255_1_234
10
6.2493838
20
148.3402179
40
0.3983935
50
178.438168
51
180.0083905
0
ARC
8
DEFAULT_255_1_234
10
6.109244
20
148.3441231
40
0.4068601
50
163.2878735
51
180.5581814
0
ARC
8
DEFAULT_255_1_234
10
6.0290701
20
148.366184
40
0.3237344
50
133.454115
51
162.9470031
0
ARC
8
DEFAULT_255_1_234
10
6.0469243
20
148.3472
40
0.349795
50
100.7869394
51
133.4384016
0
ARC
8
DEFAULT_255_1_234
10
6.0817014
20
148.1923319
40
0.5084616
50
89.6605301
51
101.3704185
0
ARC
8
DEFAULT_255_1_234
10
6.0883353
20
148.1984496
40
0.502348
50
78.2171172
51
90.4130393
0
ARC
8
DEFAULT_255_1_234
10
6.1238431
20
148.3608637
40
0.3361092
50
55.9268222
51
78.4888551
0
ARC
8
DEFAULT_255_1_234
10
6.1434872
20
148.3947324
40
0.2970617
50
47.9292255
51
55.4054003
0
ARC
8
DEFAULT_255_1_234
10
6.1536432
20
148.4050502
40
0.2825983
50
4.3347696
51
48.0560701
0
ARC
8
DEFAULT_255_1_234
10
6.0440826
20
148.3880601
40
0.393225
50
359.925209
51
5.5967654
0
ARC
8
DEFAULT_255_1_234
10
6.0869718
20
148.3936816
40
0.3503892
50
337.8914096
51
358.9967724
0
ARC
8
DEFAULT_255_1_234
10
5.815613
20
148.4983706
40
0.6412172
50
326.9135351
51
338.3505194
0
ARC
8
DEFAULT_255_1_234
10
5.4170433
20
148.7538284
40
1.1146189
50
319.6472867
51
327.095818
0
ARC
8
DEFAULT_255_1_234
10
5.0337437
20
149.07
40
1.6114559
50
317.2586784
51
319.9046139
0
LINE
8
DEFAULT_255_1_234
10
4.733185
20
153.4495391
11
4.733185
21
153.3234408
0
LINE
8
DEFAULT_255_1_234
10
4.733185
20
153.3234408
11
4.2424458
21
153.3234408
0
LINE
8
DEFAULT_255_1_234
10
4.2424458
20
153.3234408
11
4.2424458
21
152.807
0
LINE
8
DEFAULT_255_1_234
10
4.2424458
20
152.807
11
4.0882364
21
152.807
0
LINE
8
DEFAULT_255_1_234
10
4.0882364
20
152.807
11
4.0882364
21
153.9764211
0
LINE
8
DEFAULT_255_1_234
10
4.0882364
20
153.9764211
11
4.8126992
21
153.9764211
0
LINE
8
DEFAULT_255_1_234
10
4.8126992
20
153.9764211
11
4.8126992
21
153.8495196
0
LINE
8
DEFAULT_255_1_234
10
4.8126992
20
153.8495196
11
4.2424458
21
153.8495196
0
LINE
8
DEFAULT_255_1_234
10
4.2424458
20
153.8495196
11
4.2424458
21
153.4495391
0
LINE
8
DEFAULT_255_1_234
10
4.2424458
20
153.4495391
11
4.733185
21
153.4495391
0
LINE
8
DEFAULT_255_1_234
10
5.4472065
20
153.9820433
11
5.4472065
21
152.807
0
LINE
8
DEFAULT_255_1_234
10
5.4472065
20
152.807
11
5.2978162
21
152.807
0
LINE
8
DEFAULT_255_1_234
10
5.2978162
20
152.807
11
5.2978162
21
153.7973133
0
LINE
8
DEFAULT_255_1_234
10
5.2978162
20
153.7973133
11
4.9982323
21
153.6872785
0
LINE
8
DEFAULT_255_1_234
10
4.9982323
20
153.6872785
11
4.9982323
21
153.8222117
0
LINE
8
DEFAULT_255_1_234
10
4.9982323
20
153.8222117
11
5.4239145
21
153.9820433
0
LINE
8
DEFAULT_255_1_234
10
5.4239145
20
153.9820433
11
5.4472065
21
153.9820433
0
LINE
8
DEFAULT_255_1_234
10
4.9928293
20
158.0987
11
4.8811881
21
158.4039061
0
LINE
8
DEFAULT_255_1_234
10
4.8811881
20
158.4039061
11
4.3912521
21
158.4039061
0
LINE
8
DEFAULT_255_1_234
10
4.3912521
20
158.4039061
11
4.2812173
21
158.0987
0
LINE
8
DEFAULT_255_1_234
10
4.2812173
20
158.0987
11
4.1221889
21
158.0987
0
LINE
8
DEFAULT_255_1_234
10
4.1221889
20
158.0987
11
4.5687535
21
159.2681211
0
LINE
8
DEFAULT_255_1_234
10
4.5687535
20
159.2681211
11
4.7036867
21
159.2681211
0
LINE
8
DEFAULT_255_1_234
10
4.7036867
20
159.2681211
11
5.1510545
21
158.0987
0
LINE
8
DEFAULT_255_1_234
10
5.1510545
20
158.0987
11
4.9928293
21
158.0987
0
LINE
8
DEFAULT_255_1_234
10
4.6362201
20
159.0777689
11
4.4378362
21
158.5308075
0
LINE
8
DEFAULT_255_1_234
10
4.4378362
20
158.5308075
11
4.8354072
21
158.5308075
0
LINE
8
DEFAULT_255_1_234
10
4.8354072
20
158.5308075
11
4.6362201
21
159.0777689
0
LINE
8
DEFAULT_255_1_234
10
5.4739304
20
159.2681211
11
5.4739304
21
158.0987
0
LINE
8
DEFAULT_255_1_234
10
5.4739304
20
158.0987
11
5.319721
21
158.0987
0
LINE
8
DEFAULT_255_1_234
10
5.319721
20
158.0987
11
5.319721
21
159.2681211
0
LINE
8
DEFAULT_255_1_234
10
5.319721
20
159.2681211
11
5.4739304
21
159.2681211
0
LINE
8
DEFAULT_255_1_234
10
6.2056218
20
159.2737433
11
6.2056218
21
158.0987
0
LINE
8
DEFAULT_255_1_234
10
6.2056218
20
158.0987
11
6.0562314
21
158.0987
0
LINE
8
DEFAULT_255_1_234
10
6.0562314
20
158.0987
11
6.0562314
21
159.0890133
0
LINE
8
DEFAULT_255_1_234
10
6.0562314
20
159.0890133
11
5.7566476
21
158.9789785
0
LINE
8
DEFAULT_255_1_234
10
5.7566476
20
158.9789785
11
5.7566476
21
159.1139117
0
LINE
8
DEFAULT_255_1_234
10
5.7566476
20
159.1139117
11
6.1823297
21
159.2737433
0
LINE
8
DEFAULT_255_1_234
10
6.1823297
20
159.2737433
11
6.2056218
21
159.2737433
0
LINE
8
DEFAULT_255_1_234
10
4.742285
20
164.0328391
11
4.742285
21
163.9067408
0
LINE
8
DEFAULT_255_1_234
10
4.742285
20
163.9067408
11
4.2515458
21
163.9067408
0
LINE
8
DEFAULT_255_1_234
10
4.2515458
20
163.9067408
11
4.2515458
21
163.3903
0
LINE
8
DEFAULT_255_1_234
10
4.2515458
20
163.3903
11
4.0973364
21
163.3903
0
LINE
8
DEFAULT_255_1_234
10
4.0973364
20
163.3903
11
4.0973364
21
164.5597211
0
LINE
8
DEFAULT_255_1_234
10
4.0973364
20
164.5597211
11
4.8217992
21
164.5597211
0
LINE
8
DEFAULT_255_1_234
10
4.8217992
20
164.5597211
11
4.8217992
21
164.4328196
0
LINE
8
DEFAULT_255_1_234
10
4.8217992
20
164.4328196
11
4.2515458
21
164.4328196
0
LINE
8
DEFAULT_255_1_234
10
4.2515458
20
164.4328196
11
4.2515458
21
164.0328391
0
LINE
8
DEFAULT_255_1_234
10
4.2515458
20
164.0328391
11
4.742285
21
164.0328391
0
LINE
8
DEFAULT_255_1_234
10
5.7012745
20
164.0818327
11
5.7012745
21
163.8890709
0
LINE
8
DEFAULT_255_1_234
10
4.9631578
20
163.8689916
11
4.9631578
21
164.0673755
0
LINE
8
DEFAULT_255_1_234
10
5.5526874
20
163.8489123
11
5.5526874
21
164.0922739
0
LINE
8
DEFAULT_255_1_234
10
5.1117449
20
164.1035184
11
5.1117449
21
163.8657789
0
ARC
8
DEFAULT_255_1_234
10
4.4765635
20
163.8841805
40
1.2247208
50
353.8441951
51
0.2287902
0
ARC
8
DEFAULT_255_1_234
10
4.9405138
20
163.8323806
40
0.7578929
50
344.4934747
51
353.9765454
0
ARC
8
DEFAULT_255_1_234
10
5.2397729
20
163.7472981
40
0.4467846
50
329.2803592
51
344.7472793
0
ARC
8
DEFAULT_255_1_234
10
5.3390553
20
163.6928018
40
0.3336173
50
324.9352394
51
328.6160465
0
ARC
8
DEFAULT_255_1_234
10
5.3767662
20
163.6664427
40
0.2876076
50
280.580143
51
324.9173126
0
ARC
8
DEFAULT_255_1_234
10
5.3366455
20
163.8335099
40
0.4592847
50
269.5977311
51
281.6734359
0
ARC
8
DEFAULT_255_1_234
10
5.329436
20
163.8215173
40
0.4472986
50
256.6228859
51
270.51044
0
ARC
8
DEFAULT_255_1_234
10
5.2892338
20
163.6666877
40
0.2873874
50
215.8618325
51
257.2788573
0
ARC
8
DEFAULT_255_1_234
10
5.391337
20
163.7351977
40
0.4102928
50
197.9693508
51
215.2623606
0
ARC
8
DEFAULT_255_1_234
10
5.6398485
20
163.8190709
40
0.6725652
50
187.8816417
51
198.2346507
0
ARC
8
DEFAULT_255_1_234
10
6.0356694
20
163.8762079
40
1.0724845
50
180.8976217
51
188.0055519
0
ARC
8
DEFAULT_255_1_234
10
6.3156882
20
163.8865777
40
1.3526448
50
180.7449369
51
181.1510016
0
ARC
8
DEFAULT_255_1_234
10
6.1579611
20
164.0722042
40
1.1948131
50
173.7675579
51
180.231553
0
ARC
8
DEFAULT_255_1_234
10
5.7061757
20
164.1232666
40
0.7401564
50
164.3058563
51
173.9002247
0
ARC
8
DEFAULT_255_1_234
10
5.4149826
20
164.2071656
40
0.4371288
50
148.7922025
51
164.568378
0
ARC
8
DEFAULT_255_1_234
10
5.3198278
20
164.2602929
40
0.3282386
50
144.5883898
51
148.1176286
0
ARC
8
DEFAULT_255_1_234
10
5.2855176
20
164.2842315
40
0.2864044
50
101.6440918
51
144.514236
0
ARC
8
DEFAULT_255_1_234
10
5.3280243
20
164.1153069
40
0.4604934
50
89.5284041
51
102.5819763
0
ARC
8
DEFAULT_255_1_234
10
5.3359331
20
164.1114018
40
0.464401
50
77.0437873
51
90.5081339
0
ARC
8
DEFAULT_255_1_234
10
5.3761333
20
164.2756615
40
0.2953195
50
48.2778575
51
77.4994676
0
ARC
8
DEFAULT_255_1_234
10
5.3833964
20
164.2885746
40
0.2808655
50
36.3142134
51
47.6305865
0
ARC
8
DEFAULT_255_1_234
10
5.2965271
20
164.2300515
40
0.3855453
50
18.2931786
51
35.6769206
0
ARC
8
DEFAULT_255_1_234
10
5.042203
20
164.1427593
40
0.654423
50
8.024666
51
18.5605216
0
ARC
8
DEFAULT_255_1_234
10
4.625895
20
164.0812792
40
1.0752407
50
1.1274072
51
8.1718305
0
ARC
8
DEFAULT_255_1_234
10
4.302314
20
164.0685885
40
1.3990231
50
0.5424119
51
1.3863029
0
ARC
8
DEFAULT_255_1_234
10
4.4844518
20
164.0958342
40
1.0682415
50
359.8090433
51
4.9407866
0
ARC
8
DEFAULT_255_1_234
10
4.9054532
20
164.1334113
40
0.6455691
50
4.8362157
51
12.2904523
0
ARC
8
DEFAULT_255_1_234
10
5.1809647
20
164.1947965
40
0.3633074
50
12.0805627
51
23.8173984
0
ARC
8
DEFAULT_255_1_234
10
5.2983352
20
164.2444919
40
0.2358723
50
24.2871213
51
31.3935614
0
ARC
8
DEFAULT_255_1_234
10
5.3508049
20
164.2788233
40
0.1732111
50
30.7407893
51
82.4657128
0
ARC
8
DEFAULT_255_1_234
10
5.3328184
20
164.1904691
40
0.263235
50
81.1060089
51
90.2184952
0
ARC
8
DEFAULT_255_1_234
10
5.3292483
20
164.2162924
40
0.2374236
50
89.3806855
51
105.6762551
0
ARC
8
DEFAULT_255_1_234
10
5.3109113
20
164.2829567
40
0.1682847
50
105.7981136
51
149.7388061
0
ARC
8
DEFAULT_255_1_234
10
5.4173192
20
164.218995
40
0.2924306
50
149.4208916
51
163.6286378
0
ARC
8
DEFAULT_255_1_234
10
5.626408
20
164.155225
40
0.5110213
50
163.3763315
51
172.1410975
0
ARC
8
DEFAULT_255_1_234
10
5.9564799
20
164.1079518
40
0.8444586
50
172.0259487
51
178.0703232
0
ARC
8
DEFAULT_255_1_234
10
6.2594888
20
164.0935906
40
1.1477868
50
177.8631668
51
179.5044149
0
ARC
8
DEFAULT_255_1_234
10
6.1522293
20
163.8621389
40
1.0404907
50
179.7995573
51
185.2460446
0
ARC
8
DEFAULT_255_1_234
10
5.7479332
20
163.8238513
40
0.6343885
50
185.1411642
51
193.0079639
0
ARC
8
DEFAULT_255_1_234
10
5.4835804
20
163.7613641
40
0.3627568
50
192.7897626
51
205.2507664
0
ARC
8
DEFAULT_255_1_234
10
5.3789351
20
163.7146415
40
0.2481908
50
205.8005384
51
211.2537509
0
ARC
8
DEFAULT_255_1_234
10
5.3265792
20
163.679558
40
0.1852521
50
210.3789793
51
238.4008143
0
ARC
8
DEFAULT_255_1_234
10
5.3246314
20
163.6842376
40
0.1882621
50
239.6520629
51
265.9793761
0
ARC
8
DEFAULT_255_1_234
10
5.3331514
20
163.7514427
40
0.2559272
50
265.1315437
51
270.060332
0
ARC
8
DEFAULT_255_1_234
10
5.3360293
20
163.7190534
40
0.2235528
50
269.3314664
51
287.2178029
0
ARC
8
DEFAULT_255_1_234
10
5.3498145
20
163.6687279
40
0.1714108
50
287.7958004
51
329.080874
0
ARC
8
DEFAULT_255_1_234
10
5.2540602
20
163.728493
40
0.2842745
50
328.6634704
51
343.3325132
0
ARC
8
DEFAULT_255_1_234
10
5.0367622
20
163.7961863
40
0.5118644
50
343.0499468
51
351.9393422
0
ARC
8
DEFAULT_255_1_234
10
4.6900922
20
163.8472949
40
0.8622784
50
351.8069023
51
357.7959224
0
ARC
8
DEFAULT_255_1_234
10
4.3665478
20
163.8640721
40
1.1862365
50
357.5871873
51
359.2677531
0
LINE
8
DEFAULT_255_1_234
10
5.0004293
20
168.682
11
4.8887881
21
168.9872061
0
LINE
8
DEFAULT_255_1_234
10
4.8887881
20
168.9872061
11
4.3988521
21
168.9872061
0
LINE
8
DEFAULT_255_1_234
10
4.3988521
20
168.9872061
11
4.2888173
21
168.682
0
LINE
8
DEFAULT_255_1_234
10
4.2888173
20
168.682
11
4.1297889
21
168.682
0
LINE
8
DEFAULT_255_1_234
10
4.1297889
20
168.682
11
4.5763535
21
169.8514211
0
LINE
8
DEFAULT_255_1_234
10
4.5763535
20
169.8514211
11
4.7112867
21
169.8514211
0
LINE
8
DEFAULT_255_1_234
10
4.7112867
20
169.8514211
11
5.1586545
21
168.682
0
LINE
8
DEFAULT_255_1_234
10
5.1586545
20
168.682
11
5.0004293
21
168.682
0
LINE
8
DEFAULT_255_1_234
10
4.6438201
20
169.6610689
11
4.4454362
21
169.1141075
0
LINE
8
DEFAULT_255_1_234
10
4.4454362
20
169.1141075
11
4.8430072
21
169.1141075
0
LINE
8
DEFAULT_255_1_234
10
4.8430072
20
169.1141075
11
4.6438201
21
169.6610689
0
LINE
8
DEFAULT_255_1_234
10
5.4815304
20
169.8514211
11
5.4815304
21
168.682
0
LINE
8
DEFAULT_255_1_234
10
5.4815304
20
168.682
11
5.327321
21
168.682
0
LINE
8
DEFAULT_255_1_234
10
5.327321
20
168.682
11
5.327321
21
169.8514211
0
LINE
8
DEFAULT_255_1_234
10
5.327321
20
169.8514211
11
5.4815304
21
169.8514211
0
LINE
8
DEFAULT_255_1_234
10
6.4581898
20
169.3735327
11
6.4581898
21
169.1807709
0
LINE
8
DEFAULT_255_1_234
10
5.720073
20
169.1606916
11
5.720073
21
169.3590755
0
LINE
8
DEFAULT_255_1_234
10
6.3096026
20
169.1406123
11
6.3096026
21
169.3839739
0
LINE
8
DEFAULT_255_1_234
10
5.8686602
20
169.3952184
11
5.8686602
21
169.1574789
0
ARC
8
DEFAULT_255_1_234
10
5.2334788
20
169.1758805
40
1.2247208
50
353.8441951
51
0.2287902
0
ARC
8
DEFAULT_255_1_234
10
5.6974291
20
169.1240806
40
0.7578929
50
344.4934747
51
353.9765454
0
ARC
8
DEFAULT_255_1_234
10
5.9966881
20
169.0389981
40
0.4467846
50
329.2803592
51
344.7472793
0
ARC
8
DEFAULT_255_1_234
10
6.0959706
20
168.9845018
40
0.3336173
50
324.9352394
51
328.6160465
0
ARC
8
DEFAULT_255_1_234
10
6.1336815
20
168.9581427
40
0.2876076
50
280.580143
51
324.9173126
0
ARC
8
DEFAULT_255_1_234
10
6.0935608
20
169.1252099
40
0.4592847
50
269.5977311
51
281.6734359
0
ARC
8
DEFAULT_255_1_234
10
6.0863513
20
169.1132173
40
0.4472986
50
256.6228859
51
270.51044
0
ARC
8
DEFAULT_255_1_234
10
6.0461491
20
168.9583877
40
0.2873874
50
215.8618325
51
257.2788573
0
ARC
8
DEFAULT_255_1_234
10
6.1482523
20
169.0268977
40
0.4102928
50
197.9693508
51
215.2623606
0
ARC
8
DEFAULT_255_1_234
10
6.3967638
20
169.1107709
40
0.6725652
50
187.8816417
51
198.2346507
0
ARC
8
DEFAULT_255_1_234
10
6.7925846
20
169.1679079
40
1.0724845
50
180.8976217
51
188.0055519
0
ARC
8
DEFAULT_255_1_234
10
7.0726035
20
169.1782777
40
1.3526448
50
180.7449369
51
181.1510016
0
ARC
8
DEFAULT_255_1_234
10
6.9148764
20
169.3639042
40
1.1948131
50
173.7675579
51
180.231553
0
ARC
8
DEFAULT_255_1_234
10
6.463091
20
169.4149666
40
0.7401564
50
164.3058563
51
173.9002247
0
ARC
8
DEFAULT_255_1_234
10
6.1718979
20
169.4988656
40
0.4371288
50
148.7922025
51
164.568378
0
ARC
8
DEFAULT_255_1_234
10
6.0767431
20
169.5519929
40
0.3282386
50
144.5883898
51
148.1176286
0
ARC
8
DEFAULT_255_1_234
10
6.0424329
20
169.5759315
40
0.2864044
50
101.6440918
51
144.514236
0
ARC
8
DEFAULT_255_1_234
10
6.0849396
20
169.4070069
40
0.4604934
50
89.5284041
51
102.5819763
0
ARC
8
DEFAULT_255_1_234
10
6.0928484
20
169.4031018
40
0.464401
50
77.0437873
51
90.5081339
0
ARC
8
DEFAULT_255_1_234
10
6.1330485
20
169.5673615
40
0.2953195
50
48.2778575
51
77.4994676
0
ARC
8
DEFAULT_255_1_234
10
6.1403117
20
169.5802746
40
0.2808655
50
36.3142134
51
47.6305865
0
ARC
8
DEFAULT_255_1_234
10
6.0534424
20
169.5217515
40
0.3855453
50
18.2931786
51
35.6769206
0
ARC
8
DEFAULT_255_1_234
10
5.7991183
20
169.4344593
40
0.654423
50
8.024666
51
18.5605216
0
ARC
8
DEFAULT_255_1_234
10
5.3828103
20
169.3729792
40
1.0752407
50
1.1274072
51
8.1718305
0
ARC
8
DEFAULT_255_1_234
10
5.0592293
20
169.3602885
40
1.3990231
50
0.5424119
51
1.3863029
0
ARC
8
DEFAULT_255_1_234
10
5.2413671
20
169.3875342
40
1.0682415
50
359.8090433
51
4.9407866
0
ARC
8
DEFAULT_255_1_234
10
5.6623685
20
169.4251113
40
0.6455691
50
4.8362157
51
12.2904523
0
ARC
8
DEFAULT_255_1_234
10
5.93788
20
169.4864965
40
0.3633074
50
12.0805627
51
23.8173984
0
ARC
8
DEFAULT_255_1_234
10
6.0552505
20
169.5361919
40
0.2358723
50
24.2871213
51
31.3935614
0
ARC
8
DEFAULT_255_1_234
10
6.1077202
20
169.5705233
40
0.1732111
50
30.7407893
51
82.4657128
0
ARC
8
DEFAULT_255_1_234
10
6.0897337
20
169.4821691
40
0.263235
50
81.1060089
51
90.2184952
0
ARC
8
DEFAULT_255_1_234
10
6.0861636
20
169.5079924
40
0.2374236
50
89.3806855
51
105.6762551
0
ARC
8
DEFAULT_255_1_234
10
6.0678266
20
169.5746567
40
0.1682847
50
105.7981136
51
149.7388061
0
ARC
8
DEFAULT_255_1_234
10
6.1742344
20
169.510695
40
0.2924306
50
149.4208916
51
163.6286378
0
ARC
8
DEFAULT_255_1_234
10
6.3833233
20
169.446925
40
0.5110213
50
163.3763315
51
172.1410975
0
ARC
8
DEFAULT_255_1_234
10
6.7133951
20
169.3996518
40
0.8444586
50
172.0259487
51
178.0703232
0
ARC
8
DEFAULT_255_1_234
10
7.0164041
20
169.3852906
40
1.1477868
50
177.8631668
51
179.5044149
0
ARC
8
DEFAULT_255_1_234
10
6.9091445
20
169.1538389
40
1.0404907
50
179.7995573
51
185.2460446
0
ARC
8
DEFAULT_255_1_234
10
6.5048485
20
169.1155513
40
0.6343885
50
185.1411642
51
193.0079639
0
ARC
8
DEFAULT_255_1_234
10
6.2404957
20
169.0530641
40
0.3627568
50
192.7897626
51
205.2507664
0
ARC
8
DEFAULT_255_1_234
10
6.1358504
20
169.0063415
40
0.2481908
50
205.8005384
51
211.2537509
0
ARC
8
DEFAULT_255_1_234
10
6.0834945
20
168.971258
40
0.1852521
50
210.3789793
51
238.4008143
0
ARC
8
DEFAULT_255_1_234
10
6.0815467
20
168.9759376
40
0.1882621
50
239.6520629
51
265.9793761
0
ARC
8
DEFAULT_255_1_234
10
6.0900667
20
169.0431427
40
0.2559272
50
265.1315437
51
270.060332
0
ARC
8
DEFAULT_255_1_234
10
6.0929446
20
169.0107534
40
0.2235528
50
269.3314664
51
287.2178029
0
ARC
8
DEFAULT_255_1_234
10
6.1067298
20
168.9604279
40
0.1714108
50
287.7958004
51
329.080874
0
ARC
8
DEFAULT_255_1_234
10
6.0109754
20
169.020193
40
0.2842745
50
328.6634704
51
343.3325132
0
ARC
8
DEFAULT_255_1_234
10
5.7936774
20
169.0878863
40
0.5118644
50
343.0499468
51
351.9393422
0
ARC
8
DEFAULT_255_1_234
10
5.4470074
20
169.1389949
40
0.8622784
50
351.8069023
51
357.7959224
0
ARC
8
DEFAULT_255_1_234
10
5.123463
20
169.1557721
40
1.1862365
50
357.5871873
51
359.2677531
0
LINE
8
DEFAULT_255_1_234
10
23.0450364
20
175.1431211
11
23.2442235
21
175.1431211
0
LINE
8
DEFAULT_255_1_234
10
23.2442235
20
175.1431211
11
23.6265342
21
174.1889506
0
LINE
8
DEFAULT_255_1_234
10
23.6265342
20
174.1889506
11
24.008845
21
175.1431211
0
LINE
8
DEFAULT_255_1_234
10
24.008845
20
175.1431211
11
24.2088353
21
175.1431211
0
LINE
8
DEFAULT_255_1_234
10
24.2088353
20
175.1431211
11
24.2088353
21
173.9737
0
LINE
8
DEFAULT_255_1_234
10
24.2088353
20
173.9737
11
24.0546259
21
173.9737
0
LINE
8
DEFAULT_255_1_234
10
24.0546259
20
173.9737
11
24.0546259
21
174.4290996
0
LINE
8
DEFAULT_255_1_234
10
24.0546259
20
174.4290996
11
24.069083
21
174.9206419
0
LINE
8
DEFAULT_255_1_234
10
24.069083
20
174.9206419
11
23.6851659
21
173.9737
0
LINE
8
DEFAULT_255_1_234
10
23.6851659
20
173.9737
11
23.5670994
21
173.9737
0
LINE
8
DEFAULT_255_1_234
10
23.5670994
20
173.9737
11
23.1839854
21
174.9182324
0
LINE
8
DEFAULT_255_1_234
10
23.1839854
20
174.9182324
11
23.1992458
21
174.4290996
0
LINE
8
DEFAULT_255_1_234
10
23.1992458
20
174.4290996
11
23.1992458
21
173.9737
0
LINE
8
DEFAULT_255_1_234
10
23.1992458
20
173.9737
11
23.0450364
21
173.9737
0
LINE
8
DEFAULT_255_1_234
10
23.0450364
20
173.9737
11
23.0450364
21
175.1431211
0
ENDSEC
0
EOF